accordS-land.ru Аккорды и табулатуры к гитаре.
Главная | Песенник | Аккорды | Учебник
Руссике песни 180
5nizza
7Б
9-й Район
Animal ДжаZ
Billy's Band
Butch
Para Bellum
TequilaJazzz
Worms
Zdob Si Zdub
Автоматические удовлетворители
Агата Кристи
Агузарова Жанна
Агутин Леонид
Адо
Аквариум
Алиса
Алсу
Амирамов Е.
Антонов Ю.
Арефьева Ольга
Ария
АукцЫон
Барыкин
Башаков Михаил
Башлачев Александр
БекХан
Бернес М.
Би - 2
Бони неМ
Борзов Найк
Боярский Михаил
Браво
Братья Грим
Ва-Банкъ
Вертинский Александр
Визбор Юрий
Високосный год
Воскресенье
Восьмая Марта
Высоцкий В.С.
Високосный год
Газманов О.
Галич Александр
Герман А.
Городницкий Александр
Глызин А.
Градский Александр
Гражданская Оборона
Гребещенков
Данко
ДДТ
Дидюля
Диоды
Дискотека Авария
Дягилева Янка
Ёлка
Жуки
Заблудовский Андрей
Запрещенные Барабанщики
Звери
Земляне
Земфира
Зинчук Виктор
Зоопарк
Иван Кайф
Иванов А.
Иваси
ИЗ КИНО И МУЛЬТФИЛЬМОВ
Империя
Калинов мост
Кашин Павел
Кельми К.
КИНО
Кипелов
Конец Фильма
Контингент
Корни
Король и Шут
Коррозия металла
Крематорий
Крупнов Анатолий
Кузьмин Владимир
Куликов Е.
Кукрыниксы
Курехин Сергей
Лаэртский Александр
Ласковый май
Ленинград
Леонидов Максим
Лесоповал
Лещенко Л.
Линда
Лицей
Лоза Юрий
Любэ
Люмен
Ляпис Трубецкой
Мальчишник
Манго-манго
Мара
Маркин В.
Маршал Александр
Маша и медведи
Машина времени
Мечтать
Мистер Кредо
Митяев Олег
Многоточье
Монгол Шуудан
Моральный Кодекс
Мультfильмы
Мумий Тролль
Настя
Науменко Майк
Наутилус Помпилиус
Непара
Неприкасаемые
Несчастный случай
Никоваев И.
Никольский Константин
Ногу свело
Ноль
Носков Николай
Ночные Снайперы
Окуджава Булат
Оркрист
Осин Е.
Оскар
Отиева И.
Паперный Т.А.М.
Парк Горького (Gorky Park)
Пикник
Пилот
Пламя
Полковник и однополчане
Пугачева А.
ПЭХ
Приключения Электроников
Просто прикольные песни
Рада и Терновник
Римский-Корсаков
Розенбаум Александр
Рок-Острова
Рондо
Сансара
Саруханов
Сегодня Ночью
Секрет
Сектор газа
Сенчина Л.
СерьГа
Смысловые Галлюцинации
Сплин
Солодуха А.
Старые блатные песни
Сукачев Гарик
Сурганова и Оркестр
Сюткин Валерий
Тальков Игорь
Танцы минус
Тараканы
Тату
Технология
УмаТурман
Умка и Броневичок
Ундервудъ
Фабрика звезд
Х.З. (Хуй Забей)
Центр
ЧайФ
Черный кофе
Черный Лукич
Чиж и Ко
Чистяков Федор
Шанхай
Щербаков Михаил
Ю-Питер

Классика 22

Албениз Исаак
Албениз Матео
Бах Иоган Себостьян
Бетховен Людвиг ван
Бизе Жорж
Брамс Иоганнес
Вивальди Антонио
Гендель Георг Фридрих
Гершвин Джордж
Григ Эдвард
Дебюсси Клод
Камиль Сен-Санс
Мендельсон
Моцарт Вольфгант Амадей
Мусоргский Модест Пертрович
Норис Крис
Огинский Михал Клеофас
Паганини Никколо
Рахманинов Сергей Васильевич
Римский-Корсаков
Чайковский Пётр Ильич
Шуберт Франц
 

Аккорды и табулатуры.  Албениз Исаак . Все песни

Албениз Исаак

Арабская серенада
"Испанская сюита" - №1 Гранада
"Испанская сюита" - №3 Севилла
"Испанская сюита" - №5 Астурия
"Испанская сюита" - №5 Астурия (2 вариант)
Кордоба
Маллёрка (Баркаролла)
Маллёрка (Баркаролла) (2 вариант)
Вверх

Арабская серенада

Темп   : 100
Размер : 3/4

E|-0-----------------|-0-----------------|-0--------------|
B|-------------------|-------------------|----------------|
G|---4-2-0-2---------|---4-2-0-2---------|---4-2-0-2------|
D|--------------3----|--------------3----|--------------3-|
A|---------3---------|---------3---------|---------3------|
E|-0-----------------|-0-----------------|-0--------------|

E|-0-----------------|-0---2--3---2---3--5---5---3--2-|
B|-------------------|--------------------------------|
G|---4-2-0-2---------|--------------------------------|
D|--------------3----|-2----------1----------4--------|
A|---------3---------|--------------------------------|
E|-0-----------------|--------------------------------|

E|-3---2--3---0------0---2---0--2-|----------0-----0--2--1--2-|
B|-0----------1---4------1--------|-4--3--4--0--4-----1-------|
G|--------------------------------|-2-------------------------|
D|-2------------------------------|---------------------------|
A|------------3----------0--------|-2-----------------0-------|
E|--------------------------------|----------3----------------|

E|---------------------------------|-0-----------|-0-----------|
B|-0------0---5-----------4--------|-------------|-------------|
G|-0---3---------4--2--0-----2-0---|---4-2-0-2---|---4-2-0-2---|
D|-------------------------------4-|-2---------4-|-2---------4-|
A|-2----------2-----------2--------|---------3---|---------3---|
E|---------------------------------|-------------|-------------|

E|-0------------|-0------------|-0---2--3---2---3--5--5---3--2-|
B|--------------|--------------|-------------------------------|
G|---4-2-0-2----|---4-2-0-2----|-------------------------------|
D|-2----------4-|-2----------4-|-2----------1---------4--------|
A|---------3----|---------3----|-------------------------------|
E|--------------|--------------|-------------------------------|

E|-3---2--3---0------0---2--1--2-|------------0------0--2--1-2-|
B|-0----------1---4------1-------|-4---3--4---0---4-----1------|
G|-------------------------------|-2---------------------------|
D|-2-----------------------------|-----------------------------|
A|------------3----------0-------|-2--------------------0------|
E|-------------------------------|------------3----------------|

E|---------------------------------|-0-----------|-0-----------|
B|-0------0---5----------4---------|-------------|-------------|
G|-0---3---------4--2-0-----2-0----|---4-2-0-2---|---4-2-0-2---|
D|------------2------------------4-|-2---------4-|-2---------4-|
A|-2---------------------2---------|---------3---|---------3---|
E|---------------------------------|-------------|-------------|

E|-0-----------------|-0-----------------|-7---7--7---|
B|-------------------|-------------------|-8---8--8---|
G|---4-2-0-2---------|---4-2-0-----------|------------|
D|-2------------4----|-2-------7----4----|---4-5--4---|
A|---------3---------|-------------------|-7--------7-|
E|-------------------|---------8---------|------------|

E|-7---------7---------7-----------|-7---7--7---|
B|-10--------10--------10----------|-8---8--8---|
G|---------------------------------|------------|
D|--------------------------5------|-----5------|
A|-9-------------------9-------9---|-7-9----9-7-|
E|-----------7---------------------|------------|

E|-7------7-----7--------|-7---7---7-|-10------8-|-7-----------|
B|-10-----10----10-------|-8---8---8-|------7----|-----8---8---|
G|-----------------------|-----------|---------7-|-0-6-7-------|
D|------------------5----|-----5-7-9-|-0--5-6----|-------8-9---|
A|-9------------9------9-|-7-9-------|-----------|-----------9-|
E|--------7--------------|-----------|-----------|-------------|

E|-----3---3---|-8---0--0---|-8----------|-7----------|
B|-8-----------|------------|-----6--6---|------------|
G|-------------|------------|------------|-----8--8---|
D|-5-----------|-5-7-8--7-5-|-3-5-7--5-3-|-4-5-7--5-4-|
A|-----5-------|------------|------------|------------|
E|---9---7-5-3-|------------|------------|------------|

E|-7---0--0---|---0--------|
B|------------|-4---7--7-5-|
G|------------|-4---4--4---|
D|---4-5--4---|-4----------|
A|-7--------7-|---7-6--6-7-|
E|------------|------------|

E|------0---|------------------|-----------------|-7---7--7---|
B|-4--4---7-|------7-5----4----|------5-4--------|-8---8--8---|
G|-4--4---4-|-6--8--------3--6-|-4--5--------5-4-|------------|
D|-4--4-----|-8--4---6----4----|-7------4------7-|---4-5--4---|
A|------7-6-|-7--------------7-|-6--7--------7-6-|-7--------7-|
E|----------|------------------|-7---------------|------------|

E|-7---------7---------7---------|-7---7--7---|
B|-10--------10--------10--------|-8---8--8---|
G|-------------------------------|------------|
D|--------------------------5----|-----5------|
A|-9-------------------9-------9-|-7-9----9-7-|
E|-----------7-------------------|------------|

E|-7------7-----7--------|-7---7---7-|-10------8-|-7-----------|
B|-10-----10----10-------|-8---8---8-|------7----|-----8---8---|
G|-----------------------|-----------|---------7-|-0-6-7-------|
D|------------------5----|-----5-7-9-|----6-7----|-------8-9---|
A|-9------------9------9-|-7-9-------|-7---------|-----------9-|
E|--------7--------------|-----------|-----------|-------------|

E|-----3---3---|-8---0--0---|-8----------|-7----------|
B|-8-----------|------------|-----6--6---|------------|
G|-------------|------------|------------|-----8--8---|
D|-5-----------|-5-7-8--7-5-|-3-5-7--5-3-|-4-5-7--5-4-|
A|-----5-------|------------|------------|------------|
E|---9---7-5-3-|------------|------------|------------|

E|-7---0--0---|-----5--5---|
B|------------|-7-8-5--5-8-|
G|------------|-5-0-5--5-0-|
D|---4-5--4---|-7---4--4---|
A|-7--------7-|------------|
E|------------|------------|

E|--------5-|-----5------|-5-----0-|-------------|-2-----------|
B|-7--7-8-5-|-7-8-5--7-8-|-5-7-8-0-|-7-----------|-------------|
G|-5--5-0-5-|-5-0-5--5---|-5-8---0-|---4-2-0-2---|---4-2-0-2---|
D|-7--7---4-|-7---4--7---|-4-7-----|-----------4-|-----------4-|
A|----------|------------|-------7-|-------------|-2-----------|
E|----------|------------|---7-----|-7-----------|-------------|

E|-2-----------|-2-----------|-----2-2---|------2-|-----2------|
B|-------------|-------------|-4-5-0-0---|-4-4--0-|-4-5-0--4-5-|
G|---4-2-0-2---|---4-2-0-2---|-4---------|-4-4----|-4------4---|
D|-----------4-|-----------4-|-4-2-1-1-2-|-4-4--1-|-4-2-1--4-2-|
A|-2-----------|-2-----------|-2---------|-2------|-2----------|
E|-------------|-------------|-----------|--------|------------|

E|-2------2-|-4-----------|-4-----------|-4--------------|
B|-0--4-5-0-|---5-3-1-3-0-|---5-3-1-3-0-|---3-1-0-3----0-|
G|----4-----|-------------|-------------|----------------|
D|-1--4-2-1-|-------------|-------------|----------------|
A|-2--------|-------------|-------------|----------------|
E|----------|-0-----------|-0-----------|-0--------------|

E|-4--------------|-5-7-8--8-7-|-5-5-7-8-|-5-7-8-5-7-|-8-5-7-8-|
B|---3-1-0-3----0-|-5-0-5--5-0-|-5-5-0-5-|-5-0-5-5-0-|-5-5-0-5-|
G|----------------|-5----------|-5-5-----|-5-----5---|---5-----|
D|----------------|-----7--7---|-------7-|-----7-----|-7-----7-|
A|----------------|------------|---------|-----------|---------|
E|-0--------------|------------|---------|-----------|---------|

E|-7---5--3---5--------2-|-0--------------|
B|-----------------------|----------------|
G|------------5----------|---4-2-0-2------|
D|-5---------------------|--------------4-|
A|-----------------------|---------3------|
E|-----------------------|-2--------------|

E|-7---5--3---5----2-|-0--------------|--------7-8-|-7--------|
B|-------------------|----------------|-0---0--4---|-4--0-----|
G|------------5------|---4-2-0-2------|---5----4---|-4----5-4-|
D|-5-----------------|--------------4-|-----2------|----------|
A|-------------------|----------------|-6----------|----6---6-|
E|-------------------|-2--------------|-7---7------|----7---7-|

E|-------------7-10-8-|-7--------------|-7---5--3---5--------2-|
B|-0-----------5------|-0----0---------|-----------------------|
G|-0-7-5--4-----------|-8------7-------|------------5----------|
D|-------------9------|----------10--9-|-----------------------|
A|-7------6-----------|------6-------6-|-9---------------------|
E|-7------7-----------|------7-------7-|-----------------------|

E|-0-----------------|-7---5--3---5--------2-|-0--------------|
B|-------------------|-----------------------|----------------|
G|---4-2-0-2---------|------------5----------|---4-2-0-2------|
D|--------------4----|-4---------------------|--------------4-|
A|---------3---------|-----------------------|---------3------|
E|-2-----------------|-----------------------|-2--------------|

E|-------------|-------------|-7--8-8-7-7--8-|
B|-------0-0---|-------0-0---|-10-5-5---10-5-|
G|-4-5-5---2-5-|-4-5-5---2-5-|-8------8-8----|
D|-7-2-2-------|-7-2-2-----2-|-9--------9----|
A|-6-----6-6-7-|-6-----6-6---|---------------|
E|-7-------7---|-7-------7---|---------------|

E|-7------------|-7---7--7---|
B|-10-0---------|-8---8--8---|
G|-8----5-6-7-8-|------------|
D|-9--------0---|-----5------|
A|------------6-|-7-9----9-7-|
E|----7-8-9-----|------------|

E|-7---------7---------7-----------|-7---7--7---|
B|-10--------10--------10----------|-8---8--8---|
G|---------------------------------|------------|
D|--------------------------5------|-----5------|
A|-9-------------------9-------9---|-7-9----9-7-|
E|-----------7---------------------|------------|

E|-7---7---7-------|-7---7---7--|-10------8--|-7-----------|
B|-10--10--10------|-8---8---8--|------7-----|-----8---8---|
G|-----------------|------------|---------7--|-0-6-7-------|
D|------------5----|-----5-7-9--|-0--6-7-----|-------8-9---|
A|-9-------9-----9-|-7-9--------|------------|-----------9-|
E|-----7-----------|------------|------------|-------------|

E|-----3---3---|-8---0--0---|-8----------|
B|-8-----------|------------|-----6--6---|
G|-------------|------------|------------|
D|-5-----------|-5-7-8--7-5-|-3-5-7--5-3-|
A|-----5-------|------------|------------|
E|---9---7-5-3-|------------|------------|

E|-7----------|-7---0--0---|---0--------|
B|------------|------------|-4---7--7-5-|
G|-----8--7---|------------|-4---4--4---|
D|-4-5-7--5-4-|---4-5--4---|-4----------|
A|------------|-7--------7-|---7-6--6-7-|
E|------------|------------|------------|

E|------0---|------------------|------------------|-7---7--7---|
B|-4--4---7-|------7-5----4----|------5-4---------|-8---8--8---|
G|-4--4---4-|-6--8--------3--6-|-4--5--------5--4-|------------|
D|-4--4-----|-8--4---6----4----|-7------4-------7-|---4-5--4---|
A|------7-6-|-7--------------7-|-6--7--------7--6-|-7--------7-|
E|----------|------------------|-7----------------|------------|

E|-7---------7---------7-----------|-7---7--7---|
B|-10--------10--------10----------|-8---8--8---|
G|---------------------------------|------------|
D|--------------------------5------|-----5------|
A|-9-------------------9-------9---|-7-9----9-7-|
E|-----------7---------------------|------------|

E|-7------7----7-------|-7---7---7--|-10------8--|-7-----------|
B|-10-----10---10------|-8---8---8--|------7-----|-----8---8---|
G|---------------------|------------|---------7--|-0-6-7-------|
D|----------------5----|-----5-7-9--|-0--6-7-----|-------8-9---|
A|-9-----------9-----9-|-7-9--------|------------|-----------9-|
E|--------7------------|------------|------------|-------------|

E|-----3---3---|-8---0--0---|-8----------|
B|-8-----------|------------|-----6--6---|
G|-------------|------------|------------|
D|-5-----------|-5-7-8--7-5-|-3-5-7--5-3-|
A|-----5-------|------------|------------|
E|---9---7-5-3-|------------|------------|

E|-7----------|-7---0--0---|-----5--7---|
B|------------|------------|-7-8-5--5-8-|
G|-----8--8---|------------|-5-0-5--5-0-|
D|-4-5-7--5-4-|---4-5--4---|-7---4--4---|
A|------------|-7--------7-|------------|
E|------------|------------|------------|

E|--------5--|-5-7-8--8-7-|-5--5-7-8--|
B|-7--7-8-5--|-7-0-7--7-0-|-7--8-0-7--|
G|-5--5-0-5--|-5---9--9---|-5--5---9--|
D|-7--7---4--|-----7--7---|--------7--|
A|-----------|------------|-----------|
E|-----------|------------|-----------|

E|-------------|-5---8-7-14-12-|
B|-0-------7-5-|-0-8-5---0-----|
G|-0-5-5-4-4---|---------0-----|
D|-----5---5---|---------------|
A|-7---7-------|---------------|
E|-7---7---7---|-7---7---------|

E|-0-15-12-------0-|-7------------|
B|-0-------12------|-7-10---0-----|
G|------------12---|-8----7-------|
D|------14---------|-9------------|
A|---------14-10-7-|-9--------9---|
E|-----------------|-7----------7-|

E|-0----7-11-9----|-0-------------|
B|-9-10-0----9-12-|-9-10-12--9-10-|
G|------9----9----|------9---9----|
D|-9---------9----|-9----9---9----|
A|----------------|---------------|
E|-0--------------|-0-------------|

E|------7--------|----------7----7------|
B|-12-------12-0-|-12-------------------|
G|--------8------|----------------------|
D|----7-9---11---|-------7--9--------7--|
A|-11------------|----11---------11-----|
E|-0-------------|-0--------------------|

E|-0----7-11-9----|-0-------------|
B|-9-10-0----9-12-|-9-10-12--9-10-|
G|------9----9----|------9---9----|
D|-9---------9----|-9----9---9----|
A|----------------|---------------|
E|-0--------------|-0-------------|

E|------7--------|----------7----7------|
B|-12-------12-0-|-12-------------------|
G|--------8------|----------------------|
D|----7-9---11---|-------7--9--------7--|
A|-11------------|----11---------11-----|
E|-0-------------|-0--------------------|

E|-------9-11-16-14-|----------------|
B|-10-12-0----0-----|-14-16-12-------|
G|-8-----8----------|-14-------------|
D|-9----------------|-13----13----13-|
A|------------------|----------11-12-|
E|-0----------------|-0-----14-------|

E|-------0-----14-12-|-0-----0-------|
B|-------12-16-0-----|-14-16-12---5--|
G|-13-14-------------|-13----13------|
D|-14----------------|------------6--|
A|-14----14----------|----------9----|
E|-0-----16----------|-0-----12------|

E|---0-2-4-5-4-|-2-------2---|
B|-4---0---0---|-0-5-4-5-0-4-|
G|-4-----------|-----4-------|
D|-4-----2-2-2-|---2-4-2---4-|
A|---7-6-------|-6-------6---|
E|-2-----------|-------------|

E|-------------------|------------|
B|-2--4-7-5----2--4--|-0-2-4--2-0-|
G|-3-----------3-----|-----2--2---|
D|-2--4---6----2--4--|-7-2-4--2---|
A|-------------------|-6--------6-|
E|-2-----------------|-7----------|

E|-4----7-11-9-7-|-0----7--0----|
B|-5-10-5----9---|-9-10-0--9-10-|
G|-4---------9---|------9-------|
D|------9----9---|-9-------9----|
A|---------------|--------------|
E|-0-------------|-0------------|

E|-7------7-----7-----|-7------7----7-----|
B|--------------------|-------------------|
G|-----------8--6-----|-------------------|
D|---6-7--9--------9--|---6-7--9----6--7--|
A|--------------------|-------------------|
E|-0------------------|-0-----------------|

E|-0----7-11-9-7-|-0----7--0----|
B|-9-10-0----9---|-9-10-0--9-10-|
G|------9----9---|------9-------|
D|-9---------9---|-9-------9----|
A|---------------|--------------|
E|-0-------------|-0------------|

E|-7------7-----7-----|-7------7----7-----|
B|--------------------|-------------------|
G|-----------8--6-----|-------------------|
D|---6-7--9--------9--|---6-7--9----6-----|
A|--------------------|----------------7--|
E|-0------------------|-0-----------------|

E|-8-10-12-15-13-12-|-8-10-8--------|
B|------------------|---------------|
G|-0----------0-----|-0--------7----|
D|------10----------|------10----10-|
A|------------------|---------------|
E|-6----------------|-6-------------|

E|--------8------|-8-------------------|
B|-6-8-10---10-8-|-6--8--6-------------|
G|---------------|---------------------|
D|-7---10---10---|---------7-10-----7--|
A|-0-------------|-0-----0-------8-----|
E|----------8----|---------------------|

E|-0----------7--0------|-7------7-0----|
B|---------9-----10--9--|---10-9---10-9-|
G|-----11--9--8--6------|-8----9-8-6----|
D|---6-7---9---------9--|---11-9------9-|
A|----------------------|---------------|
E|-7--------------------|-7-------------|

E|------7-------------|-0-----------|
B|-7--9---10----7--9--|-0-----------|
G|-8--7---8-----8-----|-------------|
D|-7------9-----7--9--|-6-7-6-------|
A|----8---9-----------|-7-----9-7---|
E|-7------------------|-----------7-|

E|-------------|-0---6--11-6-|-7-9-6-7------|
B|-0---7--11-9-|-7-9---------|---------9-11-|
G|-8-9-8--8----|-----9--9----|-8---8---8----|
D|-----9--9----|-8-----------|--------------|
A|-----9--9----|-----9--9----|-----9---9----|
E|-7-----------|-7-----------|-7------------|

E|-6-7-0-6-0--|-------------|-0---6--11----|
B|-----9---7--|-0---7--11-9-|-7-9-------10-|
G|-8----------|-8-9-8--8----|-----9--9-----|
D|---------8--|-----9--9----|-8------------|
A|-9-------9--|-----9--9----|-----9--9-----|
E|------------|-7-----------|-7------------|

E|-7-9-6-7------|-6-7-0-6-0-|
B|---------9-11-|-----9---7-|
G|-8---8---8----|-8---------|
D|--------------|---------8-|
A|-----9---9----|-9-------9-|
E|-7------------|-----------|

E|-7---0--6---|-7---0--6---|-7-9-------0-|
B|-0-7-9----7-|-0-7-9----7-|-0---7--10---|
G|-8------9---|-8------9---|---6---------|
D|-----8--8---|-----8--8---|--------7----|
A|------------|------------|-----9-----7-|
E|-7---7--7---|-7---7--7---|-------------|

E|------------|-0----7-11-9-7-|
B|-9---7----0-|-9-10-0----0---|
G|---8----6---|------9----9---|
D|-6----------|-9-------------|
A|---6-9------|---------------|
E|--------9-7-|-0-------------|

E|-0----7--0----|-7---7---7---|-7---7--7---|
B|-9-10-0--9-10-|-------------|------------|
G|------9-------|-------8-6---|------------|
D|-9-------9----|---7-9-----9-|-6-7-9--6-7-|
A|--------------|-------------|------------|
E|-0------------|-0-----------|-0----------|

E|-0----7-11-9-7-|-0----7--0----|
B|-9-10-0----9---|-9-10-0--9-10-|
G|------9----9---|------9-------|
D|-9---------9---|-9-------9----|
A|---------------|--------------|
E|-0-------------|-0------------|

E|-7------7-----7-----|-7---7--7---|
B|--------------------|------------|
G|-----------8--6-----|------------|
D|---6-7--9--------9--|-6-7-9--6---|
A|--------------------|----------7-|
E|-0------------------|-0----------|

E|-8-10-12-15-13-12-|-8-10-8-------|
B|------------------|--------------|
G|-0----------0-----|-0-------7----|
D|------10----------|------10---10-|
A|------------------|--------------|
E|-6----------------|-6------------|

E|--------8------|-8------------|
B|-6-8-10---10-8-|-6-8-6--------|
G|---------------|--------------|
D|-7---10---10---|-----7-10---7-|
A|-0-------------|-----0----8---|
E|----------8----|-8------------|

E|-0---------7--8-|-7--12-8--10-7-8--|
B|-0-0--8-10------|-------10----8----|
G|-0-11---8--9--9-|-9--9-----7--0----|
D|------9-------7-|-------7-------10-|
A|---7--7-9--10---|-10-11----9-------|
E|-7--------------|---------------12-|

E|----7--0-0-0--0--|-7--7--7--|-7---7---7---|
B|-10-0--8-9-10-11-|-8--8--7--|-8---8---8---|
G|-11--------------|-9--9--8--|-------------|
D|---------0-11-10-|----------|-------------|
A|-9-----7---------|----------|-7-9-10--9-7-|
E|----11-----9--8--|-7--7--7--|-------------|

E|-7---------7---------7----------|
B|-10--------10--------10---------|
G|--------------------------------|
D|--------------------------------|
A|-9-------------------9----10--9-|
E|-----------7--------------------|

E|-7---7---7---|-7---------7---------7------------|
B|-8---8---8---|-10--------10--------10-----------|
G|-------------|----------------------------------|
D|-------------|----------------------------------|
A|-7-9-10--9-7-|-9-------------------9----10--9---|
E|-------------|-----------7----------------------|

E|-7---7----7--|-10-------8-|
B|-8---8----8--|-------7----|
G|-------------|----------7-|
D|--------7-9--|-0-----7----|
A|-7-9-10------|----11------|
E|-------------|------------|

E|-7-------------|------3---3---|-8---0--0---|
B|------8----8---|-8------------|------------|
G|-0-------------|--------------|------------|
D|---11-12-8-9---|--------------|-5-7-8--7-5-|
A|-------------9-|-10-4-5-------|------------|
E|---------------|--------7-5-3-|------------|

E|-8----------|-7----------|
B|-----6--6---|------------|
G|------------|-----8--8---|
D|-3-5-7--5-3-|-4-5-7--5-4-|
A|------------|------------|
E|------------|------------|

E|-7---0-0---|---0-------|-----0---|
B|-----------|-4---7-7-5-|-4-4---7-|
G|-----------|-4---4-4---|-4-4---4-|
D|---4-5-4---|-4---------|-4-4-----|
A|-7-------7-|---7-6-6-7-|-----7-6-|
E|-----------|-----------|---------|

E|---------------|------------------|
B|-----7-5--4----|------5-4---------|
G|-6-8------3--6-|-4--5--------5--4-|
D|-8-4---6--4----|-7------4-------7-|
A|-7-----------7-|-6--7--------7--6-|
E|---------------|-7----------------|

E|-7---7--7---|-7---------7---------7-----------|-7---7--7---|
B|-8---8--8---|-10--------10--------10----------|-8---8--8---|
G|------------|---------------------------------|------------|
D|---4-5--4---|--------------------------5------|-----5------|
A|-7--------7-|-9-------------------9-------9---|-7-9----9---|
E|------------|-----------7---------------------|----------7-|

E|-7-----7-----7--------|-7---7---7-|-10------8--|-7-----------|
B|-10----10----10-------|-8---8---8-|------7-----|-----8---8---|
G|----------------------|-----------|---------7--|-0-6-7-------|
D|-----------------5----|-----5-7-9-|-0--6-7-----|-------8-9---|
A|-9-----------9------9-|-7-9-------|------------|-----------9-|
E|-------7--------------|-----------|------------|-------------|

E|-----3---3---|-----5--5---|--------5--|-5-7-8--8-7-|
B|-8-----------|-7-8-5--5-8-|-7--7-8-5--|-7-0-7--7-0-|
G|-------------|-5-0-5--5-0-|-5--5-0-5--|-5---9--9---|
D|-5-----------|-7---4--4---|-7--7---4--|-----7--7---|
A|-----5-------|------------|-----------|------------|
E|---9---7-5-3-|------------|-----------|------------|

E|-5--5-7-8--|-------------|
B|-7--7-0-7--|-0-------7-5-|
G|-5--5---9--|-0-5-5-4-0---|
D|--------7--|-----5-------|
A|-----------|-7---7---7---|
E|-----------|-7---7---7---|

E|-5---8-7-14-12-|-0-15-12------0-|----------|-7---7---7---|
B|-0-8-5---0-----|-0-------12-8---|-8-----7--|-8---8---8---|
G|---------------|------------0---|-8-----7--|-------------|
D|---------------|------14--------|-7--9--7--|-------------|
A|---------------|---------14---7-|-------9--|-7-9-10--9-7-|
E|-7---7---------|----------------|-7--------|-------------|

E|-7---------7---------7------------|-7---7---7---|
B|-10--------10--------10-----------|-8---8---8---|
G|----------------------------------|-------------|
D|----------------------------------|-------------|
A|-9-------------------9----10--9---|-7-9-10--9-7-|
E|-----------7----------------------|-------------|

E|-7---------7---------7----------|-0-------0--------0---------|
B|-10--------10--------10---------|-0-------0--------0---------|
G|--------------------------------|-0-------0--------0---------|
D|--------------------------------|----------------------------|
A|-9-------------------9----10--9-|-7--------------------------|
E|-----------7--------------------|------------------8---10--8-|

E|-0--------0--------0-----------|-0--------0--------0---------|
B|-0--------0--------0-----------|-0--------0--------0---------|
G|-0--------0--------0-----------|-0--------0--------0---------|
D|-------------------------------|-----------------------------|
A|-------------------9---10--9---|-7---------------------------|
E|-7-----------------------------|-------------------8---10--8-|

E|-0--------0--------0--------|-0-|-0----|--------|--------|---|
B|-0--------0--------0--------|-0-|-0----|-4------|-4------|-4-|
G|-0--------0--------0--------|-0-|-0----|-0------|--------|---|
D|----------------------------|---|------|--------|-4------|-5-|
A|----------------------------|---|-3----|-2------|-3------|---|
E|-7-----------------2---3--2-|-0-|------|--------|--------|-3-|

E|--------|--------|--------|-----------0-|-4-7-12-16-0-0-|-12-|
B|--------|-4------|--------|---------0---|---------------|-0--|
G|--------|--------|--------|-------1-----|---------------|-12-|
D|-----4--|-5------|-4------|-----2-------|---------------|-14-|
A|--------|-2------|--------|---2---------|---------------|-10-|
E|--------|--------|--------|-0-----------|---------------|-0--|

Вверх

"Испанская сюита" - №1 Гранада

Обозначения:

   p - пулл
   h - хаммер
   s - слайд
==== - тянуть

E|--7-------7-------7-------|-7-------7-------7-------|
B|--9-------9-------9-------|-9-------9-------9-------|
G|--9-----------------------|-----8---6-------6---8---|
D|--9-----------------------|-------------9-----------|
A|--7-----------------------|-------------------------|
E|--0-----------------------|-------------------------|

E|--7--------7-------7------|-7-------7-------7-------|
B|--9--------9-------9------|-9-------9-------9-------|
G|--6-h8-p6-----------------|------------------------o|
D|-----------9==============|========================o|
A|--------------------------|-------------------------|
E|--0-----------------------|-------------------------|

E|--------------------------|-5-----------------------|
B|--4-------4-------4-------|-4---------------7-------|
G|--4-------4-------4---4---|-6----------s8-------8---|
D|--4---6---7-------7-------|-------------------------|
A|--------------------------|-------------------------|
E|--0-----------------------|-------------------------|

E|--------------------7-----|--7--------7--------7----|
B|-------------------10-----|-10-------10-------10----|
G|--6-h8-p6-----------8-----|--8--------8--------8----|
D|-----------9==============|=========================|
A|--------------------------|-------------------------|
E|--------------------------|-------------------------|

E|--------------------------|-5-----------------------|
B|--4-------4-------4-------|-4-----------9---7-------|
G|--4-------4-------4---4---|-6-------8-----------8---|
D|--4---6---7-------7-------|-------------------------|
A|--------------------------|-------------------------|
E|--0-----------------------|-------------------------|

E|--------------------7-----|--7--------7--------7----|
B|-------------------10-----|-10-------10-------10----|
G|--6-h8-p6-----------8-----|--8--------8--------8----|
D|-----------9==============|=========================|
A|--------------------------|-------------------------|
E|--------------------------|-------------------------|

E|--7-------7-------7-------|-7-------7-------7-------|
B|--9-------9-------9-------|-9-------9-------9-------|
G|--9-----------------------|-----8---6-------6---8---|
D|--9-----------------------|-------------9-----------|
A|--7-----------------------|-------------------------|
E|--0-----------------------|-------------------------|

E|--7--------7-------7------|-7-------7-------7-------|
B|--9--------9-------9------|-9-------9-------9-------|
G|--6-h8-p6-----------------|-------------------------|
D|-----------9==============|=========================|
A|--------------------------|-------------------------|
E|--0-----------------------|-------------------------|

E|---7-------7-------7------|-7--------7-------7------|
B|---8-------8-------8------|-8--------8-------8------|
G|---7----------------------|-----11---9---7---9---11-|
D|---9----------------------|-------------------------|
A|--10----------------------|-------------------------|
E|--------------------------|-------------------------|

E|--7---------7-------7-----|-7-------7-------7-------|
B|--8---------8-------8-----|-8-------8-------8-------|
G|--9-h11-p9--7=============|=========================|
D|--------------------------|-------------------------|
A|--------------------------|-------------------------|
E|--------------------------|-------------------------|

E|------------------5-------|-------------------------|
B|--4-------4-------4-------|-------------------------|
G|--4-------4-------4---6---|-s11---------------8-----|
D|--4---6---7---------------|-------------------------|
A|--------------------------|-------------------------|
E|--0-----------------------|-------------------------|

E|--7--------7-------7------|--9--------9--------9----|
B|--9--------9-------9------|--9--------9--------9----|
G|--6-h8-p6-----------------|-10-------10-------10----|
D|-----------9--------------|-------------------11----|
A|--------------------------|----------11-------------|
E|--0-----------------------|--9----------------------|

E|--5-------5-------5-------|-5--------5--------------|
B|------4---5-------2-------|-2-h4-p2--0--------------|
G|--6-----------------------|-------------------------|
D|--4-------------------4---|-------------------------|
A|--------------------------|-2----------------2------|
E|--------------------------|-------------------------|

E|--4---2---0===============|=========================|
B|--0-------0-------0-------|-0-------0-------0-------|
G|----------1-------1-------|-1-------1-------1-------|
D|--------------------------|-------------------------|
A|--------------------------|-------------------------|
E|--0-----------------------|-------------------------|

E|--------------------------|-------------------------|
B|--9---7---5===============|=========================|
G|--5-------5-------5-------|-5-------5-------5-------|
D|----------6-------6-------|-6-------6-------6-------|
A|--------------------------|-------------------------|
E|--0-----------------------|-------------------------|

E|--4---2---0===============|=========================|
B|--0-------0-------0-------|-0-------0-------0-------|
G|----------1-------1-------|-1-------1-------1-------|
D|--------------------------|-------------------------|
A|--------------------------|-------------------------|
E|--0-----------------------|-------------------------|

E|--------------------------|-------------------------|
B|--9---7---5===============|=========================|
G|--5-------5-------5-------|-5-------5-------5-------|
D|----------6-------6-------|-6-------6-------6-------|
A|--------------------------|-------------------------|
E|--0-----------------------|-------------------------|

E|--4---2---0===============|=================--------||
B|--0-------0-------0-------|-0-----------------------||
G|----------1-------1-------|-1-----------------------||
D|--------------------------|-------------------------||
A|--------------------------|-----------------2-------||
E|--0-----------------------|-------------------------||


Meno mosso

E|--------------------------|---------2---------------|
B|------------------0-------|-1-----------------------|
G|------------------0-------|-2-----------------------|
D|--------------------------|-------------------------|
A|----------2---------------|-------------------------|
E|--0-----------------------|-------------------------|

E|--------------------------|---------2---------------|
B|------------------0-------|-1-----------------------|
G|------------------0-------|-2-----------------------|
D|--------------------------|-------------------------|
A|----------2---------------|-------------------------|
E|--0-----------------------|-------------------------|

E|--0-----------------------|-------------------------|
B|--------------------------|-4---------------0-------|
G|------------------0-------|-4-----------------------|
D|--------------------------|-7-----------------------|
A|----------2---------------|-------------------------|
E|--0-----------------------|-------------------------|

E|--7-----------------------|-----2---3---5---3h5p3---2---|
B|----------0---------------|---------4-------------------|
G|------------------0-------|-2---------------------------|
D|--------------------------|-----------------------------|
A|--------------------------|-2---------------------------|
E|--0-----------------------|-----------------------------|

E|--7---0---2---3---2h3p2---0---|-------------------------|
B|----------0-----------0-------|-4-----------0---4-------|
G|----------------------0-------|-2---4---3-----------5---|
D|------------------------------|-------------------------|
A|------------------------------|-2-----------------------|
E|--0---------------------------|-------------------------|

E|------------------------------|-------------------------|
B|--0===========================|=========================|
G|------------------------------|-------------------------|
D|------2---4---5---4h5p4---2---|-1-----------------------|
A|------------------------------|-----3---2---0-----------|
E|--0---------------------------|-----------------3---2---|

E|--0-----------------------|-------------------------|
B|--------------------------|-4---------------0-------|
G|------------------0-------|-4-----------------------|
D|--------------------------|-7-----------------------|
A|----------2---------------|-------------------------|
E|--0-----------------------|-------------------------|

E|--7-----------------------|-----2---4---5---4h5p4---2---|
B|----------0---------------|---------4-------------------|
G|--------------------------|-2---------------------------|
D|------------------6-------|-----------------------------|
A|--------------------------|-2---------------------------|
E|--0-----------------------|-----------------------------|

E|--7---0---2---4---2h4p2---0---|-5---------------4-------|
B|----------0-----------0-------|-4---2---4---------------|
G|----------------------1-------|-------------4---2---4---|
D|------------------------------|-------------------------|
A|------------------------------|-2-----------------------|
E|--0---------------------------|-------------------------|

E|--0=======================|=========================||
B|------------------0-------|-------------------------||
G|--1---------------1-------|-------------------------||
D|--------------------------|-2-----------------------||
A|----------2---------------|-------------------------||
E|--0-----------------------|-------------------------||

E|--0-----------------------|-------------------------|
B|--1-----------------------|-3-----------------------|
G|--0---------------0-------|-1---------------1-------|
D|----------2---------------|-----------------3-------|
A|--3=======================|=========================|
E|--------------------------|-------------------------|

E|--3-----------------------|-----1---3--h4---3h4p3-------|
B|--1-----------------------|-------------------------6---|
G|--0---------------0-------|-1---------------------------|
D|--2-------2---------------|-3---------------------------|
A|--3=======================|=====------------------------|
E|--------------------------|-----------------------------|

E|----------3-----------3---|-1h3p1---0-------0---1-------|
B|--5--h6-------6---5-------|-------------3-----------3---|
G|--------------------------|-----------------------------|
D|--------------------------|-----------------------------|
A|--------------------------|-----------------------------|
E|--------------------------|-----------------------------|

E|--0-----------------------|-----------------------------|
B|------------------1-------|-----------------------------|
G|--------------0-----------|-----3---1h3p1---0---1---3---|
D|--------------2-----------|-----------------------------|
A|--3-----------------------|-----------------------------|
E|--------------------------|-----------------------------|

E|--0-----------------------|-------------------------|
B|--1-----------------------|-3-----------------------|
G|--0---------------0-------|-1---------------1-------|
D|----------2---------------|-----------------3-------|
A|--3=======================|=========================|
E|--------------------------|-------------------------|

E|--3-----------------------|-----------------6--h8---|
B|--1-----------------------|-----6---8--h9-----------|
G|--0---------------0-------|-1-----------------------|
D|--2-------2---------------|-3-----------------------|
A|--3=======================|=====--------------------|
E|--------------------------|-------------------------|

E|--6h8p6-----------------------|-----------------------------|
B|----------9---8---6---8--h9---|-6h8p6---------------6---8---|
G|------------------------------|---------9---7--h9-----------|
D|------------------------------|-----------------------------|
A|------------------------------|-----------------------------|
E|------------------------------|-----------------------------|

E|--0-------0-------0-------|-0-------0-------0-------|
B|--1-------1-------1-------|-1-------1-------1-------|
G|--0-----------------------|-----4---2---0---2---4---|
D|--2-----------------------|-------------------------|
A|--3-----------------------|-------------------------|
E|--------------------------|-------------------------|

E|--0--------0-------0-------|-0-------0-------0-------|
B|--1--------1-------1-------|-1-------1-------1-------|
G|--2-h4-p2--0===============|=========================|
D|---------------------------|-------------------------|
A|---------------------------|-------------------------|
E|---------------------------|-------------------------|

E|--0-------0-------0-------|-0-------0-------0-------|
B|--1-------1-------1-------|-1-------1-------1-------|
G|--0-----------------------|-------------------------|
D|--2-----------------------|-------------------------|
A|--3-----------------------|-----2---0-------0---2---|
E|--------------------------|-------------3-----------|

E|--0--------0-------0-------|-0-------0-------0-------|
B|--1--------1-------1-------|-1-------1-------1-------|
G|---------------------------|-------------------------|
D|---------------------------|-------------------------|
A|--0-h2-p0------------------|-------------------------|
E|-----------3===============|=========================|

E|--0--------0-------0-------|-0-------0-------0-------|
B|---------------------------|-------------------------|
G|--5-h7-p5--5-------5-------|-5-------5-------5-------|
D|-----------4===============|=========================|
A|--0------------------------|-------------------------|
E|---------------------------|-------------------------|

E|---------------------------|-------------------------||
B|--5--------5-------5-------|-4-------4-------4-------||
G|--2-h4-p2--2-------2-------|-2-------2-------2-------||
D|-----------4---------------|-4-------4-------4-------||
A|--2------------------------|-2-----------------------||
E|---------------------------|-------------------------||

E|--0-----------------------|-------------------------|
B|--------------------------|-4---------------0-------|
G|------------------0-------|-4-----------------------|
D|--------------------------|-7-----------------------|
A|----------2---------------|-------------------------|
E|--0-----------------------|-------------------------|

E|--7-----------------------|-----2---3---5---3h5p3---2---|
B|----------0---------------|---------4-------------------|
G|------------------0-------|-2---------------------------|
D|--------------------------|-----------------------------|
A|--------------------------|-2---------------------------|
E|--0-----------------------|-----------------------------|

E|--7---0---2---3---2h3p2---0---|-------------------------|
B|----------0-----------0-------|-4-----------0---4-------|
G|----------------------0-------|-2---4---3-----------5---|
D|------------------------------|-------------------------|
A|------------------------------|-2-----------------------|
E|--0---------------------------|-------------------------|

E|------------------------------|-------------------------|
B|--0===========================|=========================|
G|------------------------------|-------------------------|
D|------2---4---5---4h5p4---2---|-1-----------------------|
A|------------------------------|-----3---2---0-----------|
E|--0---------------------------|-----------------3---2---|

E|--0-----------------------|-------------------------|
B|--------------------------|-4---------------0-------|
G|------------------0-------|-4-----------------------|
D|--------------------------|-7-----------------------|
A|----------2---------------|-------------------------|
E|--0-----------------------|-------------------------|

E|--7-----------------------|-----2---4---5---4h5p4---2---|
B|----------0---------------|---------4-------------------|
G|--------------------------|-2---------------------------|
D|------------------6-------|-----------------------------|
A|--------------------------|-2---------------------------|
E|--0-----------------------|-----------------------------|

E|--7---0---2---4---2h4p2---0---|-5---------------4-------|
B|----------0-----------0-------|-4---2---4---------------|
G|----------------------1-------|-------------4---2---4---|
D|------------------------------|-------------------------|
A|------------------------------|-2-----------------------|
E|--0---------------------------|-------------------------|

E|--0=======================|=========================|
B|------------------0-------|-------------------------|
G|--1---------------1-------|-------------------------|
D|--------------------------|-2-----------------------|
A|----------2---------------|-------------------------|
E|--0-----------------------|-------------------------|

E||---4---2---0===============|=========================|
B||---1----------------------=|---------1---------------|
G||o--------------------------|-1-----------------------|
D||o------------------2-------|-------------------------|
A||-----------3---------------|-------------------------|
E||---0-----------------------|-------------------------|

E|--4---2---0===============|-0========================||
B|--0-----------------------|---------0----------------||
G|--------------------------|-1-----------------------o||
D|------------------2-------|-------------------------o||
A|----------2---------------|--------------------------||
E|--0-----------------------|--------------------------||

E|--0-----------------------|-------------------------|
B|--1---3---1---------------|-5---3-------------------|
G|--0-----------------------|-5-------5---------------|
D|--2-----------------------|-4-----------------------|
A|--3=======================|-0=======================|
E|--------------------------|-------------------------|

E|--------------------------|---------0---------------|
B|------------------4=======|=====----1---------------|
G|------------------4=======|=====2---0-------0---2---|
D|----------4---------------|-------------4-----------|
A|--2-----------------------|-------------------------|
E|--------------------------|-------------------------|

E|--------------------------|---------0---------------|
B|------------------4=======|=====----1---------------|
G|------------------4=======|=====2---0-------0---2---|
D|----------4---------------|-------------4-----------|
A|--2-----------------------|-------------------------|
E|--------------------------|-------------------------|

E|--------------------------|-------------------------|
B|--------------------------|-------------------------|
G|--------------------------|-----------------2--h5---|
D|--------------------------|---------2--h4-----------|
A|--2---------------0---3---|-2-----------------------|
E|----------0--h2-----------|-------------------------|

E|---------------5---8-|-7----------------------||-------------|
B|-------5--h7---------|-----7---10-------9-----||-------------|
G|--4------------------|-8--------6---8---------||-------------|
D|---------------------|-9----------------7---9-||--D.C.-al-%--|
A|---------------------|------------------------||-------------|
E|---------------------|------------------7-----||-------------|

E|--------------------------|-0-----------0---4---7---|
B|----------------------0---|---------0---------------|
G|------1-----------1-------|-----1-------------------|
D|------2-------2-----------|-------------------------|
A|----------2---------------|-------------------------|
E|--0-----------------------|-------------------------|

E|--<12>----------------------|-------------------------||
B|----------------------------|-9-----------------------||
G|----------------------------|-9-----------------------||
D|----------------------------|-9-----------------------||
A|----------------------------|-------------------------||
E|----------------------------|-0-----------------------||

Вверх

"Испанская сюита" - №3 Севилла

h  = хаммер
p  = пулл
/  = слайд вверх
  = слайд вниз
^  = флажолет
--3-- = триоль

строй: DGDGBE

 |--1---------2---------3---------|--1-----------2-----------3-|
 1                                        %
E|--7-----7-----7-----7-----8-----8----|-----------------------|
B|--8-----8-p7--------------------7----|-----------------------|
G|--7----------10-----9-p8--7--------7-|--повторить 1----------|
D|--------------------------7----------|-----------------------|
G|--0-----------------7-----------7----|-----------------------|
D|-------------------------------------|-----------------------|

 3                                 ----3---
E|-15----------------14----10-|-12-12h14p12-10--------8--------|
B|--0----------------10-------|--0--------------------7-----10-|
G|-----12h14-12--12-----------|---------------------------7----|
D|--0----------------10-------|-----------------^12---7--------|
G|--0-----------------0-------|--0--------------------0--------|
D|-----------------------0----|--------------------------------|

 5
E|--7-h8h10--------------------------|---------------3-p0-2----|
B|-----------------------------------|-0--3-h5--3-h5-3----3----|
G|------------------4-h7--5-h7--5-h7-|-0--4-----4----4----5----|
D|------------0-----------0-----0----|----0-----0----0----0----|
G|--0---------------------0----------|-0------------------0----|
D|-----------------------------------|-----------------------0-|

 7
E|---------------|
B|---------------|
G|--повторить 3--|  повторить 4
D|---------------|
G|---------------|
D|---------------|

 9
E|-----------------------|--------------------3-p0--2-----0----|
B|-----------------------|--0-----3-h5--3-h5--3-----3--------3-|
G|--повторить 5----------|--0-----4-----4-----4-----5----------|
D|-----------------------|--------0-----0-----0-----0----------|
G|-----------------------|--0-----------------------0----------|
D|-----------------------|-------------------------------------|

11
E|-3----------------1--------|---------------------------------|
B|-------3-h4--3--3--------1-|-3-----3-h4--6-----------4-----1-|
G|-------3-----------2-------|-------------------------2-------|
D|-------5--------------3----|-3-----------------3-------------|
G|-0-------------------------|-3-------------------------------|
D|-------------------3-------|-------------------------3-------|

13
E|-----------------3--5-p3-------------|
B|--3-h4--3--4--6-----------6-p4--3----|
G|-----------------------------------5-|  повторить 13
D|--3-----------------------3----------|
G|--3----------------------------------|
D|-------------------------------------|

15
E|-------------------------|-----------------------------------|
B|--3--------------3--3-p1-|--0---------------1-/3--4-----6-p4-|
G|-------------------------|------0-h1--0-----------0-----2----|
D|--3--3-h5--3--3--4-------|--3--------------------------------|
G|--3--------------2-------|--0---------------------5----------|
D|-------------------------|-----------------------------------|

17
E|--------------------------5-h7-|-----7-----7---7-----8--8----|
B|--3--------3--/12h13-12---7----|--8--8-p7---------------7----|
G|--4--4-h5-----------------5----|--7-------10---9-p8--7-----7-|
D|--0----------------------------|--9------------------7-------|
G|-------------------------------|--0------------7--------7----|
D|----------------------0--------|-----------------------------|

19
E|-----------------------|--7----------------------------------|
B|-----------------------|--8-----------0-----------0----------|
G|--повторить 1----------|--7-----------0-----5-h8--7-----4-h6-|
D|-----------------------|--------0-h4-------------------------|
G|-----------------------|--0----------------------------------|
D|-----------------------|-------------------------------------|

21
E|-3--------7-------10----|-15---15----15----15----15----15----|
B|-3--3-h7--8--8h11--0----|-12---12p11-12----12p11-12----12p11-|
G|------------------------|--0----------0-----------0----------|
D|----------------------0-|------------------------------------|
G|------------------------|------------------------------------|
D|------------------------|------------------------------------|

23                      @
E|-----------------------|--15---------------------------------|
B|-----------------------|--12---------------------------------|
G|--повторить 22---------|---0---------------------------------|
D|-----------------------|-------------------------------------|
G|-----------------------|--------0--0--0--0--0--0--0--0--0--0-|
D|-----------------------|-------------------------------------|

25
E|----------------------------|-11-----------------10----------|
B|----------------------------|--8------------------9-------11-|
G|----------------------------|--8-----------------------------|
D|----------------------------|-----8h10--8---8-----------8----|
G|--0---0--0--0---0--0--0---0-|--8------------------8----------|
D|----------------------------|--------------------------------|

27     ---3--
E|--8--8h10p8------------------|-------------------------------|
B|--8----------11------9-----6-|--8--9-11----------------------|
G|---------------------7-------|--------------0-h3--1-h3--1-h3-|
D|-----------------8-----------|--8----------------------------|
G|--8--------------------------|--8-----------------3----------|
D|---------------------8-------|-------------------------------|

29
E|-------------------------------------|
B|-----------1-----1--4-p1--3----------|
G|--0-----3-----3-----------1----------|  повторить 26
D|-------------------------------------|
G|--------------------------3-----3/(8)|
D|--1----------------------------------|

31     ---3--
E|--8--8h10p8------------------|-------------------------------|
B|--8----------11-------10---8-|--7--8-10----------------------|
G|-----------------------------|--7--------------2-----2-----2-|
D|------------------8---11-----|--7-----------4-----5-----5----|
G|--8--------------------8-----|--------------------2----------|
D|-----------------------------|--0----------------------------|

33
E|----------------------------|-10------------------9----------|
B|-----------------3-p0--2----|--7------------------8-------10-|
G|-----2-h4--2-h4--2-----2----|--7-----------------------------|
D|--4--4-----4-----4-----5----|-----7-h9--7---7-----------7----|
G|--------------------------2-|---------------------7----------|
D|--0-------------------------|--0-----------------------------|

35      --3--
E|--7---7h9p7--------------------------|
B|--7----------10-----------8--------5-|
G|--------------------------6----------|  повторить 32
D|--------------------7----------------|
G|-------------------------------------|
D|--0-----------------------7----------|

37
E|-----------------------|-10-----------------------9----------|
B|-----------------------|--7-----------------------8-------10-|
G|--повторить 33---------|--7-----------------------6----------|
D|-----------------------|--------7--8--7-----7----------------|
G|-----------------------|--------------------------8----------|
D|-----------------------|--0----------------------------------|

39
E|--5------------10---9--5-|--5--------------10-----8----------|
B|--7-----------------8----|--7---------------------8----------|
G|------2-h3--2---7---6----|------2-h3--2-----7----------------|
D|-------------------------|-----------------------10--------7-|
G|--------------------8----|------------------------8----------|
D|--0----------------------|--0--------------------------------|

41
E|------------------------------------|
B|------------------------------------|
G|----------10----10------------------|
D|-10-12-13----13----13-12-10-12-10-8-|
G|------------------------------------|
D|------------------------------------|

42
E|----------------------------|
B|----------------------------|
G|--------7----7------------0-|
D|-7-8-10---10---10-8-7-8-7---|
A|----------------------------|
E|----------------------------|

43
E|-------------------------------------|------2--5--10--11-----|
B|-------------------------------------|------3--3---7---8---5-|
G|-----0--2--3--5--3--2--0-----0-------|------2--2---7---8---3-|
D|--4-----------------------3-----3--1-|--0------4---0-------4-|
G|-------------------------------------|--7------------------6-|
D|-------------------------------------|--0-------------11-----|

45
E|-----2---5---10---11-----|--2---2-----2-----2-----3-----3----|
B|--3--3---7----7----8---5-|--3---3-p2--------------------2----|
G|--2--2---7----7----8---3-|--2---------5-----4--3--2----------|
D|--4------7----0--------5-|------------------------2--------2-|
G|--------11-------------6-|------------------5-----------5----|
D|--0---------------11-----|--0--------------------------------|

47
E|-2--2-----2--2-----3--3----|-2-------------------------------|
B|-3--3--2--------------2----|-3-------------------------------|
G|-2--------5--4--3--2-----2-|-2-------------------------------|
D|-------------------2-------|----0--0--0--0--0--0--0--0--0--0-|
G|-------------2--------2----|---------------------------------|
D|-0-------------------------|---------------------------------|

49                                            D.C. al % hasta @
E|-10--10-10-10--10-10-10--10-10-|-15--7-----7--7-----8---8----|
B|--7---------7---------7--------|--0--8-p7-----9-p8------7----|
G|-------------------------------|--0-------10--------7------7-|
D|-10--------10--------10--------|--0-----------------7--------|
G|-------------------------------|--0-----------7---------7----|
D|--0---------0---------0--------|-----------------------------|

51
E|-12-------------------------------|--------------------------|
B|-12-------------------------------|--------------------------|
G|--0--0--0--0--0--0--0--0--0--0--0-|--0--0--0--0--0--0--0--0--|
D|-----5--5--5--5--5--5--5--5--5--5-|--5--5--5--5--5--5--5--5--|
G|-----0--0--0--0--0--0--0--0--0--0-|--0--0--0--0--0--0--0--0--|
D|-----5--5--5--5--5--5--5--5--5--5-|--5--5--5--5--5--5--5--5--|

53
E|-----|
B|-----|
G|--0--|
D|--5--|
G|--0--|
D|--5--|

54
E|------------------------------|------------------------------|
B|-------------------6----9/(13)|-13------11-p9--8--6-h8--9--6-|
G|-5-----7-----8----------------|------------------------------|
D|------------------------------|------------------------------|
G|------------------------------|------------------------------|
D|------------------------------|------------------------------|

56
E|-------------------------------------|-----------1-------1-4-|
B|--8-h9--8--6-------------------------|-------------4-3-4-----|
G|--------------8h10--8--7-----7--8/12-|-12-----5--------------|
D|-------------------------10----------|--------6--------------|
G|-------------------------------------|-----------------------|
D|-------------------------------------|----12-----------------|

58  --3--              --3--
E|--3h4p3-1--------1-3-1h3p1-----|-----------------------------|
B|--1--------4-3-4-----------4-3-|-----------------------------|
G|---------------------3---------|------5----------------------|
D|--0----------------------------|------6----------------------|
G|---------------------0--------(1)/5-0----0--1--3--5--1--0----|
D|-------------------------------|------3--------------------3-|

60
E|---------------------------|--8-------------------1-----4/(11)
B|--------------------^12----|--8------------------------------|
G|----0-h5--5-h8--8/12^12----|--8--5----7-----8----------------|
D|--------------------^12----|---------------------------------|
G|-0-----------------------0-|---------------------------------|
D|-5-------------------------|-10------------------------------|

62              ---3--
E|-11--10--8--6-8h10p8-6----|-6-h8-p6---------------------8----|
B|------------------------9-|----------9--8---6-/8--9-11-----9-|
G|--------------------------|----------------------------------|
D|--------------------------|----------------------------------|
G|--------------------------|----------------------------------|
D|--------------------------|----------------------------------|

64 --3--           --3--        --3--
E|---------------------------|---------------------------------|
B|-8h9p8---8-------6h8p6---6-|---------------------------------|
G|------10---8-7-8-------8---|-7h8p7---8--7-----------10-12-13-|
D|---------------------------|------10-------10-12-13----------|
G|---------------------------|---------------------------------|
D|---------------------------|---------------------------------|

66----3--- ---3-- --3-- --3-- --3-- --3--
E|---------------------------------------|---------------------|
B|---------------------------------------|-----3---------------|
G|10h12p10-8h10p8-7h8p7-5h7p5-3h5p3-1h3p1|-0---5---------------|
D|---------------------------------------|---0-----------------|
G|---------------------------------------|-0---------0-2-4-5-4-|
D|---------------------------------------|-----0-2-4-----------|

68
E|------------------10-8----------|----------------------------|
B|-----0-h3-3-/8-12----7----------|---(3)/8---8---8---8------8-|
G|---------------------9-p7-------|-0--------------------------|
D|--------------------------10-p7-|----------------------------|
G|--------------------------------|-0--------------------------|
D|--0------------------0----------|----------------------------|

70                                                  --3--
E|--------------------------|----------------------------------|
B|--8-----6---------6--8--9-|--8---h9-p8--6---3--6--4h6p4-3----|
G|--------7---7--8----------|-------------7------------------5-|
D|-----6--------------------|-------6---------------3----------|
G|--------------------------|----------------------------------|
D|--6-----------------------|--6-------------------------------|

72
E|-----------------------------|-------------------------------|
B|---------------------^12-----|-^5-(3)/8-----8-----8----8---8-|
G|--4-----/7--7--------^12-----|-^5----------------------------|
D|------0-----9---^12-------^5-|-------------------------------|
G|--0--------------------------|-------------------------------|
D|-----------------------------|-------------------------------|

74                          ------7------
E|--------------------------------6h8p6---|
B|--8-----------6-----------6-8-9-------9-|
G|--------------7-----7-h8----------------|
D|--------6-------------------------------|
G|----------------------------------------|
D|--6-------------------------------------|

75                   -----6-----
E|-------------------1h3p1------|----13-13-16--10-10-13---7--7-|
B|-8--9--8--6--3--4--------4p3p1|-0----------------------------|
G|----------7-------------------|-0--10----13---7----10--------|
D|----6-------------------------|-------------------------9----|
G|------------------------------|------------------------------|
D|-6----------------------------|------------------------------|

77
E|-10--7--7--8--1--1--4------|-3-------------------------------|
B|-----------------------3-3-|----6--6--9--9-------------------|
G|--7--------5--------1------|-0--------------7--7-10-10--4--4-|
D|-----9--------3--------0---|----3-----6----------------------|
G|---------------------------|----------------7----10-----4----|
D|---------------------------|---------------------------------|

79
E|-------------------------|-----------------------------------|
B|-------------------------|-----------------------------------|
G|-7-7-----5-5-------------|-0---------------------------------|
D|-----6-6-----3-3-6-6-0-0-|-----------------------------------|
G|-7-------5---------------|-0----0--0--0--0--0--0--0--0--0--0-|
D|-----6-------3---6---0---|-----------------------------------|

81
E|-----|
B|-----|
G|-----|
D|-----|
G|--0--|
D|-----|

82
E|---------------------------|---------------------------------|
B|-------------------6-----9-|-13---------11-p9--8--6-h8--9--6-|
G|-5-----7-----8-------------|---------------------------------|
D|---------------------------|---------------------------------|
G|---------------------------|---------------------------------|
D|---------------------------|---------------------------------|

84
E|-------------------------------------|
B|--8-h9--8--6-------------------------|
G|--------------8h10--8--7--5--7--8/12-|
D|-------------------------------------|
G|-------------------------------------|
D|-------------------------------------|

85                          --3--                   --3--
E|---------------------4-|--3h4p3----------------3--6h8p6------|
B|--------6-4-3--4--6----|--------6--4--3--4--6-----------4--3-|
G|-12---5----------------|--5-----------------------3----------|
D|----0-6----------------|--0----------------------------------|
G|-----------------------|--------------------------0----------|
D|-----------------------|-------------------------------------|

87
E|-------------------------------|---------------------------7-|
B|-------------------------------|---------1-h4--4-/8--------6-|
G|--------5----------------------|---0-h5--------------------7-|
D|--------6----------------------|---------------------------5-|
(1)/5--0-----0--1--3--5--1--0----|-0-------------------0-------|
D|--------3--------------------3-|---------------------5-------|

89
E|--8---8-----8--------------|-------------------6-----6-------|
B|----------------8-----8----|--4----4-----4-----4-p3--4-------|
G|--8---8-p7--8------------0-|--3------------------------------|
D|--5------------10-p9-10--5-|--5----5-p4--5-----5-----5-------|
G|--5------------------------|--6------------------------(3)/5-|
D|---------------------------|---------------------------------|

91
E|-10-----------3-----3--7----|--7--10----10----10-10-10----10-|
B|--0--0-----0--3-----3--8----|--8---8-----8-------------------|
G|--0--7-----7--4-p3--4--7-p6-|--7--------------------11----11-|
D|-----5-p4--5----------------|------9-p8--9----------10----10-|
G|----------------------------|--------------------------------|
D|--0-------------------------|------------------------0-------|

93                   D.C. al % hasta @  94  @
E|-15-----7-----7-----7-----8-----8----| |-15--|
B|--0-----8-p7--------------------7----| |-12--|
G|--0----------10-----9-p8--7--------7-| |--0--|
D|--0-----------------------7----------| |-----|
G|--0-----------------7-----------7----| |-----|
D|-------------------------------------| |-----|

95
E|--------------|--3--|
B|------^5------|--0--|
G|------^5------|--4--|
D|------^5------|--0--|
G|------^5------|--0--|
D|--------------|--5--|

Вверх

"Испанская сюита" - №5 Астурия

p - пулл
h - хаммер
s - слайд
arm, <> - искусственный флажолет
==== - тянуть

E|----------------------------|----------------------------|
B|----0---0----0---0---0----0-|---0---0----0---0---0----0--|
G|----------------------------|----------------------------|
D|------9===10===7===9===-----|-----9===10===7===9===------|
A|--7===-----------------10===|-7===-----------------10===-|
E|----------------------------|----------------------------|

E|----------------------------|----------------------------|
B|----0---0----0---0---0----0-|---0---0----0---0---0----0--|
G|----------------------------|----------------------------|
D|------9===10===7===9===-----|-7===---------7===----------|
A|--7===-----------------10===|-----9===10===----9===10===-|
E|----------------------------|----------------------------|

E|----------------------------|----------------------------|
B|----0---0----0---0---0----0-|---0---0----0---0---0----0--|
G|----------------------------|----------------------------|
D|------9===10===7===9===-----|-----9===10===7===9===------|
A|--7===-----------------10===|-7===-----------------10===-|
E|----------------------------|----------------------------|

E|----------------------------|----------------------------|
B|----0---0----0---0---0----0-|---0---0----0---0----0---0--|
G|----------------------------|----------------------------|
D|------9===10===7===9===-----|-7===-----------------------|
A|--7===-----------------10===|-----9===10===7===----------|
E|----------------------------|------------------10===8===-|

E|---------------------------|---------------------------|
B|----0---0----0---0---0---0-|---0---0----0---0---0---0--|
G|---------------------------|---------------------------|
D|------9===10===7===9===----|-----9===10===7===9===-----|
A|-----------------------9===|----------------------9===-|
E|--7===---------------------|-7===----------------------|

E|----------------------------|----------------------------|
B|----0---0---0---0----0----0-|---0----0---0---0----0---0--|
G|----------------------------|----------------------------|
D|----------7===9===10===12===|-9===10===7===9===----------|
A|------9===------------------|------------------10===9===-|
E|--7===----------------------|----------------------------|

E|---------------------------|---------------------------|
B|----0---0----0---0---0---0-|---0---0----0---0---0---0--|
G|---------------------------|---------------------------|
D|------9===10===7===9===----|-----9===10===7===9===-----|
A|-----------------------9===|----------------------9===-|
E|--7===---------------------|-7===----------------------|

E|----------------------------|--------------------------|
B|----0---0---0----0----0---0-|----0---0---0---0---0---0-|
G|----------------------------|--------------------------|
D|------7===9===10===12===9===|-10===7===9===5===7===4---|
A|----------------------------|--------------------------|
E|--7===----------------------|--------------------------|

E|------7-----7-----7-----7-----7-----7-|
B|----0-----0-----0-----0-----0-----0---|
G|--------4=====5=====------4=====------|
D|--------------------7=====------5=====|
A|--7-----------------------------------|
E|--0===================================|

E|-----7-----7-----7-----7-----7-----7--|
B|---0-----0-----0-----0-----0-----0----|
G|-------4=====5=====------4=====-------|
D|-------------------7=====------5=====-|
A|-7------------------------------------|
E|-0====================================|

E|------7-----7-----7-----7-----7-----7-|
B|----0-----0-----0-----0-----0-----0---|
G|--------4=====5=====------4=====------|
D|--------------------7=====------5=====|
A|--7-----------------------------------|
E|--0===================================|

E|-----7-----7-----7-----7-----7-----7--|
B|---0-----0-----0-----0-----0-----0----|
G|--------------------------------------|
D|-7=====4=====5=====7=====4=====5=====-|
A|--------------------------------------|
E|--------------------------------------|

E|------7-----7-----7-----7-----7-----7-|
B|----0-----0-----0-----0-----0-----0---|
G|--------4=====5=====------4=====------|
D|--------------------7=====------5=====|
A|--7-----------------------------------|
E|--0===================================|

E|-----7-----7-----7-----7-----7-----7--|
B|---0-----0-----0-----0-----0-----0----|
G|-------4=====5=====------4=====-------|
D|-------------------7=====------5=====-|
A|-7------------------------------------|
E|-0====================================|

E|------7-----7-----7-----7-----7-----7-|
B|----0-----0-----0-----0-----0-----0---|
G|--------4=====5=====------4=====------|
D|--------------------7=====------5=====|
A|--7-----------------------------------|
E|--0===================================|

E|-----7-----7-----7-----7-----7-----7--|
B|---0-----0-----0-----0-----0-----0----|
G|-------------0=====-------------------|
D|-7=====4=====------------0=====-------|
A|-------------------7=====-------------|
E|-------------------------------8=====-|

E|--7---------------------------------|
B|--7----0-0----0-0---0-0---0-0---0-0-|
G|--8---------------------------------|
D|--9--9=====10=====7=====9=====------|
A|--9---------------------------9=====|
E|--7---------------------------------|

E|-7----------------------------------|
B|-7----0-0----0-0---0-0---0-0---0-0--|
G|-8----------------------------------|
D|-9--9=====10=====7=====9=====-------|
A|-9---------------------------9=====-|
E|-7----------------------------------|

E|--7----------------------------------|
B|--7----0-0---0-0---0-0----0-0----0-0-|
G|--8----------------------------------|
D|--9--------7=====9=====10=====12=====|
A|--9--9=====--------------------------|
E|--7----------------------------------|

E|----------------------------------------|
B|---0-0----0-0---0-0---0-0----0-0---0-0--|
G|----------------------------------------|
D|-9=====10=====7=====9=====--------------|
A|--------------------------10=====9=====-|
E|----------------------------------------|

E|--7---------------------------------|
B|--7----0-0----0-0---0-0---0-0---0-0-|
G|--8---------------------------------|
D|--9--9=====10=====7=====9=====------|
A|--9---------------------------9=====|
E|--7---------------------------------|

E|-7----------------------------------|
B|-7----0-0----0-0---0-0---0-0---0-0--|
G|-8----------------------------------|
D|-9--9=====10=====7=====9=====-------|
A|-9---------------------------9=====-|
E|-7----------------------------------|

E|--7----------------------------------|
B|--7----0-0---0-0---0-0----0-0----0-0-|
G|--8----------------------------------|
D|--9--------7=====9=====10=====12=====|
A|--9--9=====--------------------------|
E|--7----------------------------------|

E|-----------------------------------------|
B|---0-0----0-0----0-0---0-0----0-0---0-0--|
G|-----------------------------------------|
D|-9=====10=====-------9=====-------9=====-|
A|--------------12=====------10=====-------|
E|-----------------------------------------|

E|--12-----------------------------------|
B|---0----0-0----0-0----0-0---0-0----0-0-|
G|---0-----------------------------------|
D|---9--9=====10=====-------9=====-------|
A|--10---------------12=====------10=====|
E|---0-----------------------------------|

E|-12------------------------------------|
B|--0----0-0----0-0----0-0---0-0----0-0--|
G|--0------------------------------------|
D|--9--9=====10=====-------9=====--------|
A|-10---------------12=====------10=====-|
E|--0------------------------------------|

E|--12-----------------------------------|
B|---0----0-0----0-0----0-0---0-0----0-0-|
G|---0-----------------------------------|
D|---9--9=====10=====-------9=====-------|
A|--10---------------12=====------10=====|
E|---0-----------------------------------|

E|------------------------------------------|
B|----0-0---0-0----0-0----0-0---0-0----0-0--|
G|------------------------------------------|
D|------------------------------------------|
A|-12=====9=====10=====12=====9=====10=====-|
E|------------------------------------------|

E|--12-------8------8-----8------8------8-|
B|---8------------------------------------|
G|---9-----9------9-----9------9------9---|
D|---8--10=====12=====9=====10=====-------|
A|--10-----------------------------10=====|
E|---8------------------------------------|

E|-12-------8------8-----8------8------8--|
B|--8-------------------------------------|
G|--9-----9------9-----9------9------9----|
D|--8--10=====12=====9=====10=====--------|
A|-10-----------------------------10=====-|
E|--8-------------------------------------|

E|--12-------8------8-----8------8------8-|
B|---8------------------------------------|
G|---9-----9------9-----9------9------9---|
D|---8--10=====12=====9=====10=====-------|
A|--10-----------------------------10=====|
E|---8------------------------------------|

E|-----8-----8------8-----8-----8-----8--|
B|---7-----7------7-----7-----7-----7----|
G|---------------------------------------|
D|-7=====-------------7=====-------------|
A|-------9=====10=====------7=====9=====-|
E|---------------------------------------|

E|--7------7------7-----7-----7-----7-|
B|--7---------------------------------|
G|--8----8------8-----8-----8-----8---|
D|--9--9=====10=====8=====9=====------|
A|--9---------------------------9=====|
E|--7---------------------------------|

E|--8-------8------8-----8------8------8--|
B|--8-------------------------------------|
G|--9-----9------9-----9------9------9----|
D|--8--10=====12=====9=====10=====--------|
A|-10-----------------------------10=====-|
E|--8-------------------------------------|

E|--7------7------7-----7-----7-----7-|
B|--7---------------------------------|
G|--8----8------8-----8-----8-----8---|
D|--9--9=====10=====8=====9=====------|
A|--9---------------------------9=====|
E|--7---------------------------------|

E|--8-------8------8-----8------8------8--|
B|--8-------------------------------------|
G|--9-----9------9-----9------9------9----|
D|--8--10=====12=====9=====10=====--------|
A|-10-----------------------------10=====-|
E|--8-------------------------------------|

E|--7------7-----7-----7-----7-----7-|
B|--7----0-----0-----0-----0-----0---|
G|--8--4=====5=====------4=====------|
D|--9--------------7=====------5=====|
A|--9--------------------------------|
E|--7--------------------------------|

E|-----7-----7-----7-----7-----7-----7--|
B|---0-----0-----0-----0-----0-----0----|
G|--------------------------------------|
D|-7=====4=====5=====7=====4=====5=====-|
A|--------------------------------------|
E|--------------------------------------|

E|------7-----7-----7-----7-----7-----7-|
B|----0-----0-----0-----0-----0-----0---|
G|--------------------------------------|
D|--------4=====5=====7=====4=====5=====|
A|--7=====------------------------------|
E|--------------------------------------|

E|-----7-----7-----7-----7-----7-----7--|
B|---0-----0-----0-----0-----0-----0----|
G|-------------0=====-------------------|
D|-------4=====------------0=====-------|
A|-7=====------------7=====-------------|
E|-------------------------------8=====-|

E|----------------------------|----------------------------|
B|----0---0----0---0---0----0-|---0---0----0---0---0----0--|
G|----------------------------|----------------------------|
D|------9===10===7===9===-----|-7===---------7===----------|
A|-----------------------10===|-----9===10===----9===10===-|
E|--7===----------------------|----------------------------|

E|----------------------------|----------------------------|
B|----0---0----0---0---0----0-|---0---0----0---0----0---0--|
G|----------------------------|----------------------------|
D|---------------7===---------|----------------------------|
A|--7===9===10===----9===10===|-7===9===10===7===----------|
E|----------------------------|------------------10===8===-|

E|---------------------------------------|
B|------7-----7-----7------7-----7-----7-|
G|----8-----8-----8------8-----8-----8---|
D|--------------9=====10=====8=====9=====|
A|--------9=====-------------------------|
E|--7====--------------------------------|

E|------------------------------------------|
B|-----8------8------8------8-----8------8--|
G|---9------9------9------9-----9------9----|
D|--------------10=====12=====9=====10=====-|
A|-------10=====----------------------------|
E|-8=====-----------------------------------|

E|---------------------------------------|
B|------7-----7-----7------7-----7-----7-|
G|----8-----8-----8------8-----8-----8---|
D|--------------9=====10=====8=====9=====|
A|--------9=====-------------------------|
E|--7=====-------------------------------|

E|------------------------------------------|
B|-----8------8------8------8-----8------8--|
G|---9------9------9------9-----9------9----|
D|--------------10=====12=====9=====10=====-|
A|-------10=====----------------------------|
E|-8=====-----------------------------------|

E|----------------------------------------|
B|------7-----7-----7------7-----7------7-|
G|----8-----8-----8------8-----8------8---|
D|--------------9=====10=====8=====10=====|
A|--------9=====--------------------------|
E|--7=====--------------------------------|

E|----------------------------------------|
B|-----7------7-----7------7-----7-----7--|
G|---8------8-----8------8-----8-----8----|
D|-9=====10=====8=====10=====9=====-------|
A|---------------------------------9=====-|
E|----------------------------------------|

E|--------------------|-----------------11--14-|-<19>--|-------|
B|--------------------|-12----------12---------|-------|-------|
G|-------------8--11--|---------11-------------|-------|-4====-|
D|----------9---------|-----13-----------------|-------|-4====-|
A|----6--9------------|------------------------|-------|-6====-|
E|-7------------------|------------------------|-------|-7====-|

E|--7--------5--7--|-10-----7p8h7--5--|-7--|-2================-|
B|-----------------|------------------|----|-4----<16>---------|
G|-----------------|------------------|----|-4================-|
D|--9--------7--9--|-12-----9------7--|-9--|-4================-|
A|-----------------|------------------|----|-2================-|
E|-----------------|------------------|----|-------------------|

E|--7--------5--7--|-10-----7p8h7--5--|-7--|-------------------|
B|-----------------|------------------|----|-3================-|
G|-----------------|------------------|----|-4----<16>---------|
D|--9--------7--9--|-12-----9------7--|-9--|-5================-|
A|-----------------|------------------|----|-5================-|
E|-----------------|------------------|----|-3================-|

E|--7-------6=====|====3p5h3--2--------|---|-2================-|
B|----------------|--------------5-s8--|-7-|-4----<16>---------|
G|----------------|--------------------|---|-4================-|
D|--9-------8=====|====----5--4--2-s5--|-4-|-4================-|
A|----------------|--------------------|---|-2================-|
E|----------------|--------------------|---|-------------------|

E|--7---------8--7--|-6--2--3p5h3--2-------|---------------|---|
B|------------------|-----------------5-s8-|-7--------5----|-4-|
G|------------------|----------------------|----------3----|-4-|
D|--9--------10--9--|-8--4------5--4--2-s5-|-4--------4----|-4-|
A|------------------|----------------------|----------3----|-2-|
E|------------------|----------------------|---------------|---|

E|---------|-----------------8-|---------------|---------------|
B|------0--|----4p5h4-----4----|--------0------|--------0----0-|
G|------7--|--------5--7--5----|--------7------|---------------|
D|-5=======|-4=================|-4s5===========|--------8----7-|
A|---------|-------------------|---------------|-6s9=========6-|
E|---------|-------------------|---------------|---------------|

E|-------------|-------------|----------------|------0---------|
B|-----------0-|-----------0-|-----------0----|----------------|
G|------0------|-------------|----------------|------3---------|
D|-------------|------4------|------4---------|----------------|
A|-7===========|-5===========|-3==============|----------------|
E|-------------|-------------|----------------|-2=============-|

E|----------|-------0===========|---------|-------0===========-|
B|-----4====|-------------------|----4====|--------------------|
G|-----4====|-------------------|----4====|--------------------|
D|--------4-|-------4===========|-------4-|-------4===========-|
A|-2========|-0--2--3--5p3-2--0-|-2=======|-0--2--3--5p3-2--0--|
E|----------|-------------------|---------|--------------------|

E|---------|----------------------|--------------|-------------|
B|----4====|----------------------|--------------|-------------|
G|----4====|----------------------|--------------|-------------|
D|-------4-|-7--9--10--12p10-9--7-|-9--8-4-7-6-2-|-5-4-1-3-2---|
A|-2=======|----------------------|--------------|-----------3-|
E|---------|----------------------|--------------|-------------|

E|---------------|-------5======-----|-------0-|-----5=====----|
B|-------------0-|-------6======-----|-------9-|-----6=====----|
G|-------------8-|-------------------|---------|---------------|
D|---------------|-------------------|-------9-|---------------|
A|--------9======|-------5--7p5------|----7====|-----5-7p5-----|
E|-1s7===========|-7--8---------8--7-|-0=======|-7-8-------8-7-|

E|-------0-|-----0----------|-----------------|-0--------------|
B|-------9-|---4---0h1----0-|----0----0-----0-|---6--8---------|
G|---------|-5---0=====2----|-0----------0----|-0====0-7h9-5-7-|
D|-------9-|-2===------4====|-2====s4---------|------0=====4==-|
A|----7====|-0===-----------|-------6===s7====|------------0==-|
E|-0=======|----------------|-----------------|-8===s7=====----|

E|---------------|-------5--8--6p8h6-5-|-8-5-------------------|
B|---3----3----3-|-s6-8----------------|-----8p10h8--7--10-s13-|
G|-4---s3---s4---|---------------------|-----------------------|
D|-0====0====0===|---------------------|-----------------------|
A|---------------|---------------------|-----------------------|
E|-3===s2===s3===|---------------------|-----------------------|

E|------------------|---------|---------------------|----------|
B|------5--7p5------|-------0-|--------7============|-------0--|
G|-5-7---------7--5-|-------8-|---------------------|-------8--|
D|-4====-------5====|---------|--------8============|----------|
A|-0===========7====|----9====|--------7--9p7-------|----9====-|
E|-------------6====|-7=======|-8--10---------10--8-|-7=======-|

E|-----------------|------|-----7-----7-----7-----7-----7-----7|
B|------7==========|-----0|---8-----8-----8-----8-----8-----8--|
G|-----------------|-----8|-------------------7=====-----------|
D|------8==========|------|-------8=====9=====------8=====9====|
A|------7-9p7------|---9==|10=====-----------------------------|
E|-8-10-------10-8-|-7====|------------------------------------|

E|---------------------------------------|
B|-------7-----7-----7-----7-----7-----7-|
G|-----7-----7-----7-----7-----7-----7---|
D|---------------------7=====------------|
A|---------8=====9=====------8=====9=====|
E|--10=====------------------------------|

E|-----0-----0------0-----0------0-----0--|
B|----------------------------------------|
G|----------------------------------------|
D|---8-----8------8-----8------8-----8----|
A|-------9=====10=====7=====--------------|
E|-8=====-------------------10=====8=====-|

E|--7--------5--7--|-10----7h8p7--5--|-7---|-2================-|
B|-----------------|-----------------|-----|-4----<16>---------|
G|-----------------|-----------------|-----|-4================-|
D|--9--------7--9--|-12--------9--7--|-9---|-4================-|
A|-----------------|-----------------|-----|-2================-|
E|--7--------------|-----------------|-----|-------------------|

E|--7--5--7--|-10--------7h8p7--5--|-7-----|------|
B|-----------|---------------------|-----5-|-4----|
G|-----------|---------------------|-----3-|-4---o| Da Capo
D|--9--7--9--|-12--------9------7--|-9---4-|-4---o| al @ Coda
A|-----------|---------------------|-----3-|-2----|
E|-----------|---------------------|-------|------|

     E|---------|-0=============|----------|---------------|---|
     B|----0----|---------------|-0--------|---------------|---|
Coda G|---------|-0--------2----|-0--------|-5=============|-0-|
     D|---------|-2=============|-0--------|-2--------4----|-5-|
     A|---------|-3=============|----------|-0=============|---|
     E|---------|---------------|-3--------|---------------|-0-|

E|--2-------------|-1--------0----|-0--------|-----------------|
B|--1--------2----|-1=============|----------|----------0------|
G|--2--------3----|-2=============|-5--------|-8p9h8----0------|
D|----------------|---------------|-7--------|---------------7-|
A|----------------|---------------|----------|---------------9-|
E|----------------|---------------|-7--------|-----------------|

E|----------------------------|----------------------------|
B|----0---0----0---0---0----0-|---0---0----0---0---0----0--|
G|----------------------------|----------------------------|
D|------9===10===7===9===-----|-----9===10===7===9===------|
A|--7===-----------------10===|-7===-----------------10===-|
E|----------------------------|----------------------------|

E|-----------------------------------|
B|-----------------------------------|
G|---------0-----0-----0-----0-----0-|
D|-----------------------------------|
A|--7----7-----7-----7-----7-----7---|
E|-----8=====6=====8=====6=====8=====|

E|--------------------------------------|
B|--------------------------------------|
G|-----0-----0-----0-----0-----0-----0--|
D|--------------------------------------|
A|---7-----7-----7-----7-----7-----7----|
E|-6=====8=====6=====8=====6=====8=====-|

E|--<12>------------|-0-|
B|--<12>------------|-5-|
G|--<12>------------|---|
D|------------------|-2-|
A|------------------|---|
E|--<12>------------|-0-|

Вверх

"Испанская сюита" - №5 Астурия (2 вариант)

Ноты везде - 1/16, кроме 17, там - целые .

тональность: G
размер: 3/4
темп:          moderato (~ 92 четверти в минуту)
строй:         стандартный (1-6 = EBGDAE)

E|-------------------------|--------------------------|
B|--0---0----0---0---0----0|---0---0----0---0---0----0|
G|-------------------------|--------------------------|
D|----9---10---7---9-------|-----9---10---7---9-------|
A|7--------------------10--|-7--------------------10--|
E|-------------------------|--------------------------|
   1                        2

E|---------------------------|-------------------------|
B|---0---0----0---0---0----0-|--0---0----0---0---0----0|
G|---------------------------|-------------------------|
D|-----9---10---7---9--------|7------------7-----------|
A|-7--------------------10---|----9---10-------9---10--|
E|---------------------------|-------------------------|
   3                          4

E|--------------------------|---------------------------|
B|---0---0----0---0---0----0|---0---0----0---0---0----0-|
G|--------------------------|---------------------------|
D|-----9---10---7---9-------|-----9---10---7---9--------|
A|-7--------------------10--|-7--------------------10---|
E|--------------------------|---------------------------|
  5                          6

E|-------------------------|--------------------------|
B|--0---0----0---0---0----0|---0---0----0---0----0---0|
G|-------------------------|--------------------------|
D|----9---10---7---9-------|-7------------------------|
A|7--------------------10--|-----9---10---7-----------|
E|-------------------------|------------------10---8--|
   7                        8

E|--------------------------|-------------------------|
B|---0---0----0---0---0---0-|--0---0----0---0---0---0-|
G|--------------------------|-------------------------|
D|-----9---10---7---9-------|----9---10---7---9-------|
A|----------------------9---|---------------------9---|
E|-7------------------------|7------------------------|
   9                         10

E|--------------------------|--------------------------|
B|---0---0---0---0----0---0-|---0----0---0---0---0---0-|
G|----------------------7---|--------------------------|
D|-------------9---10-------|-9---10---7---9-----------|
A|-----9---7----------------|------------------10--9---|
E|-7------------------------|--------------------------|
  11                         12

E|-------------------------|--------------------------|
B|--0---0----0---0---0---0-|---0---0----0---0---0---0-|
G|-------------------------|--------------------------|
D|----9---10---7---9-------|-----9---10---7---9-------|
A|---------------------9---|----------------------9---|
E|7------------------------|-7------------------------|
   13                       14

E|---------------------------|
B|---0---0----0----0---0---0-|
G|-------------------7-------|
D|-----7----9---10-------9---|
A|---------------------------|
E|-7-------------------------|
   15

                                    / 
E|-------------------------|--------->---0-|
B|--0---0---0----0---0---0-|--------<----0-|
G|-------------------------|--------->---0-|
D|10--7---9--------7-------|--------<----4-|
A|------------10-------9---|--------->---7-|
E|-------------------------|--------<----0-|
   16                       17       >

Вверх

Кордоба

Строй: DADGBE
Размер: 3/4

E|---|---|---|
B|---|---|---|
G|---|---|---|
D|---|---|---|
A|-3-|-3-|-3-|
D|-3-|-3-|-3-|
dolce

E|---|-3-|---------3-|
B|---|-3-|-3-------3-|
G|---|-3-|-3-------3-|
D|---|---|-3---------|
A|-3-|-3-|-----------|
D|-3-|-3-|-----------|

E|-6-------5-------3-|-5-------1-|-----------------3-|
B|-3-------5-------3-|-5-------3-|-3-------5-------3-|
G|---------5-------3-|-5-------2-|-2-------3-------3-|
D|-------------------|-----------|-3-------5---------|
A|-3-----------------|-----------|-------------------|
D|-3-----------------|-----------|-------------------|

E|-5-|-3-|-3-|-3-|---------3-|-6-------4-------3-|
B|-5-|-3-|-3-|-2-|-2-------2-|---------5-------2-|
G|-5-|-3-|-3-|-3-|-3-------3-|-3-------5-------3-|
D|---|---|---|---|-3---------|-------------------|
A|---|-3-|-3-|-3-|-----------|-------------------|
D|---|-3-|-3-|-3-|-----------|-------------------|

E|-4---------|-----------------3-|-4-|-3-|-3-|
B|-5-------6-|-2-------5-------2-|-5-|-2-|-2-|
G|-5-------5-|-1-------3-------3-|-5-|-3-|-3-|
D|---------6-|-3-------5---------|---|---|---|
A|-----------|-------------------|---|-3-|-3-|
D|-----------|-------------------|---|-3-|-3-|

E|-0----------|-----------|
B|------------|-----------|
G|-9----------|-----------|
D|-8-------11-|-10------8-|
A|-10---------|-----------|
D|------------|-----------|

E|-------------------|-4-----------------|-4-|
B|-6-----------------|-6-----------------|-3-|
G|-5-----------------|-5-----------------|-1-|
D|-6-------5---------|-------------------|---|
A|-----------------8-|-6-------4-------3-|-1-|
D|-------------------|-------------------|---|

E|-4-|-4-|-4-|-5-|-5-|-10--------------8--|
B|-3-|-3-|-3-|-6-|-6-|-10--------------10-|
G|-1-|-1-|-1-|-7-|-7-|-10--------------9--|
D|---|---|---|-7-|-7-|-12--------------7--|
A|-1-|-1-|-1-|-0-|-0-|--------------------|
D|---|---|---|---|---|--------------------|

E|-10------8--|-10------12------13-|-10------8-------10-|
B|-10------10-|-10------13------10-|-11------10------11-|
G|-10------9--|-10------12------10-|-10------10------10-|
D|-12------7--|-12------10---------|-8---------------8--|
A|------------|--------------------|---------8----------|
D|------------|--------------------|--------------------|

E|-11--------------10-|-8-------10------8--|------------------|
B|-----------------11-|-10------11------10-|-11------------10-|
G|-12--------------10-|-10--------------10-|-9-------------9--|
D|-----------------8--|---------8----------|-12------------11-|
A|--------------------|-8---------------8--|-10------------12-|
D|-13-----------------|--------------------|------------------|

E|------------|---|-13--------------12-|-13------12------10-|
B|-8-------10-|10-|-10--------------13-|-10------13------10-|
G|-9-------9--|9--|-10--------------12-|-10------12------10-|
D|-12------11-|11-|-----------------10-|---------10------12-|
A|-13------12-|12-|--------------------|--------------------|
D|------------|---|--------------------|--------------------|

E|-8-------------10-|-8-------6-------5-|-3---------------1-|
B|-10------------10-|-10------6-------6-|-3---------------3-|
G|-9-------------10-|-9-------7-------5-|-3---------------2-|
D|-7-------------12-|-7-------8---------|-5---------------0-|
A|------------------|-----------------8-|-------------------|
D|------------------|-------------------|-------------------|

E|-3-------1-------0-|-0---------------0-|-0-|0--|
B|-3-------3-------3-|-2-----------------|-2-|2--|
G|-3-------2-------1-|-----------------7-|---|---|
D|-5-------0---------|-2---------------8-|-2-|2--|
A|-----------------1-|-0---------------7-|-0-|0--|
D|-------------------|-----------------6-|---|---|

E|-13°---------12°-|-13°-----12°-----10°-|-8°--------------10°-|
B|-10--------------|-10--------------10--|-----------------10--|
G|-10----------12--|-10------12------10--|-9---------------10--|
D|-------------10--|---------10----------|-7-------------------|
A|-----------------|---------------------|---------------------|
D|-----------------|---------------------|---------------------|

E|-8°------6°------5°|-3°--------------1°-|-3°------1°------0°-|
B|-------------------|--------------------|--------------------|
G|-9-------7-------5-|-3---------------2--|-3-------2-------1--|
D|-7-------8---------|-5---------------0--|-5-------0----------|
A|-----------------8-|--------------------|-----------------1--|
D|-------------------|--------------------|--------------------|

E|5°--------------5°-|--------5-----------1-|---1-----0--------|
B|3---------------2--|------6-----6-------3-|---3-----3------2-|
G|2---------------0--|----7-------7-------2-|---1-----1------0-|
D|-------------------|--7---------7---------|------------------|
A|0------------------|5---------------4---3-|2-----1-----0-----|
D|-------------------|----------------------|------------------|

E|--------5---------1-|---1-----0-------|1-------3-------5-----|
B|------6----6------3-|---3-----3-----2-|----3-------3-------6-|
G|----7------7------2-|---1-----1-----0-|----2-------2-------7-|
D|--7--------7--------|-----------------|0---------------------|
A|5-------------4---3-|2-----1-----0----|----------------------|
D|--------------------|-----------------|----------------------|

E|12----------------|10------8-------10-----|5-----------------|
B|---10----10----10-|----10------10------10-|---8-----8------8-|
G|---12----12----12-|----10------10------10-|---6-----6------6-|
D|------------------|0----------------------|------7-----------|
A|------12----0-----|----------------0------|7-----------0-----|
D|11----------------|-----------------------|------------------|

E|--------------------5---|----3-------5-------3-|
B|------------6-------6---|----5---------------5-|
G|----7-------------------|----------------------|
D|----7-------7-----------|----------------------|
A|8-------7-------5-------|4-----------2---4-----|
D|------------------------|----------------------|

E|----1-------5-------0---|----------------------|
B|------------6-------3---|----2-------2---------|
G|----2---------------1---|----2-------3---2---0-|
D|0-----------------------|--------5-------3---2-|
A|--------3-------1-------|0---------------------|
D|------------------------|----------------------|

E|1-------3------5----|12---------------|10------8------10-----|
B|----3-------3-----3-|----10---10---10-|----11-----11------11-|
G|----2-------2-----2-|----9----9----9--|----10-----10------10-|
D|0-------------------|-----------------|----------------------|
A|--------------------|-----------------|----------------------|
D|--------------------|10---------------|8---------------------|

E|--------------------|3-----5-----3----|8-------6-------5-----|
B|----6-------6-----6-|---2-----2-----2-|----6-------6-------6-|
G|----5-------5-----5-|3----------------|--------5-------8-----|
D|--------------------|-----------------|7---------------------|
A|--------------------|-----------------|----------------------|
D|3-------------------|-----------------|----------------------|

E|---0-7----12---|12------10-----8-----|13------12------8------|
B|9-------5------|------------9-----10-|----12------10------10-|
G|-------------9-|----9-------------9--|----13--------------9--|
D|12-------------|10------9------7-----|12------10------7------|
A|---------------|---------------------|-----------------------|
D|---------------|---------------------|-----------------------|

E|10------12------8-----|8-----------7-----|5------------------|
B|----9-------10------7-|----9---9-------9-|----5-----5------5-|
G|----9-----------------|----7---7-------7-|----6-----6------6-|
D|9-------10------------|------------------|-------------------|
A|----------------6-----|7-----------------|0------------------|
D|----------------------|------------------|-------------------|

E|----0-------0-------0-|
B|8-------10------11----|
G|----------------------|
D|5-------7-------8-----|
A|0---------------------|
D|----------------------|

E|12-----------------|10------8-------10------|5---------------|
B|----11----11----11-|----11------11------11--|----5----5----5-|
G|----12----12----12-|----12------12------12--|----6----6----6-|
D|14-----------------|------------------------|7---------------|
A|0------------------|------------------------|----------------|
D|-------------------|------------------------|----------------|

E|----0------0------0-|13----------12-----|10------8----10-----|
B|8------10-----11----|----11--11------11-|----11----11-----11-|
G|--------------------|----12--12------12-|----12----12-----12-|
D|5------7------8-----|-------------------|--------------------|
A|0-------------------|0------------------|--------------------|
D|--------------------|-------------------|--------------------|

E|5---------------------|-----------5-----8-|---------------8--|
B|----5-------5-------5-|----6------6-----6-|---5-----8-----8--|
G|----6-------6-------6-|----5------------5-|---5-----5--------|
D|7---------------------|7-------5--7--5--7-|5--7--5--------10-|
A|----------------------|-----------8-------|---------8--7-----|
D|----------------------|-------------------|------------------|

E|----1-------6-------1-|---0-----5-----3---|1---0-----------5-|
B|----------------------|-------------------|-------3--5--6----|
G|----3-------3-------3-|---2-----2-----2---|2-----------------|
D|0-----------0---2---0-|---0---------------|0-----------------|
A|--------4-------------|4-----4--2--0------|-------------4--3-|
D|----------------------|-------------------|------------------|

E|0---1---0-----------0-|-------------------|------------------|
B|3-----------3---2-----|3--5--3----------3-|2-----------------|
G|1---------------0-----|3---------5---3----|2-----------------|
D|----------------------|3------------------|5-----------------|
A|2-------1-------0-----|-------------------|0---1--0-----0----|
D|----------------------|6------------------|----------6-----2-|

E|0-----------------------|0-------1-------3-----|
B|----3-3-3b--3-------3---|------3-----3-------3-|
G|----3-3-3---3-------3---|------------3-------3-|
D|----2b2b2---2b------2---|----2-------2-------2-|
A|0---------------0-------|0---------------0-----|
D|------------------------|----------------------|

E|0---------------1-------|----------------------|
B|----3-3-3b--3-------3---|3-------2-------------|
G|----3-3-3---3-------3---|------2-----2-------2-|
D|----2b2b2---2b------2---|------------2-------2-|
A|0---------------0-------|0---4-----------0-----|
D|------------------------|----------------------|

E|1-------0-------1-----|0-------0-------0------|0--------0----|
B|1-------1-------1-----|1-------3-------2------|3--------3----|
G|2-------0-------2-----|0-------1-------2------|3--------3----|
D|----------------------|2---2---2---2---2---2--|2--------2----|
A|----3-------3-------3-|3b--3b--1b--1b--0b--0b-|--------------|
D|3---------------------|-----------------------|6--6--6-----6-|

E|0-------------------5°-|----------------------|--------------|
B|2----------------------|----------------------|------0---2---|
G|-----------------------|--------0-------2-----|2-----0---0---|
D|------------7{---------|4---------------------|5-------------|
A|0---0------------------|0---0-------0-------0-|4--4----0---0-|
D|-----------------------|0---------------------|2-------------|

E|2-------3-------5-----|----------------------|---------------|
B|3---------------------|2-------3-------5-----|---------------|
G|2-------0-------2-----|0---------------------|2---------2----|
D|0---------------------|--------0-------2-----|4--------------|
A|----0-------0-------0-|----0-------0-------0-|0--0---0-----0-|
D|4---------------------|2---------------------|0--------------|

E|----------------------|----------------------|---------------|
B|----------------------|--------0-------1-----|0--------------|
G|2---------------2-----|2-------0-------0-----|0---------2----|
D|4---------------------|5---------------------|2--------------|
A|3---0-------0-------0-|4---4-------0-------0-|4--0---0-----0-|
D|1---------------------|2---------------------|---------------|

E|2-------3-------5-----|
B|3---------------------|
G|2-------0-------2-----|
D|4---------------------|
A|0---0-------0-------0-|
D|0---------------------|

E|5-------7------9----|10----12----14---|9-------10------12----|
B|2-------------------|10---------------|----------------------|
G|2-------4------6----|------9-----11---|12--------------9-----|
D|5-------------------|12---------------|11------12------------|
A|0---0-------0-----0-|9--0-----0-----0-|7---0-------0-------0-|
D|2-------------------|-----------------|----------------------|

E|-------------------|5-----------------|5-------7-------9-----|
B|10-----------------|4-----------------|2-------0-------------|
G|11-----------------|-------------2----|2---------------6-----|
D|-------------7-----|4-----------------|5---------------------|
A|0---0----0-------0-|0---0----0------0-|4---0-------0-------0-|
D|0------------------|1-----------------|2---------------------|

E|7--------5-----|0---------------------|----------------------|
B|0--------------|----1-1-1b--1-------1-|--------1-------3-----|
G|6--------2-----|----0-0-0---0-------0-|------0-----0-------0-|
D|5--------------|----2-2-2---2-------2-|------------2-------2-|
A|7--0--0------0-|----0b0b0---0b--0-----|----0-----------0-----|
D|---------------|0---------------------|0---------------------|

E|0------2------3-----|0-------------------|-------------------|
B|-----1-----1------1-|---1-1-1b--1------1-|4------------------|
G|-----------0------0-|---0-0-0---0------0-|----5-5-5---5----5-|
D|---2-------2------2-|---2-2-2---2------2-|----5-5-5---5----5-|
A|--------------0-----|---0b0b0---0b--0----|----6-6-6---6--0---|
D|0-------------------|0-------------------|0------------------|

E|----------------------|-------------------|------------------|
B|--------1-------3-----|4------6-----8-----|3-----------------|
G|------0-----0-------0-|-----5----0------0-|---2------2-----2-|
D|------------1-------1-|-------------------|----------4-----4-|
A|----0-----------0-----|---6---------0-----|-----5-5-----3----|
D|0---------------------|0------------------|0-----------------|

E|--------0-------3-------|--------5-------------|
B|3-------0-------3-------|7-------3-------1-----|
G|0-------0-------0-------|5-------5-------------|
D|0---0-------0-------0---|7---0-------0---4---0-|
A|2-----------------------|0---------------------|
D|------------------------|----------------0-----|

E|----------------7-------|8-------9-------12----|
B|0-------6-------6-------|7---------------------|
G|4-------4-------4-------|5-------6-------9-----|
D|3---0-------0-------0---|----0-------0-------0-|
A|------------------------|0---------------------|
D|6-----------------------|----------------------|

E|10------15------12------|14------12------10------|
B|10----------------------|13----------------------|
G|0-------12------9-------|--------9-------7-------|
D|----0-------0-------0---|----0-------0-------0---|
A|------------------------|0-----------------------|
D|9-----------------------|------------------------|

E|7-------8-------9-----|9-------12------10------|
B|6---------------------|7-----------------------|
G|4-------5-------6-----|6-------9-------7-------|
D|----0-------0-------0-|----0-------0-------0---|
A|----------------------|0-----------------------|
E|6---------------------|------------------------|

E|101010108-8-8-8-6-6-6-6-|101010108-8-8-8-6-6-6-6-|
B|6-6-6-6-6-6-6-6-6-6-6-6-|6-6-6-6-6-6-6-6-6-6-6-6-|
G|7-7-7-7-7-7-7-7-7-7-7-7-|7-7-7-7-7-7-7-7-7-7-7-7-|
D|6-6-6-6-6-6-6-6-6-6-6-6-|6-6-6-6-6-6-6-6-6-6-6-6-|
A|8-8-8-8-8-8-8-8-8-8-8-8-|8-8-8-8-8-8-8-8-8-8-8-8-|
D|6-6-6-6-6-6-6-6-6-6-6-6-|6-6-6-6-6-6-6-6-6-6-6-6-|

E|101010108-8-8-8-6-6-6-6-|------------------------|
B|6-6-6-6-6-6-6-6-6-6-6-6-|3-3-3-3-----------------|
G|7-7-7-7-7-7-7-7-7-7-7-7-|3-3-3-3-5-5-5-5-3-3-3-3-|
D|6-6-6-6-6-6-6-6-6-6-6-6-|3-3-3-3-3-3-3-3-3-3-3-3-|
A|8-8-8-8-8-8-8-8-8-8-8-8-|5-5-5-5-5-5-5-5-5-5-5-5-|
D|6-6-6-6-6-6-6-6-6-6-6-6-|6-6-6-6-6-6-6-6-6-6-6-6-|

E|------------------------|------------------------|
B|3-3-3-3-----------------|3-3-3-3-----------------|
G|3-3-3-3-5-5-5-5-3-3-3-3-|3-3-3-3-5-5-5-5-3-3-3-3-|
D|3-3-3-3-3-3-3-3-3-3-3-3-|3-3-3-3-3-3-3-3-3-3-3-3-|
A|5-5-5-5-5-5-5-5-5-5-5-5-|5-5-5-5-5-5-5-5-5-5-5-5-|
E|6-6-6-6-6-6-6-6-6-6-6-6-|6-6-6-6-6-6-6-6-6-6-6-6-|

E|------------------------|----------------------|
B|3-3-3-3-----------------|----------------------|
G|3-3-3-3-5-5-5-5-3-3-3-3-|--------0-------1-----|
D|3-3-3-3-3-3-3-3-3-3-3-3-|4---------------------|
A|5-5-5-5-5-5-5-5-5-5-5-5-|5---0-------0-------0-|
D|6-6-6-6-6-6-6-6-6-6-6-6-|7---------------------|

E|------------------------|----------------------|
B|------------------------|--------0-------1-----|
G|2---------------2-------|2-------0-------0-----|
D|4---------------4-------|5---------------------|
A|3---0-------0-------0---|----0-------0-------0-|
D|------------------------|----------------------|

E|------------------------|2-------3-------4-----|
B|2-------5-------8-------|3---------------------|
G|0-------0-------0-------|--------0-------1-----|
D|2-------2-------5-------|4-------2-------0-----|
A|----0-------0-------0---|----0-------0-------0-|
D|------------------------|----------------------|

E|5----------5----|5-------7-------8----|9-------12------17----|
B|4----------4----|2--------------------|8---------------------|
G|5----------5----|0-------4-------5----|6-------9-------14----|
D|4----------4----|---------------------|----------------------|
A|----0---0-----0-|----0-------0------0-|----0-------0-------0-|
D|----------------|---------------------|----------------------|

E|13--------------12-|13------12------10---|8---------------10-|
B|10-----------------|10--------------10---|10--------------10-|
G|10--------------12-|10------12------10---|9---------------10-|
D|----------------10-|--------10------12---|7---------------12-|
A|-------------------|---------------------|-------------------|
D|-------------------|---------------------|-------------------|

E|8-------6-------5-|3---------------1------|3-------1-------0-|
B|10------6-------6-|3---------------3------|3-------3-------3-|
G|9-------7-------5-|3---------------2------|3-------2-------1-|
D|7-------8---------|5---------------0------|5-------0---------|
A|----------------8-|-----------------------|----------------1-|
D|------------------|-----------------------|------------------|

E|5---------5-|1-------3-------5-------|12---------------------|
B|6---------2-|----3-------3-------6---|----10------10------10-|
G|7---------0-|----2-------2-------7---|----12------12------12-|
D|7-----------|0-----------------------|-----------------------|
A|0-----------|----------------0-------|--------12------0------|
D|------------|------------------------|11---------------------|

E|10------8-------10------|5---------------------|
B|----10------10------10--|----8-------8-------8-|
G|----10------10------10--|----6-------6-------6-|
D|0-----------------------|--------7-------------|
A|----------------0-------|7---------------0-----|
D|------------------------|----------------------|

E|------------1-------5---|----3-------5-------3-|
B|----3---------------6---|----5---------------5-|
G|----2-------2-----------|----------------------|
D|3-------2-------0-------|----------------------|
A|------------------------|4-----------2---4-----|
D|------------------------|----------------------|

E|----1-------5-------0-|--------------------|1-----3-----5----|
B|------------6-------3-|---2------2---------|---3-----3-----3-|
G|----2---------------1-|---2------3---2---0-|---2-----2-----2-|
D|0---------------------|------5-------3---2-|0----------------|
A|--------3-------1-----|0-------------------|-----------------|
D|----------------------|--------------------|-----------------|

E|12---------------|10----8------10-----|5---------------------|
B|----10---10---10-|---11----11------11-|----6-------6-------6-|
G|----9----9----9--|---10----10------10-|----5-------5-------5-|
D|-----------------|--------------------|----------------------|
A|-----------------|--------------------|----------------------|
D|10---------------|8-------------------|3---------------------|

E|-------------------|8------------0-----|1--3---5-------------|
B|10-----8-----10----|----11--10---3-----|---3-------3-------2-|
G|----6-----6------5-|-------------1-----|---2-------2-------0-|
D|8------------------|11------10---------|---------------------|
A|-------------------|8-------8----3---1-|0--------------------|
D|-------------------|8------------------|---------------3---2-|

E|----------------1---5-|0------1-----3----|0------------------|
B|------------3---3---6-|----2-----2-----2-|-------------------|
G|--------2---2---------|----3-----3-----3-|----6----6-------6-|
D|----3---3-------------|0-----------------|8--------7---5-----|
A|----5-----------------|------------------|-------------------|
D|0---------------------|------------------|-------------------|

E|------------------------|----0-------0-------0-|
B|10------8-------6-------|11------10------8-----|
G|----7-------6-------7---|----------------------|
D|----------------0-------|--------7-------8-----|
A|8-------7---------------|10--------------------|
D|------------------------|----------------------|

E|------------------------|----0-----------------|
B|----6---------------6---|------------1---------|
G|----7-------10------7---|----7-------3---0-----|
D|7-------8-------7-------|6-------------------7-|
A|------------------------|--------0-------------|
D|------------------------|----------------------|

E|----0--1--3--5--3-|-1--3--0--1----|-0-------1-------3-----|
B|-3--2--3--5--6--5-|-3--5--2--3--3-|-----2-------2-------2-|
G|-2--0--2--3--7--3-|-2--3--0--2--2-|-----3-------3-------3-|
D|-3----------------|-------------3-|-0---------------------|
A|------------------|---------------|-----------------------|
D|-0----------------|---------------|-----------------------|

E|-0--------------|--------1-------5-----|-----0--0---------|
B|----2--2------2-|3-------------------6-|-10---------3-----|
G|-3-----2--0-----|----2-------2---------|----------------1-|
D|----------------|3-------2-------0-----|-----7--7-------3-|
A|----------------|----------------------|------------1-----|
D|----------------|----------------------|-10---------------|

E|---------------------|---------------------|--------5------1-|
B|3-------5-------6----|10------8-------2----|------6---6----3-|
G|2-------3-------5----|9-------7-------2--0-|----7-----7----2-|
D|3-------5-------7----|10------8-------3--2-|--7-------7------|
A|0---0-------0------0-|----0-------0------0-|5-----------4--3-|
D|---------------------|---------------------|-----------------|

E|----1-------0--------|--------5----------1-|---1-----0-------|
B|----3-------3------2-|------6----6-------3-|---3-----3-----2-|
G|----1-------1------0-|----7------7-------2-|---1-----1-----0-|
D|---------------------|--7--------7---------|-----------------|
A|2-------1------0-----|5--------------4---3-|2-----1-----0----|
D|---------------------|---------------------|-----------------|

E|------------------------|----0---1---3---5---3-|
B|------------------------|----2---3---5---6---5-|
G|------------0---2---0---|----0---2---3---7---3-|
D|----2---3---2---3---2---|3---------------------|
A|----4---5---------------|5---------------------|
D|0-----------------------|----------------------|

E|1---0°--1°--3°--5°--3°--|1°-|
B|3---2---3---5---6---5---|3--|
G|2-----------------------|---|
D|------------------------|---|
A|------------------------|---|
D|------------------------|---|

E|5-----------------------|10-|
B|2-----------------------|10-|
G|0-----------------------|10-|
D|------------------------|---|
A|0-----------------------|---|
D|------------------------|0--|

Вверх

Маллёрка (Баркаролла)

Строй: DADGBE
E||--------------------|--------------------|
B||-------------2------|-------------2------|
G||----3--2-------3--2-|----3--2-------3--2-|
D||----3-----2---------|----3-----2---------|
A||-------0----------0-|-------0----------0-|
D||-0------------------|-0------------------|

E|--------------------|--------------------|-5-------0-3-5-8-6-|
B|------------6-------|----------------6---|----3--2-----------|
G|------------7-------|-------------7------|----2--3-----------|
D|----7=====--7-------|----7=====----------|----3--5-----------|
A|----8=====----------|----8=====0---------|-------------------|
E|-0-----6/7----------|-0-----6------------|-0-----------------|

E|-5-------0-3-5-8-6--|-5h6p5-------5-6-----------------|
B|----3--2------------|-------8-6h8-----5h6p5-4-5h6-8-5-|
G|----2--3------------|---------------------------------|
D|----3--5------------|-------------7-------------------|
A|--------------------|-----------------4-----------0---|
E|-0------------------|-0-------------------------------|

E|-----------------------|-5------0-3-5-8-6-|-5------0-3-5-8-6-|
B|-6h8p6-5---5-----2-----|---3--2-----------|---3--2-----------|
G|---------7---3=====3-2-|---2--3-----------|---2--3-----------|
D|-------------5-2-------|---3--5-----------|---3--5-----------|
A|-------------0-------0-|------------------|------------------|
E|-0---------------------|-0----------------|-0----------------|

E|-5=======3-------1-|------<1>----5----|-8======-5-8-10-12-8-|
B|-----------6/4-2---|-1-----1--6-------|-------6-------------|
G|----5--3-----------|----2-------------|----9----------------|
D|----3--3-----------|----3-------------|----8--7-------------|
A|----3--4-----------|------------------|-8-------------------|
E|-3-----------------|-3----------------|---------------------|

E|---8-9----------------|-5-----------------5-8p6-|
B|-11---11-6-8----6--8--|-------------6-5-6-------|
G|---------6---5--------|-----0-2-5---------------|
D|---------8---7--------|-----------8-7-----------|
A|-8-----------8--------|---4---------------------|
E|----------------------|-2-----------0-----------|

E|-5-----------------5-8p6-|-5-6-5-3-1-3-5--------|
B|-------------6-5-6-------|---------2-------6----|
G|-----0-2-5---------------|-5-------3---5--------|
D|-----------8-------------|-3-----------3--------|
A|---4---------------------|----------------------|
E|-2-----------0-----------|----------------------|

E|-0-----------0-1-0---0-6-|---------6-10-9-----0-----|
B|-3-----------3-----4-----|-2p3-5-8-------11-----2---|
G|-0h2-0---0-2-3-------0---|-0---------------12-----3-|
D|-------4-----------------|--------------------------|
A|-------------------------|-0------------------------|
E|-------------------------|--------------------------|

E|-5-------0-3-5-8-6--|-5-------0-3-5-8-6--|
B|----3--2------------|----3--2------------|
G|----2--3------------|----2--3------------|
D|----3--5------------|----3--5------------|
A|--------------------|--------------------|
E|-0------------------|-0------------------|

E|-5h6p5-------5h6-----------------|-----------------------|
B|-------8-6h8-----5h6p5-4-5h6-8-5-|6h8p6-5---5-----2------|
G|---------------------------------|--------7---3=====3-2--|
D|-------------7-------------------|------------5-2--------|
A|-----------------4-----------0---|------------0-------0--|
E|-0-------------------------------|0----------------------|

E|10======---6-10-13-11--|10---------------------|
B|---10----8-------------|----7---8--------------|
G|-------0---------------|----5---7-----0--------|
D|---10------------------|------0-----0---7-10p8-|
A|----9------------------|-0---------------------|
E|-0---------------------|----------8------------|

E|------------------|---------------------|-1--1--0-----------|
B|------3-----------|----5--6-----------3-|-3--3--1-------1---|
G|---6--2-----------|----3------------2---|-3-------------1h2-|
D|7--8--0-----------|-------------0-3-----|-3--3--------3-----|
A|------------0-3p1-|-0--4--5---4---------|-1-------2h3-------|
E|---5--3-2-3-------|-------0-------------|-------3-----------|

E|------------1--6-|---------8-6---6-13p11-----|---------------|
B|------------3--6-|-----8h9-----8--------13-11|-8-6-----------|
G|3---0-2-5p3-2--7-|---8-----------------------|-----8/5-3-0-3-|
D|--0------------6-|-8-------------------------|---------------|
A|------------0----|-6-------------------------|---------------|
E|5----------------|---------------------------|---------------|

E|-----------------5-6-9h12-|-9-------------|
B|-------------5h8----------|--11-----------|
G|-----0-2-3/6-6------------|----12-9-------|
D|---2---------5------------|--------11-8-7-|
A|-4------------------------|---------------|
E|-------------7------------|---------------|

E|-2---3---5---7---9---10--|-9-7-9---5---7-------|
B|-3-3---3---7---7---7---7-|---7---7---7---7-7-7-|
G|-2-2---2---7---7---7---7-|---7---7---7---7-7-7-|
D|-0-----------------------|---------------------|
A|-0-----------------------|---------------------|
E|-0-----------------------|---------------------|

E|-2---3---5---7---9---10--|-9-7-9---5-----------|
B|-3-3---3---7---7---7---7-|---7---7---7-7-------|
G|-2-2---2---7---7---7---7-|---7---7---7---7-7-7-|
D|-0-----------------------|---------------7-7-7-|
A|-0-----------------------|---------------------|
E|-0-----------------------|---------------------|

E|-----5---7-----------7---|-----12--10----------------|
B|-5-----------8-7-5-----8-|-10----------12p10-7--10---|
G|---6---6---6---6---6---6-|---11--11--11--------7--11-|
D|---5---5---5---5---5-----|---12--12--12-----------12-|
A|-0-----------------------|--0------------------------|
E|-0-----------------------|--0------------------------|

E|-----14--12------------0----|-----------0-----------|
B|-12----------14p12-10-------|-12h14-10------8-------|
G|---12--12--12--------12--12-|---------12--6---6-6-6-|
D|---11--11--11--------11--11-|---------11--7---7-7-7-|
A|--0-------------------------|-----------------------|
E|--0-------------------------|-----------------------|

E|-------------------------|-----------------------|
B|---3---3---7---7---7---7-|----7----7---7---7-7-7-|
G|---2---2---7---7---7-7---|----7----7---7---7-7-7-|
D|-4---5---7---9--11-------|-11-9-11---7---9-------|
A|-0-----------------------|-----------------------|
E|-0-----------------------|-----------------------|

E|---3---3---7---7---7---7-|---7---7---7---------|
B|---3---3---8---8---8-8-8-|-7-8---8---8---8-8-8-|
G|-4---5---7---9--11-------|---9-11--7-----7-7-7-|
D|-5-----------------------|-------------9-------|
A|-------------------------|------------10-------|
E|-------------------------|---------------------|

E|-6---6--13-11------6---|-5---5--12-10------5---|
B|--10---6-----11-11---4-|---9---5-----10-10---3-|
G|---7---7------8--8---3-|---9---6------7--7---2-|
D|-6---------------------|-5---------------------|
A|-----------10----------|------------9----------|
E|-----------------------|-----------------------|

E|-----0---2-------7-10-12-14-|-15------14-10-----------------|
B|-3-----3---3-8-10-----------|-0-----------7-----------------|
G|---4---4---4----------------|-0-------12--7-----------------|
D|---4------------------------|-12------11--------------------|
A|-2--------------------------|-0-0-<12>--0--------9-7h9p7-5--|
E|----------------------------|-------------0--6/7------------|

E|-----3---3---3-------3---3-|---3-------------5--|
B|-----2---2---2-------2---2-|---2-0-5p2-0-----8--|
G|-------2---4-----------4---|-2-----------6------|
D|---2-----------5p4-2-------|---------------7-7--|
A|-0-------------------------|--------------------|
E|---------------------------|--------------------|

E|-13--12-13-12-12---------|--------------------------|
B|---10-----------11-15-13-|-11--10-11-10--10---8-6---|
G|----------------10-------|---------9----7---7-6---7-|
D|-12--------10--8---------|---11---------7---8-------|
A|----------------------12-|-10---------8---7-----5---|
E|-------------------------|--------------------------|

E|-------------------|-0---0--------------------0-0-|
B|---3---3---3-------|-3---3------------------------|
G|---3---3-0-3-5p3-2-|---0-----------5p3/9------7-7-|
D|-2---3-------------|-------------7-------10-8-----|
A|-------------------|-------7h8-10-----------------|
E|-------------------|------------------------------|

E|--0-0---0---0-0---0-|--12--10---7---3---2---1--|
B|--2-2-------2-2-----|-----------8---3---2---2--|
G|--2-2-------2-2-----|--12--11---7---4---0---0--|
D|--------0---------0-|--------------------------|
A|0-----1---0-----1---|-0---0---0---0---0---0----|
E|----2---------2-----|--------------------------|

E|-2---3---5---7---9--10---|-9-7-9---5---7-------|
B|-3-3---3---7---7---7---7-|---7---7---7---7-7-7-|
G|-2-2---2---7---7---7---7-|---7---7---7---7-7-7-|
D|-0-----------------------|---------------------|
A|-0-----------------------|---------------------|
E|-0-----------------------|---------------------|

E|-2---3---5---7---9---10--|-9-7-9---5-----------|
B|-3-3---3---7---7---7---7-|---7---7---7-7-------|
G|-2-2---2---7---7---7---7-|---7---7---7---7-7-7-|
D|-0-----------------------|---------------7-7-7-|
A|-0-----------------------|---------------------|
E|-0-----------------------|---------------------|

E|----5---7-----------7---|----12--10----------------|
B|5-----------8-7-5-----8-|10----------12p10-7--10---|
G|--6---6---6---6---6---6-|--11--11--11--------7--11-|
D|--5---5---5---5---5-----|--12--12--12-----------12-|
A|0-----------------------|-0------------------------|
E|0-----------------------|-0------------------------|

----14--12------------0----|-----------0-----------|
12----------14p12-10-------|-12h14-10------8-------|
--12--12--12--------12--12-|---------12--6---6-6-6-|
--11--11--11--------11--11-|---------11--7---7-7-7-|
-0-------------------------|-----------------------|
-0-------------------------|-----------------------|

E|-------------------------|-----------------------|
B|---3---3---7---7---7---7-|----7----7---7---7-7-7-|
G|---2---2---7---7---7-7---|----7----7---7---7-7-7-|
D|-4---5---7---9--11-------|-11-9-11---7---9-------|
A|-0-----------------------|-----------------------|
E|-0-----------------------|-----------------------|

E|---3---3---7---7---7---7-|---7---7---7---------|
B|---3---3---8---8---8-8-8-|-7-8---8---8---8-8-8-|
G|-4---5---7---9--11-------|---9-11--7-----7-7-7-|
D|-5-----------------------|-------------9-------|
A|-------------------------|------------10-------|
E|-------------------------|---------------------|

E|-6---6--13-11-6-6-6---|-5---5--12-10----------|
B|-6-10--6--------------|-5-9---5------10----10-|
G|-7-----7------8-8---8-|-6-----6----------10---|
D|-6------------------8-|-5--------------0------|
A|-----------10---------|------------8----------|
E|----------------------|-----------------------|

E|-0-----0---6---------0---|-------------------0---|
B|---3-4---3---6-----------|-------8---6-----------|
G|---3-----3---------2-6p3-|-------7-3-------------|
D|-------------5-4-5-------|-------8---------------|
A|-------------------------|-7-6-7-----------0-3p1-|
E|-5-----------------------|-----------5-4-5-------|

E|----------------------<5>|-----------------|
B|3p2-3-------2p1-2--------|-----ПОВТОРИТЬ-С-|
G|2-----------0------------|-------1-ПО-33---|
D|3-------<0>-2-----<0>----|-----------------|
A|0-----------0------------|-----------------|
E|------0------------------|-----------------|

E|------------------5--8--6-|------------0--3--5--8--6-|
B|------------5--8----------|--------------------------|
G|---3--2--6----------------|---3--2--6----------------|
D|---3-----5----------------|---3-----5----------------|
A|------0--7-----------0----|------0--7-----------0----|
E|-0------------------------|-0------------------------|

E|5-------------------10-12-|-13-17-13-12-10---------------|
B|6-------------5-6-10------|---------------10-6-5---------|
G|------------7-------------|----------------------7-------|
D|----------7---------------|------------------------7-----|
A|--0-5-7-8-----------------|--------------------------8-7-|
E|0-------------------------|------------------------------|

E|-----------10=======-|
B|3=======---10=======-|
G|-----------10=======-|
D|3=======---0========-|
A|5=======---0========-|
E|-----------0========-|

Вверх

Маллёрка (Баркаролла) (2 вариант)

Строй:DADGBE
Размер: 6/8
                1                            2
E||----1-----4--------1-----4-----|----0-----------0---------|
B||----1-5-----6-5----1-5-----6-5-|----1-----1-----1-------1-|
G||--------4--------------4-------|----------2-----------2---|
D||----2--------------2-----------|------1-2---------1-2-----|
A||-0--------5-----0--------5-----|-0-----------0------------|
D||-------------------------------|--------------------------|

         3                     4
E|0-----------0-3-1--|-0-----------0-3-1--|
B|--------0-3--------|---------0-3--------|
G|---2--1------------|----2--1------------|
D|---2--0------------|----2--0------------|
A|0--3---------------|-0--3---------------|
D|-------------------|--------------------|

                 5                            6
E|-0h1p0-------0-1-----------------|----------------------|
B|-------3-1-3-----0h1p0---0-1-3-0-|1h3p1-0---0-----------|
G|-----------------1-----3---------|--------2-------1-----|
D|-------------2---0-----------2---|------------3-----3-2-|
A|-0-------------------------------|0-------------2-------|
D|---------------------------------|----------------------|

         7                      8                 9
E|-0-----------0-3-1-|-0-----------0-3-1-|0-----------------|
B|---------0-3-------|---------0-3-------|---1----3-1-----1-|
G|----2--1-----------|----2--1-----------|---0--------3-1---|
D|----2--0-----------|----2--0-----------|---2--3-----------|
A|-0--3--------------|-0--3--------------|3-----------------|
D|-------------------|-------------------|------------------|

         10                  11                   12
E|-------8----------|-3-----------5-7---|1-3-4-1--------------|
B|-------8-----5----|---------5-8-----8-|--------1-3----1--3--|
G|----5--9--5-------|----4--5-----------|--------1------------|
D|-5----------------|----5--5-----------|--------3---5--------|
A|-3--7-------------|-3--8--7-----------|3-----------7--------|
D|-------10---------|-------------------|---------------------|

            13                          14
E|-0-----------------0-3-1-|-0-----------------0-3-1-|
B|-------------1-0-1-------|-------------1-0-1-------|
G|---------0---------------|---------0---------------|
D|-----0-2---3-2-----------|-----0-2---3-2-----------|
A|-2-----------0-----------|-2-----------0-----------|
D|---6---------------------|---6---------------------|

              15                  16
E|0-1-0-------0--------|-----------------------1-|
B|1-----3-1-3-----1----|-0-----------0-1-0---0---|
G|0-------1---0--------|-2-----------2-----3-----|
D|--------3------------|-0-2-0---0-2-3-------0---|
A|3-----------3--------|-------4-----------------|
D|---------------------|-------------------------|

              17                    18
E|-----------5-4-----------|0-----------0-3-1--|
B|-------3-6-----6-3-------|--------0-3--------|
G|-1-2-4-------------4-----|---2--1------------|
D|-3-------------------6-3-|---2--0------------|
A|-2-----------------------|0--3---------------|
D|-------------------------|-------------------|

                 19                         20
E|-0-----------0-3-1--|-0h1p0-------0-1-----------------|
B|---------0-3--------|-------3-1-3-----0h1p0---0-1-3-0-|
G|----2--1------------|-----------------1-----3---------|
D|----2--0------------|-------------2---------------2---|
A|-0--3---------------|-0-------------------------------|
D|--------------------|---------------------------------|

              21                22                  23
E|----------------------|-5-----------5-8-6-|-5----------------|
B|1h3p1-0---0-----------|----5------6---6---|---2--3-----------|
G|--------2-------1-----|---------7---------|---2--------------|
D|------------3-----3-2-|---------------7---|------------2-5-3-|
A|0-------------2-------|-4-----5-----------|--------0-5-------|
D|----------------------|-------------------|-2----3-----------|

         24                    25                 26
E|------------------|--------------------|---------------3---|
B|------------------|----0--1------------|-1--1--0-----------|
G|---1--2-------0---|-----------------2--|-2--2--0-----------|
D|2--0--------2---3-|-2--3--2-------2----|---------------1-2-|
A|------3-2-3-------|-------0---0-3------|----3--------3-----|
D|------------------|----6----6----------|-3-------4-5-------|

         27                    28                     29
E|1--------------1-|-------------------8-6-----|---------------|
B|--------3---1----|-----------8-6---6-----8-6-|-3-1-----------|
G|2-------0---2--2-|-------7-8-----7-----------|-----3-0-------|
D|0---0-2---3-2--1-|-----8---------------------|---------3-0-3-|
A|--0---------0----|-8-5-----------------------|-1-------------|
D|-----------------|-8-------------------------|---------------|

            30                  31
E|------------------2-4-7-|-4-1-------------|
B|--------------3-5-------|-----3-------5---|
G|----------1-4-----------|-------4-1-------|
D|------2-3---6-----------|-----------3-----|
A|--2-5-------5-----------|-----------------|
D|6-----------2-----------|-2---------------|

            32                       33
E|---------0---2---4---5---|4-2-4---0---2-------|
B|-2---3-----2---2---2---2-|--2---2---2---2-2-2-|
G|-2-2---2---2---2---2---2-|--2---2---2---2-2-2-|
D|---2---2-----------------|--------------------|
A|-0-----------------------|--------------------|
D|-------------------------|2-------------------|

               34                     35
E|---------0---2---4---5---|-4-2-4---0-----------|
B|-2---3-----2---2---2---2-|---2---2---2-2-------|
G|-2-2---2---2---2---2---2-|---2---2---2---2-2-2-|
D|---2---2-----------------|---------------2-2-2-|
A|-0-----------------------|---------------------|
D|-------------------------|-2-------------------|

           36                     37
E|----0---2-----------2---|-----7---5---------------|
B|0-----3---3-3-2-0-----3-|-5-----------7-5-----5---|
G|2-1---1---1-------1---1-|---6---6---6-----6-----6-|
D|--0---------------------|-7-7---7---7-------7---7-|
A|0-----------------------|-------------------------|
D|------------------------|-7-----------------------|

           38                      39
E|-----9---7---------------|2-4-----------------|
B|-7-----------9-7---------|--3-5-3-----3-------|
G|---7---7---7-----9-7-----|------1-4-1---1-1-1-|
D|-7-6---6---6-------6-9-6-|----------2---2-2-2-|
A|-------------------------|--------------------|
D|-7-----------------------|--------------------|

          40                       41
E|-------------------------|---------------------|
B|-------2---2---2---2---2-|---2---2---2---2-2-2-|
G|---2---2---2---2---2-2---|-1-2---2---2---2-2-2-|
D|---2-0---2---4---6-------|---4-6---2---4-------|
A|-4-----------------------|---------------------|
D|-------------------------|---------------------|

           42                      43
E|--------5---7---9---10---|-9-7-9---5-----------|
B|7---8-----7---7---7----7-|---7---7---7-7-------|
G|--7---7---7---7---7----7-|---7---7---7-7-7-7-7-|
D|--7----------------------|-------------0-7-7-7-|
A|5------------------------|---------------------|
D|-------------------------|---------------------|

           44                      45
E|---------8---6---------|--------7---5---------|
B|-6-5-6-----6-------6---|5-4-5-------------5---|
G|---5---5---5-7---------|7-----4---4-6---------|
D|---------------8-8---8-|--6---6-------7-7---7-|
A|-6-----------5---------|5-----------4---------|
D|-----------------------|----------------------|

           46                      47
E|-------------------5-7-9-|-10-----9------------------|
B|-------------3-5-7---7---|-7------9-10---------------|
G|-2---4---6---2---7---7---|-7----9---9------6-4h6p4-7-|
D|-4-4---4---4-4---7-------|----------11---------------|
A|-------------2-----------|-7--7-----12-6-7-----------|
D|-4-----------------------|---------------------------|

          48                       49
E|------------------------|-----0---0---0---0-0-|
B|--3---3---3---3---3---3-|---3-3---3---3---3-3-|
G|--1---1---1---1---1---1-|---1---4-2---2-------|
D|----2---4---0-------2---|-2---4-----4---2-----|
A|2-------------4-2-------|---------------------|
D|------------------------|---------------------|

          50                       51
E|-8---7-8-7---7---5-----|1---0-1-0---0---------|
B|---5-------5---6---8---|--0-------------3-1---|
G|---5-------5---5-----5-|--1-------2---1-----2-|
D|-7-------5-----------5-|0---------2---3-----2-|
A|-------------8-----7---|--------3---2-----0---|
D|-----------------------|----------------------|

          52                       53
E|-------------------------|-----------------------|
B|---------------0---0---0-|-----------0-0-0---0-0-|
G|---2---2---2-0-2---2---2-|---2---2---2---0---2-2-|
D|---3---3-------3-2---0---|---3-0-2-5-3-----3-----|
A|-2---3---5---------------|-2-3-------------------|
D|-------------------------|-----------------------|

          54                          55
E|--------------------|---7---5------------------|
B|--0-0---0---0-0---0-|---7---5---7--------------|
G|--1-1---2---1-1---2-|---7---6---7---7---6---5--|
D|2-----3---2-----3---|-----------7---7---6---6--|
A|----2---------2-----|-7---7---7---7-9-7-5-7-5--|
D|--------------------|--------------------------|

           56                        57
E|---------0---2---4---5---|4-2-4---0---2-------|
B|-2---3-----2---2---2---2-|--2---2---2---2-2-2-|
G|-2-2---2---2---2---2---2-|--2---2---2---2-2-2-|
D|---2---2-----------------|--------------------|
A|-0-----------------------|--------------------|
D|-------------------------|2-------------------|

           58                      59
E|---------0---2---4---5---|-4-2-4---0-----------|
B|-2---3-----2---2---2---2-|---2---2---2-2-------|
G|-2-2---2---2---2---2---2-|---2---2---2---2-2-2-|
D|---2---2-----------------|---------------2-2-2-|
A|-0-----------------------|---------------------|
D|-------------------------|-2-------------------|

           60                          61
E|----0---2-----------2---|-----7---5---------------|
B|0-----3---3-3-2-0-----3-|-5-----------7-5-----5---|
G|2-1---1---1-------1---1-|---6---6---6-----6-----6-|
D|--0---------------------|-7-7---7---7-------7---7-|
A|0-----------------------|-------------------------|
D|------------------------|-7-----------------------|

           62                         63
E|-----9---7---------------|2-4-----------------|
B|-7-----------9-7---------|--3-5-3-----3-------|
G|---7---7---7-----9-7-----|------1-4-1---1-1-1-|
D|-7-6---6---6-------6-9-6-|----------2---2-2-2-|
A|-------------------------|--------------------|
D|-7-----------------------|--------------------|

            64                         65
E|-------------------------|---------------------|
B|-------2---2---2---2---2-|---2---2---2---2-2-2-|
G|---2---2---2---2---2-2---|-1-2---2---2---2-2-2-|
D|---2-0---2---4---6-------|---4-6---2---4-------|
A|-4-----------------------|---------------------|
D|-------------------------|---------------------|

           66                         67
E|-------------7---9---10---|-9-7-9----------------|
B|7---8---10-7---7---7----7-|---7---7-10-7-7-------|
G|--7---7----7---7---7----7-|---7---7----7-7-7-7-7-|
D|--7-----------------------|--------------0-7-7-7-|
A|5-------------------------|----------------------|
D|--------------------------|----------------------|

           68                        69
E|---------8---6---------|--------7---5---------|
B|-6-5-6-----6-------6---|5-4-5-------------5---|
G|---5---5---5-7---------|7-----4---4-6---------|
D|---------------8-8---8-|--6---6-------7-7---7-|
A|-6-----------5---------|5-----------5---------|
D|-----------------------|----------------------|

           70                           71
E|---------1---------------|---------1---------------|
B|-0---0-------1-------0---|-0---0-------1-------0---|
G|---3---2---2---------0---|---3---2---2---------0---|
D|-0-----3---3-0---0-2---3-|-0-----3---3-0---0-2---3-|
A|---------------4---------|---------------4---------|
D|-------------------------|-------------------------|

         72                   73
E|---------------12---|-4-3-4-------|--------------------|
B|10-9--10------------|-----3-----3-|повторить-----------|
G|---9--9-------------|---4-4-------|-такты с 1 по 31 ---|
D|---10---------------|-2-6----2----|--------------------|
A|7----------7--------|-------------|--------------------|
D|--------------------|-2------2----|--------------------|

         74                    75
E|---------------0-3-1-|--------------0-3-1-|
B|-----------0-3-------|----------0-3-------|
G|-2-------1-----------|-2-------1----------|
D|----3--2---------2---|----3--2------------|
A|-0-------2-----------|-0-------2----------|
D|---------------------|--------------------|

          76                           77
E|------------------5-7-8---|-5-7-5--------------------|
B|5---------------5-------5-|-------5------------------|
G|5-------------5-----------|---------5-4-----5-4------|
D|------------7-------------|-------------7-------7-2--|
A|--6-7-3---7---------------|---------------7-3-2-0----|
D|7-------10----------------|-----------------------2--|

          78
E|----------------5====-|
B|----1====------5=====-|
G|---2=====-----5======-|
D|--2======----2=======-|
A|-0=======---0========-|
D|----------------------|

Вверх
English songs 109

ABBA
AC-DC
Adams Bryan
Adriano Celentano
Aerosmith
A-Ha
Animals
Antonio Banderos
Apocalyptica
Armstrong Louis
Billy's Band
Bjork
Blink 182
Blondie
Blur
Bob Dylan
Boney M
Bon Jovi
Bowie David
Brainstorm
Braxton Toni
Butch
Celine Dion
Chris De Burgh
Chris Isaak
Chuck Berry
Clapton Eric
Cohen Leonard
Cranberries
Deep Purple
Depeche Mode
Dire Straits
Donovan Jason
Eagles
Electric Light Orchestra
Elton John
Elvis Presley
Era
Europe
Evanescence
Garbage
Gary Moore
Glen Wiston
Gorillaz
Green Day
Guano Apes
Guns N Roses
Hendrix Jimi
Iggy Pop
Iron Maiden
Joe Dassin
Kansas
King Crimson
Kiss
Led Zeppelin
Leonard Cohen
Limp Bizkit
Linkin Park
Louis Amstrong
Madonna
Marilyn Manson
Marley Bob
Metallica
Moby
Morricone Ennio
Muse
Nazareth
Nelly Furtado
Nick Cave
Nirvana
No Doubt
Oasis
Offspring
Ottawan
Outkast
Ozzy Osbourne
Pain
Para Bellum
Pink Floyd
Placebo
P.O.D.
Queen
RadioHead
Rainbow
Rammstein
Rea Chris
Red Hot Chili Peppers
Ritchie Blackmore
Rolling Stones
Roxette
Rufus Wainwright
Santana
Sarah Brightman
Scorpions
Sex Pistols
Simon & Garfunkel
Shocking Blue
Soul Asylumx
Status Quo
Sting
System of a down
Sum 41
The Beatles
The Doors
Tito & Tarantula
U2
UB 40
Uriah Heep
Van Halen

Українські пісні 109

Boom Box
Escape
Flit
Kapela Drewutnia
Lama
LЮK
Mad Heads (XL)
Motor' rolla
NEON
Ot Vinta
The Вйо
Абздольц
Аероплан
Акорд
Ані Лорак
Бандурна розмова
Білик Ірина
Борщ
Брати Гадюкіни
Вася Club
Вій
Воплі Відоплясова
Гайдамаки
Гончар Олесь
Гринжоли
Гроно
Гуляйгород
Дарка і Славко
Дивні
Друга Ріка
Другий подих
Дударик
Експампей
Євтушенко Андрій
Жарівка (Дяк Олесь)
Журбовіз
Зібров Павло
Зінкевич Василь
Злотник Олександр
Івасюк Володимир
Калєкція
Карна
Карпа Ірена
Клямка
Козловський Віталій
Кому вниз
Крихітка Цахес
Курінь
Лесик-Band
Лорд Юрія
Львівські музики
Мандри
Менестрелі
Мері
Мертвий Півень
Міпеніум
Монте Крісто
Морозов Віктор
Нахтіґаль
Не журись!
Неборак Віктор
НеДІля
НЕМО
Нічлава блюз
Океан Ельзи
ПереBANDя
Перкалаба
Петрович
Піккардійська Терція
Піпа Олександр
Плач Єремїі
Пономарьов Олександр
Пророк
Росава
Ротару Софія
Руслана
Рутенія
С.К.А.Й.
САД
Самі свої
Серцевий Напад
Скрябін
Смерічка
Сокира Перука
Соколи
Таліта Кум
Тартак
Тінь сонця
Ткач Михайло
ТНМК
Тостер
Тріо Мареничів
Фарбований лис
Фестиваль Снів
Хвилю тримай
Цісик Квітка
Черемош
Черемшина
Четвертий кут
Чорний вересень
Чорні черешні
Шевченко Тарас
Щастя
Юркеш
Юрченко Юрко
Юрчишин Ярослав
Явір
Яка існуЄ
Яремчук Назарій

   
 sait@i.ua



Рейтинг@Mail.ru