accordS-land.ru Аккорды и табулатуры к гитаре.
Главная | Песенник | Аккорды | Учебник
Руссике песни 180
5nizza
7Б
9-й Район
Animal ДжаZ
Billy's Band
Butch
Para Bellum
TequilaJazzz
Worms
Zdob Si Zdub
Автоматические удовлетворители
Агата Кристи
Агузарова Жанна
Агутин Леонид
Адо
Аквариум
Алиса
Алсу
Амирамов Е.
Антонов Ю.
Арефьева Ольга
Ария
АукцЫон
Барыкин
Башаков Михаил
Башлачев Александр
БекХан
Бернес М.
Би - 2
Бони неМ
Борзов Найк
Боярский Михаил
Браво
Братья Грим
Ва-Банкъ
Вертинский Александр
Визбор Юрий
Високосный год
Воскресенье
Восьмая Марта
Высоцкий В.С.
Високосный год
Газманов О.
Галич Александр
Герман А.
Городницкий Александр
Глызин А.
Градский Александр
Гражданская Оборона
Гребещенков
Данко
ДДТ
Дидюля
Диоды
Дискотека Авария
Дягилева Янка
Ёлка
Жуки
Заблудовский Андрей
Запрещенные Барабанщики
Звери
Земляне
Земфира
Зинчук Виктор
Зоопарк
Иван Кайф
Иванов А.
Иваси
ИЗ КИНО И МУЛЬТФИЛЬМОВ
Империя
Калинов мост
Кашин Павел
Кельми К.
КИНО
Кипелов
Конец Фильма
Контингент
Корни
Король и Шут
Коррозия металла
Крематорий
Крупнов Анатолий
Кузьмин Владимир
Куликов Е.
Кукрыниксы
Курехин Сергей
Лаэртский Александр
Ласковый май
Ленинград
Леонидов Максим
Лесоповал
Лещенко Л.
Линда
Лицей
Лоза Юрий
Любэ
Люмен
Ляпис Трубецкой
Мальчишник
Манго-манго
Мара
Маркин В.
Маршал Александр
Маша и медведи
Машина времени
Мечтать
Мистер Кредо
Митяев Олег
Многоточье
Монгол Шуудан
Моральный Кодекс
Мультfильмы
Мумий Тролль
Настя
Науменко Майк
Наутилус Помпилиус
Непара
Неприкасаемые
Несчастный случай
Никоваев И.
Никольский Константин
Ногу свело
Ноль
Носков Николай
Ночные Снайперы
Окуджава Булат
Оркрист
Осин Е.
Оскар
Отиева И.
Паперный Т.А.М.
Парк Горького (Gorky Park)
Пикник
Пилот
Пламя
Полковник и однополчане
Пугачева А.
ПЭХ
Приключения Электроников
Просто прикольные песни
Рада и Терновник
Римский-Корсаков
Розенбаум Александр
Рок-Острова
Рондо
Сансара
Саруханов
Сегодня Ночью
Секрет
Сектор газа
Сенчина Л.
СерьГа
Смысловые Галлюцинации
Сплин
Солодуха А.
Старые блатные песни
Сукачев Гарик
Сурганова и Оркестр
Сюткин Валерий
Тальков Игорь
Танцы минус
Тараканы
Тату
Технология
УмаТурман
Умка и Броневичок
Ундервудъ
Фабрика звезд
Х.З. (Хуй Забей)
Центр
ЧайФ
Черный кофе
Черный Лукич
Чиж и Ко
Чистяков Федор
Шанхай
Щербаков Михаил
Ю-Питер

Классика 22

Албениз Исаак
Албениз Матео
Бах Иоган Себостьян
Бетховен Людвиг ван
Бизе Жорж
Брамс Иоганнес
Вивальди Антонио
Гендель Георг Фридрих
Гершвин Джордж
Григ Эдвард
Дебюсси Клод
Камиль Сен-Санс
Мендельсон
Моцарт Вольфгант Амадей
Мусоргский Модест Пертрович
Норис Крис
Огинский Михал Клеофас
Паганини Никколо
Рахманинов Сергей Васильевич
Римский-Корсаков
Чайковский Пётр Ильич
Шуберт Франц
 

Аккорды и табулатуры.  Моцарт Вольфгант Амадей . Все песни

Моцарт Вольфгант Амадей

Аллегро из интерлюдии к фуге № 13 К. 253
Концерт для фортепьяно №21 в C, 2-ая часть Анданте, К.467
Маленькая пьеса в С
Маленькая серенада, 1- ая часть К.525
Рондо в турецком стиле (Соната №331 в A)
Рэквием в Dm, Лакримоса К.626
Симфония №25 - главная тема K.183
Симфония №40 g-moll
Соната для фортепьяно в G, 3-ая часть К.283
Вверх

Аллегро из интерлюдии к фуге № 13 К. 253

Часть 1

Размер = 2/4

E|---|-3-|-7-|-10--7--10--7-|-10---3-|-2--0-----3-|-2--0-------|
B|-3-|---|---|--------------|--------|-------3----|-------3--3-|
G|---|---|---|--------------|--------|------------|------------|
D|---|---|---|--------------|--------|------------|------------|
A|---|---|---|--------------|------2-|-3-----2----|-3-----2----|
D|---|---|---|--------------|--------|------------|------------|

E|-8--7-|-5-3-2-0-----|-3-|-7-|-10--7--10--7-|-10--3-|-2-0---3-|
B|------|---------3-3-|---|-0-|--------------|-------|-----3---|
G|------|-------------|-0-|---|--------------|-------|---------|
D|------|-------------|---|---|--0------0----|--0----|---------|
A|------|-------------|---|---|--------------|-----2-|-3---2---|
D|-4--5-|-0-----------|-5-|-9-|-----9------9-|-------|---------|

E|-2--0-----7-|--8----5-|--3-|
B|------------|--10---7-|--0-|
G|-------7----|---------|----|
D|------------|-------0-|----|
A|-3----------|---------|----|
D|-------9----|--10-----|--5-|

Часть 2

E|--6/7--6/7-|-5--3--2--0-|----0--2----|
B|-----------|------------|-4--------4-|
G|-----------|-------2--0-|------------|
D|-----------|-2----------|-4----------|
A|-----------|------------|-2----------|
E|-----------|------------|------------|

E|-0--2--3--4-|-4/5--4/5-|-3--2--0----|-------0----|-----------|
B|------------|----------|----------3-|-2--3-----2-|-3-----3-3-|
G|-0----------|----------|-------0----|------------|----2------|
D|------------|----------|-0--------4-|-2----------|-4---------|
A|------------|----------|------------|-0----------|-----------|
D|-2----------|----------|------------|------------|-0---------|

E|----0-------|--5---0--0-|----0-------|-5---0--0-|
B|-6-----6----|-----------|-6-----6----|----------|
G|----------7-|--6--------|----------7-|-6--------|
D|------------|-----------|------------|----------|
A|------------|--0--------|------------|-0--------|
E|-6----------|-----------|-6----------|----------|

E|-9--10--9--10-|-12--------|------------|
B|--------------|---------7-|-5----------|
G|-0------------|-----12----|----7-----6-|
D|------------0-|---------0-|------------|
A|-----9--7-----|-----------|-------0----|
D|--------------|-11--------|-5----------|

E|-----------|-----------|-----------|------------|------------|
B|-3-------3-|-6---------|-----------|-4----------|----------0-|
G|-----------|-----------|---------5-|------------|------------|
D|-------0-0-|---6--6--6-|-7--6--7---|----4--4--4-|-5--4--5----|
A|----0------|-8---------|---------3-|-6----------|----------2-|
D|-0---------|---6--6--6-|-7--6--7---|----4--4--4-|-5--4--5----|

E|-----------|-0---------|-2---------|-3----------|-5----------|
B|-3---------|-----------|---1--1--1-|----0--0--0-|------------|
G|-----------|-----------|-----------|------------|----5--5--5-|
D|---3--3--3-|---2--2--2-|---0--0--0-|----2--2--2-|----4--4--4-|
A|---2--2--2-|---3--3--3-|-----------|------------|------------|
D|-----------|-----------|-----------|------------|------------|

E|--7----------|-9----------|--10-|
B|-----0--0--0-|----8--8--8-|---7-|
G|-------------|------------|-----|
D|-----5--5--5-|----7--7--7-|---0-|
A|-------------|------------|-----|
D|-------------|------------|-----|

Повторить часть 1 затем играть часть 3.

Часть 3

E|---|------|------|-------|------10-|-8-----8----|-7-----5--3-|
B|---|------|------|-------|---------|------------|------------|
G|-0-|-0--0-|-0--2-|-2--2--|--2------|------------|------------|
D|---|-3--3-|-2----|-5--5--|--4------|------------|------------|
A|---|-2--2-|-3----|-4--4--|--5------|----0-------|----2--0----|
D|---|------|------|-------|---------|-0-----4--0-|-5--------5-|

E|-10-----|-3-----|------|------|-------|------10-|-8-----8----|
B|--------|-------|------|------|-------|---------|------------|
G|------7-|-----0-|-0--0-|-0--2-|-2--2--|--2------|------------|
D|--0-----|-------|-3--3-|-2----|-5--5--|--4------|------------|
A|--------|-------|-2--2-|-3----|-4--4--|--5------|----0-------|
D|------0-|-5-----|------|------|-------|---------|-0-----4--0-|

E|-7---5--3-|-10---|---7---|-7----10---|----7----|-7-----10----|
B|----------|------|-8---8-|---8-----7-|-8-----8-|----8------7-|
G|----------|----7-|-------|-----------|---------|-------------|
D|----------|--0---|-------|-----------|---------|-------------|
A|---2-0----|------|-------|-----------|---------|-------------|

E|--3---------|------------|----3-|--3-|
B|--0---------|----0--3--0-|----3-|--3-|
G|------0---0-|-0----------|-0--4-|--4-|
D|------------|-------0----|----5-|--5-|
A|------------|----2-----2-|------|--5-|
D|--5---5---5-|-5----------|-5----|--5-|

Вверх

Концерт для фортепьяно №21 в C, 2-ая часть Анданте, К.467

E|---------------------------------|
B|---------------------------------|
G|---------------------------------|
D|------4---4---4-------4---4---4--|
A|------0---0---0-------0---0---0--|
D|--0--(0)-(0)-(0)--0--(0)-(0)-(0)-|

E||------------------2--(2)-(2)------|
B||--3--(3)-(3)--------------------3-|
G|*--------------2-------------------|
D|*------4---4-----------4---4---4---|
A||------0---0-----------0---0---0---|
D||--0--(0)-(0)-(0)--0--(0)-(0)-(0)--|

E|--5-----------------------3-2-0---|
B|--------------------------------3-|
G|----------------------------------|
D|------4---4---4-------4---4---4---|
A|------0---0---0-------0---0---0---|
D|--0--(0)-(0)-(0)--0--(0)-(0)-(0)--|

E|----------0----------------------|
B|--4------------------------------|
G|------0---0---0-------0---0---0--|
D|------2---2---2-------2---2---2--|
A|--0--(0)-(0)-(0)--0--(0)-(0)-(0)-|
D|---------------------------------|

E|--------------------------0--(0)-|
B|------------------2--(2)---------|
G|--2--(2)-(2)-(2)------0---0---0--|
D|------5---5---5-------2---2---2--|
A|--0--(0)-(0)-(0)--0--(0)-(0)-(0)-|
D|---------------------------------|

E|--3--(3)-(3)-(3)-(3)--7---5---3--|
B|---------------------------------|
G|------0---0---0-------0---0---0--|
D|------2---2---2------------------|
A|--0---------------0--(0)-(0)-(0)-|
D|---------------------------------|

E|------2---2----------------------|
B|--6------------------------------|
G|------2---2---2------------------|
D|------4---4---4-------4---4---4--|
A|----------------------0---0---0--|
D|--0--(0)-(0)-(0)--0--(0)-(0)-(0)-|

E|--5--(5)-(5)-(5)-----------------|
B|------3---3---3-------3---3---3--|
G|------5---5---5-------5---5---5--|
D|---------------------------------|
A|---------------------------------|
D|--4--(4)-(4)-(4)--4--(4)-(4)-(4)-|

E|---------------------------------|
B|------3---3---3-------3---3---3--|
G|------4---4---4-------4---4---4--|
D|------------------5--(5)-(5)-(5)-|
A|--0------------------------------|
D|------5---5----------------------|

E|--7--(7)-(7)-(7)----------------|
B|------6---6---6-------6---6---6-|
G|------7---7---7-------7---7---7-|
D|--------------------------------|
A|--------------------------------|
D|--6--(6)-(6)-(6)--6--(6)-(6)--6-|

E|----------5--(5)-(5)-(5)--3-2-----|
B|------------------------------5-3-|
G|------2---2---2-------2---2---2---|
D|------4---4---4-------4---4---4---|
A|--0--(0)-(0)-(0)--0--(0)-(0)-(0)--|
D|----------------------------------|

E|----------------------------------||
B|--2--(2)-(2)-(2)-(2)-(2)-(2)--0-2-||
G|------0---0---0-------0---0---0---*|
D|------2---2---2-------2---2---2---*|
A|--0--(0)-(0)-(0)--0--(0)-(0)-(0)--||
D|----------------------------------||

E|------------------------------2---|
B|--3-----------------------------3-|
G|----------------------------------|
D|--4-------------------------------|
A|----------------------------------|
D|--0-------------------------------|

E|--5-------5-------5-------5-------|
B|------2---2---2-------2---2---2---|
G|------0---0---0-------0---0---0---|
D|----------------------------------|
A|--0--(0)-(0)-(0)--0--(0)-(0)-(0-)-|
D|----------------------------------|

E|--5------10---------------2-------|
B|----------7---------------3-----3-|
G|----------------------------------|
D|------0---0---0-------4---4---4---|
A|----------------------------------|
D|--0--(0)-(0)-(0)--0--(0)-(0)-(0)--|

E|--5-------5-------5-------3---2-0-|
B|------2---2---2-------2-------2---|
G|------0---0---0-------0-------0---|
D|----------------------------------|
A|--0--(0)-(0)-(0)--0--(0)-(0)-(0)--|
D|----------------------------------|

E|------------------5-|-10-|
B|--3---------------7-|--7-|
G|--------------------|----|
D|--4---------------0-|----|
A|--------------------|----|
D|--0-----------------|--0-|

Вверх

Маленькая пьеса в С

E||---3-|-0-----------|-------------|--------------|-----------|
B||-----|----1--0--3--|--1----------|--------0--0--|--1--------|
G||*----|-------------|-----0----0--|--2--2--------|---------0-|
D||*----|-------0-----|--2-------2--|--3--3--0--0--|--2------2-|
A||-----|-3-----------|-------------|--------------|--3--------|
E||-----|-------------|-------------|--------------|-----------|

E|------------|--------0-|------------|-----------|------------|
B|-------0--0-|-1--------|-3--------1-|-0---------|----------0-|
G|-2--2-------|----------|----0-------|----0----0-|-2--1--2----|
D|-3--3--0--0-|-2--------|-------4----|-----------|-------0----|
A|------------|-3------3-|-2-----0----|---------2-|-3----------|
E|------------|----------|------------|-3---------|------------|

E|----------|--------------|----||--3-|-3----------|-----------|
B|----------|------------0-|----||----|----5--5--2-|-2---------|
G|-0------0-|--2-1-2-1-2---|-0-*||*---|------------|------0--2-|
D|-2--------|------------0-|---*||*---|------------|-----------|
A|--------2-|--3-----------|----||----|------------|-0---------|
E|----------|--------------|-3--||----|------------|-----------|

E|-------0----|-1------1-|-1----------|-----------|------------|
B|-3----------|----------|----3--3--0-|-0---------|-1-----3----|
G|----2-----2-|----------|------------|---------0-|----0-----0-|
D|-3----------|-0--------|------------|------3----|-2----------|
A|-------4----|----------|------------|-----------|-------2----|
E|------------|----------|------------|-3---------|------------|

E|-0------3-|-0----------|-----------|-------------|-----------|
B|----------|----1--0--3-|-1---------|-------0--0--|--1--------|
G|----------|------------|----0----0-|-2--2--------|---------0-|
D|----------|-------0----|-2-------2-|-3-----0-----|--2------2-|
A|-3--------|-3----------|-----------|-------------|--3--------|
E|----------|------------|-----------|-------------|-----------|

E|------------|---------|----------0-|----------|------------0-|
B|-------0--0-|-1-----1-|-3--2--3----|-1------1-|-3-2-3-2-3----|
G|-2--2-------|---------|-------0----|-2--------|------------0-|
D|-3-----0----|-2-----2-|-3----------|--------2-|-3------------|
A|------------|-3-------|------------|----------|--------------|
E|------------|---------|------------|----------|--------------|

E|----------|
B|-1--------|
G|--------*-|
D|--------*-|
A|-3--------|
E|----------|

Вверх

Маленькая серенада, 1- ая часть К.525

Размер: 4/4
Темп: Allegro

E|--3---------------3---------------|3-------3---7---10-|
B|--------------3---------------3---|----3--------------|
G|-*4---------------0---------------|0-------0---4---7--|
D|-*------------0---------------0---|----0--------------|
A|--5-------------------------------|-------------------|
E|--3-------------------------------|-------------------|

E|-8-----------5---8-----------5---|8---5---2---5-----|
B|---------------------------------|----------------3-|
G|-5-----------2---5-----------2---|5---2-------2-----|
D|---------------------------------|--------4-------0-|
A|---------------------------------|------------------|
E|---------------------------------|------------------|

E|-3-------3-----------7---5---3-|--------------------5--8-----|
B|-3---3---3---3---3---3---3---3-|8---7---7-----------7--7---7-|
G|-4---4---4---4---4---4---4---4-|5---5---5---5---5---5--5---5-|
D|-5---5---5---5---5---5---5---5-|5---5---5---5---5---5--5---5-|
A|-------------------------------|-----------------------------|
E|-------------------------------|-----------------------------|

E|-5---3---3-----------7---5---3-|--------------------5--8-----|
B|-3---3---3---3---3---3---3---3-|8---7---7-----------7--7---7-|
G|-4---4---4---4---4---4---4---4-|5---5---5---5---5---5--5---5-|
D|-5---5---5---5---5---5---5---5-|5---5---5---5---5---5--5---5-|
A|-------------------------------|-----------------------------|
E|-------------------------------|-----------------------------|

E|-3---3---3-2-0-2-3---3---7-5---5-|7---7---10---------10-|
B|-0-------1-------3-----------8---|8---------13-12-13-12-|
G|-------------------------5-------|--------11------------|
D|---------------------------------|----------------------|
A|---------0-------2-------5-------|7-------9----------10-|
E|-3-------------------------------|----------------------|

E|---------------------------------|--------------------------|
B|-3---------------5---------------|3---1---1-------1---0---0-|
G|-4---------------5---------------|4---2---2-------2---0---0-|
D|---------------------------------|0---------------2---------|
A|---------------------------------|--------------------------|
E|---------------------------------|--------------------------|

E|---------------------------------|------------------|
B|-0-------------------------------|------------------|
G|-0---2---2-----------------------|0-------2-------4-|
D|-----2---2-------5---4---2---4---|0-------4-------5-|
A|-3---------------5---------------|2-------5---------|
E|---------------------------------|------------------|

E|------------------------------|------------------------------|
B|-3---------------5------------|3---1---1---1---1---0---0---0-|
G|-4---------------5------------|4---2---2---2---2---0---0---0-|
D|------------------------------|0---------------2-------------|
A|------------------------------|------------------------------|
E|------------------------------|------------------------------|

E|------------------------------|------------------------------|
B|-0----------------------------|------------------------------|
G|-0---2---2---2----------------|------------------------2-----|
D|-----2---2---2---5---4---2--4-|5-------------------4-5-----5-|
A|-3---------------5------------|------------------------------|
E|------------------------------|3---3---3---3---3---3---3---3-|

E|------------------------------|------------------------------|
B|------------------------------|3---3---3---3---5---5---7---7-|
G|-4-------------------2-4-5--2-|4---4---4---4---5---5---5---5-|
D|------------------------------|------------------------------|
A|------------------------------|------------------------------|
E|-3---3---3---3---3---3---3--3-|3---3---3---3---3---3---3---3-|

E|-3---3---5---5---7---7---9--9-|10--------------9-------9-----|
B|-3---3---3---3---3---3---8--8-|------------10--------8-----8-|
G|------------------------------|11--11--11--11--9---9---9---9-|
D|------------------------------|0---0---0---0---0---0---0---0-|
A|------------------------------|------------------------------|
E|-3---3---2---2---3---3---0--0-|------------------------------|

E|-10--------------9-------9-----|10--10----10------10------10-|
B|-------------10--------8-----8-|7---7-----7-------7-------7--|
G|-11--11--11--11--9---9---9---9-|-----------------------------|
D|-0---0---0---0---0---0---0---0-|0-------------0--------------|
A|-------------------------------|----7--9--7-------7---9---7--|
E|-------------------------------|-----------------------------|

E|-10--10------10------10-----10-|9------10------9------10-----|
B|-------------------------------|---10------10-----10------10-|
G|-9---9-------9-------9------9--|9------11------9------11-----|
D|-----7---9---7-------7---9--6--|-----------------------------|
A|-10--------------10------------|0--0---0---0---0--0---0---0--|
E|-------------------------------|-----------------------------|

E|-9-----------------|
B|-10----------------|
G|-----2-2-2---2---2-|
D|-------------------|
A|-0---0-0-0---0---0-|
E|-------------------|

E|-5------------320--------7-------|----------------5---------|
B|-----------------3---------------|8-------5-----------------|
G|-2-----------------------4-------|9---------------2---------|
D|-----------------0-------4-------|9-------5-------2---------|
A|-------------------------6-------|7-------5-------4-------4-|
E|---------------------------------|------------------------5-|

E|-2-----------------------3----|2---------------0-------------|
B|--------------5320-------5----|3---------------2-------------|
G|------------------------------|--------2-------2---1---0-----|
D|---------2-------0------------|----------------------------2-|
A|---------1-------2------------|0-----------------------------|
E|-------------------------3----|------------------------------|

E|----5---5---5---5---5---5---5-|5---5---5---5---5---5---7---9-|
B|------------------------------|------------------------------|
G|-2----------------------4-----|0---------------2-------0-----|
D|-0----------4---0-------4-----|--------2---------------------|
A|--------4---------------6-----|--------5-------4-------0-----|
E|--------0-------2-------------|0-----------------------------|

E|-9---10------7---7---5--------|-----------5---10--9----------|
B|-------------8---8---7------2-|3----------------------12--10-|
G|-0--------------------------0-|------------------------------|
D|------------------------------|4--4---5---5---7---7----------|
A|-----9-----------0-------0----|5--5---7---7---9---9---9---9--|
E|-7-------0--------------------|-----------------------10--10-|

E|-7---------------------------|----------------10--9----------|
B|----10----10--10--10--10--10-|12--10------10----------12--10-|
G|-----------------------------|-------------------------------|
D|--------------9---9----------|----------------7---7----------|
A|-7--7--9--9---7---7---9---9--|9---9---10--10--9---9---9---9--|
E|-9--9--10-10----------7---7--|10--10--12--12----------10--10-|

E|-7----------------------------|----------------7-----------5-|
B|----10-----10--10--10--10--10-|12--10----------7-------------|
G|------------------------------|------------------------------|
D|---------------7---7----------|------------------------------|
A|-7--7--9---9---9---9---7---7--|9-------9---7---6-------4---6-|
E|-9--9--10--10----------9---9--|10--10--------------7---------|

E|-3---------------5----------3-|----------------7---9-109---7-|
B|-5---------------5------------|7---7---8---10--8---101210--8-|
G|-----0------------------------|7---7---9---11----------------|
D|---------2---0----------------|----------------0---0---0---0-|
A|-----------------4---0---2--4-|5---5---7---9-----------------|
E|-0----------------------------|------------------------------|

E|-7---5-------5---5---3---2--0-|-----------5---10--9----------|
B|-8---7---7---7---7---5---3--2-|3----------------------12--10-|
G|---------7------------------0-|------------------------------|
D|------------------------------|4--4---5---5---7---7----------|
A|-0---0---0---0---0---0---0--0-|5--5---7---7---9---9---9---9--|
E|------------------------------|-----------------------10--10-|

E|-7------------------------------|--------------10--9---------|
B|-----10------10--10--10--10--10-|12--10-----10--------12--10-|
G|--------------------------------|----------------------------|
D|-----------------9---9----------|--------------7---7---------|
A|-7---7---9---9---7---7---9---9--|9---9---10-10-9---9--9---9--|
E|-9---9---10--10----------7---7--|10--10--12-12--------10--10-|

E|-7----------------------------|----------------7-----------5-|
B|-----10------10-10-10--10--10-|12--10----------7-------------|
G|------------------------------|------------------------------|
D|----------------7--7----------|------------------------------|
A|-7---7---9---9--9--9---7---7--|9-------9---7---6-------4---6-|
E|-9---9---10--10--------9---9--|10--10--------------7---------|

E|-3--------------5-----------3-|----------------7---9-109---7-|
B|-5--------------5-------------|7---7---8---10--8---101210--8-|
G|-----0------------------------|7---7---9---11----------------|
D|---------2---0----------------|----------------0---0---0---0-|
A|----------------4---0---2---4-|5---5---7---9-----------------|
E|-0----------------------------|------------------------------|

E|-7---5-------5---5---3---2---0-|-----------------------------|
B|-8---7---7---7---7---5---3---2-|3----------------------------|
G|---------7-------------------0-|---2--4--6--7---7---9119-7-9-|
D|-------------------------------|0----------------------------|
A|-0---0---0---0---0---0---0---0-|---0--2--4--5---5---7--------|
E|-------------------------------|-----------------------------|

E|---------------------------------|--------------------------|
B|---------------------------------|--------------------------|
G|-11-6--7--9--11-11-12-14-12-11-12|14--14--15-16-15-13-15-16-|
D|---------------------------------|--------------------------|
A|-9--4--5--7--9--9--10------------|12--12--13-------------14-|
E|---------------------------------|--------------------------|

E|-------------0-----------------|--------2--------------------|
B|-0---------------3---2---0-----|3---------------3------------|
G|-0---------------0-----------2-|--------2------------------*-|
D|-2---------------2-------------|4-------0-------4----------*-|
A|-----------------0-------------|5---------------5------------|
E|-0-----------------------------|-----------------------------|

E|---------------------------------|-------------2---5-|
B|-3---------------3---------------|-3-------3---------|
G|-------------2---------------2---|-----2-----------2-|
D|-0---------------0---------------|-0-------0---4-----|
A|-------------0---------------0---|-----0-------------|
E|---------------------------------|-------------------|

E|-5-----------2---5-----------2---|-5---2-------------|
B|---------------------------------|---------4---7---0-|
G|-2---------------2---------------|-2-----------------|
D|-------------4---------------4---|-----4---1---4-----|
A|---------------------------------|-----------------2-|
E|---------------------------------|-------------------|

E|-------------3---8---7---5---3-|-5---3-----3---3---3---3---3-|
B|-------------------------------|-----------------------------|
G|-------------------------------|-----------------------------|
D|-2---2---3---3---5---5---2---2-|-0---0--2--2---3---3---0---0-|
A|-3---3---5---5---7---7---3---3-|-2---2--3--3---5---5---2---2-|
E|-------------------------------|-----------------------------|

E|-5---3-------3---8---7---5---3-|-5---3-----3---3---3---3---3-|
B|-------------------------------|-----------------------------|
G|-------------------------------|-----------------------------|
D|-0---0---2---2---3---3---0---0-|-2---2--3--3---5---5---2---2-|
A|-2---2---3---3---5---5---2---2-|-3---3--5--5---7---7---3---3-|
E|-------------------------------|-----------------------------|

E|-5---3-------3---3---3---3---3-|
B|-------------------------------|
G|-------------------------------|
D|-0---0---2---2---3---3---0---0-|
A|-2---2---3---3---5---5---2---2-|
E|-------------------------------|

E|-5---4-------4---4---4---4---4-|-7--5------5---8---6---5-----|
B|-3---3---5---5---6---6---3---3-|-------3---3---5---5-------8-|
G|-4---4---5---5---7---7---4---4-|-5--5--4---4---5---5---5---5-|
D|-------------------------------|-7--7------------------7---7-|
A|-------------------------------|-0---------------------------|
E|-0-----------------------------|-----------------------------|

E|-3---2-------2---2---2---2---2-|-5--3----------3---1---------|
B|-1---1---3---3---4---4---1---1-|-----------4-----------4---3-|
G|-2---2---3---3---5---5---2---2-|-3--3--2---2---3---3---2---2-|
D|-0-----------------------------|-1---------------------------|
A|-------------------------------|-----------------------------|
E|-------------------------------|-----------------------------|

E|-------------------------------|-0---------------------------|
B|-3---2-------2---2---2---2---2-|-----3-----------------------|
G|-3---3---2---2---3---3---2---0-|-----------------------------|
D|-------------------------------|-4---------0---2---4---5---7-|
A|-------------------------------|-5---------------------------|
E|-------------------------------|---------------0---2---3---5-|

E|-------------------------------|-0-------------0---2---3---5-|
B|-------------------------------|-----3-----3-----------------|
G|-5---3---------------2---3---6-|-----------------------------|
D|-------------4---5-------------|-2---0-----------------------|
A|-3---1---------------0---1---4-|-----------------------------|
E|-------------2---3-------------|-----------------------------|

E|-6-------7-------8-------9---|-10----------------------------|
B|-----------------------------|-------------------------------|
G|-----------------------------|-7---7---7---9---5---5---5---7-|
D|-----------------------------|-9---9---9---10--7---7---7---9-|
A|-----------------------------|-------------------------------|
E|-----------------------------|-------------------------------|

E|-----------------3-2-3-2-3-2-0-2-|
B|-0---0---0---3---3---------------|
G|-0---0---0---4-------------------|
D|-0---------------0---------------|
A|---------------------------------|
E|---------------------------------|

E|-3---------------3---------------|3-------3---7---10-|
B|-------------3---------------3---|----3--------------|
G|-4---------------0---------------|0-------0---4---7--|
D|-------------0---------------0---|----0--------------|
A|-5-------------------------------|-------------------|
E|-3-------------------------------|-------------------|

E|-8-----------5---8-----------5---|8---5---2---5-----|
B|---------------------------------|------------------|
G|-5-----------2---5-----------2---|5---2-------2---2-|
D|---------------------------------|--------4---------|
A|---------------------------------|----------------0-|
E|---------------------------------|------------------|

E|-3-------3-----------7---5---3-|-------------------5---8-----|
B|-3---3---3---3---3---3---3---3-|8--7---7-----------7---7---7-|
G|-4---4---4---4---4---4---4---4-|5--5---5---5---5---5---5---5-|
D|-5---5---5---5---5---5---5---5-|5--5---5---5---5---5---5---5-|
A|-------------------------------|-----------------------------|
E|-------------------------------|-----------------------------|

E|-5---3---3-----------7---5---3-|-------------------5---8-----|
B|-3---3---3---3---3---3---3---3-|8--7---7-----------7---7---7-|
G|-4---4---4---4---4---4---4---4-|5--5---5---5---5---5---5---5-|
D|-5---5---5---5---5---5---5---5-|5--5---5---5---5---5---5---5-|
A|-------------------------------|-----------------------------|
E|-------------------------------|-----------------------------|

E|-3---3---3-2-0-2-3---3---7-5---5-|7---7---10---------10-|
B|-0-------1-------3-----------8---|8---------13-12-13-12-|
G|-------------------------5-------|--------11------------|
D|---------------------------------|----------------------|
A|---------0-------2-------5-------|7-------9----------10-|
E|-3-------------------------------|----------------------|

E|---------------------------------|--------------------------|
B|-3---------------5---------------|3---1---1-------1---0---0-|
G|-4---------------5---------------|4---2---2-------2---0---0-|
D|---------------------------------|0---------------2---------|
A|---------------------------------|--------------------------|
E|---------------------------------|--------------------------|

E|---------------------------------|------------------|
B|-0-------------------------------|------------------|
G|-0---2---2-----------------------|0-------2-------4-|
D|-----2---2-------5---4---2---4---|0-------4-------5-|
A|-3---------------5---------------|2-------5---------|
E|---------------------------------|------------------|

E|------------------------------|------------------------------|
B|-3---------------5------------|3---1---1---1---1---0---0---0-|
G|-4---------------5------------|4---2---2---2---2---0---0---0-|
D|------------------------------|0---------------2-------------|
A|------------------------------|------------------------------|
E|------------------------------|------------------------------|

E|------------------------------|------------------------------|
B|-0----------------------------|------------------------------|
G|-0---2---2---2----------------|------------------------2-----|
D|-----2---2---2---5---4---2--4-|5-------------------4-5-----5-|
A|-3---------------5------------|------------------------------|
E|------------------------------|3---3---3---3---3---3---3---3-|

E|------------------------------|------------------------------|
B|------------------------------|3---3---3---3---5---5---7---7-|
G|-4-------------------2-4-5--2-|4---4---4---4---5---5---5---5-|
D|------------------------------|------------------------------|
A|------------------------------|------------------------------|
E|-3---3---3---3---3---3---3--3-|3---3---3---3---3---3---3---3-|

E|-3---3---5---5---7---7---9--9-|10--------------9-------9-----|
B|-3---3---3---3---3---3---8--8-|------------10--------8-----8-|
G|------------------------------|11--11--11--11--9---9---9---9-|
D|------------------------------|0---0---0---0---0---0---0---0-|
A|------------------------------|------------------------------|
E|-3---3---2---2---3---3---0--0-|------------------------------|

E|-10--------------9-------9-----|
B|-------------10--------8-----8-|
G|-11--11--11--11--9---9---9---9-|
D|-0---0---0---0---0---0---0---0-|
A|-------------------------------|
E|-------------------------------|

E|-10------9-------10------9-------|-10----------------|
B|-----10------10------10------10--|-----3-3-3---3---3-|
G|-11------9-------11------9-------|-11----------------|
D|-0---0---0---0---0---0---0---0---|-0---0-0-0---0---0-|
A|---------------------------------|-------------------|
E|---------------------------------|-------------------|

E|---------------------------------|---------------------------|
B|-3----------1-0----------5-------|-1---------------3---------|
G|---------------2-0---------------|-2-------2-----------------|
D|-0-----------------------2-------|-2---------------0-------0-|
A|-------------------------2-------|-0-------3-------0---------|
E|-----------------3-------4-------|---------3-------2---------|

E|-7-----------532-0-------8---|-7---------------5-------------|
B|-------------------------10--|-8---------------7-------------|
G|-----------------0-----------|---------7-------7---6---5-----|
D|---------7-------2-----------|-0---------------------------7-|
A|---------6-------------------|-------------------------------|
E|-------------------------8---|-------------------------------|

E|-----10--10--10--10-10-10-10-|-10--10--10--10--10--8---5-----|
B|---------11------8-----------|---------8-------7-----------7-|
G|-----------------------9-----|-----------------7-------5-----|
D|-12--------------------------|-10------7---------------------|
A|-10------0-------------11----|-0-----------------------5-----|
E|-----------------7-----------|-------------------------------|

E|-0-----------0---0-----------|-----------------3---2---0-----|
B|-7---8-------1---1---3--3----|-------------3---------------3-|
G|---------------------4--4----|-0-----------------------------|
D|-----------------0---------4-|-----------------0---0---------|
A|---------0--------------5----|-2---2---3---3---2---2---2---2-|
E|-0---------------------------|-3---3---5---5-----------3---3-|

E|-0-----------------------------|-0-------------3---2---0-----|
B|-----3-------3---3---3---3---3-|-----3-----3---------------3-|
G|-------------------------------|-----------------------------|
D|-------------------------------|---------------0---0---------|
A|-0---0---2---2---3---3---0---0-|-2---2--3--3---2---2---2---2-|
E|-2---2---3---3---5---5---2---2-|-3---3--5--5-----------3---3-|

E|-0-----------------------------|-0-------------0-------------|
B|-----3-------3---3---3---3---3-|-----3---------0-----------3-|
G|-------------------------------|-----------------------------|
D|-------------------------------|-----------------------------|
A|-0---0---2---2---3---3---0---0-|-2------2--0-----------------|
E|-2---2---3---3---5---5---2---2-|-3---3---------4---0---2---4-|

E|-------------------------------|-----------------------------|
B|-1---------------3-----------1-|--------------------8--------|
G|-2---------------2-------------|-4--4--5--7---9---11--11--9--|
D|---------------------0---------|-5--5--7--9---10----------10-|
A|-0---3---0---------------------|-----------------------------|
E|-------------3---2-------0---2-|-3--3--5--7---8---8---8---8--|

E|-0-----------------------------|---------------3---2---0-----|
B|-1---3---0---3---3---1---0-----|-----------3---------------3-|
G|-----4---0---4---4---2---0---2-|-0---------------------------|
D|-0---0---0---0---0---0---0---4-|---------------0---0---------|
A|-----------------------------5-|-2--2--3---3---2---2---2---2-|
E|-------------------------------|-3--3--5---5-----------3---3-|

E|-0-----------------------------|-0-------------3---2---0-----|
B|-----3-------3---3---3---3---3-|-----3-----3---------------3-|
G|-------------------------------|-----------------------------|
D|-------------------------------|-----------------------------|
A|-0---0---2---2---3---3---0---0-|-2---2--3--3---2---2---2---2-|
E|-2---2---3---3---5---5---2---2-|-3---3--5--5-----------3---3-|

E|-0-----------------------------|-0-------------0-------------|
B|-----3-------3---3---3---3---3-|-----3---------0-----------3-|
G|-------------------------------|-----------------------------|
D|-------------------------------|-----------------------------|
A|-0---0---2---2---3---3---0---0-|-2------2--0-----------------|
E|-2---2---3---3---5---5---2---2-|-3---3---------4---0---2---4-|

E|-------------------------------|-----------------------------|
B|-1---------------3-----------1-|--------------------8--------|
G|-2---------------2-------------|-4--4--5--7---9---11--11--9--|
D|---------------------0---------|-5--5--7--9---10----------10-|
A|-0---3---0---------------------|-----------------------------|
E|-------------3---2-------0---2-|-3--3--5--7---8---8---8---8--|

E|-----3---7---10--10-------------|-3--------------------------|
B|-3---3---8---12--10--13--12--10-|----------------------------|
G|-4---4---7---12--11--11--11--11-|----------------------------|
D|-0---0---0---0---0---0---0---0--|----0--2--4--5--5---797-5-7-|
A|--------------------------------|----------------------------|
E|--------------------------------|-3-----0--2--3--3---5-------|

E|---------------------------------|-------------------|
B|---------------------------------|-------------------|
G|-----------------4---4---575-4-5-|-7---7---898-6-8-9-|
D|-9---4---5---7-------------------|-------------------|
A|-----------------2---2---3-------|-5---5---6-------7-|
E|-7---2---3---5-------------------|-------------------|

E|-----------5---3---2---0-----|-------------------------------|
B|-5-------------------------3-|-3---------------3-------------|
G|-2-------------2-------0-----|-4---6---5---4-------6---5---4-|
D|-2-------------0-------------|-------------------------------|
A|-3---------------------------|-------------------------------|
E|-----------------------------|-3-----------------------------|

E|-----------5---3---2---0-----|-------------3-------0---2---3-|
B|-5-------------------------3-|-3---5---7-------3-------------|
G|-2-------------2-------0-----|-4---------------4-------------|
D|-2-------------0-------------|-----------------5-------------|
A|-3---------------------------|-------------------------------|
E|-----------------------------|-3-----------------------------|

E|-5---------------10----------|-3-----------------------------|
B|-5---------------10----------|-------------3---------------3-|
G|-----------------11----------|-----------------4-------4-----|
D|-----------------0-----------|---------------------5---------|
A|-3---------------------------|-------------------------------|
E|-----------------------------|-3---3---3---3---3---3---3---3-|

E|-3-------3---7----------2----|-3-----------------------------|
B|-----3------------------3----|-------------3---------------3-|
G|----------------*7*-----2----|-----------------4-------4-----|
D|------------------------0--0-|---------------------5---------|
A|-----------------------------|-------------------------------|
E|-3---3---3---3---3---3-------|-3---3---3---3---3---3---3---3-|

E|-3-------3---7----------2----|-3---------------3-------------|
B|-----3------------------3----|-0---------------3-------3-----|
G|----------------*7*-----2----|-0-----------0---4-----------4-|
D|------------------------0--0-|---------0-----------5---------|
A|-----------------------------|-----2-------------------------|
E|-3---3---3---3---3---3-------|-3-----------------------------|

E|-3-----------------|
B|-0-----------------|
G|-0-------0-----0-0-|
D|-------------------|
A|-------------------|
E|-3-------3-----3-3-|

Вверх

Рондо в турецком стиле (Соната №331 в A)

Условные обозначения:
                                                 ритм
                                               /---------
                                               |   |   |
      / E-|--------|-------|-------|----(0----|--------0===|
      | B-|--------|-------|-------|----)1----|------1=----|
String| G-|--<12>--|--5h8--|--8p5--|----(2----|----2=------|
Tuning| D-|--------|-------|-------|----)2----|------------|
      | A-|--------|-------|-------|----(0----|0==---------|
       E-|--------|-------|-------|----------|------------|

           флажолет Хаммер   Пулл   Арпеджато     Тянуть

Строй: Стандартный
Размер: 2/4 timing.
Темп: Allegretto.

Часть A

E*|---------|--------------------|-0---------1p0---0--|----7p5-|
B*|---------|-1---------3p1--0h1-|----------------4---|--------|
G*|-4p2-1h2-|--------------------|--------------------|--------|
D*|---------|------2----2----2---|------2----2----2---|--------|
A*|---------|-0----3----3----3---|-0----3----3----3---|----0---|
E*|---------|--------------------|--------------------|--------|

E*|-4h5--7p5--4h5-|-8--------------8--|----3s7--5----3----5----|
B*|---------------|-----------10------|--------------5---------|
G*|---------------|-------------------|---------4---------4----|
D*|---------------|-------------------|------------------------|
A*|-3----0----3---|-0-----------------|------------------------|
E*|---------------|------8----8----8--|----0----0----0----0----|

E*|--3s7--5----3----5----|----3s7--5----3----2----|----0----|
B*|------------5---------|--------------5----4----|---------|
G*|-------4---------4----|---------4--------------|---------|
D*|----------------------|------------------------|---------|
A*|----------------------|--------------2----2----|---------|
E*|--0----0----0----0----|----0----0--------------|----0----|
Повторить часть A

Часть B

E*|-0----1-|-3----3----5p3p1p0-|------------0----1----|----3---|
B*|-1----3-|-5----5------------|--3---------1----3----|----5---|
G*|--------|-------------------|--4-------------------|--------|
D*|--------|-------------------|-------5--------------|--------|
A*|--------|-3======-----------|----------------------|----3==-|
E*|--------|-----------0======-|--3======-------------|--------|

E*|--3----5p3p1p0-|-------------------|----0----0----1p0-------|
B*|--5------------|-3---------1----3--|----1----1---------3-1--|
G*|---------------|-4---------2----4--|------------------------|
D*|---------------|-------------------|------------------------|
A*|===------------|-------------------|----0=====----3=======--|
E*|-------0======-|-3======-----------|------------------------|

E*|------------|-0----0----1p0------|-------------------|
B*|-0-----1--3-|-1----1---------3-1-|-0-----------------|
G*|-1-----2--4-|--------------------|-1---------4p2-1h2-|
D*|----2-------|--------------------|-------------------|
A*|------------|-0=====----3=======-|-------------------|
E*|-0====------|--------------------|-0====-------------|

E*|--------------------|-0-------1p0----0-|-7p5--4h5--7p5--4h5-|
B*|-1---------3p1--0h1-|--------------4---|--------------------|
G*|--------------------|------------------|--------------------|
D*|------2----2----2---|-----2---2----2---|--------------------|
A*|-0----3----3----3---|-0---3---3----3---|-0----3----0----3---|
E*|--------------------|------------------|--------------------|

E*|-8===------5----7-|-8----7----5----4--|----5----0----1------|
B*|------------------|-------------------|-------------------3-|
G*|------8===--------|-------------------|---------------------|
D*|------7===--------|-----------0----0--|--------------0----3-|
A*|-8===-------------|-7----7------------|----3----3-----------|
E*|------------------|-------------------|---------------------|

E*|------------трель--------------------|
B*|--1--------(0h1)=====----------------|
G*|-------2----1========---2h4---2====--|
D*|--2----------------------------------|
A*|------------------------------0====--|
E*|------------0========----------------|

Повторить часть B

Часть C
E*|-54----7-|-9---------5----7-|----9----7----5----4----|------|
B*|---------|------------------|------------------------|----7-|
G*|-2----4--|-6---------2----4-|----6----4----2----1----|------|
D*|---------|-7----------------|----7-------------------|----4-|
A*|---------|-0----0----0----0-|----0----0----0----0----|----5-|
E*|---------|------------------|------------------------|------|

E*|------5----7-|----4----0----5----7----|----9---------5----7-|
B*|-9---------0-|------------------------|---------------------|
G*|-------------|----1---------2----4----|----6---------2----4-|
D*|-6----7------|---------2--------------|----7----------------|
A*|------6------|------------------------|----0----0----0----0-|
E*|-------------|----0-------------------|---------------------|

E*|--9----7----5----4----|---------7----4----0----|---5===---|
B*|----------------------|----7----0--------------|----------|
G*|--6----4----2----1----|--------------1---------|---2===---|
D*|--7-------------------|----4--------------2----|----------|
A*|--0----0----0----0----|----5-------------------|---0===---|
E*|----------------------|--------------0---------|----------|

снова играть C

Часть D
E*|-9h10-9p7-|-5h7--5p4-----------|--------------------|-------|
B*|----------|-----------7h10-9p7-|-6h7--9p6-------6---|--7p6--|
G*|----------|--------------------|-----------6h8----6-|-------|
D*|----------|-4=======--7=======-|-6=======--9=======-|--4===-|
A*|----------|--------------------|--------------------|-------|
E*|----------|--------------------|--------------------|-------|

E*|----4----------7-|-9p8--9p8--9h10-9p7-|-5h7--5p4------------|
B*|--7----10p9-10---|--------------------|-----------7h10-9p7--|
G*|-----------------|--------------------|---------------------|
D*|=====--7=======--|--------------------|-4=======--7=======--|
A*|-----------------|-8------------------|---------------------|
E*|-----------------|--------------------|---------------------|

E*|-------4--------------|------------------------|---------|
B*|--5h7----5-------5----|----4h5--7p4-------4----|--2====--|
G*|------------6h8----6--|--------------5h6----5--|---------|
D*|--6=======------------|----4=======------------|---------|
A*|------------7=======--|--------------6=======--|--4====--|
E*|----------------------|------------------------|---------|

Повторить D

Часть E
E*|----------|-----------0h2--4h5-|-5p4--2-------------|-------|
B*|-5p3--2---|------2h3-----------|--------5--5p3----0-|-------|
G*|--------4-|-2h4----------------|----------------6---|--2h4--|
D*|----------|--------------------|--------------------|-------|
A*|----------|-0=======--0=======-|-2=======-----------|--0===-|
E*|----------|--------------------|-----------4=======-|-------|

E*|-------0h2--4h5-|-6===-7-----------|--------------0h2--4h5--|
B*|--2h3-----------|---------5p3---0--|---------2h3------------|
G*|----------------|-------------6----|----2h4-----------------|
D*|----------------|------------------|------------------------|
A*|=====--0=======-|------------------|----0=======--0=======--|
E*|----------------|-0-------4--------|------------------------|

E*|--5p4--2--------------|-----------------------|------------|
B*|---------5--5p3----0--|----2h5----2--0h3----0-|------------|
G*|-----------------6----|---------2---------1---|-2====------|
D*|----------------------|---------4----0----2---|------------|
A*|--2=======------------|----0------------------|------0====-|
E*|------------4=======--|-----------------------|------------|

E*|-9h10-9p7-|-5h7--5p4-----------|--------------------|-------|
B*|----------|-----------7h10-9p7-|-6h7--9p6-------6---|--7p6--|
G*|----------|--------------------|-----------6h8----6-|-------|
D*|----------|-4=======--7=======-|-6=======--9=======-|--4===-|
A*|----------|--------------------|--------------------|-------|
E*|----------|--------------------|--------------------|-------|

E*|----4----------7-|-9p8--9p8--9p8-9----|-10p9-10p9-10p9-10p9-|
B*|--7----10p9-10---|-----------------11-|---------------------|
G*|-----------------|-----------0--------|---------------------|
D*|=====--7=======--|-6=======-----------|---------------------|
A*|-----------------|---------------9----|-----------9=======--|
E*|-----------------|--------------------|-7=======------------|

E*|--10p9-7----4h5--7p4--|----5h7--9p5-------4----|----2====--|
B*|---------10-----------|--------------6h7----6--|-----------|
G*|------------4=======--|----6=======------------|-----------|
D*|--6========-----------|------------------------|----4====--|
A*|----------------------|--------------4=======--|-----------|
E*|----------------------|------------------------|-----------|

Далее играется: ECCAA

Часть F
E*|---5----7-|---9---------5----7-|---9----7----5----4-|------|
B*|----------|--------------------|--------------------|----7-|
G*|-2----4---|-6---------2----4---|-6----4----2----1---|------|
D*|----------|--------------------|--------------------|--4---|
A*|----------|-0------------------|-0---------0--------|--5---|
E*|----------|--------------------|--------------------|------|

E*|---4----5----7-|---4----0----5----7-|----9---------5----7--|
B*|-----------0---|--------------------|----------------------|
G*|---------------|-1---------2----4---|--6---------2----4----|
D*|-6----7--------|-2----2-------------|----------------------|
A*|------6--------|--------------------|--0-------------------|
E*|---------------|------0-------------|----------------------|

       						   1-ое
E*|----9----7----5----4--|------7----7----4----0--|----5===---|
B*|----------------------|---------0--------------|-----------|
G*|--6----4----2----1----|--------------1---------|----2===---|
D*|----------------------|----4---------2----2----|-----------|
A*|--0---------0---------|----5-------------------|----0===---|
E*|----------------------|-------------------0----|-----------|

повторить F и на 2-ое окончание играть следущее:

E*|-5---------9======-9-|-(9----------------|-(9---------------|
B*|---------------------|-)10---------------|-)10--------------|
G*|-2-------------------|-(9----------------|-(9---------------|
D*|---------------------|-)11---------------|-)11--------------|
A*|-0----0----0----0----|-(0----0----0----0-|-(0----0----0---0-|
E*|---------------------|-------------------|------------------|

E*|-10p9----9-10p9----9-|-)10------------|-9h10-9h10-9h10-9h10-|
B*|------12--------12---|-(10------------|-10---10---10---10---|
G*|---------------------|-)11------------|-9----9----9----9----|
D*|---------------------|-(0---0---0---0-|---------------------|
A*|-0----0----0----0----|----------------|-0----0----0----0----|
E*|---------------------|----------------|---------------------|

E*|-7--------------12-|-)9----------------|-)9----------------|
B*|-9-----------------|-(10---------------|-(10---------------|
G*|-9-----------------|-)9----------------|-)9----------------|
D*|-------------------|-(11---------------|-(11---------------|
A*|-------------------|--0----0----0----0-|--0----0----0----0-|
E*|-0----0----0----0--|-------------------|-------------------|

E*|-10p9----9-10p9----9-|-)10------------|----10p9-------------|
B*|------12--------12---|-(10------------|----10---------------|
G*|---------------------|-)11------------|----9----------------|
D*|---------------------|-(0---0---0---0-|---------------------|
A*|-0----0----0----0----|----------------|----0----0----0----0-|
E*|---------------------|----------------|---------------------|

E*|-5h7-5h7-5h7-5h7-|-5---------9------9-|-9==================-|
B*|-9---9---9---9---|---5----5----5------|---5----5----5----5--|
G*|-----------------|------6---------6---|------6---------6----|
D*|-----------------|--------------------|---------------------|
A*|-----------------|-0---------0--------|-0---------0---------|
E*|-0---0---0---0---|--------------------|---------------------|

E*|-9=================-|-10p9-7h9--10p9-7h9-|-10---------------|
B*|---5----5----5----5-|--------------------|----7---7---7---7-|
G*|------6---------6---|--------------------|------7-------7---|
D*|--------------------|--------------------|-0--------0-------|
A*|-0---------0--------|-0----0----0----0---|------------------|
E*|--------------------|--------------------|------------------|

E*|-8h9--9----9----9---|-7--------------12---|-)9--------------|
B*|----5---5----5----5-|---9----9----9-----9-|-(10-------------|
G*|--------------------|------9--------------|-)9--------------|
D*|--------------------|---------------------|-(11-------------|
A*|-0---------0--------|---------------------|--0---0---0----0-|
E*|--------------------|-0---------0---------|-----------------|

E*|-)9-----------|----10p9----9-10p9----9-|--(10---------------|
B*|-(10----------|---------12--------12---|--)10---------------|
G*|-)9-----------|------------------------|--(11---------------|
D*|-(11----------|------------------------|---0----0----0----0-|
A*|--0---0--0--0-|----0----0----0----0----|--------------------|
E*|--------------|------------------------|--------------------|

E*|-10p9-------------|-5h7--5h7--5h7--5h7-|---5--------------9-|
B*|-10---------------|-9----9----9----9---|---5----------------|
G*|-9----------------|--------------------|---6--------------6-|
D*|------------------|--------------------|--------------------|
A*|-0----0----0----0-|--------------------|---0----0----0----0-|
E*|------------------|-0----0----0----0---|--------------------|

E*|-----------------12-|----------------9-|-------9---------12-|
B*|--10----------------|-10---------------|--10--------10------|
G*|-----------------9--|----------------6-|-------6---------9--|
D*|--7-----------------|-7----------------|--7---------7-------|
A*|--0----0----0----0--|-0----0----0----0-|--0----0----0----0--|
E*|--------------------|------------------|--------------------|

E*|-----------(5---------|---(5===============----|
B*|--10-------)5---------|---)5===============----|
G*|-----------(6---------|---(6===============----|
D*|--7--------)7---------|---)7===============----|
A*|--0--------(0---------|---(0===============----|

Вверх

Рэквием в Dm, Лакримоса К.626

Q = 65
E|-------------------------|----------------------|
B|-------------------2-----|-3--------------------|
G|-------2-----0-----0-----|-2------------------0-|
D|-3-----3-----2-----2-----|-3------2-----0-------|
A|-5-----------------------|--------4-----0-----0-|
E|-------------------------|----------------------|

E|---------5-6---------8-6-|---5-10---6-3-------5---|
B|-------------------------|----------------5-6---5-|
G|---6-7---------7-6-------|------------------------|
D|-------------------------|------------------------|
A|-------------------------|------------------------|
E|-------------------------|------------------------|

E|---------1---------------|---------1---------------|
B|-3---3-----3-3-----2-----|-3---3-----3-3-----2-----|
G|-2-2---------2---2-0---0-|-2-2---------2---2-0---0-|
D|-3-----3-----0-0---2-2---|-3-----3-----0-0---2-2---|
A|-------------------------|-------------------------|
E|-------------------------|-------------------------|

E|---------5-6---------6-5-|---------5-6---------6-5-|
B|-------------------------|-------------------------|
G|---6-7---------7-6-------|---6-7---------7-6-------|
D|-------------------------|-------------------------|
A|-------------------------|-------------------------|
E|-------------------------|-------------------------|

E|-------------------------|-------------------------|
B|-------------------------|-------------------0---3-|
G|-------------------0---0-|-2---2-------2---2-0-0---|
D|-0---0-2---2-0---0-2-2---|-3-3-------0-2-2---0-----|
A|-0-0---4-4---0-0---3-----|-3-------2---0-----------|
E|-1-----5-----5-----------|-------4-----------------|

E|-------------------------|-------------------------|
B|-------------------------|---------------1-----3---|
G|-------------------------|---2-----4-------2-----0-|
D|---0-----2-----3-----5---|-----3-----2-------------|
A|-----0-----0-----5-----3-|-------------------------|
E|-------------------------|-------------------------|

E|-------------------------|-------------------------|
B|-------------------------|-0-----3---3-3---3-2---2-|
G|-0---0-0---0-2---2-2---2-|-0---0---2-----2-----0---|
D|---2-----2---3-3---1-1---|-0-0---3-----3-----2-----|
A|-3-----3-----3-----3-----|-------------------------|
E|-------------------------|-------------------------|

E|---------------------2---|---3-----5-----5---------|
B|---5-----5-----6---------|-------------------------|
G|-----5-----5-----5-----2-|-----4-----3-----2---2---|
D|-------------------------|-------------------------|
A|-------------------------|-----------------------0-|
E|-------------------------|-------------------------|

E|---------------------1---|--------------------------|
B|-----------------------3-|-2---2---3--5---5-3---3---|
G|-2---2---3-2-2---2-------|-0-0--------3-3---3-3-----|
D|-2-2---------3-3---------|-2-----2----3-----3-----3-|
A|-0-----0-----0-----0-----|--------------------------|
E|-------------------------|--------------------------|

E|---------------------1---|--------------------------|
B|-----------------------3-|---------3-5-----------3-|
G|---------3-2-------------|---0------------2---------|
D|---2-----------0---------|----------------------3---|
A|-----0-----------0-------|-----1------------0-------|
E|-------------------------|--------------------------|

E|---------3---------------|---------1---------------|
B|-4---4-----4-4---4-3---3-|-3---3-----3-5---5-3-----|
G|-3-3---------3-3---3-3---|-2-2---------3-3---2-2-1-|
D|-1-----1-----1-----3-----|-3-----3-----3-----3-----|
A|-------------------------|-------------------------|
E|-------------------------|-------------------------|

E|---------3---------------|-----------------------4-|
B|---4-------4---4-----3---|---3-----6-5---5-----3---|
G|-----------------------3-|-------------------------|
D|-----1-----------3-------|-----0-----------3-------|
A|-------------------------|-------------------------|
E|-------------------------|-------------------------|

E|---------3-1-------------|---------------------|
B|-3---3-------6---6-5---5-|-5---5---------------|
G|-3-3---------5-5---3-3---|-3-3-----2-0-0---0---|
D|-3-----3-----5-----3-----|-2-----2-----2-2---3-|
A|-------------------------|-------------------5-|
E|-------------------------|---------------------|

E|---------3-1---1-------6-|---6-----5-3---3--------10-|
B|-----3---------------5---|---------------------------|
G|-----------------0-------|-----3-----------2---10----|
D|---0---------------------|---------------------------|
A|-------------------------|---------------------------|
E|-------------------------|---------------------------|

E|--------------------------------|--------------------------|
B|----------------3-------3-------|-3------------------------|
G|-4-------5----------------------|---------5------4-------4-|
D|-3-------3------3-------3-------|-3-------3------3-------3-|
A|-0-------0------0-------0-------|-0-------0------0-------0-|
E|--------------------------------|--------------------------|

E|-----------8-----10------10-|------10------8-----------------|
B|----12----------------------|---------------------12------12-|
G|-10-----10----10------10----|---10------10-----10------10----|
D|----------------------------|--------------------------------|
A|----------------------------|--------------------------------|
E|----------------------------|--------------------------------|

E|-------------------------|-------------------------|
B|-0---0---------3-------6-|-6---6---3---------------|
G|-0-0---5---5-----5-5---5-|-5-5-----4-4-5---5---3-0-|
D|-3-----3-3---------3---3-|-3-----3-3---3-3---------|
A|-------0-----0-------0---|-------------0-----0-----|
E|-------------------------|-------------------------|

E|-----------------------1-|-1---1-------------------|
B|-----0-----1-----3---1---|---3-----3-0-1---1-1-----|
G|---0-----0-----5---------|---------------------3-0-|
D|-------------------------|-------------------------|
A|-------------------------|-------------------------|
E|-------------------------|-------------------------|

E|------------------------|-------------------------|
B|-------4----3-----------|-3---3---3---------------|
G|-2-----2----3-----2-----|-3-3-----4-4-5---5---3-0-|
D|-3-----3----3-----3-----|-3-----3-3---3-3---------|
A|-0----------------0-----|-------------0-----0-----|
E|------------------------|-------------------------|

E|-----1---1--------------|-------------------------|
B|--------------------4-6-|-6-------3-0-1-----1-----|
G|----------------2-5-----|---------------------3-0-|
D|-3-3---3------3---------|-------------------------|
A|------------------------|-------------------------|
E|------------------------|-------------------------|

E|-------------------------|----------1---------------|
B|-------2---2-2---2-2---2-|-3---3------3-3-----2---2-|
G|-2---2-2-2---0-0---0-0---|-2-2----------2---2-0-0---|
D|-3-3---3-----2-----2-----|-3------3-----0-0---2-----|
A|-0-----------------------|--------------------------|
E|-------------------------|--------------------------|

E|-----5-----3-----5-----9-|-----10---5-6---------6-5-|
B|---------------6-----6---|---6----------------------|
G|-------------------------|----------------7-6-------|
D|-3-3-----3---------------|--------------------------|
A|-------------------------|--------------------------|
E|-------------------------|--------------------------|

E|---------1---------------|--------------------------|
B|-3---3-----3-3-----2---2-|-3------------------------|
G|-2-2---------2---2-0-0---|-2-2---5-----3-----2------|
D|-3-----3-----0-0---2-----|-3---3-3-3---5-5---3-3----|
A|-------------------------|-------0---0-5---5-3----3-|
E|-------------------------|--------------------------|

E|---------5-6---------6-5-|---------5-6---------10-8-|
B|-------------------------|---2-3---------3-2--------|
G|---6-7---------7-6-------|--------------------------|
D|-------------------------|--------------------------|
A|-------------------------|--------------------------|
E|-------------------------|--------------------------|

E|--------------------------|------------------------|
B|--------------------------|------------------------|
G|-0-----------0-----2-2----|--------------2---2-2---|
D|-2-2---3-----2-2---0----0-|-2-----0------2-2---3-3-|
A|-2---2-3-3---0---0--------|-1-1---0-0----0-----0---|
E|-------5---5-------2------|-0---0-0----0-----------|

E|---------6-5---------10-8-|---------10-------------|
B|---3-4---------6-5--------|---5-3------6---2-5---6-|
G|--------------------------|------------------------|
D|--------------------------|------------------------|
A|--------------------------|------------------------|
E|--------------------------|------------------------|

E|------------------------------|---------------------|
B|------------------------------|-------3-----3-----3-|
G|----2---2-2-------2---2-2---2-|-2-----2-----2-----2-|
D|----2-2---3-3-----3-3---2-2---|-0-----0-----0-----0-|
A|-0--0-----0----0--0-----0-----|-0-----0-----0-----0-|
E|------------------------------|---------------------|

E|-10-----5---10------5-----9---|---------3-2---6-5---10-8-|
B|------5--------10-----5-------|---2-3--------------------|
G|----------------------------9-|--------------------------|
D|------------------------------|--------------------------|
A|------------------------------|--------------------------|
E|------------------------------|--------------------------|

E|--------------------------|-2----*-|
B|-3-3----------------------|-3----*-|
G|-2----2-3-3---2---2-2-2---|-2----*-|
D|-0------3---3-3-3---2---2-|-0----*-|
A|-0------0-----0-----0-----|-0----*-|
E|--------------------------|------*-|

E|---10-5---6-3---3-0-------|------*-|
B|----------------------6-2-|------*-|
G|--------------------------|-7----*-|
D|--------------------------|-7----*-|
A|--------------------------|-5----*-|
E|--------------------------|-5----*-|

Вверх

Симфония №25 - главная тема K.183

E|-3-3---3-----3-----3-------|-------------------------|
B|-------------------------3-|-3-----3---3---3-----4-4-|
G|-0-0---0-----0-----0-------|-------------------------|
D|-------------------------0-|-0-----0---0---0-----1-1-|
A|---------------------------|-------------------------|
E|---------------------------|-------------------------|

E|----------------------------|
B|-4---4-----4----------------|
G|----------------------------|
D|-1---1-----1-----4---4-----4|
A|----------------------------|
E|-----------------2---2-----2|

E|-------------------------------------3-|
B|-------------------------------3-------|
G|-------------------------3-------------|
D|-4--------4--------5-------------------|
A|---------------------------------------|
E|-2--------2----------------------------|


E|-6--5--3--2--3-------------------------3-----6|
B|---------------------------------3------------|
G|----------------------------3-----------------|
D|----------------------5-----------------------|
A|----------------------------------------------|
E|----------------------------------------------|

E|-5--3--2--3-----------------------5-----8--7|
B|----------------------------7---------------|
G|-------------------------5------------------|
D|-------------------7------------------------|
A|--------------------------------------------|
E|--------------------------------------------|

E|-5--4--5-------------------------5-----8--7--5|
B|---------------------------7------------------|
G|---------------------5------------------------|
D|----------------7-----------------------------|
A|----------------------------------------------|
E|----------------------------------------------|

E|-4--5-------------------------6----10--8--6--5|
B|------------------------8---------------------|
G|-------------------7--------------------------|
D|-------------8--------------------------------|
A|----------------------------------------------|
E|----------------------------------------------|

E|-6-----8--6--5--3--5--6--5-3-2-3---2-3|
B|--------------------------------------|
G|--------------------------------------|
D|--------------------------------------|
A|--------------------------------------|
E|--------------------------------------|

E|-2-3-----------------------------|-------------------------3-|
B|-----2-3-2-3---------------------|---------------------------|
G|-------------2-3-2-3---------5-5-|-5-2-2-2-----------------0-|
D|---------------------4-5-4-5-----|---------4-4-4-5-5-5-4-----|
A|---------------------------------|-----------------------5---|
E|---------------------------------|---------------------------|

E|-3-----3-----3-----3-------|-----------------------------|
B|---------------------3---3-|-3-----3-----3---4---4-----4-|
G|-0-----0-----0-----0-------|-----------------------------|
D|---------------------0---0-|-0-----0-----0---1---1-----1-|
A|---------------------------|-----------------------------|
E|---------------------------|-----------------------------|

E|----------------------|-----3---------|--------------3|
B|-4-----4--------------|---------3---4-|---------------|
G|----------------------|---------------|---------------|
D|-1-----1---4-4---4--4-|-4-------------|-4---5---------|
A|----------------------|---------------|---------------|
E|-----------2-2---2--2-|-2-------------|---------------|

                                   *
E|6-----------------------|--------6-5-3-----|*повторить 2 раза
B|----2-----3--2--3--2-3-2|3-2-3---------6-6-|
G|------------------------|------3-----------|
D|------------------------|------------------|
A|------------------------|------------------|
E|------------------------|------------------|

E|--------5-3------------------|
B|6---6-------6---6---6---6----|
G|-----------------------------|
D|-----------------------------|
A|-----------------------------|
E|-----------------------------|

E|---------18-22-18----------18-22-18------------|
B|------18----------18----18-------------------16|
G|---19----------------19------------------------|
D|20-------------------------------------17-20---|
A|------------------------------------18---------|
E|-----------------------------------------------|

E|-----------------------------------------17-20|
B|20-16----------16-20-16---------------16------|
G|-----------------------------------17---------|
D|------20-17-20----------20-17---19------------|
A|----------------------------------------------|
E|----------------------------------------------|

E|17----------17-20-17------------------------|
B|------------------------------------15-18-15|
G|---20-17-20----------20-17-------15---------|
D|------------------------------15------------|
A|---------------------------17---------------|
E|--------------------------------------------|

E|-----------------------------------18-15------|
B|---------15-18------------------15-------15---|
G|15----15-------15------------15-------------15|
D|---15-------------15------15------------------|
A|-----------------------17---------------------|
E|----------------------------------------------|

E|---------15-18-15-----------------------------|
B|------15----------15---------------13-16-13---|
G|---15----------------15---------12------------|
D|15---------------------------13-------------17|
A|--------------------------15------------------|
E|----------------------------------------------|

E|---------------------11-11-8-8-5-5----|
B|------13-16-13---------------------6-6|
G|--------------------------------------|
D|13-17----------17-13------------------|
A|--------------------------------------|
E|--------------------------------------|

E|-----------------10-10-6-6-----|---------------------9-9-6-6-|
B|---------------------------6-6-|-----------------------------|
G|-8-8-5-5-----------------------|-7-7-------------------------|
D|---------7-7-------------------|-----8-8---------------------|
A|-------------8-8---------------|---------8-8-5-5-------------|
E|-------------------------------|-----------------6-6---------|

E|----------------------9-9-6-6|-------------------------------|
B|6-6--------------------------|8-8-5-5------------------------|
G|----6-6----------------------|--------6-6--------------------|
D|--------8-8-4-4--------------|------------8-8-5-5-----3-3-4-4|
A|----------------6-6----------|--------------------7-7--------|
E|-----------------------------|-------------------------------|

E|-----------------------|------------------|----------------|
B|--------------6--------|--------------3---|3-6-4-3---------|
G|-----------------------|3---2-3-5-3-5---5-|--------5-------|
D|3-3-------3-----3------|------------------|----------------|
A|----7-7----------------|------------------|----------------|
E|-----------------------|------------------|----------------|

E|---------------------------|--------------------6-6-|
B|--------------------3------|3---6---4-3-------------|
G|3-2-3---5---3---5-------5--|------------5---3-------|
D|---------------------------|------------------------|
A|---------------------------|------------------------|
E|---------------------------|------------------------|

E|6---6-5---3------------------|
B|--------------6---4---8---8--|
G|-----------------------------|
D|-----------------------------|
A|-----------------------------|
E|-----------------------------|

E|-----------------------------------------------|
B|-8-----8-----6-----4---------------------------|
G|-------------------------7-----5-----8-----8---|
D|-----------------------------------------------|
A|-----------------------------------------------|
E|-----------------------------------------------|

E|----------------------------------------------|
B|-------------------6--------------------------|
G|-8-----8-----7----------------7-----5-----3---|
D|-------------------------8--------------------|
A|----------------------------------------------|
E|----------------------------------------------|

E|--------------------------------------------|
B|--------------------------------------------|
G|-2-----3------------------------------------|
D|--------------------------------------------|
A|--------------------------------------------|
E|--------------------------------------------|

Вверх

Симфония №40 g-moll

E|---------------------------------------------------------|
B|-4-3-3---4-3-3---4-3-3---11~--11-10-8---8-6-4----4-3-1-1-|
G|---------------------------------------------------------|
D|---------------------------------------------------------|
A|---------------------------------------------------------|
E|---------------------------------------------------------|

E|--------------------------------------------------------|
B|-3-1-1---3-1-1---3-1-1---10~--10-8-7---7-4-3----3-1-----|
G|----------------------------------------------------3-3-|
D|--------------------------------------------------------|
A|--------------------------------------------------------|
E|--------------------------------------------------------|

E|-------------------------------------------------------------|
B|-11-10-10-13--7-10-8-3~-11-10-10-13-7-10-8~--11~--10-8-6-4-3-|
G|-------------------------------------------------------------|
D|-------------------------------------------------------------|
A|-------------------------------------------------------------|
E|-------------------------------------------------------------|

E|--------------------------------------------------------|
B|--------------------------------------------------------|
G|-------6----5-3-2---7----6---7---6---7---6----7-6-7-6-7-|
D|-4-5-7-8----------5-4----5---4---5---4---5----4-5-4-5-4-|
A|--------------------------------------------------------|
E|--------------------------------------------------------|

Вверх

Соната для фортепьяно в G, 3-ая часть К.283

E||---------^-^-^-|----------|--3-----2--|2-0-------|
B||--0-----1-0-1-0|-3-----3--|--5-----3--|--1-----3-|
G||--0-----2------|-4-----4--|-----------|--------4-|
D||---------------|----------|-----------|----------|
A||---------------|----------|-----------|----------|
E||--3--3--3------|-3--3--3--|--3--3--3--|--3--3--3-|

E|--------^-^-^--|---------|-0-------|-^---------|-------------|
B|-0-----1-0-1-0-|-3-----3-|-1-----3-|3-1-----0--|---------0---|
G|-0-----2-------|-4-----4-|-------4-|--2-----0--|---0---0---0-|
D|---------------|---------|---------|-----------|-0---4-------|
A|---------------|---------|---------|-----------|-2-----------|
E|-3--3--3-------|-3--3--3-|-3--3--3-|--3--3--3--|-------------|

E|--------------|--------------|----------0---|----------8----|
B|----------1---|----0---0-3-0-|----1-0-1---1-|--3-------10---|
G|----2-1-2---2-|------3-------|--0-----------|---------------|
D|--2-----------|--4-----------|--2-----------|----0---0----0-|
A|--3-----------|--5-----------|--------------|------4---9----|
E|--------------|--------------|--------------|--2------------|

E|-7-----------|---------2---|-3-----------|--------------|
B|-8-------3---|-1-------1---|-0-------0---|--1---0---1-0-|
G|-0-------4---|-2-----------|---------0---|----1---2-----|
D|---0---0---0-|---0---0---0-|---0---0---0-|--2-----------|
A|-----4-------|-0---4---0---|-2---4---2---|--3-----------|
E|---------3---|-------------|-------------|--------------|

E|------0-----|-----------|-----------|-----------|----------|
B|--3-1-------|-----------|-----0-----|-----------|----------|
G|---------0--|-----5-----|--0-----0--|-----2-----|-----0----|
D|------------|--4-----4--|--2-----2--|--2-----2--|--0-----0-|
A|---------3--|--5-----5--|-----------|--3-----3--|--2-----2-|
E|------------|-----------|-----------|-----------|----------|

E|---------|---------|-------------|---------0---|-2-----------|
B|---------|---------|-------------|-----1-----1-|-1-----------|
G|---------|----0--2-|-4-------2---|---0---0-----|-2-0---0-2---|
D|-0--4--0-|---------|-3-5-4-5---5-|-2-----------|-----4-----4-|
A|-0-----0-|-2-------|-5-----------|-------------|-------------|
E|---------|-3-------|-3-----------|-3-----------|-3-----------|

E|--3-7-3-------|--------------|----------0---|--2-----------|
B|--------3-----|--------------|------1-----1-|--1-----------|
G|----------4---|--4-------2---|----0---0-----|--2-0---0-2---|
D|------------5-|--3-5-4-5---5-|--2-----------|------4-----4-|
A|--------------|--5-----------|--------------|--------------|
E|--3-----------|--3-----------|--3-----------|--3-----------|

E|--3-5-7-3-2---|--0-----------|--------------|--------------|
B|------------4-|----------3---|--3---1---0---|--0-------0---|
G|--------------|----0---0---0-|----0---0---0-|----0-2-0---0-|
D|--------------|------4---0---|--2---2---0---|------4---0---|
A|--------------|--3-----------|--------------|--3-----------|
E|--3-----------|--------------|--------------|--------------|

E|-------------|-------------|-------------|-----10--10--|--10-|
B|-3---1---0---|-0-------0---|-3---1---0---|-------------|-----|
G|---0---0---0-|---0-2-0---0-|---0---0---0-|--2--11--11--|--11-|
D|-2---4---0---|-----4---0---|-2---4-------|--4--7-------|-----|
A|-------------|-3-----------|---------4---|--5------9---|-----|
E|-------------|-------------|-------------|-------------|--10-|

E|-5--4--7-|-5--4--7-|-------0-|--------0--|--------2---|
B|---------|---------|-3--2----|--3--2-----|--3-------3-|
G|---------|---------|-------0-|--------0--|------------|
D|---------|---------|-4--2----|--4--2-----|--4-----0---|
A|---------|---------|-0-------|--0--------|--0--0------|
E|---------|---------|---------|-----------|------------|

E|--3-----0---|----------2-|-------3---5-|--3--2--5-|
B|----------2-|--3---------|--5--5---7---|----------|
G|--------0---|--------2---|-------------|----------|
D|------------|--4-----0---|-------------|----------|
A|--4--0------|-----0------|--4----------|----------|
E|------------|------------|-------------|----------|

E|-3--2--5--|--3--------|--3--------|--3-----0---|----------2-|
B|----------|--2--0--3--|--2--0--3--|--2-------2-|--3---------|
G|----------|-----------|-----------|--------0---|--------2---|
D|----------|--2--0--4--|--2--0--4--|--2---------|--4-----0---|
A|----------|--0--------|--0--------|--0--0------|-----0------|
E|----------|-----------|-----------|------------|------------|

E|--0-------3-|-2--2-5-3-7-|--5--------|-------------|
B|------------|----3---5---|--7--------|-------------|
G|--------2---|------------|-----------|-----------0-|
D|------------|-0----------|--0-----2--|--0--0-4-2---|
A|--4--0--4---|------------|-----4-----|-----2---4---|
E|------------|------------|-----------|-------------|

E|--7--6--9--|--7----------|----------|------------|--0-----2-|
B|--0--------|-------3---5-|--3-------|------0---1-|-----4----|
G|-----3--6--|--4--4---5---|--4-------|----0---2---|--0-------|
D|--4--------|-----5---7---|--5--4--7-|-5--2---4---|--2--1--4-|
A|--5--------|-------------|----------|------------|--2-------|
E|-----------|-------------|--3--2--5-|-3----------|----------|

E|--0--0---2-0-|--3-0--------|--3-0-------|-3-0-------|
B|-------4-----|------2------|------2-----|-----2-----|
G|-------------|--------3-2--|--------3-2-|-------3-2-|
D|--2----------|----------2--|----------2-|---------2-|
A|-------------|----------4--|----------4-|---------4-|
E|-------------|-------------|------------|-----------|

E|--3-0--------|----------5--|----------10--|--------------|
B|------2------|--------3-7--|----------8---|--------------|
G|--------3-2--|------2---7--|--------0-7---|--2-----------|
D|----------2--|--0-4-----0--|------0---9---|----4---4---4-|
A|----------4--|-------------|----2---------|--0---5---0---|
E|-------------|-------------|--3-----------|--------------|

E|--^-^-^-^-^-^-^-^-^---^-^---|-------5--|--3--2--2--|--2------|
B|-5-7-5-7-5-7-5-7-5-7-3-5-3--|----------|-----------|-------7-|
G|-0--------------------------|----------|-----------|---------|
D|----------------------------|--0-------|--------2--|--0------|
A|---------7-------0----------|----------|--------1--|--2------|
E|----------------------------|----------|-----------|---------|

E|--8--7--7-|-7--------|--5--------|--3----2-|
B|----------|-------5--|--------0--|---------|
G|----------|----------|--------0--|---------|
D|--------7-|----6--5--|-----4-----|-------0-|
A|--------6-|----5--4--|-----3--2--|--4----2-|
E|----------|----------|-----------|--5------|

E|--^-^-^-^-^-^-^-^-^---^-^--|
B|-5-7-5-7-5-7-5-7-5-7-3-5-3-|
G|-0-------------------------|
D|---------------------------|
A|---------7-------0---------|
E|---------------------------|

E|----------|-----------|--2-------|--------6--|-----5--4-|
B|-3--------|--------6--|----------|--------5--|-----4--3-|
G|-------2--|--------4--|--3-------|--5h-4--4--|--4-------|
D|----0-----|--5h-4--4--|--4----4--|-----------|--------2-|
A|----------|-----------|----------|-----------|----------|
E|----------|-----------|----------|-----------|----------|

E|----3--2--|--7------|--3------|--------2-5--|--------3-7-|
B|----2--3--|---------|--2------|------3---3--|------3-----|
G|-2--------|--7------|--2------|----2-----2--|----4-----7-|
D|-------0--|--5------|---------|--4-------4--|--5-------5-|
A|----------|---------|---------|-------------|----------5-|
E|----------|---------|---------|-------------|------------|

E|----------10-|---------10--|----10---10---10-|
B|--------3----|---------8---|--7----7----7----|
G|------2---7--|-------0-7---|-----------------|
D|----4--------|-----0---9---|------------0----|
A|--5-------9--|---2---------|--0--------------|
E|-------------|-3-----------|-----------------|

E|----10---10---10-|----9---9---9-|---9---9---9-|--10------|
B|--7----7----7----|--5---5---5---|-5---5---5---|----------|
G|-----------------|--0---0-------|-------------|--11------|
D|------------7----|--------------|-------------|--0-----4-|
A|--9--------------|----------7---|---------0---|----------|
E|-----------------|--------------|-9---9-------|--------2-|

E|-----------|-----------|----------|-------9--|-10-|
B|-----------|-----------|----------|-------10-|-10-|
G|-----------|-----------|----------|-------9--|-11-|
D|--5--6--7--|--8--9--6--|--7----7--|----------|-0--|
A|-----------|-----------|----------|--5----0--|----|
E|--3--4--5--|--6--7--4--|--5----5--|----------|----|

E|--------^-^-^--|---------|-3-----2-|-2-0-------|------^-^-^--|
B|-0-----1-0-1-0-|-3-----3-|-5-----3-|---1-----3-|-0---1-0-1-0-|
G|-0-----2-------|-4-----4-|---------|---------4-|-0---2-------|
D|---------------|---------|---------|-----------|-------------|
A|---------------|---------|---------|-----------|-------------|
E|-3--3--3-------|-3--3--3-|-3--3--3-|---3--3--3-|-3-3-3-------|

E|---------|-0-------|-^---------|--------------|--------------|
B|-3-----3-|-1-----3-|3-1-----0--|----------0---|----------1---|
G|-4-----4-|-------4-|--2-----0--|----0---0---0-|----2-1-2---2-|
D|---------|---------|-----------|--0---4-------|--2-----------|
A|---------|---------|-----------|--2-----------|--3-----------|
E|-3--3--3-|-3--3--3-|--3--3--3--|--------------|--------------|

E|-------------|----------0---|----------8----|--7-----------|
B|---0---0-3-0-|----1-0-1---1-|--3-------10---|--8-------3---|
G|-----3-------|--0-----------|---------------|--0-------4---|
D|-4-----------|--2-----------|----0---0----0-|----0---0---0-|
A|-5-----------|--------------|------4---9----|------4-------|
E|-------------|--------------|--2------------|----------3---|

E|----------2---|-3-----------|--------------|------0-----|
B|--1-------1---|-0-------0---|--1---0---1-0-|--3-1-------|
G|--2-----------|---------0---|----1---2-----|---------0--|
D|----0---0---0-|---0---0---0-|--2-----------|------------|
A|--0---4---0---|-2---4---2---|--3-----------|---------3--|
E|--------------|-------------|--------------|------------|

E|-----------|-----------|----------|----------|-----------|
B|-----------|-----0-----|----------|----------|-----------|
G|-----5-----|--0-----0--|-----2----|----0-----|-----------|
D|--4-----4--|--2-----2--|--2-----2-|-0-----0--|--0--4--0--|
A|--5-----5--|-----------|--3-----3-|-2-----2--|--0-----0--|
E|-----------|-----------|----------|----------|-----------|

E|-----------|--------------|----------0---|-2-----------|
B|-----------|--------------|------1-----1-|-1-----------|
G|-----0--2--|--4-------2---|----0---0-----|-2-0---0-2---|
D|-----------|--3-5-4-5---5-|--2-----------|-----4-----4-|
A|--2--------|--5-----------|--------------|-------------|
E|--3--------|--3-----------|--3-----------|-3-----------|

E|--3-7-3-------|--------------|----------0---|--2-----------|
B|--------3-----|--------------|------1-----1-|--1-----------|
G|----------4---|--4-------2---|----0---0-----|--2-0---0-2---|
D|------------5-|--3-5-4-5---5-|--2-----------|------4-----4-|
A|--------------|--5-----------|--------------|--------------|
E|--3-----------|--3-----------|--3-----------|--3-----------|

E|-3-5-7-3-2---|--0-----------|--------------|--------------|
B|-----------4-|----------3---|--3---1---0---|--0-------0---|
G|-------------|----0---0---0-|----0---0---0-|----0-2-----0-|
D|-------------|------4---0---|--2---2---0---|------4-5-0---|
A|-------------|--3-----------|--------------|--3-----------|
E|-3-----------|--------------|--------------|--------------|

E|--------------|-------------|--------------|-----10--10--|
B|--3---1---0---|-0-------0---|--3---1---0---|-------------|
G|----0---0---0-|---0-2-----0-|----0---0---0-|--2--11--11--|
D|--2---4---0---|-----4-5-0---|--2---4-------|--4----------|
A|--------------|-3-----------|----------4---|--5--12--9---|
E|--------------|-------------|--------------|-------------|

E|--10------|--5--4--7--|--5--4--7-|-------0--|--------0--|
B|----------|-----------|----------|-3--2-----|--3--2-----|
G|--11------|-----------|----------|-------0--|--------0--|
D|----------|-----------|----------|-4--2-----|--4--2-----|
A|----------|-----------|----------|-0--------|--0--------|
E|--10------|-----------|----------|----------|-----------|

E|--------2---|--3-----0---|----------2-|-------3---5-|
B|--3-------3-|----------2-|--3---------|--5--5---7---|
G|------------|--------0---|--------2---|-------------|
D|--4-----0---|------------|--4-----0---|-------------|
A|--0--0------|--4--0------|-----0------|--4----------|
E|------------|------------|------------|-------------|

E|-3--2--5--|--3--2--5--|--3--------|--3--------|--3-----0---|
B|----------|-----------|--2--0--3--|--2--0--3--|--2-------2-|
G|----------|-----------|-----------|-----------|--------0---|
D|----------|-----------|--2--0--4--|--2--0--4--|--2---------|
A|----------|-----------|--0--------|--0--------|--0--0------|
E|----------|-----------|-----------|-----------|------------|

E|----------2-|-0-------3-|--2--2-5-3-7-|--5--------|
B|--3---------|-----------|-----3---5---|--7--------|
G|--------2---|-------2---|-------------|-----------|
D|--4-----0---|-----------|--0----------|--0--------|
A|-----0------|-4--0--4---|-------------|-----4--7--|
E|------------|-----------|-------------|-----------|

E|-------------|--7--6--9--|-7----------|---------|------------|
B|-------------|--0--------|------3---5-|-3-------|------0---1-|
G|-----------0-|-----3--6--|-4--4---5---|-4-------|----0---2---|
D|--0--0-4-2---|--4--------|----5---7---|-5--4--7-|-5--2---4---|
A|-----2---4---|--5--------|------------|---------|------------|
E|-------------|-----------|------------|-3--2--5-|-3----------|

E|--0-----2--|--0--0---2-0-|--3-0--------|--3-0-------|
B|-----4-----|-------4-----|------2------|------2-----|
G|--0--------|-------------|--------3-2--|--------3-2-|
D|--2--1--4--|--2----------|----------2--|----------2-|
A|--2--------|-------------|----------4--|----------4-|
E|-----------|-------------|-------------|------------|

E|-3-0--------|--3-0--------|----------5--|----------10--|
B|-----2------|------2------|--------3-7--|----------8---|
G|-------3-2--|--------3-2--|------2---7--|--------0-7---|
D|---------2--|----------2--|--0-4-----4--|------0---9---|
A|---------4--|----------4--|-------------|----2---------|
E|------------|-------------|-------------|--3-----------|

E|-------------|--^-^-^-^-^-^-^-^-^---^-^--|------5-|-3--2--2--|
B|-------------|-5-7-5-7-5-7-5-7-5-7-3-5-3-|--------|----------|
G|-2-----------|-0-------------------------|--------|----------|
D|---4---4---4-|---------------------------|-0------|-------2--|
A|-0---5---0---|---------7-------0---------|--------|-------1--|
E|-------------|---------------------------|--------|----------|

E|--2------|-8--7--7--|--7--------|--5--------|--3----2-|
B|-------7-|----------|--------5--|--------0--|---------|
G|---------|----------|-----------|--------0--|---------|
D|--0------|-------7--|-----6--5--|-----4-----|-------0-|
A|--2------|-------6--|-----5--4--|-----3--2--|--4----2-|
E|---------|----------|-----------|-----------|--5------|

E|--^-^-^-^-^-^-^-^-^---^-^---|-----------|-----------|-2------|
B|-5-7-5-7-5-7-5-7-5-7-3-5-3--|--3--------|--------6--|--------|
G|-0--------------------------|--------2--|--------4--|-3------|
D|----------------------------|-----0-----|--5h-4--4--|-4----4-|
A|---------7-------0----------|-----------|-----------|--------|
E|----------------------------|-----------|-----------|--------|

E|-------6--|-----5--4--|-----3--2--|--7----|--3--|--------2-5-|
B|-------5--|-----4--3--|-----2--3--|-------|--2--|------3---3-|
G|-5h-4--4--|--4--------|--2--------|--7----|--2--|----2-----2-|
D|----------|--------2--|--------0--|--5----|-----|--4-------4-|
A|----------|-----------|-----------|-------|-----|------------|
E|----------|-----------|-----------|-------|-----|------------|

E|-------3-7--|----------10--|----------10--|----10---10---10-|
B|-----3------|--------3-----|----------8---|--7----7----7----|
G|---4-----7--|------2---7---|--------0-7---|-----------------|
D|-5-------5--|----4---------|------0---9---|------------0----|
A|------------|--5-------9---|----2---------|--0--------------|
E|------------|--------------|--3-----------|-----------------|

E|----10---10---10-|---9---9---9-|----9---9---9-|--10-------|
B|--7----7----7----|-5---5---5---|--5---5---5---|-----------|
G|-----------------|-0---0-------|--------------|--11-------|
D|------------7----|-------------|--------------|--0-----4--|
A|--9--------------|---------7---|----------0---|-----------|
E|-----------------|-------------|--9---9-------|--------2--|

E|-----------|-----------|---------|------9---|--10------|
B|-----------|-----------|---------|------10--|--10------|
G|-----------|-----------|---------|------9---|--11------|
D|--5--6--7--|--8--9--6--|--7----7-|----------|--0-------|
A|-----------|-----------|---------|-5----0---|----------|
E|--3--4--5--|--6--7--4--|--5----5-|----------|----------|

E|-----------|-----------|-----------|--------5-|
B|-----3--3--|--3-----6--|-----3--3--|--3-------|
G|--2--------|-----2-----|--2--------|-----2----|
D|--3--------|-----3--3--|--3--------|-----3--3-|
A|--5--------|-----5--5--|--5--------|-----5--5-|
E|-----------|-----------|-----------|----------|

E|----10-13-7-10-|----7---4-----|--------------|--------------|
B|-0-------------|--9---6---3-6-|----3---------|--------------|
G|---------------|--------------|--4-----4-----|--------------|
D|-6-------------|--------------|------6---3-6-|----3---0-----|
A|-8-------------|--------------|--------------|--5---2-----2-|
E|-10------------|--------------|--------------|----------4---|

E|----------|----------|-----------|-----------|-----5-8------|
B|----------|----------|-----------|--------5--|--1------7-10-|
G|--2-------|-------2--|-----2--2--|--2--------|--2-----------|
D|--2--2--2-|-2--------|--2--------|-----2--2--|--4-----------|
A|--3-------|----3--3--|--3--------|-----3--3--|--------------|
E|----------|----------|-----------|-----------|--------------|

E|---------------|------7-----|-------------|---------12-------|
B|--4-7----------|-0--8-----8-|---5---------|------11-------11-|
G|------5-8------|--------9---|-4-----4---0-|------------12----|
D|----------7-10-|-5----------|-----5---2---|--8---------------|
A|---------------|-7----------|-------------|--10--------------|
E|---------------|------------|-------------|--12--------------|

E|--------------|--------------|--------------|--------------|
B|----8---5-----|--------------|--------------|--4-------0---|
G|--9---5-----5-|----3---0-----|--------------|--------------|
D|----------8---|--5---2-----2-|----5-4-5-4-2-|----------1---|
A|--------------|----------3---|--1-----------|----2-1-2---2-|
E|--------------|--------------|--------------|--------------|

E|--------------|--------------|--0-------3---|----7-6-7---7-|
B|--1-------2---|--3-------4---|----------5---|--7-------0---|
G|--------------|----------2---|--0-----------|--8-----------|
D|--2-------2---|--4-------4---|--------------|--------------|
A|----2-1-2---2-|----2-1-2---2-|----2-1-2---2-|----------6---|
E|--------------|--------------|--------------|--7-------7---|

E|----7-6-7---7-|----7-6-7---7-|-----7-6-7---7-|----7-6-7-6-7-|
B|--------------|--------------|-----------8---|--7-----------|
G|--5-------6---|--7-------8---|--9------------|--------------|
D|--------------|--------------|---------------|--------------|
A|--7-------7---|--9-------9---|--10-------7---|--6-----------|
E|--7-------7---|--7-------7---|--7--------7---|--7-----------|

E|-8-5---0---|-8-5---0---|-3---------|-3---------|-------------|
B|-----7---4-|-----7---4-|---5-------|---5-------|-0-----------|
G|---------5-|---------5-|-----5-4-3-|-----5-4-3-|---0---0---0-|
D|---------4-|---------4-|---------5-|---------5-|-----2-------|
A|-----------|-----------|---------7-|---------7-|-2-------2---|
E|-----------|-----------|-----------|-----------|-------------|

E|-2-3-2-3-2-3-2-3-2-3-0-2-|-0-------|-----------|-----------|
B|-------------------------|---------|-----------|-----------|
G|---------2---------------|-0----0--|--1--2--3--|--4--5--3--|
D|-------------------------|-2-------|-----------|-----------|
A|-2---------------2-------|---------|-----------|-----------|
E|-------------------------|------3--|--4--5--6--|--7--8--6--|

E|---------|------11--|--12-------|-------9--|--10-------|
B|-------0-|------10--|--8--------|-------8--|-----------|
G|--4------|------11--|--9-----2--|-------9--|--10----0--|
D|---------|-2----9---|-----------|--0----7--|--0--------|
A|-------2-|----------|--------0--|-------0--|-----------|
E|--7------|-0--------|--12-------|----------|--------3--|

E|-------7--|--8-------|----------|----------|-----------|
B|--1----6--|--5----4--|--5-------|----------|-----------|
G|-------7--|--5-------|-----4--5-|-1--2-----|--0--------|
D|-------5--|----------|----------|-------2--|-----------|
A|--3-------|----------|----------|----------|-----3--3--|
E|----------|--8-------|----------|----------|-----5--5--|

E|--------2--|--3--------|-----------|----------|
B|-----------|-----4--5--|-----------|----------|
G|-----------|-----------|--4--5-----|--4-------|
D|--4--------|-----------|--------5--|----------|
A|--3--3--2--|--2--------|-----------|-----2--2-|
E|--5--5--5--|--0--------|-----------|-----2--2-|

E|----------|-----------|-----------|-----3--4--|--5-----3-|
B|----------|-----------|-----------|-----5--6--|--5--5----|
G|-2-----2--|--4-----0--|-----------|-----------|--------3-|
D|----------|-----4-----|--1--2-----|--0--------|-----2----|
A|-2--2-----|-----------|--------2--|-----------|--4-------|
E|-2--2-----|-----------|-----------|-----------|----------|

E|-2--------|-----------|----------|
B|----3--2--|--3--2--3--|----------|
G|-2--------|-----------|--2-------|
D|-0--------|-----------|--4-------|
A|----------|-----------|-----5--4-|
E|----------|-----------|----------|

E|-h-p-h-p-h-p-h-p-h---h--|----5--4--|--5--4--5--|--3-----6-|
B|-^-^-^-^-^-^-^-^-^---^--|----------|-----------|----------|
G|3-5-3-5-3-5-3-5-3-5-2-3-|-2--------|-----------|----------|
D|0-----------------------|-4--------|-----------|-----5--4-|
A|------------------------|-5--------|-----------|-----6--5-|
E|------------------------|----------|-----------|----------|

E|Трель-----|----------2-3-|--4-5-6-7-8-9-|--10-|
B|--^-------|--3-4-5-6-----|--------------|-----|
G|-6-7------|--------------|--------------|-----|
D|-5--4--5--|--4-----------|--------------|-----|
A|-6--5--6--|--5-----------|--------------|-----|
E|----------|--------------|--------------|-----|

Вверх
English songs 109

ABBA
AC-DC
Adams Bryan
Adriano Celentano
Aerosmith
A-Ha
Animals
Antonio Banderos
Apocalyptica
Armstrong Louis
Billy's Band
Bjork
Blink 182
Blondie
Blur
Bob Dylan
Boney M
Bon Jovi
Bowie David
Brainstorm
Braxton Toni
Butch
Celine Dion
Chris De Burgh
Chris Isaak
Chuck Berry
Clapton Eric
Cohen Leonard
Cranberries
Deep Purple
Depeche Mode
Dire Straits
Donovan Jason
Eagles
Electric Light Orchestra
Elton John
Elvis Presley
Era
Europe
Evanescence
Garbage
Gary Moore
Glen Wiston
Gorillaz
Green Day
Guano Apes
Guns N Roses
Hendrix Jimi
Iggy Pop
Iron Maiden
Joe Dassin
Kansas
King Crimson
Kiss
Led Zeppelin
Leonard Cohen
Limp Bizkit
Linkin Park
Louis Amstrong
Madonna
Marilyn Manson
Marley Bob
Metallica
Moby
Morricone Ennio
Muse
Nazareth
Nelly Furtado
Nick Cave
Nirvana
No Doubt
Oasis
Offspring
Ottawan
Outkast
Ozzy Osbourne
Pain
Para Bellum
Pink Floyd
Placebo
P.O.D.
Queen
RadioHead
Rainbow
Rammstein
Rea Chris
Red Hot Chili Peppers
Ritchie Blackmore
Rolling Stones
Roxette
Rufus Wainwright
Santana
Sarah Brightman
Scorpions
Sex Pistols
Simon & Garfunkel
Shocking Blue
Soul Asylumx
Status Quo
Sting
System of a down
Sum 41
The Beatles
The Doors
Tito & Tarantula
U2
UB 40
Uriah Heep
Van Halen

Українські пісні 109

Boom Box
Escape
Flit
Kapela Drewutnia
Lama
LЮK
Mad Heads (XL)
Motor' rolla
NEON
Ot Vinta
The Вйо
Абздольц
Аероплан
Акорд
Ані Лорак
Бандурна розмова
Білик Ірина
Борщ
Брати Гадюкіни
Вася Club
Вій
Воплі Відоплясова
Гайдамаки
Гончар Олесь
Гринжоли
Гроно
Гуляйгород
Дарка і Славко
Дивні
Друга Ріка
Другий подих
Дударик
Експампей
Євтушенко Андрій
Жарівка (Дяк Олесь)
Журбовіз
Зібров Павло
Зінкевич Василь
Злотник Олександр
Івасюк Володимир
Калєкція
Карна
Карпа Ірена
Клямка
Козловський Віталій
Кому вниз
Крихітка Цахес
Курінь
Лесик-Band
Лорд Юрія
Львівські музики
Мандри
Менестрелі
Мері
Мертвий Півень
Міпеніум
Монте Крісто
Морозов Віктор
Нахтіґаль
Не журись!
Неборак Віктор
НеДІля
НЕМО
Нічлава блюз
Океан Ельзи
ПереBANDя
Перкалаба
Петрович
Піккардійська Терція
Піпа Олександр
Плач Єремїі
Пономарьов Олександр
Пророк
Росава
Ротару Софія
Руслана
Рутенія
С.К.А.Й.
САД
Самі свої
Серцевий Напад
Скрябін
Смерічка
Сокира Перука
Соколи
Таліта Кум
Тартак
Тінь сонця
Ткач Михайло
ТНМК
Тостер
Тріо Мареничів
Фарбований лис
Фестиваль Снів
Хвилю тримай
Цісик Квітка
Черемош
Черемшина
Четвертий кут
Чорний вересень
Чорні черешні
Шевченко Тарас
Щастя
Юркеш
Юрченко Юрко
Юрчишин Ярослав
Явір
Яка існуЄ
Яремчук Назарій

   
 sait@i.ua



Рейтинг@Mail.ru