accordS-land.ru Аккорды и табулатуры к гитаре.
Главная | Песенник | Аккорды | Учебник
Руссике песни 180
5nizza
7Б
9-й Район
Animal ДжаZ
Billy's Band
Butch
Para Bellum
TequilaJazzz
Worms
Zdob Si Zdub
Автоматические удовлетворители
Агата Кристи
Агузарова Жанна
Агутин Леонид
Адо
Аквариум
Алиса
Алсу
Амирамов Е.
Антонов Ю.
Арефьева Ольга
Ария
АукцЫон
Барыкин
Башаков Михаил
Башлачев Александр
БекХан
Бернес М.
Би - 2
Бони неМ
Борзов Найк
Боярский Михаил
Браво
Братья Грим
Ва-Банкъ
Вертинский Александр
Визбор Юрий
Високосный год
Воскресенье
Восьмая Марта
Высоцкий В.С.
Високосный год
Газманов О.
Галич Александр
Герман А.
Городницкий Александр
Глызин А.
Градский Александр
Гражданская Оборона
Гребещенков
Данко
ДДТ
Дидюля
Диоды
Дискотека Авария
Дягилева Янка
Ёлка
Жуки
Заблудовский Андрей
Запрещенные Барабанщики
Звери
Земляне
Земфира
Зинчук Виктор
Зоопарк
Иван Кайф
Иванов А.
Иваси
ИЗ КИНО И МУЛЬТФИЛЬМОВ
Империя
Калинов мост
Кашин Павел
Кельми К.
КИНО
Кипелов
Конец Фильма
Контингент
Корни
Король и Шут
Коррозия металла
Крематорий
Крупнов Анатолий
Кузьмин Владимир
Куликов Е.
Кукрыниксы
Курехин Сергей
Лаэртский Александр
Ласковый май
Ленинград
Леонидов Максим
Лесоповал
Лещенко Л.
Линда
Лицей
Лоза Юрий
Любэ
Люмен
Ляпис Трубецкой
Мальчишник
Манго-манго
Мара
Маркин В.
Маршал Александр
Маша и медведи
Машина времени
Мечтать
Мистер Кредо
Митяев Олег
Многоточье
Монгол Шуудан
Моральный Кодекс
Мультfильмы
Мумий Тролль
Настя
Науменко Майк
Наутилус Помпилиус
Непара
Неприкасаемые
Несчастный случай
Никоваев И.
Никольский Константин
Ногу свело
Ноль
Носков Николай
Ночные Снайперы
Окуджава Булат
Оркрист
Осин Е.
Оскар
Отиева И.
Паперный Т.А.М.
Парк Горького (Gorky Park)
Пикник
Пилот
Пламя
Полковник и однополчане
Пугачева А.
ПЭХ
Приключения Электроников
Просто прикольные песни
Рада и Терновник
Римский-Корсаков
Розенбаум Александр
Рок-Острова
Рондо
Сансара
Саруханов
Сегодня Ночью
Секрет
Сектор газа
Сенчина Л.
СерьГа
Смысловые Галлюцинации
Сплин
Солодуха А.
Старые блатные песни
Сукачев Гарик
Сурганова и Оркестр
Сюткин Валерий
Тальков Игорь
Танцы минус
Тараканы
Тату
Технология
УмаТурман
Умка и Броневичок
Ундервудъ
Фабрика звезд
Х.З. (Хуй Забей)
Центр
ЧайФ
Черный кофе
Черный Лукич
Чиж и Ко
Чистяков Федор
Шанхай
Щербаков Михаил
Ю-Питер

Классика 22

Албениз Исаак
Албениз Матео
Бах Иоган Себостьян
Бетховен Людвиг ван
Бизе Жорж
Брамс Иоганнес
Вивальди Антонио
Гендель Георг Фридрих
Гершвин Джордж
Григ Эдвард
Дебюсси Клод
Камиль Сен-Санс
Мендельсон
Моцарт Вольфгант Амадей
Мусоргский Модест Пертрович
Норис Крис
Огинский Михал Клеофас
Паганини Никколо
Рахманинов Сергей Васильевич
Римский-Корсаков
Чайковский Пётр Ильич
Шуберт Франц
 

Аккорды и табулатуры.  Бах Иоган Себостьян . Все песни

Бах Иоган Себостьян

2-Part Invention #13 in A-minor
Aria
Bourree
Brandeburg Concerto No.5
Crab Canon
Figue
Fugue In E Minor
Gigue from the Lute Suite
Gigue Partita #2
Jesu, Joy Of Man`s Desiring
Minuet
Musette
My Heart Ever Faithful
Orchestral Suite No.3 in D Major
Prelude, BMV 999
Prelude Cello Suite III
The Well-Tempered Clavier
Toccata
Ария в E (из тетради Анны Магдолены Бах)
Воздух. Сюита для оркестра №3 в D
Гавот в форме рондо из 6-ой сюиты для скрипки
Гавот в форме рондо из 6-ой сюиты для скрипки (2 вариант)
Минуэт из 4-ой сюиты в E
Прелюдия в C (из ХТК)
Тетрадь Анны Магдалены Бах - Марш в D
Тетрадь Анны Магдалены Бах - Марш в G
Тетрадь Анны Магдалены Бах - Минуэт в Dm
Тетрадь Анны Магдалены Бах - Минуэт в G
Тетрадь Анны Магдалены Бах - Минуэт в G (2 вариант)
Тетрадь Анны Магдалены Бах - Минуэт в Gm
Тетрадь Анны Магдалены Бах - Мюзет в D
Токата Dm
Токата и фуга Dm
Шутка
Вверх

2-Part Invention #13 in A-minor

E|-------------------------------------------------------------|
B|---------1-0---0-3--1-----1-----------0--------------1--0----|
G|-------2------------2-----------1-----------2-----2----------|
D|----2--------2---------------------------0-----2-------------|
A|-0-----0------------0-----0--3--2-----2-----3-----0--------2-|
E|-----------0---4-------0-----------0--------------------4----|

E|-----------------------------------0-----0-------------------|
B|-0--3--1------------------------------1--------1-------------|
G|--------------------------------------------2--------0-------|
D|-----------------------------0--------------------2-----3----|
A|-------0------0--3--2-----2-----3-----0-----3-----0-----5--0-|
E|-0---------0-----------0-------------------------------------|

E|------------1------------------------------------------------|
B|-------3----------3--0--3-----0----------------------------1-|
G|-2-------------------------0---------------------------------|
D|-------0--3----------0-----------0--3--2--------2------------|
A|----0-------0--2-----------------2-----------3-----0---------|
E|-1-------------------------3--------------3------------------|

E|-----------------------------------------------------------0-|
B|---1---3---0-----0-----1--------------------0-----1-----1----|
G|-2------------0--------------2-----2-----0-----0-----0-------|
D|-----3--------------2-----------3-----0-----3----------------|
A|-3---5-2------2-----3--0--------5-----------------3----------|
E|---------3----------------1-----------3----------------------|

E|----------1--0-|
B|-3-----3-------|
G|----0----------|
D|---------------|
A|---------------|
E|---------------|

Вверх

Aria

(Quarter notes)

e|-0-|-5-----------4-------|-5-----------------0-|
B|---|-------------5-------|-------2-----3-------|
G|---|-------2-------------|-2-----2-----4-----1-|
D|---|-------------------2-|---------------------|
A|---|---------------------|---------------------|
E|---|---------------------|---------------------|

e|----------------0-|-----------7-----5-|-4---2--0--2----------|
B|-2--------0-------|-4---2--0----------|-----------4-----5--4-|
G|-2----------------|-4---------------2-|-4--------------------|
D|----------2-------|-----------6-------|----------------------|
A|-----0------------|-------------------|-----------2----------|
E|------------------|-------------------|----------------------|

e|-0-------------|
B|-0-------------|
G|-1-------------|
D|-2-------------|
A|-------2-------|
E|-------------0-|

(Part II)

e|------|---------------------|-------------------0-|
B|------|-0-----------------2-|-3-------------------|
G|-1--2-|-------1-----------2-|-4-----------------1-|
D|------|-------------2-------|-------2-------------|
A|------|---------------------|---------------------|
E|------|---------------------|-------------0-------|

e|-------------2----------|-------------------0-|-2----------4-|
B|-2-----------------3--2-|-0-------------------|-3----------3-|
G|-2-----4--2-------------|-0-------------------|--------------|
D|-------------0-----0----|-2-------------------|-0------------|
A|-------4----------------|-------2-----------4-|------------2-|
E|------------------------|-------------0-------|--------------|

e|-5-----4--2--0-------|-----------------------|---------------|
B|-5-----------------3-|-2-----------0---------|---------------|
G|---------------------|-2-----------1-------2-|-2-------------|
D|-------------------0-|-2---------------------|-------2-------|
A|-4-------------------|-----------------------|-------------0-|
E|---------------------|-------------0---------|---------------|

Вверх

Bourree

e|--0--2---#|---3----2--0--------0--2--|-----------------------|
B|---------#|---------------4----------|--0----2--4--5----3--1-|
G|---------#|*-------------------------|-----------------------|
D|---------#|*-------------------------|-----------------------|
A|---------#|--------0------2----0-----|-----------------------|
E|--3--2---#|---0----------------------|--3----2-----0----2----|

e|------------------|------------------0--2-|-3--2--0-----0--2-|
B|-0----------------|-0---------------------|----------4-------|
G|----2--0-----0--2-|----2--0---------------|------------------|
D|----------4-------|----------4-2----------|------------------|
A|----0-----2--0----|-------2---------------|----0-----2--0----|
E|-3----------------|-3----------0--2--3--2-|-0----------------|

e|-----------------------|---------------------|-------0--2---|#
B|--0----2--4--5----3--1-|--0------------------|--------------|#
G|-----------------------|------2--0---------0-|-0-----------*|#
D|-----------------------|------------4--------|-0-----------*|#
A|-----------------------|------3-----5---5----|-2------------|#
E|--3----2-----0----2----|--3------------------|-3-----3--2---|#

e|---------------#|--------------------3----|-0----------------|
B|---------0-----#|---3-------1--0--------3-|-------3----------|
G|-0----------0--#|*--2----2----------------|----4-----5--4--2-|
D|-0-------------#|*-------0----------------|-------------0----|
A|-2-------------#|--------------------2----|-3----------------|
E|-3-------3-----#|---2----------3----------|----4-----5-------|

e|---------------------|-----------------------|----3---0------|
B|-----------1---------|------------------3----|-0----3------3-|
G|-1---2--4-------4--2-|-2-------------------2-|-----------4---|
D|-2---------2---------|-----------------------|---------------|
A|-----0---------------|-0--2--0---------------|----2---3------|
E|----------------0----|----------3--2----2----|-3---------4---|

e|----5--0----------|------------------|-----------------7-----|
B|-1--------7-----5-|----2-----------0-|-0------------------7--|
G|-------------6----|-7-----4--3-------|-----------------------|
D|----------0-------|----2-----4-------|-----------------------|
A|-0--4-------------|------------------|-2--1--2--4--6---------|
E|-------------6----|-7-----------2----|-----------------7-----|

e|-------------5----0--3--|#----2--|
B|--9----7--5-------------|#-------|
G|-----------------------*|#-------|
D|-----------------------*|#----0--|
A|--7----5-----4----0-----|#-------|
E|------------------------|#-------|

Вверх

Brandeburg Concerto No.5

E|-------------------------------------------------|
B|-------------------------------------------------|
G|-------------------19-19-18-19-18-16-------------|
D|-------16-16-19-19-------------------19-17-16----|
A|-17-17----------------------------------------19-|
E|-------------------------------------------------|

E|-------------------------------------|
B|--------------------------17------17-|
G|-------------------19-19-------------|
D|-------16-16-19-19------------19-----|
A|-17-17-------------------------------|
E|-------------------------------------|

E|-------------------------19-19-17-17-------------|
B|-19-19-17-17-20-20-19-19-------------------------|
G|-------------------------------------18-18-19-19-|
D|-------------------------------------------------|
A|-------------------------------------------------|
E|-------------------------------------------------|

E|-------------------------------------------------|
B|-------------------------------------------------|
G|-------------16-16-------------------------------|
D|-17-17-16-16-------19-19-------------------17-17-|
A|-------------------------16-16-17-17-------------|
E|-------------------------------------17-17-------|

E|---------------------------------------------------|
B|---------------------------------------------------|
G|------------------------------------------16-18----|
D|-16----16----------------------16-17---19-------19-|
A|----19----17-19-19-------17-19---------------------|
E|-------------------17-17---------------------------|

E|-------------------------------------19-19-17-17-|
B|-------------17-17-------20-20-19-19-------------|
G|-19-19-18-18-------19-19-------------------------|
D|-------------------------------------------------|
A|-------------------------------------------------|
E|-------------------------------------------------|

|---------------------------------------------|
|20p19-17----17----------------------17-------|
|---------19-------16-17----16-19-18----------|
|---------------19-------19-------------19-17-|
|---------------------------------------------|
|---------------------------------------------|

E|----------------------------------------------|----|
B|----------------------------------------------|----|
G|----------------------------------------------|----|
D|-16-------17-16-19------------17-16-----------|----|
A|----17-19----------17-16------------19-19--17-|-17-|
E|-------------------------19-------------------|----|

Вверх

Crab Canon

E|--------------|------------|----------------|----------------|
B|--------------|------------|----------------|----------------|
G|--------------|0-------1---|--------~---0---|0---------------|
D|--------1-----|------------|--------~-------|----4-------3---|
A|3-------------|------------|2---------------|----------------|
E|--------------|------------|----------------|----------------|

E|----------|--------1-------|------1---------|----------------|
B|--------1-|0-1-3-4---4-3-1-|3---3---4-3-1-0-|--0-1-4-3-1-0---|
G|----0-----|----------------|--0-------------|2-------------2-|
D|--1-------|----------------|----------------|----------------|
A|3---------|----------------|----------------|----------------|
E|----------|----------------|----------------|----------------|

E|--------------|--------------|--------------|----------------|
B|--------------|--------------|--------------|----------------|
G|--------------|--------------|--------------|----------------|
D|3---2-------1-|1---0---------|------------3-|1-------0-------|
A|--------------|--------4---3-|2-------3-----|----------------|
E|--------------|--------------|----3---------|----------------|

E|--------------|---------------|---------------|--------------|
B|-----2-1------|---------------|---------------|-----1-0------|
G|0-1-3----3-1-0|--0-1-3-1-0----|------0-------1|0--------1-0--|
D|--------------|3-----------3-1|0-1-3---3-1-0--|--3-1--------3|
A|--------------|---------------|---------------|--------------|
E|--------------|---------------|---------------|--------------|

E|----------|----------------|----------------|----------------|
B|----------|------1---------|------0-1-------|----------------|
G|----------|0---0---0-------|--0-1---------0-|1-------0-------|
D|--------1-|--3-------1-0-1-|3---------1-3---|--0-1-3---3-1-0-|
A|3---------|----------------|----------------|----------------|
E|----------|----------------|----------------|----------------|

E|-----------------|----------|---------------|----------------|
B|---------1-------|----------|---------------|----------------|
G|-------0---0---0-|----------|---------------|----------------|
D|-1-0-1-------3---|1---------|0-------1------|3---------------|
A|-----------------|--------3-|---------------|----3-------2---|
E|-----------------|----------|---------------|--------3-------|

E|---------------|---------------|---------------|--------1----|
B|---------------|------1-2------|--0-1-3-4-1-0--|0-1-3-4---3-3|
G|----0-1-3-1-0--|0-1-3-----3-1-0|2-------------2|-----------0-|
D|1-3-----------3|---------------|---------------|-------------|
A|---------------|---------------|---------------|-------------|
E|---------------|---------------|---------------|-------------|

E|--------------|--------------|--------------|----------------|
B|--------------|--------------|--------------|----------------|
G|--------------|--------------|------------0-|0---~-----------|
D|--------0---1-|1---2-------3-|3---4---------|----~-----------|
A|3---4---------|--------------|--------------|--------2-------|
E|--------------|--------------|--------------|----------------|

E|------1---------|----------------|
B|1-3-4---4-3-1-0-|1---------------|
G|----------------|----0-----------|
D|----------------|--------1-------|
A|----------------|------------3---|
E|----------------|----------------|

E|----------------|----------------|
B|----------------|----------------|
G|1-------0-------|----------------|
D|----------------|1---------------|
A|----------------|--------3-------|
E|----------------|----------------|

Вверх

Figue

E|---------------------------|---------------------------------|
B|-1-0-1-------------------3-|-----1-0-1---3-----0-1-------0---|
G|---------0---1---1-0-1-----|-0-------------------------------|
D|---------------------------|-----------------3-------------3-|
A|---------------------------|---------------------------------|
E|---------------------------|---------------------------------|

E|-----3-2-3----------3-2-3--5-|----3-2-3--5-------------------|
B|---1-0-------1---4--4---3----|-3---------------3-4-------3---|
G|-------2-0-----------------5-|-3--2---3--5---5---0---2-----5-|
D|-1---------3-1-0-------------|---------------4-----------4---|
A|-----------------3-----------|-------------------------------|
E|-----------------------------|-------------------------------|

E|-------------------------------|-3-1-3-----------------------|
B|----4-3-4----------6-4-6-------|---------0---1--3--4--6------|
G|-3----------0---1----------1-3-|-3---------0-1-----------5-4-|
D|-5----------0-1-3--6-----0-3-5-|-------1-3------3--1--0------|
A|----------3--------------------|-----------------------------|
E|-------------------------------|-----------------------------|

E|--------------------4--3---1-|-------------------------------|
B|-----4-3-1----------6--4---3-|-4---3---4---6---0---1---3-----|
G|-5---------2-1-0-------------|-----1---0-------0-----------0-|
D|-----------------3-----------|-------------3-------3-1-3---1-|
A|-----------------------------|-------------------------------|
E|-----------------------------|-------------------------------|

Вверх

Fugue In E Minor

Размер: 4/4
Начало всем известное,играется довольно несложно:

E|---------------|-----------------|-----------------|
B|-0---0---0---0-|---0---0---0---0-|---0---0---0---0-|
G|---2---0-------|-----------------|-0---------------|
D|-----------4---|-2---1---2---4---|-------------1---|
A|---------------|-----------------|-----2---4-------|
E|---------------|-----------------|-----------------|

E|-----------------|---0---0---0---0-|---0---0---0---0-|
B|---0---0---0---0-|-----3---1---0---|-------------0---|
G|-----------------|-0---------------|-2---1---2-------|
D|-2---1---2---4---|-----------------|-----------------|
A|-----------------|-----------------|-----------------|
E|-----------------|-----------------|-----------------|

E|---0---0---0---0-|---0---0---0---0-|-----0-------0---|
B|-1---------------|-------------0---|-1-------1-------|
G|-------------1---|-2---1---2-------|-----------------|
D|-----2---4-------|-----------------|---2---2---2---2-|
A|-----------------|-----------------|-0-------0-------|
E|-----------------|-----------------|-----------------|

E|-1-------1-------|-----------------|-0-------0-------|
B|-----------------|-3-------3-------|-----------------|
G|-----2-------2---|-----4-------4---|-----0-------0---|
D|---0---0---0---0-|---5---5---5---0-|---2---2---2---2-|
A|-----------------|-5-------5-------|-3-------3-------|
E|-----------------|-----------------|-----------------|

E|-----------------|-----------------|-----------------|
B|-1-------1-------|-4-------4-------|-0-------0-------|
G|-----2-------2---|-----------------|-----0-------0---|
D|---4---4---4---4-|-----4-------4---|---2---2---2---2-|
A|-3-------3-------|---6---6---6---6-|-----------------|
E|-----------------|-7-------7-------|-0-------0-------|

E|-----------------|
B|-----------------|
G|-2-------2-------|
D|-----1-------1---|
A|---2---2---2---2-|
E|-2-------2-------|

            С этого момента техника исполнения довольно сложная
E|-----------------|-----------------|----7----7---7---7-|
B|-----------------|-----------------|------10---8---7---|
G|-0-------0-------|---2---2---2-----|-------------------|
D|-----2-------2---|-4-------4-------|---------------7---|
A|---2---2---2---2-|-----3-------3-0-|-10--------7-------|
E|-0-------0-------|-2-------2-------|-------------------|

E|----7---7----7---7-|---7---7----7---7-|----7---7---7---7-|
B|---------------7---|-8----------------|--------------7---|
G|------8--------8---|-9------------8---|------8---9---8---|
D|-------------------|-----9---11-------|------------------|
A|-10---9---10-------|--------------9---|-10---9---7-------|
E|-------------------|------------------|------------------|

E|---7---7---7---7-|---7---7---5---5-|---5---5---5---5-|
B|-8---7---5-------|---------5-------|-7---5-----------|
G|-------------7---|-5---7-------5---|---------7---5---|
D|-9-------5-------|-7---------------|-----------------|
A|-7---------------|-----------------|-5-------9-------|
E|-----------------|-----------------|-----------------|

E|---5---5---3---3-|---3---3---3---3-|---3---3---2---2-|
B|---------3-------|-5---3-----------|-----------------|
G|-4---5-------4---|---------5---4---|-2---4---5---2---|
D|-5---------------|-----------------|-4---------------|
A|-----------------|-3---------------|-----------------|
E|-----------------|---------0-------|-----------------|

E|---2---2---2---2-|---2---2---0---0-|---2---2---------|
B|-4---------------|-----------------|-----------5---5-|
G|-----5---4---2---|-----2---4---0---|-----------------|
D|-----------------|-5---------------|-4---4---2---2---|
A|-2---------------|-------------2---|-3---3---2---2---|
E|-----------------|-0---------------|-----------------|

E|-----------0---0-|---2---2---------|-0----*-|
B|---4---4-0-------|-----------5---4-|-0----*-|
G|-5---5-------0---|-----------------|-0----*-|
D|-4---------------|-4---4---2-------|------*-|
A|-0---------------|-3---3---2---2---|------*-|
E|-----------------|-----------------|-0----*-|

Вверх

Gigue from the Lute Suite

E|---------------|---------|------------0----|-----------------|
B|---------------|---------|---0-----------0-|1--0-------------|
G|---------------|---------|0-----0----------|------2--0-------|
D|-2--0----------|----2--4-|---------2-------|------------4--2-|
A|-------3--2--0-|---------|-----------------|0-----2-----3----|
E|---------------|3------2-|0-----2-----3----|-----------------|

E|---------7---|3--2--0--------|-------------|-----------------|
B|---7-4-----7-|---------3-1-0-|1-3-1-0------|---0--1--0-------|
G|-------4-----|-----------0---|2-4-2-0-2--0-|2--0--2--0--2--0-|
D|-1-----------|2-----4--------|--------4--2-|4-----------4--2-|
A|-2---4---6---|---------------|-------------|-----------------|
E|-------------|---------------|-------------|-----------------|

E|-------------|------------|----------------|-----------------|
B|-------------|------------|----------------|0--1--0----------|
G|-------------|0-------1---|2----------3----|---------2--0----|
D|-4-------4---|2-------2---|--2--------4----|0-----------1--4-|
A|---3-2-0-----|--2-------2-|3----3--------4-|------4----------|
E|---------3-2-|0---3-0-----|--------5-------|-----------------|

E|-----0---2---|3-5-3-2-0---|-----------0----|2--3--2--0-------|
B|-------------|----------3-|2----3----------|------------3----|
G|-0-2-0-------|------------|2-4--2--0-------|---------------5-|
D|-2-----4-2-1-|2---4---5---|-----------4--2-|0-----2-----4----|
A|-------------|------------|----------------|-----------------|
E|-------------|------------|----------------|-----------------|

E|---------3---|0-----------|--0--------5--0-|2----------------|
B|---3-------3-|1-------1---|-----2----------|3-----------3----|
G|-4---4---4---|--0-------0-|--------2-------|---2-----------2-|
D|-5-----5-----|----2-------|----------------|0-----4----------|
A|-------------|------3-----|0----------4----|---------5-------|
E|-------------|------------|----------------|-----------------|

E|---------3---|0-----------|----------------|-----------------|
B|---3-0-----3-|--3-1-0-----|----------------|0-----1-----3----|
G|-------0-----|--------2-0-|-----0-----2----|---2--0----------|
D|-------------|----0---2---|4----0----------|---------3--2--0-|
A|-2---0---2---|3-----------|5-7-----3--2--0-|-----------------|
E|-------------|------------|----------------|3----------------|

E|-0-3-8-7-5---|------0-----|----------------|-----------------|
B|-1---------8-|7-8-7---3---|0----------0----|-----------------|
G|-------------|----------5-|----------------|2-----------2----|
D|-----0-------|0-------4---|5----------2----|---2--------4----|
A|-3-------7---|----7-------|--2-----------2-|3-----3--------5-|
E|-------------|------------|-----3--0-------|---------5-------|

E|-------------|------------|--2--0----------|3--2--0----------|
B|---0---------|1-0---------|--------4--2--0-|---------3--2--0-|
G|-0---2-0-----|----2-0-----|----------------|-----------------|
D|---------4-2-|--------4-2-|1----------1----|2-----4-----5----|
A|-------------|0---2---3---|2----4----------|-----------------|
E|-3-------3---|------------|----------------|-----------------|

E|---------2---|------------|0----0-----0--2-|3----------------|
B|---2-------2-|3-------4---|0-4--0--4--0----|------232------0-|
G|-3---3---3---|4-------4---|0----0-----0----|------------3----|
D|-4-----4-----|--4-0-----4-|--4-----4-----4-|2-----4----------|
A|-------------|------2-----|----------------|-----------------|
E|-------------|------------|----------------|------------2----|

E|------------------|------------0----|---0--2--0-------|--|
B|-0-----------0----|---------0-------|0-----------4--2-|4-|
G|------------------|0-----0--------3-|---0--2--0-------|4-|
D|----4--1--4-----4-|---2-------------|------------4--2-|4-|
A|-2-----2-----2----|2-----2-----2----|2----------------|2-|
E|------------------|-----------------|-----------------|--|

PART B|-- play twice

E|-----------|-------------|---0--2--3--5--7-|8-----7-----3----|
B|-----------|-------------|-----------------|-----------------|
G|-----------|0------------|-----------------|------------4--5-|
D|-----1-2-4-|--------4----|2-----------0----|---4--5--7-------|
A|-2-4-------|--------0--2-|3----------------|0----------------|
E|-----------|--0-2-3------|------------7----|-----------------|

E|-5-----0-----|----0-2-3-5-|7----------0--2-|3--------0--3----|
B|---8-7---3---|--3---------|--0--1--3-------|------0--------1-|
G|-7---------5-|4-------2---|0---------------|---0--------2----|
D|-------------|------------|-----------4----|2----------------|
A|-------------|------------|----------------|-----------------|
E|-------------|------------|----------------|-----------------|

E|-2-------2---|0-------0---|----------------|-----------------|
B|-------3---0-|------1-----|4----------3----|2----------------|
G|-----2---0---|----0-----2-|--------4-----1-|---------2--5----|
D|-0-4---------|--2-----4---|-----4-----2----|------2--------4-|
A|-------------|3-----------|--6-------------|0--4--------5----|
E|-------------|------------|7---------------|-----------------|

E|-------------|0---0-2-3-5-|7---------------|0----------------|
B|-0-----0-1-3-|--3---------|-----0--1--3----|-----------------|
G|---0-2-------|------------|0-2--0--2--4----|0-----2--------0-|
D|-------------|------0-2-4-|--4-----------5-|---2--------4----|
A|---------0-2-|3-2-3-------|----------------|3-----0--3--5----|
E|-3-----3-----|------------|----------------|-----------------|

E|-------3---2-|0-----------|--------5-----3-|2----------------|
B|---0-3-------|1-----1-----|--2--5----------|3--------3-------|
G|-0-------0---|----0-----0-|2----------2----|------2--------2-|
D|-------------|--2---------|----------------|0--4--------0----|
A|---------2---|3-------3---|4---------------|-----------------|
E|-3-----------|------------|----------------|-----------------|

E|-------7---5-|3-----8---7-|0-------5-----3-|---------1-----0-|
B|---4-7-------|----0---7---|-----------3----|1-----------0----|
G|-4-------4---|--0---9---7-|----2---5-----4-|---------2-----0-|
D|-------------|2-------0---|--2-------------|------3----------|
A|-6-----------|------------|3----------2----|0--3-------------|
E|-------------|------------|----------------|------------3----|

E|---8-------7---|--7-----5---|--5------3----|---3-----------5-|
B|-----10------7-|8---8-----5-|7---7-------3-|5-----5-----6----|
G|-8------11-----|------9-----|------7-------|---------5-------|
D|---------------|------------|--------------|-----------------|
A|-9---------6---|7-------4---|5--------2----|3-----------0----|
E|---------------|------------|--------------|-----------------|

E|---2-------3-|--8-5---8---|----------------|------------0--2-|
B|-4---4---5---|------6---5-|4---------------|---0--2--4-------|
G|-------4-----|5-----------|4---------------|-----------------|
D|-------------|--------7---|--------------4-|5-----------4----|
A|-2-----------|------------|-----4--6--7----|-----------------|
E|---------3---|5-----------|--7-------------|-----------------|

E|-3-----------|0-----------|-----0----------|-----------------|
B|-------0-1-3-|----------0-|1-3-----3--1--0-|-----------------|
G|---0-2-------|------0-2---|----------------|2--0-------------|
D|-2-------0---|--2-4-------|-----------2----|2-----4--2--4--1-|
A|-------------|3-------2---|0----3----------|0-----2-----2----|
E|-------------|------------|-----------3----|-----------------|

E|-------------0----|---------0--5----|0----------------|--|
B|----0-----0-----0-|1-----1--------4-|---10-9--7--5--4-|5-|
G|-------1----------|---2-------------|-----------------|4-|
D|-2----------------|-----------------|---10-9--7--6--4-|6-|
A|------------------|-----------------|-----------------|--|
E|-0-----0-----0----|0-----0-----0----|0----------------|0-|

Вверх

Gigue Partita #2

E|--------||----------0-1-0-3p1p0----------|
B|--------||--------3-------------3-2------|
G|---2----||------2-------------------2----|
D|--------||--0h3-----------------------2--|
A|--------||-------------------------------|
E|--------||-------------------------------|

E|-------0h1-3-1-5p3p1------------|
B|---------------------5-3--------|
G|-----2-------------------2------|
D|---2-----------------------3----|
A|-4------------------------------|
E|--------------------------------|

E|------------6-5---------------------5-----------|
B|----6p5---6-----8-6-5-------5-----5---8-6-5-----|
G|--------7-------------7-5-7---7-5-----------7-5-|
D|-0----------------------------------------------|
A|------------------------------------------------|
E|------------------------------------------------|

E|------------3------------------------------------|
B|----3-----3---6-5-3-2--------2-----2-5-3-2-------|
G|3-5---5-3-------------4-2--4---4-2---------4-2---|
D|-----------------------------------------------5-|
A|-------------------------------------------------|
E|-------------------------------------------------|

E|------------------------------------------|---------|
B|----------------3-2-------------------5-6-|-8-5-----|
G|---2p0------------------------2-3-5-7-----|-----5---|
D|-3-----3p2p0---------0--2-3-5-------------|-------5-|
A|-------------0----------------------------|---------|
E|------------------------------------------|---------|

E|---------------------------------------------|
B|----------------------------------------8-10-|
G|-----5---------------------------7-9-10------|
D|---5---5-------5-7-5------7-8-10-------------|
A|-7-------7---7-------8-10--------------------|
E|-----------8---------------------------------|

E|-6----6-10-----5---5-8-------------6-----------5-----|
B|---10------5-8---8--------6-8--6-8-----5-6-5-6---8-6-|
G|------------------------7------------5---------------|
D|-----------------------------------------------------|
A|-----------------------------------------------------|
E|-----------------------------------------------------|

E|---------------------------------------------------|
B|-5---5-6-5---------------------6-------------------|
G|---7-------7-5---5-7-5-------5---5---------5-------|
D|---------------8-------8-7h8-------7---5h7---7-----|
A|-------------------------------------8---------8---|
E|---------------------------------------------------|

E|---------------------------------------6---------|
B|-------------------------------------8---8-------|
G|-----------------------------------7-------7-----|
D|-------8-----------------------5-8-----------8-5-|
A|-5h6h8---8-5-----5-8-5-------5-------------------|
E|-------------6h8-------6-3-6---------------------|

E|-----------6-------6---6------------5-------5---5-|
B|-------5-8----------------------5-6---------------|
G|-----5-------5---5---5--------5-------5---5---5---|
D|---5-----------8------------7-----------8---------|
A|-7------------------------8-----------------------|
E|--------------------------------------------------|

E|-----------6-------6---6------------5-------5---5-|
B|-------5-8----------------------5-6---------------|
G|-----5-------5---5---5--------5-------5---5---5---|
D|---5-----------8------------7-----------8---------|
A|-7------------------------8-----------------------|
E|--------------------------------------------------|

E|-------5-6-10-------10---10-------------8--------8---8-|
B|-----6-----------------------------8-10----------------|
G|---7----------9-7-9----9---------9--------7----7---7---|
D|-8--------------------------7-10------------10---------|
A|-------------------------------------------------------|
E|-------------------------------------------------------|

E|-----------6--------6---6-----------5-------5-----|
B|-------6-8----------------------5-6-----------6---|
G|-----7-------5---5----5-------5-------5---5-----7-|
D|-5-8-----------8------------7-----------8---------|
A|--------------------------8-----------------------|
E|--------------------------------------------------|

E|------------------------------------------------|
B|----------------------------------------------5-|
G|-------5-7---------------------------------5----|
D|-8-7-8-----8-5---5-7-8-5---------5-------5------|
A|---------------8---------7-5-7-8---7---7--------|
E|-------------------------------------8----------|

E|-------------------------------------------7-5-|
B|-----------------------------------------6-----|
G|-------------------------------7-6-7---7-------|
D|-8-7-5-------------5---------7-------7---------|
A|-------8-7-5-4-------7-8-5-8-------------------|
E|---------------7-5-----------------------------|

E|-7-----------------------------------5-4-5h7h8---5-8-|
B|---6-5-----------------------------5-----------8-----|
G|-------7-5-4-------------7-4-5---5-------------------|
D|-------------7-6-4-------------7---------------------|
A|-------------------7---------------------------------|
E|-----------------------------------------------------|

E|-----5-----5-------------------------------7--|
B|-6h8---5-6-----5h6-----6----------------------|
G|-------------7-----6-7----------6-7h9h10-7---7|
D|-------------------------6--7-9---------------|
A|----------------------------------------------|
E|----------------------------------------------|

E|---------5-----------4-----------5------------7----|
B|-----5-----------------------5---------------------|
G|-5h7---5---5-4h5h7-4---4-5h7---5---5-7h9h10-7---7--|
D|---------------------------------------------------|
A|---------------------------------------------------|
E|---------------------------------------------------|

Вверх

Jesu, Joy Of Man`s Desiring

E||-----------------------0-----|-----3--2--3-----------------|
B||--0--------0--3--1--1-----3--|--3-----------3--0--------0--|
G||-----0--2--------------------|--------------------0--2-----|
D||-----------------------------|-----------------------------|
A||-----------------------------|-----------2-----------------|
D||--5--------4--------2--------|--5-----------------5--------|

E|--------0--------------------|-----------------------------|
B|--1--3-----3-----0-----0-----|--------------------1--0-----|
G|--------------5-----------0--|-----0--2--------2--------2--|
D|--2--------0--------7--------|--4--------0--4--------------|
A|-----------------------------|-----------------------------|
D|-----------5--------5--------|--0--------0--------0--------|

E|-----------------------0-----|-----3--2--3-----------------|
B|--0--------0--3--1--1-----3--|--3-----------3--0--------0--|
G|-----0--2--------------------|--------------------0--2-----|
D|-----------------------------|-----------------------------|
A|-----------------------------|-----------2-----------------|
D|--5--------4--------2--------|--5-----------------5--------|

                                 1+++++++++++++++++++++++++++
E|-----------------------------|-----------3-----------------||
B|-----------0-----------------|-----0--3-----3--0-----0-----||
G|-----7--5-----2--0-----0-----|--0-----------------0-----2-:||
D|--------------------0-----4--|-----------------------------||
A|--7--------------------------|-----------------------------||
D|--5--------5--------0--------|--5-----------------5--------||

  2+++++++++++++++++++++++++++
E|-----------3-----------------|
B|-----0--3-----3--0-----0--3--|
G|--0-----------------0--------|
D|-----------------------------|
A|-----------------------------|
D|--5--------------------------|

(refrain:)

E|--7-----------------8-------|-10----------------10--------|
B|--8----------------10-------|-12----------------12--------|
G|--0--0--------0-----0--0----|--0--0--------0-----0--0-----|
D|--------0--------0--------0-|--------0--------0--------0--|
A|----------------------------|-----------------------------|
D|-----------5----------------|-----------5-----------------|

E|--8-----------------7-------|--5--------------5---8--7--5--|
B|-10-----------------8-------|-----7--------7---------------|
G|--0--0--------0-----0--0----|--------7--7------------------|
D|--------0--------0--------0-|------------------------------|
A|----------------------------|------------------------------|
D|-----------5----------------|--0--------0---------0--------|

E|--7-----------------8-------|-10-----------------7--------|
B|--8----------------10-------|-12-----------------8--------|
G|--0--0--------0-----0--0----|--0--0--------0-----0--0-----|
D|--------0--------0--------0-|--------0--------0--------0--|
A|----------------------------|-----------------------------|
D|-----------5----------------|-----------5-----------------|

E|-5-----7/8---7--------5-------|-3--------------------------||
B|-7----------------------------|----------------------0-----||
G|----7-----------7--------7----|----0--------0-----------2--||
D|-------------------7--------7-|-------0--------0----------:||
A|------------------------------|----------------------------||
D|-0-----------0--------0-------|-5--------5--------5--------||

(repeat ALL the way back to the beginning, then:)

E||-----------------------0-----|-----3--2--3-----------------|
B||--0--------0--3--1--1-----3--|--3-----------3--0--------0--|
G||-----0--2--------------------|--------------------0--2-----|
D||-----------------------------|-----------------------------|
A||-----------------------------|-----------2-----------------|
D||--5--------4--------2--------|--5-----------------5--------|

E|--------0--------------------|-----------------------------|
B|--1--3-----3-----0-----0-----|--------------------1--0-----|
G|--------------5-----------0--|-----0--2--------2--------2--|
D|--2--------0--------7--------|--4--------0--4--------------|
A|-----------------------------|-----------------------------|
D|-----------5--------5--------|--0--------0--------0--------|

E|-----------------------0-----|-----3--2--3-----------------|
B|--0--------0--3--1--1-----3--|--3-----------3--0--------0--|
G|-----0--2--------------------|--------------------0--2-----|
D|-----------------------------|-----------------------------|
A|-----------------------------|-----------2-----------------|
D|--5--------4--------2--------|--5-----------------5--------|

                                 1+++++++++++++++++++++++++++
E|-----------------------------|-----------3-----------------||
B|-----------0-----------------|-----0--3-----3--0-----0-----||
G|-----7--5-----2--0-----0-----|--0-----------------0-----2-:||
D|--------------------0-----4--|-----------------------------||
A|--7--------------------------|-----------------------------||
D|--5--------5--------0--------|--5-----------------5--------||

  2+++++++++++++++++++++++++++
E|-----------3-----------------|
B|-----0--3-----3--0-----0--3--|
G|--0-----------------0--------|
D|-----------------------------|
A|-----------------------------|
D|--5-----------------5--------|

E|--1-----------------0--------|-----------------------------|
B|-----3--0--------1-----1-----|--------------------1--0-----|
G|-----------0--2-----------2--|-----0--2--------2--------2--|
D|-----------------------------|--4--------0--4--------------|
A|-----------------------------|-----------------------------|
D|-----------5-----------------|--0--------0--------0--------|
    ^
  this measure sounds odd to me, but I left it as original (tjl)

E|-----------------------0-----|-----3--2--3-----------------|
B|--0--------0--3--1--1-----3--|--3-----------3--0--------0--|
G|-----0--2--------------------|--------------------0--2-----|
D|-----------------------------|-----------------------------|
A|-----------------------------|-----------2-----------------|
D|--5--------4--------2--------|--5-----------------5--------|
                                  _
                                          /.
E|-----------------------------|-----------3----------------||
B|-----------0-----------------|-----0--3--0----------------||
G|-----7--5-----2--0-----0-----|--0--------0----------------||
D|--------------------0-----4--|-----------0----------------||
A|--7--------------------------|----------------------------||
D|--5--------5--------0--------|--5--------5----------------||
          ^
          this a C# in original, I think C sounds better. (tjl)

Вверх

Minuet

(part #1)
---|---|---|---|---|---|---|---|---|---|---|---|---|---|---|---|
E -------------|---------------|---------------|---------------|
B -5---5-3-5---|---1---3-0-1---|-----------0---|---1-0-1-3-1-3-|
G -5---4---0---|---2-----------|---0---2-------|---------------|
D -------------|---------------|---2---3---0---|---------------|
A -------------|---------------|---------------|---3===--------|
E -------------|---------------|---------------|---------------|
   4   4 1 4       1   4                           1
   3   2           2                               3

---|---|---|---|---|---|---|---|---|---|---|---|---|---|---|---|
E -0-----------|-------0-1-3-0-|-------1---0---|---------------|
B -1---3---3-45|---5-3-----1---|---1---0---1---|---3========---|
G -----4---0---|---5-----------|---2-----------|---0========---|
D -------------|---------------|---------------|---------------|
A -------------|---------------|---------------|---------------|
E -------------|---------------|---------------|---------------|
       1   1 44    4 1   2 4       1   1           4
       2           3       1       2       1
PLAY PART #1 TWICE.

(part #2)
---|---|---|---|---|---|---|---|---|---|---|---|---|---|---|---|
E -3---3-2-3---|---------------|---3---3-2-3---|---------------|
B -0-----------|---0---1---0---|---1---0-------|---------------|
G -----2---0---|---------2-----|-----------2---|---2-0=====----|
D -------------|---3-----------|---2---0-------|---------------|
A -------------|---------------|-----------3---|---2-----------|
E -------------|---------------|---------------|------------3--|
   4     2                         4     2 4       2
       1           3               1       2       1
                                   2       3                3

---|---|---|---|---|---|---|---|---|---|---|---|---|---|---|---|
E -1---0-------|---------------|-------1---0---|---------------|
B -0-------3---|---1---1-3-5---|---5-3---------|---3-1-3-0-1-3-|
G ---------4---|---2---2-4-5---|---4---2---1---|---2-------2---|
D -------------|---------------|---------------|-----------3---|
A -------------|---0-----------|---------------|---0-----------|
E -4-------4---|---------------|---0-------0---|---------------|
   1       1       1   1 1 4       4 1 1           4         4
           2       2   2 2 3       3   2           2
   4       3

---|---|---|---|---|---|---|---|---|---|---|---|---|---|---|---|
E -0-----------|---------------|---0---0---0---|---------------|
B -------------|---------------|---------3-----|---1---3-0-1---|
G -2---2---1---|---2=========--|---0-----------|---------------|
D -----0---2---|---------------|---------------|---------------|
A -3-----------|---0=========--|---3-----------|---0-----------|
E -------------|---------------|-----------3---|---------------|

---|---|---|---|---|---|---|---|---|---|---|---|---|---|---|---|
E -------------|---------------|-----------1---|---------1-0---|
B -------------|---------------|-----1-0-3-----|-----0-3-------|
G ---0-----0-3-|-------3-0-2---|-------------2-|---0-------0---|
D -2-----2-----|-------------3-|---0-----------|---------------|
A -----3=======|-----3---------|-----------3---|---2=====--3---|
E -------------|---1========---|---------------|---------------|
   2   3 2   4     1 3 4   2 4           4 3 2     2   4   3

---|---|---|---|---|---|---|---|---|---|---|---|---|---|---|---|
E -------------|---------------|---------------|---------------|
B -3-------0---|---1========---|---------------|---------------|
G -----0-------|---------------|---------------|---------------|
D -3---2---3---|---2========---|---------------|---------------|
A -------------|---3========---|---------------|---------------|
E -1---3---3---|---------------|---------------|---------------|
   4
   3   2   4
   1   3   3
PLAY TWICE

Вверх

Musette

Drop-D tuning.

2/4 time.

E||---------------|----------------|-------------|-------------|
B||--10---8p7-----|-10-----8p7-----|-------------|-------------|
G||*----------9p7-|------------9p7-|-------------|-------------|
D||*----0-----0---|-----0------0---|-4/5/7--5--4-|-2--/7--4--0-|
A||---------------|----------------|-------------|-------------|
E||---0---0-------|--0-----0-------|-4/5/7--5--4-|-2--/7--4--0-|

E|-----------------|----------------|-------------|-----------||
B|-10------8p7-----|-10-----8p7-----|-------------|-----------||
G|-------------9p7-|------------9p7-|-------------|----------*||
D|-----0-------0---|-----0------0---|-4/5/7--5--4-|-2--/7--0-*||
A|-----------------|----------------|-------------|-----------||
E|--0------0-------|--0-----0-------|-4/5/7--5--4-|-2--/7--0--||

E||---------------|-5------------|-5------5-----|--------------|
B||--2h3-5--2h3-5-|----5---5-----|----5-------5-|-3p2----------|
G||*-----2------2-|----2-------2-|----2-------2-|-----4p2-4----|
D||*--------------|--------------|--------------|-----2------2-|
A||--0------0-----|-0------0-----|-0------0-----|-0------------|
E||---------------|--------------|--------------|---------2----|

E|---------------|---------5---4-|---------------|-------5---4-|
B|-5---4-------3-|-----2---------|-5---4-------3-|----2--------|
G|---------------|---------------|---------------|-------------|
D|-----2---2---2-|-----2-------2-|-----2---2---2-|----2------2-|
A|---------------|---------------|---------------|-------------|
E|-2-------2-----|-2-------2-----|-2-------2-----|-2-----2-----|

E|-----------------|-0-------------|-----0---------|-----------|
B|-5p4-2h4-5p4-2h4-|-------------3-|-2h3-----------|-----------|
G|-----------------|-----1---2-----|---------2-----|-----------|
D|-----2-------2---|-----2-------0-|-2-----------0-|-----------|
A|-----------------|---------4-----|---------0-----|-4h5/7---0-|
E|-2-------2-------|-2-------------|---------------|---------7-|

E|----------------|----------------|-------------|-------------|
B|-10-----8p7-----|-10-----8p7-----|-------------|-------------|
G|------------9p7-|------------9p7-|-------------|-------------|
D|-----0------0---|-----0------0---|-4/5/7--5--4-|-2--/7--4--0-|
A|----------------|----------------|-------------|-------------|
E|--0-----0-------|--0-----0-------|-4/5/7--5--4-|-2--/7--4--0-|

E|----------------|----------------|-------------|------------||
B|-10-----8p7-----|-10-----8p7-----|-------------|------------||
G|------------9p7-|------------9p7-|-------------|-----------*||
D|-----0------0---|-----0------0---|-0-----------|----h7-h12-*||
A|----------------|----------------|-------------|-h7---------||
E|--0-----0-------|--0-----0-------|-4/5/7--5--4-|-h7----h12--||

Вверх

My Heart Ever Faithful

E|-------------1-------------|-------------1-------------------|
B|-----------------5---3---1-|-1-------1-------5---3---1-------|
G|-5-----3-5---2---3---3---3-|-----2-3-----2---3---3---3-------|
D|-7---7-5-7---3---2---0---2-|-3-------3---3---2---0---2-------|
A|-----8---------------------|---3-------3---------------------|
E|---8-------8---------------|---------------------------------|

E|-1---5-3-1-----------------------|---------------------------|
B|-------------1---3---3-2-3-------|-------------1---------1---|
G|-2---5-3-2-------------------0---|-0---2---3-------2--.------|
D|-3---7-----------3---3---3---0-3-|-2---3---2-0-2---3--|--2---|
A|-----------------5---------------|-------------3---3-------3-|
E|---------------------------------|---------------------------|

E|------------1-----------------|-------------1----------------|
B|-1------1-----------------1---|-1-------1------------------5-|
G|----2-3-----2--3--2---0-------|-----2-3-----2--3---2---0---3-|
D|-3------3---3-------------2---|-3-------3---3--2---3-------2-|
A|---3------3------3--3---3---3-|---3-------3------3---3---3---|
E|------------------------------|------------------------------|

E|-1---------------3---------------|-0-------------------------|
B|-----3---3---6-------3---0---6---|-----3-1-3-------1-------!-|
G|-2-----5-----3---4---4-2-0---4---|-0-------2---0-----------!-|
D|-3---3---3---3---3---3---3---3---|-2---3-2-0---3---2-------!-|
A|-----5---5-----------------------|-------------2---3---------|
E|---------------------------------|---------------------------|

E|---------------------------|---------------------------|
B|-------------1-------------|-------------1-------------|
G|-0-------0-------4---2---0-|-----------------4---2---0-|
D|-2---2-3-2---2---3---3---3-|-5---2-3-5---2---3---3---3-|
A|-----3-5-----3---2---0---2-|-3-------3---3---2---0---2-|
E|---3-------3---------------|---3-------3---------------|

E|-----0---------------------------|-----------------------3---|
B|-1-----3-1-----------------------|---------------------------|
G|-----0-------0---2---2-1-2-------|-------------0------.--3-2-|
D|-2---2-3-2-------------------0---|-0---2---3-------2--|------|
A|-3---------------3---3---3---0-3-|-2---3---2-0-2---3---------|
E|-----------------5---------------|-------------3---3---------|

E|-------------3-----------------|-----------------------------|
B|-------------------------------|-4---1-------4---4--3-1-3--3-|
G|-3---2---3---3---3---2-0-2---5-|-2-------2---2---2-----------|
D|-2---3---2---5---2-----------3-|---3---3---3--------3---3--3-|
A|---3---3---3---------3---3---3-|---------------------------5-|
E|-------------------------------|-----------------------------|

E|---------0----------3--1--0-|-5-----------1---0--------------|
B|-----6---0---3------2--2--2-|-3---2---3----------------------|
G|-0---4---0---0---0--0--2--2-|-2---0---2---1---2-3-2-0-----2--|
D|-3---3-------3---7--------5-|-----2---3---3---2-------3-2----|
A|-5---------------7----------|-----------------------------4--|
E|----------------------------|--------------------------------|

E|--------------3--0---------|-----------------3---0-----------|
B|---------------------2-----|-------------------------2-------|
G|-3--2-0-1--2--3--0-------2-|-3---2-0-1---2---2-3-2-0---3-2-0-|
D|-0--2---0-----5--2---------|-0---2---0-----------------------|
A|-----------4-------------4-|-------------4---------------4---|
E|---------------------------|---------------------------------|

E|-----1-0-----------------0---1-3-|-1---0---0-----------------|
B|-3-------3---3-------------------|-------3-----2---3-------!-|
G|-----2-0-----2---0-2-0---0-----0-|---2-0---0-------2-------!-|
D|-3---3---3---3---0-----3-2---3---|-3-----3-2-------3-------!-|
A|-5-------------------------------|---------------------------|
E|---------------------------------|---------------------------|

E|------------------------------|------------------------------|
B|------------3-----------------|-------------3----------------|
G|2-----0-2-----0-----------2---|-2-----0-2-----0-----------2--|
D|0---3---0---3-----3---2-------|-0---3---0---3-----3---2------|
A|--0-------0-5---0---0---0-4-0-|---0-------0-5-4-0-5-0---0-4-0|
E|------------------------------|------------------------------|

E|----1-0----------------0---1-3-|-1---0---0-------------------|
B|-3------3--3-------------------|-------3----2--3-------------|
G|----2-0----------------0-----0-|---2-----0--0------------2-0-|
D|-3--3-2-3--3---2-3-2-0-2---3---|-3---2-0-2-----3-------0-3-2-|
A|-5------5--5---5---------------|------------4--5-7-5-4-0-----|
E|-------------------------------|-----------------------------|

E|-1-----------1----------3---|---------------------1-3-1------|
B|-----5---3--------------0---|-4---3---1---3---4-----------4--|
G|-2---3---2-------1---0--0---|-0---1---0---0---2---2-0-2---2--|
D|-3---5---3-------0----------|-1---3---1---0---1---3---3---1--|
A|-----------------2---2------|--------------------------------|
E|---------------------3------|--------------------------------|

E|----------3----------------|---------------------------------|
B|-3-----3-----1-------------|-----3-4-3-----------------------|
G|----5-----3--0---0---0---0-|-5-----------3---0-----------5---|
D|-3--3--3--5------8-7-8---2-|-3---3-3-3---0-----3-2-0---0-2---|
A|-5--3--5-----3---7---7-----|---3-5-6-5---1---3-5-3-2-3-2-3-2-|
E|---------------------------|-----------------3-------5---5-3-|

E|-------------1-------------|-------------1-------------|
B|-1-------1-------5---3---1-|-1-------1-------5---3---1-|
G|-----2-3-----2---3---3---3-|-----2-3-----2---3---3---3-|
D|-3-------3---3---2---0---2-|-3-------3---3---2---0---2-|
A|---3-------3---------------|---3-------3---------------|
E|---------------------------|---------------------------|

E|-1---5-3-1-----------------------|---------------------------|
B|-------------1---3---3-2-3-------|-------------1---------1---|
G|-2---5-3-2-------------------0---|-0---2---3-------2--.------|
D|-3---7-----------3---3---3---0-3-|-2---3---2-0-2---3--|--2---|
A|-----------------5---------------|-------------3---3-------3-|
E|---------------------------------|---------------------------|

E|-------------1-----------------|-------------1---------------|
B|-1-------1-------------------1-|-1-------1-----------------1-|
G|-----2-3-----2---3---2---0---0-|-----2-3-----2---3---2--0--0-|
D|-3-------3---3---2-------------|-3-------3---3---0---2-------|
A|---3-------3-----------------3-|---3-------3-----1---3-----3-|
E|-------------------------------|-----------------------------|

E|-1---5-3-1-------------------0-1-|-------------------||
B|---------1---1-2-3---3-2-3-------|-------------------||
G|-2---5-3-------------------------|-2---0---0---------||
D|-3---7-5-3---3---3---3---3---2-3-|-3-----3-0---2---3-||
A|-------------3-4-5-------5-------|---3-1-0-----1---3-||
E|---------------------------------|---------3---3---5-||

Вверх

Orchestral Suite No.3 in D Major

E|--------------------------------------------------|
B|-15-----------------------------15-------15----14-|
G|----14----14-----------------14-------------------|
D|-------16--------16-14-17-16-------16-14----14----|
A|--------------17----------------------------------|
E|--------------------------------------------------|

E|-------------14-17-16--19-17-------17----17----16-|
B|-15----15-17-----------------17-------------------|
G|----14--------------------------18----16----16----|
D|--------------------------------------------------|
A|--------------------------------------------------|
E|--------------------------------------------------|

E|-17-----------------------------------------------|
B|----17-------17-19-17-19-20-17--------------------|
G|-------18-19-------------------------18-19-18--19-|
D|-------------------------------19-21--------------|
A|--------------------------------------------------|
E|--------------------------------------------------|

E|-------------------------------14-15-14-----------|
B|-17----------17-------------17----------17-15-14--|
G|----19-18-19----19-18-16-15-----------------------|
D|--------------------------------------------------|
A|--------------------------------------------------|
E|--------------------------------------------------|

E|----14--------------------14-17-------14-15-14-15-|
B|-15----15-14-15-17--15-17-------16-17-------------|
G|--------------------------------------------------|
D|--------------------------------------------------|
A|--------------------------------------------------|
E|--------------------------------------------------|

E|-17----------17----------------------14-15--17-14-|
B|----13-12-13----13-12-------14-16-17--------------|
G|----------------------14-16-----------------------|
D|--------------------------------------------------|
A|--------------------------------------------------|
E|--------------------------------------------------|

E|-15-------------------15-14-------------------14-|
B|----17----15-14-17----------15----------15-------|
G|-------16----------14----------14-17-16----12----|
D|-------------------------------------------------|
A|-------------------------------------------------|
E|-------------------------------------------------|

E|-12-------------------12-------------12-14-15-12-|
B|----14----12-11-14-------15-12-14-15-------------|
G|-------13----------11----------------------------|
D|-------------------------------------------------|
A|-------------------------------------------------|
E|-------------------------------------------------|

E|-----------||
B|-15~-------||
G|-----------||
D|-----------||
A|-----------||
E|-----------||

Вверх

Prelude, BMV 999

E|-------5-----------------|-------5-----------------|
B|-----6---6---6-----------|-----6---6---6-----------|
G|---7-------7---7---7---7-|---7-------7---7---7---7-|
D|-0---------------7-------|-0---------------7-------|
A|---------------------8---|---------------------8---|
E|-------------------------|-------------------------|

E|-------6-----------------|-------6-----------------|
B|-----8---8---8-----------|-----8---8---8-----------|
G|---7-------7---7---7---7-|---7-------7---7---7---7-|
D|-0---------------8---5---|-0---------------8---5---|
A|-------------------------|-------------------------|
E|-------------------------|-------------------------|

E|-------3-----------------|-------3-----------------|
B|-----5---5---5-----2---2-|-----5---5---5-----2---2-|
G|---6-------6---6-3-------|---6-------6---6-3-------|
D|-0-------------------5---|-0-------------------5---|
A|-------------------------|-------------------------|
E|-------------------------|-------------------------|

E|-------1-----------------|-------1-----------------|
B|-----3---3---3-----------|-----3---3---3-----------|
G|---2-------2---2---2---2-|---2-------2---2---2---2-|
D|-0---------------3---0---|-----------------3---0---|
A|-------------------------|-3-----------------------|
E|-------------------------|-------------------------|

E|-------1-----------------|-------1-----------------|
B|-----3---3---3-----------|-----3---3---3-----------|
G|---2-------2---2---2---2-|---2-------2---2---2---2-|
D|-----------------3---0---|-----------------3---0---|
A|-1-----------------------|-0-----------------------|
E|-------------------------|-------------------------|

E|-------1-----------------|-------1-----------------|
B|-----3---3---3-----------|-----3---3---3-----0---0-|
G|---4-------4---4---4---4-|---4-------4---4-1-------|
D|-----------------3---0---|---------------------2---|
A|-------------------------|-------------------------|
E|-4-----------------------|-4-----------------------|

E|-------0-----------------|-------0-----------------|
B|-----1---1---1-----------|-----1---1---1-----------|
G|---4-------4---4---4---4-|---2-------2---2---2---2-|
D|-----------------2-------|-------------------------|
A|-0-------------------3---|-0---------------3---0---|
E|-------------------------|-------------------------|

E|-------5-----------------|-------5-----------------|
B|-----5---5---5-----1---1-|-----6---6---6-----------|
G|---5-------5---5-2-------|---4-------4---4---4---4-|
D|---------------------3---|-0---------------0-------|
A|-------------------------|---------------------2---|
E|-1-----------------------|-------------------------|

E|-------4-----------------|-------4-----------------|
B|-----3---3---3-----------|-----3---3---3-----------|
G|---4-------4---4---4---4-|---4-------4---4---4---4-|
D|-----------------2-------|-----------------2-------|
A|---------------------2---|---------------------2---|
E|-0-----------------------|-0-----------------------|

E|-------5-----------------|-------7-----------------|
B|-----5---5---5-----------|-----9---9---9-----------|
G|---5-------5---5---5---5-|---7-------7---7---7---7-|
D|-------------------------|---------------------0---|
A|-----------------7-------|-----------------8-------|
E|-0-------------------8---|-0-----------------------|

E|-------8-----------------|-------10----------------|
B|-----10--10--10----------|-----9---9---9-----------|
G|---9-------9---9---9---9-|---9-------9---9---9---9-|
D|-----------------7-------|-----------------9-------|
A|---------------------7---|---------------------11--|
E|-0-----------------------|-0-----------------------|

E|-------8-----------------|-------7-----------------|
B|-----10--10--10----------|-----6---6---6-----------|
G|---8-------8---8---8---8-|---7-------7---7---7---7-|
D|-----------------7-------|-----------------6-------|
A|---------------------8---|---------------------7---|
E|-0-----------------------|-0-----------------------|

E|-------5-----------------|-------5-----------------|
B|-----7---7---7-----------|-----3---3---3-----------|
G|---5-------5---5---5---5-|---4-------4---4---4---4-|
D|-----------------4-------|-----------------3---0---|
A|---------------------6---|-------------------------|
E|-0-----------------------|-0-----------------------|

E|-------4-----------------|-------2-----------------|
B|-----3---3---3-----------|-----1---1---1-----------|
G|---4-------4---4---4---4-|---2-------2---2---2---2-|
D|-----------------2-------|-----------------1-------|
A|---------------------2---|---------------------3---|
E|-0-----------------------|-0-----------------------|

E|-------1-----------------|-------0-----------------|
B|-----0---0---0-----------|-----1---1---1-----------|
G|---1-------1---1---1---1-|---2-------2---2---2-----|
D|-----------------0-------|-----------------------2-|
A|---------------------2---|-----------------3---0---|
E|-0-----------------------|-0-----------------------|

E|-------------------------|-------------------------|
B|-------3-----------------|-------3-----------------|
G|-----4---4---4-----2---2-|-----4---4---4-----1---1-|
D|---7-------7---7-3---0---|---6-------6---6-2-------|
A|-------------------------|---------------------2---|
E|-0-----------------------|-0-----------------------|

E|-------------------------|-------------------------|
B|-------3-----------------|-------3-2---2-----------|
G|-----4---4---4-----1---1-|-----4-----2---2---2---2-|
D|---6-------6---6-3---0---|---7-------------2-------|
A|-0-----------------------|-0-------------------4---|
E|-------------------------|-------------------------|

E|-------4-----------------|-------7-----------------|
B|-----3---3---3-----------|-----9---9---9-----------|
G|---4-------4---4---4---4-|---7-------7---7---7---7-|
D|-----------------3---0---|---------------------0---|
A|-0-----------------------|-0---------------8-------|
E|-------------------------|-------------------------|

E|-------5-----------------|-------3-----------------|
B|-----5---5---5-----------|-----5---5---5-----2---2-|
G|---6-------6---6---6---6-|---6-------6---6-3---0---|
D|-----------------7-------|-------------------------|
A|-0-------------------7---|-0-----------------------|
E|-------------------------|-------------------------|

E|-------1-----------------|-------1-----------------|
B|-----3---3---3-----------|-----3---3---3-----------|
G|---2-------2---2---2---2-|---1-------1---1---1---1-|
D|-----------------3---0---|-----------------3---0---|
A|-0-----------------------|-0-----------------------|
E|-------------------------|-------------------------|

E|-------1-----------------|-------0-------0---------|
B|-----3---3---3-----------|-----2---2---2--/6---9---|
G|---1-------1---1---1---1-|---2-------2-------7-----|
D|-----------------3---0---|-------------------------|
A|-0-----------------------|-0-----------------------|
E|-------------------------|-------------------------|

E|-5-|
B|-5-|
G|-6-|
D|---|
A|-0-|
E|---|

Вверх

Prelude Cello Suite III

E|-------------------------------------|
B|--2--5--2----------------------5-----|
G|-----------3-----1--3--4--6h7-----6--|
D|--------------4----------------------|
A|-------------------------------------|
E|-------------------------------------|

E|----7-------------------------------|
B|-------7-----------------7--9--10--7|
G|-7--------7-----6--7--9-------------|
D|-------------9----------------------|
A|------------------------------------|
E|------------------------------------|

E|-----------------------------------------|
B|-9--12--9--------------------9--10-12--9-|
G|-----------10------8--10-11--------------|
D|---------------11------------------------|
A|-----------------------------------------|
E|-----------------------------------------|

E|-----------------------------------------------|
B|-10--12--10--9---------------------------------|
G|----------------11-----------------------------|
D|--------------------12--11--9------------------|
A|----------------------------------12--11--9--7-|
E|-----------------------------------------------|

E|-------------------------------------|
B|--------------------------9--6--7----|
G|-----------------6--7----------------|
D|--------6--8--9--------9-----------9-|
A|-----9-------------------------------|
E|-10----------------------------------|

E|----------------4---------------|
B|----------7--6------------6--7--|
G|-------4---------------6--------|
D|----6---------------------------|
A|-4------------------------------|
E|--------------------------------|

Вверх

The Well-Tempered Clavier

This is a little riff in (I believe) the second prelude of
Bach`s The Well- Tempered Clavier.  It`s worthy of gods with
truckloads of distortion.  If I can remember correctly, it`s
in C or C# minor.

E|--------------------------------|
B|--------------------------------|
G|-----------------4---7-4--------|
D|-------3-6-3---3---3-----6-3---3|
A|-----5-------7---------------7--|
E|-3-7----------------------------|
  1 4 2 1 3 1 4 1 2 1 4 1 3 1 4 1 <-Fingers

E|--------------------------------|
B|-----------------4---8-4--------|
G|---------5---------5-----5------|
D|-------5---5-4-5-----------6-5-6|
A|---3-6--------------------------|
E|-3------------------------------|
  1 1 4 3 3 3 1 2 1 2 4 1 2 3 2 3 <-Fingers

E|---------------------5----------|
B|---------4-------7-----7-4------|
G|-------5---5-4-5---5-------5-4-5|
D|-----4--------------------------|
A|--------------------------------|
E|-3-5----------------------------|
  1 3 1 2 1 2 1 2 4 1 3 4 1 2 1 2 <-Fingers

Вверх

Toccata

E|-17--15--17---------15--13--12-------------|
B|--------------------------------15--14--15-|
G|-------------------------------------------|
D|-------------------------------------------|
A|-------------------------------------------|
D|-------------------------------------------|

E|----------------------------------------|
B|-10--8--10------------------------------|
G|--------------------9----10-------------|
D|-------------------------------11----12-|
A|----------------------------------------|
D|----------------------------------------|

E|----------------------------------------|
B|----------------------------------------|
G|----------------------------------------|
D|----------------------------------------|
A|-12--10--12--------10--8--7-------------|
D|-----------------------------12--11--12-|

E|-------------------------------------------|
B|-------------------------------------------|
G|-----------------------------------6-----9-|
D|---------------------5-----8---------------|
A|-------4-----7-----------------------------|
D|-0-----------------------------------------|

E|-2-----3----0----2-------|
B|-3-----------------------|
G|-2---------------------6-|
D|-0-----------------------|
A|-------------------------|
D|-------------------------|

E|--------------------------------------------------------|
B|------------------------------------6--8--5--6--8--5--6-|
G|-7--9--6--7--9--6--7--9--6--7---9-----------------------|
D|--------------------------------------------------------|
A|--------------------------------------------------------|
D|--------------------------------------------------------|

E|-------------|
B|-8--5--6---8-|
G|-------------|
D|-------------|
A|-------------|
D|-------------|

E|---------------------------------------------|
B|-10--11--8--10--11--8--10--11--8--10------14-|
G|---------------------------------------------|
D|---------------------------------------------|
A|---------------------------------------------|
D|---------------------------------------------|

E|---------------------------------------------|
B|-15--17--14--15--17--14--15--17--14--15---17-|
G|---------------------------------------------|
D|---------------------------------------------|
A|---------------------------------------------|
D|---------------------------------------------|

E|-13--15--12--13--15--12--13--15--12--13---15-|
B|---------------------------------------------|
G|---------------------------------------------|
D|---------------------------------------------|
A|---------------------------------------------|
D|---------------------------------------------|

E|-17--18--15--17--18--15--17--18--15---17----17-|
B|-----------------------------------------------|
G|-----------------------------------------------|
D|-----------------------------------------------|
A|-----------------------------------------------|
D|-----------------------------------------------|

E|-15--18------15--18----------17----------17-----|
B|---------17----------17--18------15--18------15-|
G|------------------------------------------------|
D|------------------------------------------------|
A|------------------------------------------------|
D|------------------------------------------------|

E|-----15----------15-----------------------------|
B|-17----------17----------15--18------15--18-----|
G|---------17----------17----------15----------15-|
D|------------------------------------------------|
A|------------------------------------------------|
D|------------------------------------------------|

E|------------------------------------------------|
B|-----17----------17----------15----------15-----|
G|-17------14--17------14--15------12--15------12-|
D|------------------------------------------------|
A|------------------------------------------------|
D|------------------------------------------------|

E|----------------------------------------------|
B|-----13----------13----------11---------11----|
G|-14----------14------10--12------9--12------9-|
D|---------15-----------------------------------|
A|----------------------------------------------|
D|----------------------------------------------|

E|----------------------------------------|
B|-----10---------10--------8--------8----|
G|-10------7--10------7--9-----6--9-----6-|
D|----------------------------------------|
A|----------------------------------------|
D|----------------------------------------|

E|-----------6-|
B|-----------8-|
G|-----------6-|
D|-----------0-|
A|-------------|
E|-0-----------|

E|-18--17--15---------------------------------|
B|-------------18--17--15---------------------|
G|-------------------------18--16--18--14--18-|
D|--------------------------------------------|
A|--------------------------------------------|
D|--------------------------------------------|

E|-----15-13-15-13-15-13-15-13-12-|
B|-17-----------------------------|
G|--------------------------------|
D|--------------------------------|
A|--------------------------------|
D|--------------------------------|

E|-5-|
B|-6-|
G|-7-|
D|-7-|
A|-5-|
D|---|

E|-------------------------15-----|
B|-15--17--18--15--17--18------17-|
G|--------------------------------|
D|--------------------------------|
A|--------------------------------|
D|--------------------------------|

E|-----15--17------15--17--18--15--17-|
B|-18----------18---------------------|
G|------------------------------------|
D|------------------------------------|
A|------------------------------------|
D|------------------------------------|

E|-----15---------------------|
B|-18------17--18--15--17--14-|
G|----------------------------|
D|----------------------------|
A|----------------------------|
D|----------------------------|

E|------------------------------------|
B|-15---------------------------------|
G|------14--15--12--14------12--------|
D|---------------------15------14--15-|
A|------------------------------------|
D|------------------------------------|

E|----------------------------|
B|----------------------------|
G|------12--------------------|
D|-12------14--15--12--14--11-|
A|----------------------------|
D|----------------------------|

E|------------------------------------|
B|------------------------------------|
G|------------------------------------|
D|-12---7---8---5---7-------5---------|
A|----------------------8-------7---8-|
D|------------------------------------|

E|---------------------------|
B|---------------------------|
G|---------------------------|
D|-----5---------------------|
A|-5-------7---8---5---7---4-|
D|---------------------------|

E|-------------18--------------17---------|
B|---------18------18------17------17-----|
G|-----15--------------14--------------12-|
D|----------------------------------------|
A|-5--------------------------------------|
D|----------------------------------------|

E|-----15------------------17------|
B|-15------15------14--16----------|
G|-------------14------------------|
D|---------------------------------|
A|-------------------------------5-|
D|---------------------------------|

E|---------------------------|
B|---------------------------|
G|-3-----------2-----------0-|
D|-3-----------2-----------0-|
A|-------0-------------------|
D|-------------------5-------|

E|-0------------18--------------17---------|
B|-2--------18------18------17------17-----|
G|-2----15--------------14--------------12-|
D|-2---------------------------------------|
A|-0---------------------------------------|
D|-----------------------------------------|

E|-----15------------------17------|
B|-15------15------14--16----------|
G|-------------14------------------|
D|---------------------------------|
A|-------------------------------5-|
D|---------------------------------|

E|---------------------------|
B|---------------------------|
G|-3-----------2-----------0-|
D|-3-----------2-----------0-|
A|-------0-------------------|
D|-------------------5-------|

E|-0------------------------------------------|
B|-2------------------------------------------|
G|-2---14--12---------------------------------|
D|-2-----------15--14--12---------------------|
A|-0-----------------------16--14--16--12--14-|
D|--------------------------------------------|

E|----------------------------|
B|----------------------------|
G|-----------------12--14--12-|
D|-----12--14--15-------------|
A|-16-------------------------|
D|----------------------------|

E|----------------------------|
B|-------------------------14-|
G|---------------------14-----|
D|-15--14--15--12--15---------|
A|----------------------------|
D|----------------------------|

E|------------------------------15--17--18-|
B|-15-----------14--15--17--18-------------|
G|------14--16-----------------------------|
D|-----------------------------------------|
A|-----------------------------------------|
D|-----------------------------------------|

E|-------------------------------------0-|
B|-------------------------------------2-|
G|-------3-----------2-----------0-----2-|
D|-------3-----------2-----------0-----2-|
A|-5-----------0-----------------------0-|
D|-------------------------5-------------|

E|---------18-----|
B|-----18------18-|
G|-15-------------|
D|----------------|
A|----------------|
D|----------------|

E|---------17--------------15-----------------|
B|-----17------17------15------15------14--16-|
G|-14--------------12--------------14---------|
D|--------------------------------------------|
A|--------------------------------------------|
D|--------------------------------------------|

E|-17-----------------------------0---4-|
B|--------------------------------2---3-|
G|---------3-------2--------0-----2---4-|
D|---------3-------2--------0-----2---3-|
A|-----5-------0------------------0-----|
D|----------------------5---------------|

E|-5--------------------------15---18-|
B|-5----------------14---17-----------|
G|-5------16---14---------------------|
D|-5----------------------------------|
A|-5----------------------------------|
D|-5----------------------------------|

E|-17--15----------------------|
B|---------18--17--18--17--15--|
G|-----------------------------|
D|-----------------------------|
A|-----------------------------|
D|-----------------------------|

E|------------------------------------|
B|-14--15-----------------------------|
G|---------17--15--14--12-------------|
D|-------------------------15--14--12-|
A|------------------------------------|
D|------------------------------------|

E|-3----------------0--------0-|
B|-2----------------2--------3-|
G|-3----------------2--------2-|
D|-2----------------2--------3-|
A|------------------0--------0-|
D|-----------------------------|

E|-3----------------------------------------|
B|-3-------------5--------------------------|
G|-3-------------6--------------------------|
D|-5-------------5--------------------------|
A|---------------0--------------------------|
D|-----7--5--------------14--15--12--14--11-|

E|-----------------------|
B|-----------------------|
G|-----------------------|
D|-----------------------|
A|-----------------------|
D|-12--9--11--8--9--7--8-|

E|---------0----1----1----0-|
B|---------2----3----3----3-|
G|---------2----2----2----2-|
D|---------2----0----0----0-|
A|---------0--------------0-|
D|-6--7-------------------0-|

E|-0----3----1----0----1-|
B|-2-------------------3-|
G|-2-------------------2-|
D|-2-------------------0-|
A|-0-------------------0-|
D|---------------------0-|

Вверх

Ария в E (из тетради Анны Магдолены Бах)

(Часть I)
andante con moto
  e|-------------0-|-5-----------4-------|-5-----------------0-|
4 B|---------------|-------------5-------|-------2-----3-------|
/ G|o--------------|-------2-------------|-2-----2-----4-----1-|
4 D|o--------------|-------------------2-|---------------------|
  A|---------------|---------------------|---------------------|
  E|---------------|---------------------|---------------------|

e|---------------0-|-------------7---5-|-4----2--0--2----------|
B|-2-------0-------|-4-----2--0--------|------------4-----5--4-|
G|-2---------------|-4---------------2-|-4---------------------|
D|---------2-------|-------------6-----|-----------------------|
A|-----0-----------|-------------------|------------2----------|
E|-----------------|-------------------|-----------------------|

e|-0-----------------------|
B|-0-----------------------|
G|-1----------------------o|
D|-2----------------------o|
A|-------2-----------------|
E|-------------0-----------|

(Часть II)

e|-----------------|---------------------|-------------------0-|
B|-----------------|-0-----------------2-|-3-------------------|
G|o-----------1--2-|-------1-----------2-|-4-----------------1-|
D|o----------------|-------------2-------|-------2-------------|
A|-----------------|---------------------|---------------------|
E|-----------------|---------------------|-------------0-------|

e|-------------2----------|-------------------0-|-2----------4-|
B|-2-----------------3--2-|-0-------------------|-3----------3-|
G|-2-----4--2-------------|-0-------------------|--------------|
D|-------------0-----0----|-2-------------------|-0------------|
A|-------4----------------|-------2-----------4-|------------2-|
E|------------------------|-------------0-------|--------------|

e|-5-----4--2--0-------|----------------------|----------------|
B|-5-----------------3-|-2---------0----------|----------------|
G|---------------------|-2---------1--------2-|-2-------------o|
D|-------------------0-|-2--------------------|-------2-------o|
A|-4-------------------|----------------------|-------------0--|
E|---------------------|-----------0----------|----------------|

Вверх

Воздух. Сюита для оркестра №3 в D

E||---0-----0-----0-----0-----|--0--5-----------------------|
  B||---1-----1-----1-----1-----|--1----6-3---0-1-0-----------|
4 G||*--0-----0-----2-----2-----|--2--------5-----0----2-0----|
/ D||*--------------------------|-----3---4---0---0------0----|
4 A||---3--3--2--2--0--0--------|---------5-------------------|
  E||---------------------3--3--|--1----------2---3--3---1--1-|

E|-3-------3----0---------3-1-|-1--------0-1---------------1-0-|
B|--------------------3-2-----|----3-1-3-----3---3-----1-0-----|
G|---3-2-3---3-2--3-2---------|-2--2---2-------0---2-0---------|
D|---2---0-0---2--------------|-0--0-----------0---------------|
A|-------------4--4---0---0---|--------3---3---2---2-----------|
E|-0--------------------------|------------------------3---3---|

                               _________________________________
                              | 1
E|-0-----2-3-------0---------|---------------------------------|
B|-1-----3---1---3-----3---1-|-0----0-1--0---------------------|
G|-0-----0---0-5---0-2---2---|-0-2-2-------2-0---------------*-|
D|-----------2-4---------0---|-0---2---0-0---0-------0-3-2-0-*-|
A|-3-3-2-2---0-0-------------|-----3---0-----2-0-2-3-----------|
E|-------------------2-------|-3---------2---3-----------------|

  _________________________
 | 2
E|---------------------------||
B|-0-----0-1----0------------||
G|-0-2-2----------2-0--------||
D|-0---2-----0--0---0--------||
A|-----3-----0------2--------||
E|-3------------2---3--------||

E|---------------------3-------0-------|
B|---0-----0-1-0---0-------2-3---------|
G|*--0-----0-----2---0---2-3-----2-3---|
D|*--0-----0---------------2---0---5-3-|
A|---------------------------------5---|
E|---3--3--1-----1-----0---------------|

E|-----5-----3-1-0-1-------0---------|
B|-------------2---3---------3-1-0---|
G|-2---0-------2---2-----2---------2-|
D|-2-3-------------0--0--------------|
A|-4-----7-4---0---------3-------3---|
E|---------0-------------------------|

E|--------------------0-1-------0-|
B|------0-----1-3-------0-------0-|
G|--1-2---------------5---2-1-2---|
D|------0-2-3-2-3-0-2---0---------|
A|--2-3-2---0-----0-------3-2-3---|
E|------------------4-----------4-|

E|------------------------------|---------0-----5----------3-2-|
B|-3-1-0---0-1-3-1-0------------|-1-----1---3-1-7--------------|
G|-2-----2-2-----1---2-----2----|-2-----0---0------------0-----|
D|-2---0---0-----0---2-----2----|-0-----2-4-2---0--0-2-4-------|
A|-0-----3-----------0--0-------|-0--------------------3---3---|
E|-----1---------0---------3--3-|-2--2--0---0------------------|

E|-0---3----------------------------|
B|---3-----------0-1-0--------------|
G|-0-----0--2--2-----0----2-0-------|
D|----------2--0-----0------0---0---|
A|-2-----2--3---------------2-3---2-|
E|-------------2-----3--3---1---1---|

E|-------------0--------------1-0-|
B|--1--------0-1-3-3--0---0-1-0---|
G|--0--2-3-2---2---2----2-----0---|
D|----------------------------0---|
A|-----3--------------------------|
E|--0--0---1---1---2--2---3---3---|

E|------------3-1-1---------------|
B|-5--2-0-2-3-5---3-2-3-----------|
G|-4----------6---2-----2---2-----|
D|----2-----------0-----------3---|
A|--------0---0-----------3-----3-|
E|-4--4---------------------------|

E|----------------1-1---0---0----1-3-|
B|------------0-3-----3-0-1-1--------|
G|--0-----0-0---0---0-------0--------|
D|--0---3---2---0--------------------|
A|--2-2-2-------2---3---3---1--1-----|
E|----------3------------------------|

E|---------0-3-6-5---------|-----1-----------------0-1-1-0-----|
B|-1-----1---------------1-|-0-3-3-----------3-1-3-----------3-|
G|-0-----0-----------------|-----2---2-0-2---0---4-----0---2---|
D|-2--0--2-----------------|-0---0-3-3---3-2-0---5---------3---|
A|-0--0----------3---------|---------3---3---2---------3-------|
E|-------3---3---1--1--0-0-|---------------------3---------1---|

E|-------------------------------------|
B|-1-0-----0----0-1-0-1-0-1-1----------|
G|-0---2-----5--------------0--------*-|
D|-2---------3--0-----------2--------*-|
A|--------------------------3----------|
E|-3-----1---3--3----------------------|

Вверх

Гавот в форме рондо из 6-ой сюиты для скрипки

0
  E|---------4-------|-5p4-------2-------2-------4-|
2 B|-0---------------|---2-----------5-------------|
/ G|-----------------|---2-------------------------|
2 D|-2---------------|-----------------------------|
  A|-----------------|-----------------------------|
  E|-----------------|-----------------------------|

 2
E|-5-------------7--p4---5-----|-------4-5---------------------|
B|-4-------------------------7-|-0---7-------7--s9-------7-----|
G|-4---------------------------|---------------------9-------8-|
D|-----------------------------|-------------------------------|
A|-----------------------------|-6---------------7-------------|
E|-----------------------------|-------------------------7-----|

 4
E|-0-----------------------0---4-|----4--2-------2---4---5---2-|
B|-----0---------------0---------|-2---------5-----------------|
G|---------1-------1-------------|-2---------------------------|
D|-------------2---2-------------|-----------------------------|
A|-------------------------------|-----------------------------|
E|-0-----------------------------|-----------------------------|

 6
E|-5-----------------------4-------|---------2-----------------|
B|-4---------------0---------------|-2-----------------------4-|
G|-4-------------------------------|---------------------------|
D|-----------------2---------------|-----------------4---------|
A|---------------------------------|-0---------------2---------|
E|---------------------------------|---------------------------|

 8
E|--------------------|
B|4h5---------------*-|
G|--1-----------------|
D|--------------------|
A|------------------*-|
E|--0-----------------|

 9
E|---------4-------|---------------------0---------|
B|-0---------------|-2-------2---1---2-------4---1-|
G|-----------------|-2---------------1-------------|
D|-2---------------|-------------------------------|
A|-----------------|-------------------------------|
E|-----------------|-------------------------------|

10
E|-----------------------0---4-|---------0---5-----------------|
B|-1-------2-----2---4---------|-2---4-----------4---7---5-----|
G|-----------------------------|-----------------------------6-|
D|-4-------------2-------------|-4-----------------------------|
A|-----------------------------|-----------------0-------------|
E|-----------------------------|-------------------------------|

12
E|---------------------------0-|-4---5---7---------------4---7-|
B|-----4-----------------------|-------------------------------|
G|-5----------------------6----|-------------6-------6---------|
D|--------6---4-------6--------|-----------------3-------------|
A|----------------7------------|-------------------------------|
E|-4---------------------------|-------------------------------|

14
E|-7---4---5-----------------------|---------0-----------------|
B|-------------7-----------4---7---|-7---4-------2-----------1-|
G|---------------------5-----------|-----------------1---------|
D|-----------------7---------------|---------------------------|
A|---------------------------------|---------------------------|
E|---------------------------------|-----------------4---------|

16
E|--------------------------4-|-5p4-------2-------2-------5-|
B|1h2---------------0---------|---2-----------5-------------|
G|--1-------------------------|---2-------------------------|
D|--2---------------2---------|-----------------------------|
A|--4-------------------------|-----------------------------|
E|----------------------------|-----------------------------|

18
E|-5-------------7--p4---5-----|-------4-5---------------------|
B|-7-------------------------7-|-0---7-------7--s9-------7-----|
G|-8---------------------------|---------------------9-------8-|
D|-9---------------------------|-------------------------------|
A|-----------------------------|-6---------------7-------------|
E|-----------------------------|-------------------------7-----|

20
E|-0----------------------0--4-|-----4---2-------2---4---5---2-|
B|-----0---------------0-------|-2-----------5-----------------|
G|---------1-------1-----------|-2-----------------------------|
D|-------------2---2-----------|-------------------------------|
A|-----------------------------|-------------------------------|
E|-0---------------------------|-------------------------------|

22
E|-5-----------------------4-------|---------2-----------------|
B|-4---------------0---------------|-2-----------------------4-|
G|-4-------------------------------|---------------------------|
D|-----------------2---------------|-----------------4---------|
A|---------------------------------|-0---------------2---------|
E|---------------------------------|---------------------------|

24
E|-----------------------------|-------------------------0-----|
B|-4h5-------------------------|-0-------0-------0-------------|
G|---1-------------------1---2-|-----------------1-------1-----|
D|---------------2---4---------|---------2---4-------4-------4-|
A|-----------------------------|-------------------------------|
E|---0-------------------------|-------------------------------|

26
E|---------------------------0-|-------------0---------------0-|
B|-0---------------2------4----|-0-------4---------------4-----|
G|-2---1---------------2-------|-----1-----------2-------------|
D|---------4---2---------------|---------------------4---------|
A|-----------------0-----------|-------------------------------|
E|-----------------------------|-4---------------2-------------|

28
E|---------------------------0---4-|--------------------7------|
B|-----------------------0---------|-7--7-------7--------------|
G|-2-1---------------1-------------|------------8-------8------|
D|-------4---2---4-----------------|----9---11------11------11-|
A|---------------------------------|---------------------------|
E|---0-----------------------------|---------------------------|

30
E|-----------------------------7-|--------6--7-----------6---7-|
B|-7-----------0---9-------11----|-7-------------5-------------|
G|-9---8---------------9---------|-----8-------------6---------|
D|---------11--------------------|-----------------------------|
A|-----------------7-------------|-6-------------4-------------|
E|-------------------------------|-----------------------------|

32
E|-0---------------0-------0-----|-0---------------0------0----|
B|-----4---2---0-------4---5---4-|-2---------------2---4--5--2-|
G|-----------------6-------------|-----4---3---4---------------|
D|-------------------------------|-----------------------------|
A|-2-----------------------------|-----------------------------|
E|-------------------------------|-----------------------------|

34
E|-0---------------------9-----|-------------------------9-----|
B|-2-----------------11--------|---------11------11------------|
G|---------------9-----------9-|-----9-------9-------9-------9-|
D|-4---------------------------|-------------------------------|
A|-----------------------------|-9-----------------------------|
E|-----------------------------|-------------------------------|

36
E|-0-----------------------------|-----------------------------|
B|-------------------------4-----|-5p4-------2---------------5-|
G|-6-----------------------------|---------------4---6---------|
D|-8---------------4-------------|---2-------------------6-----|
A|-9---------------2-------------|-----------------------------|
E|-------------------------------|-----------------------------|

38
E|-------------------------------|-------------0---------------|
B|-5-------4-------4---5---7---4-|-0---------------2---------0-|
G|-------------6-----------------|-----1-----------------------|
D|-4-----------------------------|---------2-------4-----------|
A|-------------------------------|-----------------------------|
E|-------------------------------|-----------------------------|

40
E|-------------------------4-----|-5p4-------2-------2-------4-|
B|-0---------------0-------------|---2-----------5-------------|
G|-------------------------------|---2-------------------------|
D|-4---------------2-------------|-----------------------------|
A|-6-----------------------------|-----------------------------|
E|-7-----------------------------|-----------------------------|

42
E|-5-------------7--p4---5-----|-------4-5---------------------|
B|-4-------------------------7-|-0---7-------7--s9-------7-----|
G|-4---------------------------|---------------------9-------8-|
D|-----------------------------|-------------------------------|
A|-----------------------------|-6---------------7-------------|
E|-----------------------------|-------------------------7-----|

44
E|-0----------------------0--4-|-----4---2-------2---4---5---2-|
B|-----0---------------0-------|-2-----------5-----------------|
G|---------1-------1-----------|-2-----------------------------|
D|-------------2---2-----------|-------------------------------|
A|-----------------------------|-------------------------------|
E|-0---------------------------|-------------------------------|

46
E|-5-----------------------4-------|---------2-----------------|
B|-4---------------0---------------|-2-----------------------4-|
G|-4-------------------------------|---------------------------|
D|-----------------2---------------|-----------------4---------|
A|---------------------------------|-0---------------2---------|
E|---------------------------------|---------------------------|

48
E|-----------------------------|-------------------------------|
B|-4h5-----------------------5-|-----5-------------------------|
G|---1-------------------4-----|---------7---6---7-----------7-|
D|-------------------6---------|-4-------------------4---6-----|
A|---------------7-------------|-------------------------------|
E|---0-------------------------|-------------------------------|

50
E|---------------------------5-|-----5---4-------4-------------|
B|------------------------7----|-------------7-------6---7-----|
G|-6---4---------------6-------|-4---------------------------5-|
D|---------7---6---4-----------|-------------------------------|
A|-0---------------------------|-------------------------------|
E|-----------------------------|-------------------------------|

52
E|-----------------4---5--7--4-|-5-----------------------------|
B|-----7---6---7---------------|-----------------------------5-|
G|-6---------------------------|-----6---------------4---6-----|
D|-----------------------------|-4-------4---6---7-------------|
A|-----------------------------|-------------------------------|
E|-----------------------------|-------------------------------|

54
E|-----------------------------|-------------------------------|
B|3---------------------------|-----0-------------------0---3-|
G|---------------------------2-|-1---------------1---2---------|
D|-----4---------------2--4----|---------2---4-----------------|
A|-2-------2---4---5-----------|-------------------------------|
E|-----------------------------|-0-----------------------------|

56
E|-----------------2------2----|---------0---3---2---0---------|
B|-2---0-------2-------6-----2-|-----2-------------------3---2-|
G|---------2-------------------|-3-----------------------------|
D|-----------------------------|-------------------------------|
A|-0---------------------------|-------------------------------|
E|-----------------------------|-------------------------------|

58
E|-------------2---7------7----|-------------10--9---7---5---4-|
B|-3---2--------------11-------|-----2---9---------------------|
G|---------4-----------------7-|-------------------------------|
D|-----------------------------|-3-----------------------------|
A|-2---------------------------|-------------------------------|
E|-----------------------------|-------------------------------|

60
E|-5---4-------5----------5--4-|---------4--2-----------2---0-|
B|---------7-----------3-------|-----2---------------0---------|
G|-----------------4-----------|-2---------------1-------------|
D|-4---------------------------|-------------------------------|
A|-----------------------------|-------------------------------|
E|-----------------------------|-------------------------------|

                                                     tr
62
E|-------------------------------|---------2---4---4---------2-|
B|---------5---3-------3---2---0-|-----2-----------------------|
G|-----2-------------------------|-2---------------------------|
D|-4--------------3-------------|-4---------------------------|
A|-------------------------------|-----------------4-----------|
E|-------------------------------|-----------------------------|

64
E|-2---------------0-------4-----|-5p4-------2-------2-------4-|
B|-2---------------0-------------|---2-----------5-------------|
G|-2-----------------------------|---2-------------------------|
D|-4---------------2-------------|-----------------------------|
A|-------------------------------|-----------------------------|
E|-------------------------------|-----------------------------|

66
E|-5-------------7--p4---5-----|-------4-5---------------------|
B|-4-------------------------7-|-0---7-------7--s9-------7-----|
G|-4---------------------------|---------------------9-------8-|
D|-----------------------------|-------------------------------|
A|-----------------------------|-6---------------7-------------|
E|-----------------------------|-------------------------7-----|

68
E|-0----------------------0--4-|-----4---2-------2---4---5---2-|
B|-----0---------------0-------|-2-----------5-----------------|
G|---------1-------1-----------|-2-----------------------------|
D|-------------2---2-----------|-------------------------------|
A|-----------------------------|-------------------------------|
E|-0---------------------------|-------------------------------|

70
E|-5-----------------------4-------|---------2-----------------|
B|-4---------------0---------------|-2-----------------------4-|
G|-4-------------------------------|---------------------------|
D|-----------------2---------------|-----------------4---------|
A|---------------------------------|-0---------------2---------|
E|---------------------------------|---------------------------|

72
E|-------------------4---2---4-----|---------------------------|
B|-4h5-----------------------------|-2---1---2-------7---5---7-|
G|---1---------------4-------------|-1-------------------------|
D|-------------------2-------------|-----------------7---------|
A|---------------------------------|-0---------------6---------|
E|---0-----------------------------|---------------------------|

74
E|---------------------------0-|-------------2---------------4-|
B|-----------------------2-----|---------4---------------6-----|
G|-6p5---------------1---------|-----2---------------4---------|
D|---4-----------2-------------|/4---------------6-------------|
A|-----------------------------|-------------------------------|
E|---4-------------------------|-------------------------------|

76
E|-4-------------------------------|-------------0-----------2-|
B|---------7-------5---4---5---2---|/4---------------4---2-----|
G|-6---------------3---------------|-----4-----------4-------3-|
D|-7-------------------------------|---------6-------2-------4-|
A|---------------------------------|---------------------------|
E|---------------------------------|---------------------------|

78
E|---------------------------------|-4---2---4-----------------|
B|-5---4---2-------4---2---4-------|-4---------------2---1---2-|
G|-------------4---4---------------|-----------------1---------|
D|-4---------------4---------------|-2---------------2---------|
A|-2---------------2---------------|---------------------------|
E|---------------------------------|-0-------------------------|

80
E|--------------------------7-|-------------7------------------|
B|-11-----------9---8---9-----|-9---8---9-------9---8---9---12-|
G|----------------------------|-6---------------8--------------|
D|-11-----------9-------------|--------------------------------|
A|-10-------------------------|--------------------------------|
E|-11-------------------------|--------------------------------|

82
E|-4---------------------------|-4-----------------------------|
B|-5---4---5--------------4--5-|-4-------4-------------------4-|
G|-------------6-------6-------|-----6-------4-------4---6-----|
D|-----------------6-----------|-----------------6-------------|
A|-----------------------------|-------------------------------|
E|-4---------------------------|-4-----------------------------|

84
E|-4---------------------------|-4-----------------------------|
B|-5-------4---5-------5--4----|-4-----------4-------4-------0-|
G|-----6---------------------6-|-----4---6---------------6-----|
D|-----------------6-----------|-----------------6-------------|
A|-----------------------------|-------------------------------|
E|-4---------------------------|-4-----------------------------|

86
E|---------0-----------0-----0-|-------------------------------|
B|-2---4-------4---2-----------|-------------0-------2-------2-|
G|-3----------------------4----|-3---4---6-------3-------1-----|
D|------------------------6----|-5-----------------------2-----|
A|-----------------------------|-------------------------------|
E|-----------------------------|-------------------------------|

88
E|-------------------------------|-----------------------------|
B|---------------------0---2---4-|-5--4--3---4---5---4---3---4-|
G|-----1---0---1---3-------------|-----------------------------|
D|-1-----------------------------|-----------------------------|
A|-------------------------------|-----------------------------|
E|-------------------------------|-----------------------------|
                                                 (триоли)
/--3--  /--3--
90
E|----------0-----------6---9-|-7---6--------------------------|
B|-------2----------8---------|-------9-8--9--0--2--4--2--0----|
G|----3--------/8-------------|------------------------------3-|
D|-5--------------------------|-6-------------1----------------|
A|----------------------------|--------------------------------|
E|----------------------------|--------------------------------|

92
E|---------------------------4---|-5p4-------2-------2-------4-|
B|-------------------0-----------|---2-----------5-------------|
G|-3p1---------------------------|---2-------------------------|
D|-------------------2-----------|-----------------------------|
A|-------------------------------|-----------------------------|
E|---4---------------------------|-----------------------------|

94
E|-5-------------7--p4---5-----|-------4-5---------------------|
B|-4-------------------------7-|-0---7-------7--s9-------7-----|
G|-4---------------------------|---------------------9-------8-|
D|-----------------------------|-------------------------------|
A|-----------------------------|-6---------------7-------------|
E|-----------------------------|-------------------------7-----|

96
E|-0----------------------0--4-|-----4---2-------2---4---5---2-|
B|-----0---------------0-------|-2-----------5-----------------|
G|---------1-------1-----------|-2-----------------------------|
D|-------------2---2-----------|-------------------------------|
A|-----------------------------|-------------------------------|
E|-0---------------------------|-------------------------------|

98
E|-5-----------------------4-------|---------2-----------------|
B|-4---------------0---------------|-2-----------------------4-|
G|-4-------------------------------|---------------------------|
D|-----------------2---------------|-----------------4---------|
A|---------------------------------|-0---------------2---------|
E|---------------------------------|---------------------------|

    fermatta
100
E|----|
B|4h5-|
G|--1-|
D|----|
A|----|
E|--0-|

Вверх

Гавот в форме рондо из 6-ой сюиты для скрипки (2 вариант)

E||--------0----|--0---------------1---|--1--------3--0--1----|
B||-------------|-------3--1--3--------|--0-----------------3-|
G||*--0---------|--2----------2----2---|--0-------------------|
D||*--2---------|--3----------3----0---|----------------------|
A||---3---------|----------------------|----------------------|
E||-------------|----------------------|----------------------|

E|-------0-1-----0-----------|-----------------------0-|
B|-----3------3-----1--3--0--|--1-----------------1----|
G|--0------------------0-----|-----0-----------0-------|
D|---------------------------|--------2-----2----------|
A|--2------------3-----------|--3--------3-------------|
E|---------------------------|-------------------------|

E|----0-----------0--1----|-1-------------0-|------------------|
B|-------3--1--3--------3-|-0---------------|------3---------0-|
G|-2-----------2----------|-0--------0------|-2---------0------|
D|-3-----------3----------|-----------------|-3--------------3-|
A|------------------------|----------3------|-----------2------|
E|------------------------|-----------------|-1----------------|

E|-----||------0-|-----------------------|-------------------0-|
B|-1---||--------|---------------1--0----|-------------0--1----|
G|----*||-0------|-2----2--1--2--------1-|-1---2----2----------|
D|-2--*||--------|-3----------2----------|-0-------------------|
A|-3---||-3------|-----------------------|----------3----------|
E|-----||--------|-----------------------|---------------------|

E|-----------1--------------|-------------------------|
B|-----0--1-----0--3--1-----|-----0-------------------|
G|--2--------------------2--|--1-----------------2--5-|
D|--0-----------0-----1-----|--2-----2--0-----2-------|
A|--------------------------|--------------3----------|
E|--------------------------|-------------------------|

E|-0--1--3-------0-3-|-3-0-1---------------|-------------------|
B|-------------------|--------3--------0-3-|-3--0--1-----------|
G|---------2---2-----|--------------1------|----------2------1-|
D|-------------------|-0---------3---------|-0-----------2-----|
A|-0---------4-------|---------------------|-------------------|
E|-------------------|---------------------|-----------------0-|

E|---|------0--|--0---------------1----|--1--------3--0--1----|
B|---|---------|-------3--1--3---------|--0-----------------3-|
G|-2-|-0-------|--2----------2----2----|--0-------------------|
D|-2-|-2-------|--3----------3----0----|----------------------|
A|-0-|-3-------|-----------------------|----------------------|
E|---|---------|-----------------------|----------------------|

E|-------0-1-----0-----------|-----------------------0-|
B|-----3------3-----1--3--0--|--1-----------------1----|
G|--0------------------0-----|-----0-----------0-------|
D|---------------------------|--------2-----2----------|
A|--2------------3-----------|--3--------3-------------|
E|---------------------------|-------------------------|

E|----0-----------0--1----|-1-------------0-|------------------|
B|-------3--1--3--------3-|-0---------------|------3---------0-|
G|-2-----------2----------|-0--------0------|-2---------0------|
D|-3-----------3----------|-----------------|-3--------------3-|
A|------------------------|----------3------|-----------2------|
E|------------------------|-----------------|-1----------------|

E|---|------------|-----------------------|--------------------|
B|-1-|------------|------------------1----|--------------------|
G|---|------------|-0----0-----0----------|-0----------2---4-5-|
D|-2-|----0--2--3-|---------0--2--0--2--0-|-2--0--2------3-----|
A|-3-|-3----------|------3----------------|----------3---------|
E|---|------------|-----------------------|--------------------|

E|-----------------|-----------------0-|-----(3)----------3----|
B|-----------------|--------------1----|-3----3-----3----------|
G|-0---4-5-----4-5-|-----------0-------|------0--2--4--2--4--2-|
D|---2-----3-------|-2-0---0-2---------|-----------------------|
A|-----------5-----|-----3-------------|-----------------------|
E|-----------------|-------------------|-----------------------|

E|--------------0-----2--3--|--------2--3--------2--3-|
B|--3--------------1--------|--3-----------1----------|
G|--4--2--4--0--------------|-----4-----------2-------|
D|--------------------------|-------------------------|
A|--------------------------|-------------------------|
E|--------------------------|-------------------------|

E|------------------------|--------------------|----------5----|
B|-1--0--------1-----1----|-1---------1----1---|-1--7----------|
G|-------2--0--2--4-----4-|-2--0---0--2--4---2-|-------5-----5-|
D|------------------------|------4-------------|-0-------------|
A|------------------------|--------------------|---------------|
E|------------------------|--------------------|---------------|

E|-------------------5----|----------------|-------------------|
B|-------7-----7----------|--------------0-|-0---------------1-|
G|----5-----5-----5-----5-|-5--------------|------2--0--2------|
D|------------------------|---------0------|-------------------|
A|-5----------------------|-5--------------|-3-----------------|
E|------------------------|---------3------|-------------------|

E|-------------------------|------------------------|----|
B|--1----------------3-----|------------------------|----|
G|-------4--2--4--5-----4--|-----------5--2------0--|--0-|
D|--0----------------------|--5--2--------0---------|--0-|
A|-------------------------|--------3---------------|----|
E|-------------------------|------------------------|--3-|

E|--------0----|--0---------------1----|--1--------3--0--1----|
B|-------------|-------3--1--3---------|--0-----------------3-|
G|---0---------|--2----------2----2----|--0-------------------|
D|---2---------|--3----------3----0----|----------------------|
A|---3---------|-----------------------|----------------------|
E|-------------|-----------------------|----------------------|

E|-------0-1-----0-----------|-----------------------0-|
B|-----3------3-----1--3--0--|--1-----------------1----|
G|--0------------------0-----|-----0-----------0-------|
D|---------------------------|--------2-----2----------|
A|--2------------3-----------|--3--------3-------------|
E|---------------------------|-------------------------|

E|----0-----------0--1----|-1-------------0-|------------------|
B|-------3--1--3--------3-|-0---------------|------3---------0-|
G|-2-----------2----------|-0--------0------|-2---------0------|
D|-3-----------3----------|-----------------|-3--------------3-|
A|------------------------|----------3------|-----------2------|
E|------------------------|-----------------|-1----------------|

E|------------|--------------|-------------------------|
B|--1---------|-----------1--|-----1-------------------|
G|------------|--------0-----|--------3--2--3--------3-|
D|--2---------|-----2--------|--0--------------0--2----|
A|--3---------|--3-----------|-------------------------|
E|------------|--------------|-------------------------|

E|-----------------------1--|-----1--0-----0-----------|
B|--------------------3-----|-----------3-----2--3-----|
G|--2--0-----------2--------|--0--------------------1-|
D|--------3--2--0-----------|--------------------------|
A|--------------------------|--------------------------|
E|--------------------------|--------------------------|

E|--------------0--1--3--0--|--1----------------------|
B|-----3--2--3--------------|-----------------------1-|
G|--2-----------------------|-----2-----------0--2----|
D|--------------------------|--------0--2--3----------|
A|--------------------------|-------------------------|
E|--------------------------|-------------------------|

E|--------------------------|-------------------------|
B|--------------------------|-------------------------|
G|--3-----------------------|-----0--------------0--3-|
D|-----0--------------0--3--|--2--------0--2--3-------|
A|-----------0--1--3--------|--------3----------------|
E|--------3-----------------|-------------------------|

E|--------------------------|-------------------------|
B|--------------3--2--3-----|--------1--4--3--1-------|
G|--2--0-----2-----------2--|-----2--------------3--2-|
D|--------3-----------------|--4----------------------|
A|--------------------------|-------------------------|
E|--------------------------|-------------------------|

E|--------------3--2--3-----|--------3--6-5--3-------|
B|-----------3-----------3--|--------------------6--5-|
G|--3--2--0-----------------|-----2-------------------|
D|--------------------------|-------------------------|
A|--------------------------|--4----------------------|
E|--------------------------|-------------------------|

E|--1--0-----1--------1--0--|--------0----------------|
B|--------3-----------------|-----------3--------3--1-|
G|--------------0--3--------|-----2-----------0-------|
D|--------------------------|--3-----------2----------|
A|--------------------------|-------------------------|
E|--------------------------|-------------------------|

E|--------------------------|------------------------|----|
B|--------1-----------------|--------3--5--5------3--|--3-|
G|-----------3-----3-2-----|-----2--------2---------|--2-|
D|--0--3/-------4--------5--|--4---------------------|--0-|
A|--------------------------|------------------------|----|
E|--------------------------|------------------------|----|

E|--------0----|--0---------------1----|--1--------3--0--1----|
B|-------------|-------3--1--3---------|--0-----------------3-|
G|---0---------|--2----------2----2----|--0-------------------|
D|---2---------|--3----------3----0----|----------------------|
A|---3---------|-----------------------|----------------------|
E|-------------|-----------------------|----------------------|

E|-------0-1-----0-----------|-----------------------0-|
B|-----3------3-----1--3--0--|--1-----------------1----|
G|--0------------------0-----|-----0-----------0-------|
D|---------------------------|--------2-----2----------|
A|--2------------3-----------|--3--------3-------------|
E|---------------------------|-------------------------|

E|----0-----------0--1----|-1-------------0-|------------------|
B|-------3--1--3--------3-|-0---------------|------3---------0-|
G|-2-----------2----------|-0--------0------|-2---------0------|
D|-3-----------3----------|-----------------|-3--------------3-|
A|------------------------|----------3------|-----------2------|
E|------------------------|-----------------|-1----------------|

E|----|
B|--1-|
G|----|
D|--2-|
A|--3-|
E|----|

E||-------------|---------------------|
B||--5--3--5----|-------------3-1/-3-|
G||--5--4--5----|--2-1/-2----4-2/-4-|
D||-------------|--3-2/-3------------|
A||-------------|---------------------|
E||-------------|---------------------|

E|-----------------|------------------------|------------------|
B|---------------1-|----------3-----------5-|-5----------------|
G|-1----------2----|-------4-----------6----|----7--5--4--5----|
D|-2-------2-------|----3-----------5-------|-------4--------7-|
A|------3----------|-5-----------7----------|-8----------------|
E|-----------------|------------------------|------------------|

E|--------------------|---------------------|------------------|
B|-0-----1----0-----3-|-1--0--------0-----0-|-5--4--5----------|
G|----0----------2--2-|-0-----2--0-----2----|-4--------2--1--2-|
D|-------2----------0-|-0-----------0-------|------------------|
A|------------3-------|---------------------|-3--------3-------|
E|--------------------|-3-----------3-------|------------------|

E|-2-----0-----0--3-|-0-----0--3--0-----0--3-|-0-----------0---|
B|----------4-------|----4--------0--4-------|-1---1-------1---|
G|-2-----0----------|-2----------------------|---2---2---2---2-|
D|------------------|------------------------|---------2-------|
A|-2----------------|------------------------|-----------------|
E|------------------|------------------------|-----------------|

E|--0-----------------0-----|--0-----------------0----|
B|--0-----0-----------0-----|--1-----1-----------1----|
G|-----0-----0-----0-----0--|-----2-----2-----2-----2-|
D|--------------2-----------|--------------2----------|
A|--------------------------|-------------------------|
E|--------------------------|-------------------------|

E|--0-----------------0-----|-------------------------|
B|--0-----0-----------0-----|--1-----1--------1-----1-|
G|-----0-----0-----0-----0--|--2--4-----4--2-----0----|
D|--------------2-----------|--------------------2----|
A|--------------------------|-------------------------|
E|--------------------------|-------------------------|

E|--------------------------|-------------------------|
B|--------------------------|-------------------------|
G|-----0--2--0-----2--------|--------------------2--4-|
D|--4-----------4--------4--|--------1--2--4--5-------|
A|--6-----------------6-----|--2--4-------------------|
E|--------------------------|-------------------------|

E|--------------------------|--------------------2--5-|
B|--------------------------|-----------------4-------|
G|--5--4--3--4--5--3-2--3--|--------2--5--4----------|
D|--------------------------|--1--4-------------------|
A|--------------------------|-------------------------|
E|--------------------------|-------------------------|

E|--3--2---------------------------|-----------|-------0-|
B|-------5-4--5--------------------|-----------|---------|
G|---------------0--2--4--2--0-----|-----------|--0------|
D|------------------------------4--|--2--------|--2------|
A|---------------------------------|-----------|--3------|
E|---------------------------------|-----------|---------|

E|-0---------------1-|-1--3--0--1----|------0-1-----0----------|
B|------3--1--3------|-0-----------3-|----3------3-----1--3--0-|
G|-2----------2----2-|-0-------------|-0------------------0----|
D|-3----------3----0-|---------------|-------------------------|
A|-------------------|---------------|-2------------3----------|
E|-------------------|---------------|-------------------------|

E|----------------0-|----0-----------0--1----|-1-------------0-|
B|-1------------1---|-------3--1--3--------3-|-0---------------|
G|----0-------0-----|-2-----------2----------|-0--------0------|
D|------2---2-------|-3-----------3----------|-----------------|
A|-3------3---------|------------------------|----------3------|
E|------------------|------------------------|-----------------|

E|----------------------|----|
B|-------3---------0----|--1-|
G|--2---------0---------|----|
D|--3--------------3----|--2-|
A|------------2---------|--3-|
E|--1-------------------|----|

E|--------------------------|-------------------------|
B|--5-----------------5-----|--5-----------------5----|
G|--5-----5-----------5-----|--4-----4-----------4----|
D|-----7-----7-----7-----7--|-----5-----5-----5-----5-|
A|--------------7-----------|--------------7----------|
E|--------------------------|-------------------------|

Вверх

Минуэт из 4-ой сюиты в E

(Часть #1)
E|-------------|---------------|---------------|---------------|
B|-5---5-3-5---|---1---3-0-1---|-----------0---|---1-0-1-3-1-3-|
G|-5---4---0---|---2-----------|---0---2-------|---------------|
D|-------------|---------------|---2---3---0---|---------------|
A|-------------|---------------|---------------|---3===--------|
E|-------------|---------------|---------------|---------------|

E|-0-----------|-------0-1-3-0-|-------1---0---|-------------|
B|-1---3---3-45|---5-3-----1---|---1---0---1---|---3========-|
G|-----4---0---|---5-----------|---2-----------|---0========-|
D|-------------|---------------|---------------|-------------|
A|-------------|---------------|---------------|-------------|
E|-------------|---------------|---------------|-------------|

Часть #1 играется дважы

(Часть #2)
E|-3---3-2-3---|---------------|---3---3-2-3---|--------------|
B|-0-----------|---0---1---0---|---1---0-------|--------------|
G|-----2---0---|---------2-----|-----------2---|---2-0=====---|
D|-------------|---3-----------|---2---0-------|--------------|
A|-------------|---------------|-----------3---|---2----------|
E|-------------|---------------|---------------|------------3-|

E|-1---0-------|---------------|-------1---0---|---------------|
B|-0-------3---|---1---1-3-5---|---5-3---------|---3-1-3-0-1-3-|
G|---------4---|---2---2-4-5---|---4---2---1---|---2-------2---|
D|-------------|---------------|---------------|-----------3---|
A|-------------|---0-----------|---------------|---0-----------|
E|-4-------4---|---------------|---0-------0---|---------------|

E|-0-----------|---------------|---0---0---0---|-------------|
B|-------------|---------------|---------3-----|---1---3-0-1-|
G|-2---2---1---|---2=========--|---0-----------|-------------|
D|-----0---2---|---------------|---------------|-------------|
A|-3-----------|---0=========--|---3-----------|---0---------|
E|-------------|---------------|-----------3---|-------------|

E|-------------|---------------|-----------1---|---------1-0-|
B|-------------|---------------|-----1-0-3-----|-----0-3-----|
G|---0-----0-3-|-------3-0-2---|-------------2-|---0-------0-|
D|-2-----2-----|-------------3-|---0-----------|-------------|
A|-----3=======|-----3---------|-----------3---|---2=====--3-|
E|-------------|---1========---|---------------|-------------|

E|-------------|-------------|
B|-3-------0---|---1========-|
G|-----0-------|-------------|
D|-3---2---3---|---2========-|
A|-------------|---3========-|
E|-1---3---3---|-------------|

Играется дважды

Вверх

Прелюдия в C (из ХТК)

1
  E|--1--------------------------1----------------------|
4 B|----------------------------------------------------|
/ G|----------------------------------------------------|
4 D|-----1--0--1-----1--0--1--------1--0--1-----1--0--1-|
  A|--3-----------3--------------3-----------3----------|
  E|----------------------------------------------------|

2
E|----------------------------------------------------|
B|----------------------------------------------------|
G|--1--------------------------1----------------------|
D|-----3--2--3-----3--2--3--------3--2--3-----3--2--3-|
A|--3-----------3--------------3-----------3----------|
E|----------------------------------------------------|

3
E|-----------------------------------------------------|
B|---0-------------------------0-----------------------|
G|-----------------------------------------------------|
D|------3--1--3--0--3--1--3--------3--1--3--0--3--1--3-|
A|---3-------------------------3-----------------------|
E|-----------------------------------------------------|

4
E|----------------------------------------------------|
B|---1-------------------------1----------------------|
G|------0-----0-----0-----0--------0-----0-----0----0-|
D|---------3-----1-----3--------------3-----1-----3---|
A|---3-------------------------3----------------------|
E|----------------------------------------------------|

5(Баррэ на 3-ем ладу)
E|----------------------------------------------------|
B|---4-------------------------4----------------------|
G|----------------------------------------------------|
D|------6--5--6--3--6--5--6-------6--5--6--3--6--5--6-|
A|---3-------------------------3----------------------|
E|----------------------------------------------------|

6
E|----------------------------------------------------|
B|---3-------------------------3----------------------|
G|----------------------------------------------------|
D|------4--2--4--0--4--2--4-------4--2--4--0--4--2--4-|
A|---3-------------------------3----------------------|
E|----------------------------------------------------|

7
E|----------------------------------------------------|
B|---3-------------------------3----------------------|
G|------0-----0-----0-----0-------0-----0-----0-----0-|
D|---------4-----0-----4-------------4-----0-----4----|
A|---1-------------------------1----------------------|
E|----------------------------------------------------|

8
E|----------------------------------------------------|
B|---1-------------------------1----------------------|
G|----------------------------------------------------|
D|------2--0--2-----2--0--2-------2--0--2-----2--0--2-|
A|---1-----------3-------------1-----------3----------|
E|----------------------------------------------------|

9
E|----------------------------------------------------|
B|--1--------------------------1----------------------|
G|----------------------------------------------------|
D|-----3--2--3-----3--2--3--------3--2--3-----3--2--3-|
A|--------------3--------------------------3----------|
E|--4--------------------------4----------------------|

10
E|----------------------------------------------------|
B|----------------------------------------------------|
G|---3-------------------------3----------------------|
D|------3--1--3--0--3--1--3-------3--1--3--0--3--1--3-|
A|----------------------------------------------------|
E|---4-------------------------4----------------------|

11
E|----------------------------------------------------|
B|----------------------------------------------------|
G|---3--0-----0-----0-----0----3--0-----0-----0-----0-|
D|---------3-----1-----3-------------3-----1-----3----|
A|----------------------------------------------------|
E|---3-------------------------3----------------------|

12
E|----------------------------------------------------|
B|----------------------------------------------------|
G|---1--0-----0-----0-----0----1--0-----0-----0-----0-|
D|---------3-----1-----3-------------3-----1-----3----|
A|---3-------------------------3----------------------|
E|----------------------------------------------------|

13
E|----------------------------------------------------|
B|----------------------------------------------------|
G|---1--1----------------------1--1-------------------|
D|---0--0-----0-----0-----0----0--0-----0-----0-----0-|
A|---------3-----1-----3-------------3-----1-----3----|
E|----------------------------------------------------|

14
E|-----------------------------------------------------|
B|-----------------------------------------------------|
G|---0-------------------------0-----------------------|
D|---1-----------1-------------1------------1----------|
A|------1-----1-----1-----1-------1------1-----1-----1-|
E|---------4-----------4--------------4-----------4----|

15(Барре на 3-ем ладу)
E|----------------------------------------------------|
B|----------------------------------------------------|
G|----------------------------------------------------|
D|---3-------------------------3----------------------|
A|------3-----3-----3-----3-------3-----3-----3-----3-|
E|---3-----6-----5-----6-------3-----6-----5-----6----|

16
E|---------------------------------------------------|
B|---------------------------------------------------|
G|---------------------------------------------------|
D|---3--0-----0-----0-----0----3--0-----0-----0----0-|
A|---5-----3-----2-----3-------5-----3-----2-----3---|
E|---------------------------------------------------|

17
E|---------------------------------------------------|
B|---------------------------------------------------|
G|---------------------------------------------------|
D|---3--0-----0-----0-----0---3--0-----0-----0-----0-|
A|---3-----3-----2-----3------3-----3-----2-----3----|
E|---------------------------------------------------|

18
E|---------------------------------------------------|
B|---------------------------------------------------|
G|---------------------------------------------------|
D|---1-----------1------------1-----------1----------|
A|---3--3--2--3-----3--2--3---1--3--2--3-----3--2--3-|
E|---------------------------------------------------|

19
E|---------------------------------------------------|
B|---------------------------------------------------|
G|---------------------------------------------------|
D|---3-----------3------------3-----------3----------|
A|------6--5--6-----6--5--6------6--5--6-----6--5--6-|
E|---4------------------------4----------------------|

20
E|---------------------------------------------------|
B|---------------------------------------------------|
G|---------------------------------------------------|
D|---4-----------1------------4-----------1----------|
A|---0--3--2--3-----3--2--3---0--3--2--3-----3--2--3-|
E|---------------------------------------------------|

21
E|--------------------------------------------------|
B|--------------------------------------------------|
G|--------------------------------------------------|
D|---1-----------------------1----------------------|
A|------3--2--3----3--2--3------3--2--3-----3--2--3-|
E|---3-----------3-----------3-----------3----------|

22
E|---------------------------------------------------|
B|---------------------------------------------------|
G|---------------------------------------------------|
D|---4------------0-----------4-----------0----------|
A|-------3--2--3-----3--2--3-----3--2--3-----3--2--3-|
E|---3------------------------3----------------------|

23
E|---------------------------------------------------|
B|---------------------------------------------------|
G|---0------------------------0----------------------|
D|---------------0------------------------0----------|
A|------3--2--3-----3--2--3------3--2--3-----3--2--3-|
E|---3------------------------3----------------------|

24				Немного замедляем
E|----------------------------------------------------|
B|----------------------------------------------------|
G|---1-------------------------1----------------------|
D|---------------0-------------------------0----------|
A|------3--2--3-----3--2--3-------3--2--3-----3--2--3-|
E|---3-------------------------3----------------------|

25  здесь играется быстро.
Старайтесь, чтоб ноты звучали как можно дольше
E|---------------------------------------------------|
B|----------------------------0-----3-----0----------|
G|----------------1----------------------------------|
D|---------0--3------3--2--3-----3-----3-----3--2--3-|
A|------2--------------------------------------------|
E|---3-----------------------------------------------|

26
E|---------------------------------3-----------------|
B|---------------1-----------4--------4--------------|
G|------------0-----0-----0-----5--------5-----------|
D|---------1-----------4---------------------6--5--6-|
A|------3--------------------------------------------|
E|---3-----------------------------------------------|

27
E|----------------------------------5----------------|
B|----------------4-----------7--------7--4----------|
G|-------------5-----5--4--5-----6-----------5--4--5-|
D|----------4----------------------------------------|
A|------0--------------------------------------------|
E|---3-----------------------------------------------|

28 Взяли басс G и пока он звучит играете остальное.
Часть играется медленно, для усиления трагического
эффекта потехоньку замедлять.
E|-----------------------------------------------------|
B|------3-----3--4-----------------------3-------------|
G|---------5--------5--4--5--2--5--4--5-----4--2--4----|
D|---------------------------------------------------5-|
A|-----------------------------------------------------|
E|---3-------------------------------------------------|

29
E|--------------------------------------------------|
B|--------------------------------------------------|
G|---4--2--4--5--2-----2-----2-----2--4-------------|
D|------------------5-----4-----5--------5--4--5--0-|
A|--------------------------------------------------|
E|--------------------------------------------------|

30
E|---3-----3--4-----------------------3-------------|
B|------6--------6--4--6--3--6--4--6-----4--3--4----|
G|------------------------------------------------5-|
D|--------------------------------------------------|
A|--------------------------------------------------|
E|--------------------------------------------------|

31
E|---------------------------------------------------|
B|---4--3--4---6--3-----3-----3-----3--4-------------|
G|-------------------5-----4-----5--------5--4--5--0-|
D|---------------------------------------------------|
A|---------------------------------------------------|
E|---------------------------------------------------|

32
E|--------------------------------------1-----1----|
B|---1--0--1-----3--1--3-----4--3--4-------4-------|
G|------------1-----------0------------------------|
D|------------------------------------3----------1-|
A|-------------------------------------------------|
E|-------------------------------------------------|

33							  пусть звучит
E|--------------------------------------------------|
B|---1--0--1----------------------------------------|
G|------------1-----------0-----------------------0-|
D|---------------3--1--3-----1--0--1--3--0-----0--2-|
A|------------------------------------------3-----3-|
E|--------------------------------------------------|

34
E|-------------------------------------------------------------|
B|------------------------1------------------------------------|
G|---------------0--1--3-----3--1--0-----------------------2-2-|
D|------0--2--3-----------------------2-3-2-3-2-3-2-3-2-3--3-3-|
A|---3-----------------------------------------------------3-3-|
E|-------------------------------------------------------------|

35
E|-----------------------------------------------------------|
B|-----------------------------------------------------------|
G|---0-----------0--1--0-------------------------------------|
D|------3--2--3-----------3--1--0--1--3--0--1--3-----1-----0-|
A|------------------------------------------------2-----2----|
E|-----------------------------------------------------------|

36
E|-------------------------------------------------|
B|---0-----3-----0--------------2--------1---------|
G|------------------1--0-----------3--0-----1----1-|
D|------3-----3------------3--2----------------3---|
A|---3-----3-----3---------------------------------|
E|-------------------------------------------------|

37
E|--------------------------------------------------|
B|--------------------------------------------------|
G|---0--3--0-----1--------------0-------------------|
D|------------2-----3--0--3--2-----2-----3--0-----0-|
A|------------------------------------3--------2----|
E|--------------------------------------------------|

38
E|-------------------------------1-----1--4---8--7--8----------|
B|-------------------------1--1-----3------------------8--6----|
G|----------------0--3--0--1---------------------------------7-|
D|----------0--2-----------------------------------------------|
A|-3-----3-----3-----------------------------------------------|
E|----3--------------------------------------------------------|

E|--0-|
B|--1-|
G|--0-|
D|--2-|
A|--3-|
E|----|

Вверх

Тетрадь Анны Магдалены Бах - Марш в D

E|--------|-----------------------|-----------------------|
B|--------|--3--------------0--2--|--3--------------0--2--|
G|*--2----|-------2---------------|-------2---------------|
D|*-------|--0----5----4----2-----|--0----5----4----2-----|
A|--------|-----------------------|-----------------------|
E|--------|-----------------------|-----------------------|

E|----0--2--3--5--3--2--0-|-2-------------2--0-|-2-------------|
B|-3----------------------|------3-------------|----3------0---|
G|------------------------|--------------------|-------------2-|
D|-4-----0----------------|------0-----0--0----|----0---0--0---|
A|-------------4-----0----|---------4----------|------4--------|
E|------------------------|--------------------|---------------|

E|-----0-----------|-------------------|-----------------------|
B|-0---------3-2-0-|-------3--0--------|------------2-----2--5-|
G|---1-------------|-2---------------2-|-2-------2-----2-------|
D|-----0---0---0---|----4-----0---2----|------2----------------|
A|-------4---------|-4-----------------|-0----0-----0-----0----|
E|-----------------|-------------------|-----------------------|

E|--5---------------||
B|------------------||
G|------------2----*||
D|-------2---------*||
A|--0---------------||
E|------------------||

E|--------|--5--------------------|--5----0---------2--4--|
B|---5----|-------5---------7--9--|-----------------------|
G|*-------|-------7----6----------|-----------------------|
D|*-------|--7--------------9-----|--7----0---------------|
A|--------|-----------------------|------------4----2-----|
E|--------|-----------------------|-----------------------|

E|-5--3--2--0--2--3--0-|-2---------------|------0--2--3--------|
B|---------------------|-----3-------0-1-|-0-3-----------0-2-3-|
G|---------------------|-----------2-----|-0-------------------|
D|---------------------|-0---0-2-4---0---|---------------------|
A|-0--2-----4-----0----|-----------------|---------------------|
E|---------------------|-----------------|-3----------0----3---|

E|--------2--3--5-----------|-----3--7--5-3--2--0-----|
B|--2--5-----------2/-3--5--|--3--------------------3--|
G|--2-----------------3-----|--4-----0-----------0-----|
D|--------------------------|--------------2-----------|
A|--0-----------------------|--------------------------|
E|--------------2-----------|--------------------------|

E|--------------------------|--------------------0-----|
B|--2-----------------3-----|--0--------------0-----0--|
G|--2-----2--------------2--|-----2--0-----0-----------|
D|-----------5--4--2--4-----|-----------4--------------|
A|-----0-----------------5--|--------------------------|
E|--------------------------|--3-----------------3-----|

E|-------------2--3-|-5-----2--0------|------------2-----2--5-|
B|-2-----2-3-5------|----3-------3--2-|-3-------3-----3--------|
G|---2-4------------|-----------------|------2-----------------|
D|------------------|-----------------|-0----0-----0-----0-----|
A|-0----------------|----2-------0----|------------------------|
E|-------------3----|-2-----3---------|------------------------|

E|--10---------------||
B|-------------3-----||
G|--------2---------*||
D|--0---------------*||
A|-------------------||
E|-------------------||

E|--10---------------||
B|-------------------||
G|------------(7)---*||
D|--0---(7)---------*||
A|-------------------||
E|-------------------||

Вверх

Тетрадь Анны Магдалены Бах - Марш в G

E||------------------2--3-----|--------------------------|
B||---3--------------------5--|--3--------------3--5--1--|
G||*-----------------2--4--5--|--4--------------4--5--2--|
D||*-----5--5--5--5-----------|-----5--5--5--5-----------|
A||---------------------------|--------------------------|
E||------3--3--3--3-----------|-----3--3--3--3-----------|

E|--------------3-----3---5h7-|--5-3--2--0------------|
B|--0-----0--3-----3----------|--------------3---------|
G|-----0--------------0-------|-------------------5----|
D|----------------------------|--0-----2-----4---------|
A|--------------2-------------|-------------------5----|
E|--3-----3-------------------|------------------------|

E|-----------3--3--------3-|--3--------3--3--------3--|
B|--0----------------------|-----1--1-----------------|
G|-----0--0--------0--0----|-----------------2--2-----|
D|-------------------------|--------------------------|
A|-------------------------|--------0-----------4-----|
E|--3-----3-----------2----|--0-----------------------|

E|--2----0---------------|--------------------------|
B|----------3--2-------3-|--3-----------------------|
G|-------------2---------|-----2--2--------2--2-----|
D|--0----4---------------|--0--------4--4--------4--|
A|------------------0----|--------------------------|
E|-----------------------|--------------------------|

E|--------------------||---------------------------|
B|--------------------||---------------------------|
G|-------------------*||*--7-----------7-----------|
D|--0----------------*||*-----7--7--7-----4--4--4--|
A|--------------------||---5-----5-----5-----5-----|
E|--------------------||---------------------------|

E|--------------------------|--------------------------|
B|--------------------------|-----------0--1--0--1/-3--|
G|--7--------------------0--|--2--0--2-----------------|
D|-----0--0--0--0--2--4-----|--------0-----------2/-4--|
A|--5-----------------------|--------------------------|
E|--------------------0-----|--2-----------------------|

E|--------------------0--2--|--3-----------3-----------|
B|--1--0-----0-----3--------|-----3--3--3-----0--0--0--|
G|--0-----2-----0-----------|--------------------------|
D|--------0-----------0-----|--------------------------|
A|--------------------------|--------------------------|
E|--------------3-----------|--3-----3-----3-----3-----|

E|--3-----------------------|-----------0--1--0--1--3--|
B|--------------------0--1--|--3--1--3-----------------|
G|-----0--0--0--0--2--------|--------------------------|
D|--------------------------|--------------------------|
A|--------------------0-----|--2-----------------0--2--|
E|--3--3--3--3--3-----------|--------3-----------------|

E|--1--0-----0--------------|--0--------------2--2--3--|
B|--------3-----1--0--1--3--|-----1--1-----------------|
G|--------0-----------0-----|-----------2--2-----------|
D|--------------------------|--------------------------|
A|--3-----------3-----------|--3-----------------3-----|
E|--------------------------|--------------------------|

E|---------------2-2-3-|--------------|------------------------|
B|-3--0--0-------------|-1--0---------|------------------------|
G|----------0--0-------|------2-2-0-0-|-0----------------------|
D|---------------------|--------0-----|----0--0--------0--0----|
A|-2---------------2---|-0------------|----------2--2--------2-|
E|---------------------|----3---------|-3----------------------|

E|--------------------||
B|--------------------||
G|--0----------------*||
D|--0----------------*||
A|--2-----------------||
E|--3-----------------||

Вверх

Тетрадь Анны Магдалены Бах - Минуэт в Dm

Обозначения:
'='  1/16
-.-.-.-.-  указывает на то, что нота должна звучать пока
           не кончится линия

Размер: 3/4
(Часть I)
    |     |     |       |     |     |       |     |     |
e|--------1--0--------|-------------------|--------------------|
B|--------------3--2--|-3-----------------|--------------------|
G|--2-----------------|-------2-----3-.-.-|-------0--3--2--0---|
D|--0-.-.-.-.-.-2-.-.-|-3-.-.-.-.-.-5-.-.-|----2---------------|
A|--------------------|-------------------|-4-----------0-.-.-.|
E|--------------------|-------------------|--------------------|

    |     |     |       |     |     |       |     |     |
e|--------------------|-------------------|-1-----0------------|
B|--------------------|-------------3--1--|----------3--1------|
G|--------------------|-------3--2--------|----------------3---|
D|--3-----2--3--0-----|-3-----------------|-------------2-.-.-.|
A|--5-.-.-0-.-.-------|-5-.-.-3-.-.-1-.-.-|-0-.-.-.-.-.--------|
E|--------------------|-------------------|--------------------|

     |     |     |       |     |     |
e|---------------------|------------------||
B|------=1-------------|------------------||
G|---2-3=--------------|------------------||
D|---3-.-.-3-----2-----|-3-.-.-.-.-.-.-.-.||
A|---------0-----3-----|-------3----------||
E|---------------------|-------------1----||

(Часть II)
    |     |     |       |     |     |       |     |     |
e|--5--------5--3--1--|-0=1-3-------------|-1--------1--0------|
B|--------------------|-1-.-.-1-.-.-.-.-.-|----------------3---|
G|--------------3-.-.-|----------0--------|-------------3-.-.-.|
D|--3-.-.-3-----------|-------------2-----|-0-.-.-0------------|
A|--------------------|----------------3--|-------3-.-.--------|
E|--------------------|-------------------|--------------------|

    |     |     |       |     |     |       |     |     |
e|-----0--------------|-------------0--1--|-3--0-----6--5--3---|
B|--2=3---------------|----0--2--3--------|-------2-----2-.-.--|
G|--------2-.-.-.-.-.-|-2-----------------|-------2-.-.--------|
D|-----------0--2--3--|-5-.-.-2-.-.-------|--------------------|
A|--0--2--4-----------|-------------4-.-.-|-0-.-.--------------|
E|--------------------|-------------------|--------------------|

     |     |     |       |     |     |
e|---1=0---0-----------|------------------||
B|---3--3--------2-----|-3-.-.-.-.-.-.-.-.||
G|---------0-----2-----|------------------||
D|---------------------|-0-----------0----||
A|---------------------|-------0----------||
E|---------------------|------------------||

Вверх

Тетрадь Анны Магдалены Бах - Минуэт в G

|   |   |     |   |   |     |   |   |     |   |   |
e|-0-----------|-0-----------|-2-----0-2-4-|-5-----------|
B|-2-----0-2-3-|-------------|-----3-------|-------------|
G|-2---2-------|-----2---2---|-------------|-----2---2---|
D|-------------|-------------|-0-----------|-------------|
A|-0-------2---|-4-----------|-------------|-4-----------|
E|-------------|-------------|-------------|-------------|

   |   |   |     |   |   |     |   |   |     |   |   |
e|-----0-------|-------------|-------------|-------------|
B|-3-----3-2-0-|-2---3-2-0---|-------0-2---|-2---0-------|
G|-------------|-----------2-|-1---2-----2-|-------------|
D|-------------|-------------|-2-----------|-2-----0-----|
A|-2-----------|-0-----------|-----4---0---|---------4-2-|
E|-------------|-------------|-------------|-----0-------|

   |   |   |     |   |   |     |   |   |     |   |   |
e|-0-----------|-0-----------|-2-----0-2-4-|-5-----------|
B|-------0-2-3-|-------------|-----3-------|-------------|
G|-----2-------|-----2---2---|-------------|-----2---2---|
D|-------------|-------------|-0-----------|-----0-------|
A|-0-------2---|-0---4---0---|-------------|-4-----4-2-0-|
E|-------------|-------------|-------------|-------------|

   |   |   |     |   |   |     |   |   |     |   |   |
e|-----0-------|-------------|-------------|-------------|
B|-3-----3-2-0-|-2---3-2-0---|-0---2-0-----|-------------|
G|-------------|-----------2-|---------2-1-|-2-----------|
D|-------------|-------------|-0---2-------|-------------|
A|-2-----------|-0-------4---|-------------|-0-------0---|
E|---------4---|-------------|---------0---|-------------|

   |   |   |     |   |   |     |   |   |     |   |   |
e|-9-------9---|-7-------4---|-5---2-4-5-0-|-------------|
B|-----1012--10|-----5-7---5-|-------------|-4---2-4-0---|
G|-------------|-------------|-------------|-------------|
D|-------------|-------------|-------------|-------------|
A|-0-----------|-------------|-----0-------|-2-------2---|
E|-------------|-4-----------|-2-------2---|-------------|

   |   |   |     |   |   |     |   |   |     |   |   |
e|-------0-2-4-|-5---4---2---|-4-----------|-0-----------|
B|-0-2-4-------|-------------|-----0---4---|-------------|
G|-------------|-------------|-------------|-------------|
D|-------------|-----2---1---|-2-----------|-2-------0---|
A|-2-----------|-4-----------|---------2---|-------------|
E|-------------|-------------|-----4-------|-----0-------|

   |   |   |     |   |   |     |   |   |     |   |   |
e|-0-----------|-2-----------|-0-----------|-------------|
B|-------------|-------------|-----3---2---|-0-------0---|
G|-----2-1-2---|-----2-1-2---|-------------|---2-1-2-----|
D|-----2-------|-0---4---0---|-------------|-2-----------|
A|-4-------4---|-------------|-4---2---0---|-------------|
E|-------------|-------------|-------------|-------------|

   |   |   |     |   |   |     |   |   |     |   |   |
e|-------------|-------------|---0---------|------------||
B|---------0-2-|-3---2---0---|-2-----------|------------||
G|-----1-2-----|-------------|-----2---1---|-2----------||
D|-2-4---------|-------------|-------------|-2----------||
A|-------------|-----0-------|-0---4-------|-4-------0--||
E|-0-------4---|-2-------4---|---------0---|-5---0------||

Вверх

Тетрадь Анны Магдалены Бах - Минуэт в G (2 вариант)

Размер: 3/4 time
  Темп: andantino

(Часть 1)

E|------------------|------------------|-0-----------0--2-|
B|-3-----------0--1-|-3----------------|-------1--3-------|
G|-------0--2-------|-------0-----0----|------------------|
D|------------------|------------------|------------------|
A|-------------0----|-2----------------|-3----------------|
E|-3----------------|------------------|------------------|

E|-3-------------|------------------|------------------|
B|---------------|-1-----3--1--0----|-0-----1--0-------|
G|-------0-----0-|----------------2-|-------------2--0-|
D|---------------|------------------|------------------|
A|-2-------------|-0----------------|------------------|
E|---------------|------------------|-3----------------|

E|------------------|------------------|------------------|
B|-------------0----|------------------|-3-----------0--1-|
G|-------0--2-----0-|-4p2--------------|-------0--2-------|
D|-4----------------|-0-----0----------|------------------|
A|-5-----2----------|----------3--2--0-|-2-----------0----|
E|-------------3----|------------------|------------------|

E|------------------|-0-----------0--2-|-3----------------|
B|-3----------------|-------1--3-------|------------------|
G|-------0-----0----|------------------|-------0-----0----|
D|------------------|------------------|------------------|
A|-------2----------|-3----------------|-2-----3--2--0----|
E|-3-----------3----|------------------|----------------3-|

E|------------------|------------------|---------------|-------|
B|-1-----3--1--0----|-0-----1--0-------|----0----------|-0-----|
G|----------------2-|-------------2--0-|-2-----2--0----|-------|
D|------------------|------------------|----0--------4-|-------|
A|-0----------------|-------------2----|-3--------5----|-------|
E|-------------2----|-3----------------|---------------|-3---3-|

(Часть 2)

E|-7-----3--5--7--3-|-5-----------2----|-3-----0--2--3----|
B|------------------|-------3--5-----3-|----------------3-|
G|-0----------------|------------------|-------0----------|
D|------------------|-4----------------|-2-----------2----|
A|------------------|------------------|------------------|
E|------------------|------------------|------------------|

E|---------------|-------------0--2-|-3-----2-----0----|
B|-2-----0h2-----|----0--2--3-------|------------------|
G|-2-----------2-|-2----------------|------------------|
D|---------------|------------------|-------0----------|
A|---------------|-0----------------|-2-----------4----|
E|---------------|------------------|------------------|

E|-2----------------|---------------|------------------|
B|-------------2----|-3-------------|-3----------------|
G|-------2----------|---------------|-------0-----0----|
D|-0----------------|-0-----0-------|-------0--4-------|
A|-------------0----|-------------3-|-2-----------2----|
E|-------2----------|---------------|------------------|

E|-0----------------|------------------|---------------|
B|------------------|-3-----1-----0----|---------------|
G|-------0-----0----|------------------|-2--0-----0--2-|
D|-------2--4-------|------------------|-------4-------|
A|-3-----------3----|-2-----0----------|-5-------------|
E|------------------|-------------3----|---------------|

E|------------------|---------------|---------------|----------|
B|----------------0-|-1-----0-------|-0--3----------|----------|
G|----------0h2-----|-------0-----2-|-0-----0-------|-0--------|
D|-0h2---4----------|-2-----------4-|-------------4-|-----0----|
A|-5----------------|---------------|-------2-----5-|----------|
E|------------------|---------------|---------------|-3------3-|

Вверх

Тетрадь Анны Магдалены Бах - Минуэт в Gm

Обозначения:
tr = Трель

 1
E|--8-7-5-|-7-------|-5----------|-------------|-1--3-1-0---|
B|*-------|----5--5-|----------3-|-5---5-3-----|-1------0-3-|
G|--------|---------|----2-4-5---|---------5-4-|-2----------|
D|--7-----|-5-------|-3----------|-2-----------|------------|
A|*-------|---------|------------|-------------|------------|
E|--------|---------|------------|-------------|------------|

 6                       tr            tr
E|-0-1-0-----|--0-------|----------|-8-7-5-|-7-----|-5---------|
B|-1-----3-1-|3---3-1-3-|0---------|-------|---5-5-|---------3-|
G|-------2---|4-1---2---|1---------|-------|-------|---2-4-5---|
D|-----------|----------|--2-0-----|-----7-|-5-----|-3---------|
A|-----------|----------|------3-2-|-0-----|-------|-----------|
E|-----------|----------|0---------|-------|-------|-----------|

 12                                             tr
E|------------|-3--5-3-1-0-|-1--3-1-0---|-0--5----|--------||
B|-5-5--3-2---|-2----------|-3--0-----3-|-1-----3-|-1-----*||
G|----------4-|--------2---|--------0---|-------4-|-0------||
D|-2----------|------------|------------|----3--5-|-2------||
A|------------|------------|------------|---------|-3-----*||
E|------------|------------|------------|---------|--------||

 17
E|--0------0-2--|-3--5--7-|-8--5-7-8-5-|
B|*-1--1-3-1----|-0-------|------------|
G|--0-----------|-0-------|------------|
D|--------------|----3--0-|-7--4---0---|
A|*-3-----------|---------|------------|
E|--------------|---------|------------|

20 tr                          tr
E|-7--5-7-3-|-----------0-|-1--0----|
B|----------|-----0-1-3---|-------3-|
G|-0--------|-0-2---------|---------|
D|----------|-------------|---------|
A|----------|-2---0-------|-0-------|
E|----------|---------3---|----3--1-|

 23
E|-3-----|-------|---------|---1-0-1-|---0---------|-----------|
B|---1-0-|-1-----|---5-3-5-|---------|-------3---1-|-0---------|
G|-------|-0-----|-2-------|-2-------|-2---1---2---|-----------|
D|-------|-2-2-0-|-2-------|-0-------|-------------|-2---------|
A|-------|-3-----|-4-------|---------|-3---2---0---|---2-0-----|
E|-0-1-3-|-------|---------|---------|-------------|-------4-2-|

 29                          tr
E|---------------|---------|-----0-----|-------||
B|-----------0-1-|-3--1--0-|-1-3-------|------*||
G|------1-2------|---------|-------2-1-|-2-----||
D|-2--4----------|-3--2--0-|-------0-2-|-2-----||
A|---------------|---------|-3---------|-0----*||
E|-0-------------|---------|-----------|-------||

Вверх

Тетрадь Анны Магдалены Бах - Мюзет в D

Строй:DADGBE
Размер: 2/4

E|-----------------|----------------|-------------|------------|
B|--10-----8p7-----|-10-----8p7-----|-------------|------------|
G|*------------9p7-|------------9p7-|-------------|------------|
D|*-----0------0---|-----0------0---|-4/5/7--5--4-|-2--/7--4-0-|
A|-----------------|----------------|-------------|------------|
D|---0-----0-------|--0-----0-------|-4/5/7--5--4-|-2--/7--4-0-|

E|-----------------|----------------|-------------|------------|
B|-10------8p7-----|-10-----8p7-----|-------------|------------|
G|-------------9p7-|------------9p7-|-------------|----------*-|
D|------0------0---|-----0------0---|-4/5/7--5--4-|-2--/7--0-*-|
A|-----------------|----------------|-------------|------------|
D|--0------0-------|--0-----0-------|-4/5/7--5--4-|-2--/7--0---|

E|----------------|-5-------------|-5-----5----|---------------|
B|--2h3-5---2h3-5-|-----5---5-----|----5-----5-|-3p2-----------|
G|*-----2-------2-|-----2-------2-|----2-----2-|-----4p2-4-----|
D|*---------------|---------------|------------|-----2-------2-|
A|--0-------0-----|-0-------0-----|-0-----0----|-0-------------|
D|----------------|---------------|------------|---------2-----|

E|---------------|---------5---4-|---------------|-------5---4-|
B|-5---4-------3-|-----2---------|-5---4-------3-|----2--------|
G|---------------|---------------|---------------|-------------|
D|-----2---2---2-|-----2-------2-|-----2---2---2-|----2------2-|
A|---------------|---------------|---------------|-------------|
D|-2-------2-----|-2-------2-----|-2-------2-----|-2-----2-----|

E|-----------------|-0-------------|-----0---------|-----------|
B|-5p4-2h4-5p4-2h4-|-------------3-|-2h3-----------|-----------|
G|-----------------|-----1---2-----|---------2-----|-----------|
D|-----2-------2---|-----2-------0-|-2-----------0-|-----------|
A|-----------------|---------4-----|---------0-----|-4h5/7---0-|
D|-2-------2-------|-2-------------|---------------|---------7-|

E|----------------|----------------|-------------|-------------|
B|-10-----8p7-----|-10-----8p7-----|-------------|-------------|
G|------------9p7-|------------9p7-|-------------|-------------|
D|-----0------0---|-----0------0---|-4/5/7--5--4-|-2-/7--4---0-|
A|----------------|----------------|-------------|-------------|
D|--0-----0-------|--0-----0-------|-4/5/7--5--4-|-2-/7--4---0-|

E|----------------|----------------|-----------|---------------|
B|-10-----8p7-----|-10-----8p7-----|-----------|---------------|
G|------------9p7-|------------9p7-|-----------|-------------*-|
D|-----0------0---|-----0------0---|-0---------|-----h7--h12-*-|
A|----------------|----------------|-----------|-h7------------|
D|--0-----0-------|--0-----0-------|-4/5/7-5-4-|-h7------h12---|

Вверх

Токата Dm

Обозначения:
   . Четверть
   : Восьмушка
   , Шеснадцатая

Adagio molto
*Ноты без значков над ними играются как 1/16-ые
          :            :           :        :
E|--5-3-5-5--3-1-0--------|-------------------|
B|-----------------3-2-3--|-------------------|
G|--2-0-2-2--0------------|--2-0-2-2----------|
D|-------------3-2-0---0--|-----------2-3---0-|
A|-------------------4----|---------------4---|
E|------------------------|-------------------|

          :            :     . : : : : : :     . : : .
E|------------------------|--------------0--|--0-------|
B|------------------------|------------2-2--|--2-3-----|
G|--2-0-2-2--0------------|--------0-3-3-3--|--3-2-----|
D|-------------3-2-0---0--|--0---2---5-5-5--|--5-5-2-4-|
A|--0---0-0----------4----|----4------------|--5-------|
E|----3------3-1-0--------|-----------------|----------|

Allegro
*Все ноты здесь триольные за исключением . и : и,.

    :                          : :                         : :
E|-----|---------------------------|---------------------------|
B|-----|---------------------------|---------------------------|
G|-----|---------------------------|----0------0------0------0-|
D|-----|--0-2----0-2----0-2----0-2-|--3---2--3---2--3---2--3---|
A|--4--|------4------4------4------|---------------------------|
E|-----|---------------------------|---------------------------|

                         .	 :                          : :
E|--------------------------|-----|----0------0------0------0-|
B|--------------------------|--2--|--3---2--3---2--3---2--3---|
G|--2-3-0--2-3-0--2-3-0--2--|-----|---------------------------|
D|--------------------------|-----|--0------0------0------0---|
A|--------------------------|--4--|---------------------------|
E|--------------------------|-----|---------------------------|

                         : :                          .     :
E|--1-3-0--1-3-0--1-3-0--1-3--|--5-6-3--5-6-3--5-6-3--5--|--5-|
B|----------------------------|--------------------------|----|
G|----------------------------|--2------2------2------2--|----|
D|--3------3------3------3----|--------------------------|--2-|
A|----------------------------|--------------------------|----|
E|----------------------------|--------------------------|----|

E|--3-6-0--3-6-0--1-5----1-5----|--0-3----0-3------1------1---|
B|--------------------3------3--|------1------1--3---0--3---0-|
G|--0------0--------------------|-----------------------------|
D|----------------3------3------|--2------2------0------0-----|
A|------------------------------|-----------------------------|
E|------------------------------|-----------------------------|

E|----0------0------------------|-----------------------------|
B|--1------1--------3------3----|----1------1-----------------|
G|------2------2--3---0--3---0--|--2------2------0-3----0-3---|
D|------------------------------|------3------3------2------2-|
A|--3------3------2------2------|-----------------------------|
E|------------------------------|-----------------------------|

                                   . : : :  : : : :
E|------------------------------|-------------------|
B|------------------------------|-------------------|
G|----2------2------0------0----|--------0--------0-|
D|--3---0--3---0--2------2------|--0---2------------|
A|--------------------4------4--|----4----------7-7-|
E|------------------------------|-----------6-9-9-9-|

    .  , , , ,  , , , ,            : :  , , , , ,  : ,     .
E|--------------0--------|------------------------------|----|
B|----------------3-2-0--|--2---2-----------------------|----|
G|--0--3-2-0-------------|----2------0--0---0---0-------|----|
D|--8--------3-----------|---------2------3---3---------|--0-|
A|--7--------------------|-------------------------8-7--|--8-|
E|--9--------------------|------------------------------|--8-|

Meno mosso e staccato:
*все ноты здесь 1/8 за исключение последних где играются
1/8 с точкой

E|--------0---1-------0---1---3---0----|
B|----3-----------3--------------------|
G|--2---2---2---2---2---2---2---2---2--|
D|-------------------------------------|
A|-------------------------------------|
E|-------------------------------------|

E|--1---3---5---1---3---5---6---3---|
B|----------------------------------|
G|----2---2---2---2---2---2---2---2-|
D|----------------------------------|
A|----------------------------------|
E|----------------------------------|

E|--5---1---3---0---1-------0--------|
B|----------------------3-------2----|
G|----2---2---2---2---2---2---2---2--|
D|-----------------------------------|
A|-----------------------------------|
E|-----------------------------------|

E|----------------------------------|
B|--3-------------------------------|
G|----2-2-2-3-2-0-2-2-2---2-0-2---2-|
D|----------------------3-------2---|
A|----------------------------------|
E|----------------------------------|

E|-----------------------------------|
B|-----------------------------------|
G|----2---2-0-2---2---2---2---2---2--|
D|--3---0-------2---3---0---2--------|
A|------------------------------4----|
E|-----------------------------------|

E|----------------------------------|
B|--3-------------------------------|
G|----2-2-2-3-2-0-2-2-2---2-0-2---2-|
D|----------------------3-------2---|
A|----------------------------------|
E|----------------------------------|

E|-----------------------------------|
B|-----------------------------------|
G|----2---2-0-2---2---2---2---2---2--|
D|--3---0-------2---3---0---2--------|
A|------------------------------4----|
E|-----------------------------------|

    .  : , , ,  : , , ,  : , , ,
E|-------------------------------|
B|-----3--------1----------------|
G|---------3--------2----3---0---|
D|--0----3---3----2---2----0---0-|
A|-------------------------------|
E|-------------------------------|

    : , , ,  : :  : :  : :     .  .  : , , ,  : , , ,  : , , ,
E|--------------------------|----------------------------------|
B|--------------------------|--------3--------1----------------|
G|--2-----2----3----2----0--|--2---------3--------2----3---0---|
D|------3----0-3----2----0--|--2--0----3---3----2---2----0---0-|
A|----4-----------3----1----|--4-------------------------------|
E|--------------------------|--5-------------------------------|

    : , , ,  : :  : :  : :     .  , , , , , , , ,
E|--------------------------|---------------------|
B|--------------------------|---------------------|
G|--2-----2----3----2----0--|--2--2-0-------------|
D|------3----0-3----2----0--|--2------3-2-0-------|
A|----4-----------3----1----|--4------------4-2-4-|
E|--------------------------|--5------------------|

*Все ноты 1/16 за исключением обозначеных.

                                                       .  : :
E|---------------------------------|-----------0-1-3-5-6----6-|
B|-------------------------------2-|-3---0-2-3------------3---|
G|-------------0-2-0-----------2---|---2--------------------5-|
D|-------0-2-3-------3-2-3-0-3-----|----------------------0---|
A|-0-2-4---------------------------|--------------------------|
E|---------------------------------|--------------------------|

    : :  : :  .  :           :        :        :        : :
E|----5----3--5------6----|------5--------3--------0-5----6-|
B|----5----3--5----6---6--|----5---5----3---3----2------3---|
G|--2----3----6--7--------|--5--------3--------2----------5-|
D|------------7-----------|-----------------------------0---|
A|--3----1----0-----------|---------------------------------|
E|------------------------|---------------------------------|

    : :  : :  .  .     .  : : :     :
E|----5----3--5-----|-----------0-3-6-|
B|----5----3--5--3--|--2--0---2-------|
G|----5----3--5--3--|--2----2---------|
D|------------7--3--|--2--------------|
A|--3----1----0-----|-----------------|
E|------------------|-----------------|

                                       .
E|--5-3-1-0-1-0----------------------|--0-|
B|--------------3-2-3-1--------------|--2-|
G|----------------------3-2-0--------|--3-|
D|----------------------------3-2-0--|--5-|
A|-----------------------------------|--5-|
E|-----------------------------------|----|

Allegro:
*Все ноты триольные.

E|--0-0-----------0-0-----------|--0-0-----------0-0----------|
B|--1---2--2-2----2---2--2-2----|--2---2--2-2----2---2--2-2---|
G|---------3---3---------3---3--|---------3---3---------3---3-|
D|------------------------------|-----------------------------|
A|------------------------------|-----------------------------|
E|------------------------------|-----------------------------|

E|------------------------------|-----------------------------|
B|--0-------------0-------------|--0-------------0------------|
G|--0-3-0--0-0----0-3-0--0-0----|--0-3-0--0-0----0-3-0--0-0---|
D|---------2---2---------2---2--|---------2---2---------2---2-|
A|------------------------------|-----------------------------|
E|------------------------------|-----------------------------|

E|------------------------------|-----------------------------|
B|------------------------------|-----------------------------|
G|------------------------------|-----------------------------|
D|--2-2-----------2-2-----------|--2-2-----------2-2----------|
A|--4---4--1-4-1--4---4--1-4-1--|--4---4--1-4-1--4---4--1-4-1-|
E|------------------------------|-----------------------------|

E|------------------------------|-----------------------------|
B|------------------------------|-----------------------------|
G|---------0-0-----------0-0----|---------0-0-----------0-0---|
D|--2-2----2---2--2-2----2---2--|--2-2----2---2--2-2----2---2-|
A|--4---4---------4---4---------|--4---4---------4---4--------|
E|------------------------------|-----------------------------|

E|------------------------------|--0------0---0--0-0----0---0-|
B|------------------------------|--2---2--2-2----2---2--2-2---|
G|--0-3-0--3-0-3--0-3-0--3-0-3--|----3------------------------|
D|--2-------------2-------------|-----------------------------|
A|------------------------------|-----------------------------|
E|------------------------------|-----------------------------|

Molto maestoso:
*Если над нотой не подписана длительность, то она 1/8.

    . .     .          .
E|--5-5--|--3--1-0--|--3-------------|------------------|
B|--5-6--|--3-------|--5-------------|----------------2-|
G|--6-7--|--3-------|--6-------------|----------------0-|
D|--7-7--|--5--3-2--|--3--2-3-0-2----|--0-------------2-|
A|--0-5--|--5-------|-------------4--|----2-4-0-1---0---|
E|-------|----------|-----0-1---0----|------------4-----|

    . . .         .     .
E|-------------|----------|
B|--3----------|----------|
G|--2----------|----------|
D|--3-3-2-2----|--0-----0-|
A|----5-5-4----|--0-----0-|
E|----5-5-5-3--|--3-1-0-1-|

Вверх

Токата и фуга Dm

Обозначения:

0/
/0  Повторить 1раз

0//
//0 Повторить 2 раза

====================Токата===========================
...
E|6-5-----------------|
B|5--865----586~8-5-6-|
G|6-----76-6--------7-|
D|0-------7---------7-|
A|4-----------------5-|
E|--------------------|

E|------------15----1517--1517181517-|
B|151718151718--1718----18-----------|
G|-----------------------------------|
D|-----------------------------------|
A|-----------------------------------|
E|-----------------------------------|

E|--15-------------------------------|
B|18--171815171415-------------------|
G|----------------1415--14-----------|
D|--------------------17--15171415---|
A|--------------------------------17-|
E|-----------------------------------|

E|----------------------------------------------|
B|----------------------------------------------|
G|----------------------------------------------|
D|171415--14------------------------------------|
A|------17--16171213--12----------10------------|
E|------------------15--1315121310--12131012910-|

E|---------------------5-------------------5---|---|
B|----12-----10---8---5--------11---10---8-5---|---|
G|--11--11--9--9-7-7-6---------10----9---7-6---|0/-|
D|12------10----8---7-------12----7----8-------|/0-|
A|---------------------------------------------|---|
E|--------------------------10----8----6---5---|---|

E|-----------------------------------|
B|-----------------------------------|
G|(14)----------------------------14-|
D|----171514----------------141517---|
A|----------17161416--151617---------|
E|------------------17---------------|

E|----------------------------131517(b)18-|
B|----------------15----141517------------|
G|------------1418--1416------------------|
D|17151415--15----------------------------|
A|--------17------------------------------|
E|----------------------------------------|

...

E|------6--5---------------3-|
B|-----8----86565----------5-|
G|---69----------7675------3-|
D|9-7----------------875---5-|
A|----------------------8754-|
E|-------------------------3-|

==============Фуга===============

E|5-5-5-5-5-5-5-5-5-5-5-5-5-5-5-5-5-|
B|-8-6-5---------5-6-------------5--|
G|---------7-6-7-------4-6-7-6-7----|
D|-------------------7--------------|
A|----------------------------------|
E|----------------------------------|

E|--10--10--10--10--10--10--10--10-|
B|----13--11--10--------------10---|
G|10--11--12------12--11--12-------|
D|------------10--------------10---|
A|----------------13--12--13-------|
E|---------------------------------|

E|--10--10--10--10--10--10--10--10-|
B|11--------------------------10---|
G|--------9---11--12--11--12-------|
D|12--12---------------------------|
A|----9---10--12--13--12--13--9----|
E|---------------------------------|

E|----10------10--|11----11----|----8-------8---|
B|11------11------|---8-----8--|10------10------|
G|--12--12--12--12|--8--8--8--8|--10--10--10--10|
D|--------12--12--|10-10-10-10-|10--10--10--10--|
A|10--10----------|------------|----------------|
E|----------------|------------|----------------|

E|10---10---|6---6---|9---9-----|
B|---6----6-|--8---8-|--5---5---|
G|--7-7--7-7|-9-9-9-9|-6-6-6--6-|
D|8--8-8--8-|8-8-8-8-|7-7-7-7---|
A|----------|--------|----------|
E|----------|--------|----------|

E|5---5---|--------|--------|---------|
B|--6---6-|8---8---|6---6---|5---5----|
G|-7-7-7-7|--6---6-|--7---7-|-0-0-0-0-|
D|--------|-8-8-8-8|-7-7-7-7|--8---8--|
A|8-8-8-8-|7-7-7-7-|5-5-5-5-|7-7-7-7--|
E|--------|--------|--------|---------|

...
отсюда соло-гитара:
E|-----------------------------------------------------------|
B|-------------------------------------------------10--------|
G|--10------9-------------------7--------------------1211...-|
D|----131211---11--131210913--9--108710-7--10----------------|
A|10---------12-------------10---------9-----131213----------|
E|---------------10------------8---------10------------------|

E|17--------------|--|15--------------|---|
B|--181718--181718|--|--17151713171517|---|
G|--------17------|0/|----------------|0/-|
D|----------------|/0|----------------|/0-|
A|----------------|--|----------------|---|
E|----------------|--|----------------|---|
...

E|13151312--------|--------131713-------------------|
B|--------151312--|------15------15-----------------|
G|--------------14|161216--------------------14-----|
D|----------------|------------------------15--15---|
A|----------------|----------------14--1417------17-|
E|----------------|------------------15-------------|

E|--------121512-------------------|
B|------13------13-----------------|
G|151215--------------------12-----|
D|------------------------14--14---|
A|----------------13--1315------15-|
E|------------------15-------------|

E|----------13--------------------|
B|------1315--15------------------|
G|14--14--------15----------------|
D|--15--------------------121512--|
A|----------------12--1215------13|
E|------------------13------------|

E|-------9129-------------------|
B|-----11----11-----------------|
G|12912-------------------------|
D|---------------------111411---|
A|-------------10--1013------13-|
E|---------------12-------------|

E|-----6----------|------10-----------|---|----696----------|
B|---58-85--------|---610--106--------|---|---8---8---------|
G|6-6-------------|7-7-------------7--|0//|969----------6---|
D|-7----------585-|-7-------------7-7-|//0|-----------58-85-|
A|--------4-47---7|-----------5058---8|---|--------747------|
E|---------5------|-------------------|---|-----------------|

E|--------101310------------|---|-------9129-------------------|
B|--------------------------|---|-----11----11-----------------|
G|10--1014------14-----7107-|0//|12912-------------------------|
D|--12----------------7----7|//0|---------------------111411---|
A|----------------8--8------|---|-------------10--1013------13-|
E|-----------------10-------|---|---------------12-------------|

E|----------13----|----------------|
B|--------15--15--|----------------|
G|14--1418------14|151915----------|
D|--15------------|------17151915--|
A|----------------|--------------17|
E|----------------|----------------|

E|----------|------------------------|---|
B|----------|------------------------|---|
G|-7--------|--------151412--12------|0/-|
D|8-8---7---|1211--11------15--151412|/0-|
A|---108-8--|----14------------------|---|
E|--------10|------------------------|---|

E|--------------1312------|
B|--------121415----15...-|
G|----1214----------------|
D|1415--------------------|
A|------------------------|
E|------------------------|

E|--151718-------------------------------|
B|18------------15--151618---------------|
G|--------141517--17----------1415141517-|
D|------------------------1517-----------|
A|---------------------------------------|
E|---------------------------------------|

E|---------------------------|
B|15--------------13---------|
G|--1412----121415--12-------|
D|------1513----------151312-|
A|---------------------------|
E|---------------------------|

E|---------------------------------------|
B|---------------------------------------|
G|--121415-------------------------------|
D|15------------12--121315---------------|
A|--------121315--15----------1213121315-|
E|------------------------1315-----------|

E|---------------------------|
B|---------------------------|
G|---------------------------|
D|12------------121312-------|
A|--151312--1315------151312-|
E|--------15-----------------|

E|---------------------------|
B|---------------------------|
G|------11----------121415..-|
D|--1214--1312----15---------|
A|15----------1513-----------|
E|---------------------------|

E|--------------------------------|
B|--------------------------------|
G|--------------------------------|
D|-----------7--7------979--------|
A|1081077--7--10-8878-----10108107|
E|-------10-8--------10-----------|

E|-------------------------------------------|
B|----------------------8--8-----------------|
G|------7--7-979--109107-10-9------7--7------|
D|109107-10-9---10-----------109107-10-96-6--|
A|---------------------------------------9-7-|
E|-------------------------------------------|

E|-------------------------------------------------578...-|
B|------------------------------------------------8-------|
G|--------------------------------------------------------|
D|109107-----979-7--7-6-6-----------------5---75----------|
A|------878-------10---8-7----532-75--875--875--87--------|
E|---------10---8----7----8754---5--87---8----------------|

Вверх

Шутка

Ещё длительности не правильно, но лады все правильные, так что
нужно разобрать. Играть нужно плавно и протяжно.

E|-----10----------------------|------10--9--9----9-12-9-10----|
B|-12---12---12----------------|----12-12-12-12-11----------12-|
G|----------11----11---11------|--11---------------------------|
D|-------------------12---12-9-|-------------------------------|

E|-----10-------------------------|---------------7----------|
B|--12----12---12-----------------|--------------------------|
G|-----------11----11---11--------|--7-6-7--7-6-7---7-7p9--6-|
D|--------------------12---12-9---|--------------------------|

E|--------------10--------------|----5-4-4-----7------------|
B|--7-6-7--7-6-7--7-7p9--6------|---7-7-7-7-6-9-9-10-9-10-9-|
G|------------------------------|--6------------------------|
D|------------------------------|---------------------------|

E|------------7------9-----10------10-9-7-9--------------------|
B|--7-10-7-6-7--7-6-7--7-6-7--7-6-7---------10-9-7-10--9p10--7-|
G|-------------------------------------------------------------|
D|-------------------------------------------------------------|

E|---5-----------------------5--------|
B|--7-7-7---------------5-4-7-8-7-8-5-|
G|-------6-6-6-------5-4--------------|
D|----------7-7-4---------------------|

E|---7-------------------------------------|
B|--8-8-5-8-5-5------7-5-5---5-8-5-7-5-7-5-|
G|-----------6-6----7-7-7-7-6--------------|
D|---------------7-------------------------|

E|----------------------7-------7-5-5-------------|
B|---7-----8-----10----------------8-7-5--7-5p7---|
G|--7-7-6-7-7-6-7--7-6-7-7-6-7----------7-------7-|
D|------------------------------------------------|

E|-----------10-----------|-------------9------------|
B|--7-7--7-7----7-7p8-----|--------------------------|
G|---9----9-----------9---|--9--9---9--9---9-9p11----|
D|------------------------|---12-----12-----------12-|

E|-----10------------------------------------|
B|--12--12-10-8--12-10-8-----8---------------|
G|-----------------------11-9-11-9-----------|
D|---------------------------------12-11-9-8-|
A|-------------------------------------------|

E|----------------------------|
B|----------------------------|
G|---------------9------------|
D|--------9--8-11--12-11-12-9-|
A|-9-10-9---------------------|

E|--------------------------------------------|
B|---------------------12---------------------|
G|-----------9-11---11-----11--9--------------|
D|--9-11-12-------12--------------12-11-12--9-|

Вверх
English songs 109

ABBA
AC-DC
Adams Bryan
Adriano Celentano
Aerosmith
A-Ha
Animals
Antonio Banderos
Apocalyptica
Armstrong Louis
Billy's Band
Bjork
Blink 182
Blondie
Blur
Bob Dylan
Boney M
Bon Jovi
Bowie David
Brainstorm
Braxton Toni
Butch
Celine Dion
Chris De Burgh
Chris Isaak
Chuck Berry
Clapton Eric
Cohen Leonard
Cranberries
Deep Purple
Depeche Mode
Dire Straits
Donovan Jason
Eagles
Electric Light Orchestra
Elton John
Elvis Presley
Era
Europe
Evanescence
Garbage
Gary Moore
Glen Wiston
Gorillaz
Green Day
Guano Apes
Guns N Roses
Hendrix Jimi
Iggy Pop
Iron Maiden
Joe Dassin
Kansas
King Crimson
Kiss
Led Zeppelin
Leonard Cohen
Limp Bizkit
Linkin Park
Louis Amstrong
Madonna
Marilyn Manson
Marley Bob
Metallica
Moby
Morricone Ennio
Muse
Nazareth
Nelly Furtado
Nick Cave
Nirvana
No Doubt
Oasis
Offspring
Ottawan
Outkast
Ozzy Osbourne
Pain
Para Bellum
Pink Floyd
Placebo
P.O.D.
Queen
RadioHead
Rainbow
Rammstein
Rea Chris
Red Hot Chili Peppers
Ritchie Blackmore
Rolling Stones
Roxette
Rufus Wainwright
Santana
Sarah Brightman
Scorpions
Sex Pistols
Simon & Garfunkel
Shocking Blue
Soul Asylumx
Status Quo
Sting
System of a down
Sum 41
The Beatles
The Doors
Tito & Tarantula
U2
UB 40
Uriah Heep
Van Halen

Українські пісні 109

Boom Box
Escape
Flit
Kapela Drewutnia
Lama
LЮK
Mad Heads (XL)
Motor' rolla
NEON
Ot Vinta
The Вйо
Абздольц
Аероплан
Акорд
Ані Лорак
Бандурна розмова
Білик Ірина
Борщ
Брати Гадюкіни
Вася Club
Вій
Воплі Відоплясова
Гайдамаки
Гончар Олесь
Гринжоли
Гроно
Гуляйгород
Дарка і Славко
Дивні
Друга Ріка
Другий подих
Дударик
Експампей
Євтушенко Андрій
Жарівка (Дяк Олесь)
Журбовіз
Зібров Павло
Зінкевич Василь
Злотник Олександр
Івасюк Володимир
Калєкція
Карна
Карпа Ірена
Клямка
Козловський Віталій
Кому вниз
Крихітка Цахес
Курінь
Лесик-Band
Лорд Юрія
Львівські музики
Мандри
Менестрелі
Мері
Мертвий Півень
Міпеніум
Монте Крісто
Морозов Віктор
Нахтіґаль
Не журись!
Неборак Віктор
НеДІля
НЕМО
Нічлава блюз
Океан Ельзи
ПереBANDя
Перкалаба
Петрович
Піккардійська Терція
Піпа Олександр
Плач Єремїі
Пономарьов Олександр
Пророк
Росава
Ротару Софія
Руслана
Рутенія
С.К.А.Й.
САД
Самі свої
Серцевий Напад
Скрябін
Смерічка
Сокира Перука
Соколи
Таліта Кум
Тартак
Тінь сонця
Ткач Михайло
ТНМК
Тостер
Тріо Мареничів
Фарбований лис
Фестиваль Снів
Хвилю тримай
Цісик Квітка
Черемош
Черемшина
Четвертий кут
Чорний вересень
Чорні черешні
Шевченко Тарас
Щастя
Юркеш
Юрченко Юрко
Юрчишин Ярослав
Явір
Яка існуЄ
Яремчук Назарій

   
 sait@i.ua



Рейтинг@Mail.ru