accordS-land.ru Аккорды и табулатуры к гитаре.
Главная | Песенник | Аккорды | Учебник
Руссике песни 180
5nizza
7Б
9-й Район
Animal ДжаZ
Billy's Band
Butch
Para Bellum
TequilaJazzz
Worms
Zdob Si Zdub
Автоматические удовлетворители
Агата Кристи
Агузарова Жанна
Агутин Леонид
Адо
Аквариум
Алиса
Алсу
Амирамов Е.
Антонов Ю.
Арефьева Ольга
Ария
АукцЫон
Барыкин
Башаков Михаил
Башлачев Александр
БекХан
Бернес М.
Би - 2
Бони неМ
Борзов Найк
Боярский Михаил
Браво
Братья Грим
Ва-Банкъ
Вертинский Александр
Визбор Юрий
Високосный год
Воскресенье
Восьмая Марта
Высоцкий В.С.
Високосный год
Газманов О.
Галич Александр
Герман А.
Городницкий Александр
Глызин А.
Градский Александр
Гражданская Оборона
Гребещенков
Данко
ДДТ
Дидюля
Диоды
Дискотека Авария
Дягилева Янка
Ёлка
Жуки
Заблудовский Андрей
Запрещенные Барабанщики
Звери
Земляне
Земфира
Зинчук Виктор
Зоопарк
Иван Кайф
Иванов А.
Иваси
ИЗ КИНО И МУЛЬТФИЛЬМОВ
Империя
Калинов мост
Кашин Павел
Кельми К.
КИНО
Кипелов
Конец Фильма
Контингент
Корни
Король и Шут
Коррозия металла
Крематорий
Крупнов Анатолий
Кузьмин Владимир
Куликов Е.
Кукрыниксы
Курехин Сергей
Лаэртский Александр
Ласковый май
Ленинград
Леонидов Максим
Лесоповал
Лещенко Л.
Линда
Лицей
Лоза Юрий
Любэ
Люмен
Ляпис Трубецкой
Мальчишник
Манго-манго
Мара
Маркин В.
Маршал Александр
Маша и медведи
Машина времени
Мечтать
Мистер Кредо
Митяев Олег
Многоточье
Монгол Шуудан
Моральный Кодекс
Мультfильмы
Мумий Тролль
Настя
Науменко Майк
Наутилус Помпилиус
Непара
Неприкасаемые
Несчастный случай
Никоваев И.
Никольский Константин
Ногу свело
Ноль
Носков Николай
Ночные Снайперы
Окуджава Булат
Оркрист
Осин Е.
Оскар
Отиева И.
Паперный Т.А.М.
Парк Горького (Gorky Park)
Пикник
Пилот
Пламя
Полковник и однополчане
Пугачева А.
ПЭХ
Приключения Электроников
Просто прикольные песни
Рада и Терновник
Римский-Корсаков
Розенбаум Александр
Рок-Острова
Рондо
Сансара
Саруханов
Сегодня Ночью
Секрет
Сектор газа
Сенчина Л.
СерьГа
Смысловые Галлюцинации
Сплин
Солодуха А.
Старые блатные песни
Сукачев Гарик
Сурганова и Оркестр
Сюткин Валерий
Тальков Игорь
Танцы минус
Тараканы
Тату
Технология
УмаТурман
Умка и Броневичок
Ундервудъ
Фабрика звезд
Х.З. (Хуй Забей)
Центр
ЧайФ
Черный кофе
Черный Лукич
Чиж и Ко
Чистяков Федор
Шанхай
Щербаков Михаил
Ю-Питер

Классика 22

Албениз Исаак
Албениз Матео
Бах Иоган Себостьян
Бетховен Людвиг ван
Бизе Жорж
Брамс Иоганнес
Вивальди Антонио
Гендель Георг Фридрих
Гершвин Джордж
Григ Эдвард
Дебюсси Клод
Камиль Сен-Санс
Мендельсон
Моцарт Вольфгант Амадей
Мусоргский Модест Пертрович
Норис Крис
Огинский Михал Клеофас
Паганини Никколо
Рахманинов Сергей Васильевич
Римский-Корсаков
Чайковский Пётр Ильич
Шуберт Франц
 

Аккорды и табулатуры.  Бетховен Людвиг ван . Все песни

Бетховен Людвиг ван

Ode To Joy
Аллеменда (аллегретто в G из 6- ти Немецких танцев)
Девятая симфония (Ода радости)
Девятая симфония (Ода радости) (2 вариант)
Девятая симфония (Ода радости) (3 вариант)
К Элизе
К Элизе (2 вариант)
К Элизе (3 вариант)
К Элизе (4 вариант)
Лунная соната
Лунная соната (2 вариант)
Немецкий танец (аллегретто в A из "6 немецких танцев")
Патетическая саната
Пятая симфония
Тема из "6-ти Вариаций в G"
Вверх

Ode To Joy

E|----------------------------------|
B|----------------------------------|
G|----0---0---0---0---0---0---0---0-|
D|------2-------2-------3-------3---|
A|--3-------3-------3-------3-------|
E|----------------------------------|

E|---------------------------------|
B|---------------------------------|
G|---0---0---0---0---0---0---0---0-|
D|-----2-------2-------3-------3---|
A|-3-------3-------3-------3-------|
E|---------------------------------|

E|--0---0---1---3---3---1---0-------|
B|------------------------------3---|
G|----0---0---0---0---0---0---0---0-|
D|------2-------2-------0-------0---|
A|--3-------3-------2-------2-------|
E|----------------------------------|

E|-------------0---0---------------|
B|-1---1---3-------------3-3-------|
G|---0---0---0---0---0-------0---0-|
D|-----2-------2-------0-------0---|
A|-0-------0-----------------------|
E|-----------------3-------3-------|

E|--0---0---1---3---3---1---0-------|
B|------------------------------3---|
G|----0---0---0---0---0---0---0---0-|
D|------2-------2-------0-------0---|
A|--3-------3-------2-------2-------|
E|----------------------------------|

E|-------------0-------------------|
B|-1---1---3-------3-----1-1-------|
G|---0---0---0---0---0-------0---0-|
D|-----2-------2-------0-------2---|
A|-0-------0---------------3-------|
E|-----------------3---------------|

E|-----------0------------0-1-0-------|
B|--3---3--------1---3------------1---|
G|----0---0----0---0---0--------0---0-|
D|------0--------2----------------2---|
A|--2--------3-------2--------3-------|
E|------------------------------------|

E|------0-1-0-----------------|
B|-3-------------3----1--3----|
G|---0---------1---1--2--2--0-|
D|--------------------2--0--0-|
A|-2------------------0-------|
E|----------0------------2--3-|

E|--0---0---1---3----3---1----0-------|
B|--------------------------------3---|
G|----0---0---0----0---0---0----0---0-|
D|------2-------2--------0--------0---|
A|--3----------------2--------2-------|
E|----------3-------------------------|

E|--------------0-------------|
B|-1---1---3--------3-----1-1-|
G|---0---0---0----0---0-----0-|
D|-----2--------2-------0---2-|
A|-0-------0----------------3-|
E|------------------3---------|

Вверх

Аллеменда (аллегретто в G из 6- ти Немецких танцев)

Тональность: C
Размер     : 3/4
Темп       : Allegretto


E|----|---------0---|-------------|-----1--------|
B|----|-1---1-------|-1---1---1---|-3-----3-0----|
G|-0.-|---0---0---0-|---0---0---0-|---0-------0--|
D|----|-----2---2---|-----2---2---|-3---3---3----|
A|----|-3-----------|-3-----------|--------------|
E|----|-------------|-------------|--------------|

E|-----0--------|---------0---|
B|-1------------|-1---1-------|
G|---0---0--0---|---0---0---0-|
D|-----2------2-|-----2---2---|
A|-3--------3---|-3-----------|
E|--------------|-------------|

E|---------0---|-----1-------|------| ||------|-0-0-0-|
B|-1---1-------|-3-----3-0---|--1.--| ||------|-0-0-0-|
G|---0---0---0-|---0-------0-|------| ||*-----|-------|
D|-----2---2---|-3---3---3---|------| ||*-2.--|-------|
A|-3-----------|-------------|--3.--| ||------|-------|
E|-------------|-------------|------| ||------|-4-4-4-|

E|-----------|-------|
B|-3-1-0-1---|-3-3-3-|
G|-2-------2-|-2-2-2-|
D|-----------|-------|
A|-0---------|-------|
E|-----------|-2-2-2-|

E|-----------|-3-3-3-|-1-0---0---|---1---|------||
B|-1-0---0---|-------|-----4---1-|-3---0-|--1.--||
G|-0---2---0-|-------|-----------|-----0-|-----*||
D|-----------|-------|-----0---2-|-3-0---|-----*||
A|-----------|---0-2-|-3---------|-------|--3.--||
E|-3---------|-3-----|-----------|-------|------||

Вверх

Девятая симфония (Ода радости)

E|-----------------------------|-------------------------------|
B|-----------------------------|-------------------------------|
G|-----0-------0-------0-----0-|-----0-------0-------0-------0-|
D|---------2--------------2----|---------3---------------3-----|
A|-3---------------3-----------|-3---------------3-------------|
E|-----------------------------|-------------------------------|

E|-----------------------------|-------------------------------|
B|-----------------------------|-------------------------------|
G|-----0-------0-------0-----0-|-----0-------0-------0-------0-|
D|---------2--------------2----|---------3---------------3-----|
A|-3---------------3-----------|-3---------------3-------------|
E|-----------------------------|-------------------------------|

E|-0-------0-------1------3----|-3-------1-------0-------------|
B|-----------------------------|-------------------------3-----|
G|-----0-------0-------0-----0-|-----0-------0-------0-------0-|
D|---------2--------------2----|---------0---------------0-----|
A|-3---------------3-----------|-2---------------2-------------|
E|-----------------------------|-------------------------------|

E|------------------------0----|-0-----------------------------|
B|-1-------1-------3-----------|-------------3---3-------------|
G|-----0-------0-------0-----0-|-----0---------------0-------0-|
D|---------2--------------2----|---------0---------------0-----|
A|-0---------------0-----------|-------------------------------|
E|-----------------------------|-3---------------3-------------|

E|-0-------0-------1------3----|-3-------1-------0-------------|
B|-----------------------------|-------------------------3-----|
G|-----0-------0-------0-----0-|-----0-------0-------0-------0-|
D|---------2--------------2----|---------0---------------0-----|
A|-3---------------3-----------|-2---------------2-------------|
E|-----------------------------|-------------------------------|

E|------------------------0----|-------------------------------|
B|-1-------1-------3-----------|-3-----------1---1-------------|
G|-----0-------0-------0-----0-|-----0---------------0-------0-|
D|---------2--------------2----|---------0---------------2-----|
A|-0---------------0-----------|-----------------3-------------|
E|-----------------------------|-3-----------------------------|

E|-----------------0-----------|---------0^--1---0-------------|
B|-3-------3--------------1----|-3-----------------------1-----|
G|-----0-------0-------0-----0-|-----0---------------0-------0-|
D|---------0--------------2----|-------------------------2-----|
A|-2---------------3-----------|-2---------------3-------------|
E|-----------------------------|-------------------------------|

E|---------0^--1---0-------------|-------------------|
B|-3-----------------------3-----|-1-------2---------|
G|-----0---------------1-------1-|-2-------2-------0-|
D|-------------------------------|-2-------0-------0-|
A|-2-----------------------------|-0-----------------|
E|-----------------0-------------|---------2-------3-|

E|-0-------0-------1-------3----|-3------1-------0-------------|
B|------------------------------|------------------------3-----|
G|-----0-------0-------0------0-|----0-------0-------0-------0-|
D|---------2---------------2----|--------0---------------0-----|
A|-3---------------3------------|-2--------------2-------------|
E|------------------------------|------------------------------|

E|-------------------------0------|-------------------|
B|-1-------1-------3--------------|-3-----------1---1-|
G|-----0-------0-------0-------0--|-----0-----------0-|
D|---------2---------------2------|---------0-------2-|
A|-0---------------0--------------|-----------------3-|
E|--------------------------------|-3-----------------|

Вверх

Девятая симфония (Ода радости) (2 вариант)

E||---0-----0-----1-----3-----|--3-----1-----0-----------|
B||---------------------------|--------------------3-----|
G||*-----0-----0-----0-----0--|-----0-----0-----0-----0--|
D||*--------------0-----------|--------------------------|
A||---3-----------------------|--2-----------------------|
E||---------------------------|--------------3-----------|

E|-------------------0----|-0-------------|-0-----0----1---3---|
B|-1-----1-----3----------|----------3--3-|--------------------|
G|----0-----0-----0-----0-|----0--------0-|----0-----0---0---0-|
D|------------------------|-------2-----0-|------------0-------|
A|-3-----------2----------|-3-------------|-3------------------|
E|------------------------|-------------3-|--------------------|

E|-3-----1-----0----------|-------------------0----|-----------|
B|-------------------3----|-1-----1-----3----------|-3-----1-1-|
G|----0-----0-----0-----0-|----------------------0-|---0-----0-|
D|------------------------|----2-----2-----0-------|---------2-|
A|-2----------------------|-0-----------2----------|-2-------3-|
E|-------------3----------|------------------------|-----3-----|

E|------------0-------|------0--1--0-------|------0--1--0------|
B|--3----3----------1-|-3----------1-----1-|-3----------0----3-|
G|----0----0-----0--0-|---0--0--2--------0-|------0--2-------1-|
D|--------------------|------------2p-0--2-|-------------------|
A|------------------3-|------------------3-|-------------------|
E|--3----1----0-------|-3------------------|-3----------0----0-|

E|-----------------0-|-------0----1----3-|--3----1----0------|
B|--1----3-----------|-------1---------0-|------------0----3-|
G|--2----2----0------|-------0----2------|--0---------0------|
D|-------0----0------|------------0------|-------------------|
A|--0----------------|--3----------------|--2----------------|
E|-------2----3------|-------------------|------------3------|

E|-----------------0----|------------------------||
B|--1----1----3----1----|--3--------1--1---------||
G|--2----2----0---------|--0-----------0--------*||
D|--2-------------------|-----0--------2--------*||
A|--0---------2----3----|--2-----------3---------||
E|----------------------|--------3---------------||

Вверх

Девятая симфония (Ода радости) (3 вариант)

E|-0--0---1--3-|-3--1--0----|----------0-|-0--------|
B|-------------|-0--------3-|-1--1--3----|------3-3-|
G|-0-----------|------------|----------0-|-0--------|
D|--------0--2-|-2--0-------|-2--2--3----|--------3-|
A|-3--3--------|-------3--2-|-3----------|----------|
E|-------------|------------|------------|-3--------|

E|-0--0---1--3-|-3--1--0----|
B|-------------|-0--------3-|
G|-0-----------|------------|
D|--------0--2-|-2--0-------|
A|-3--3--------|-------3--2-|
E|-------------|------------|

E|----------0-|----------||--------0----|----0-1-0----|
B|-1--1--3----|-3----1-1-||--3--3-----1-|-3---------1-|
G|----------0-|----------||*-0-----0----|-0------0----|
D|-2--2--3----|-3------2-||*------------|-------------|
A|-3----------|--------3-||--2-----3----|-2------3----|
E|------------|-3--------||-------------|-------------|

E|----0-1-0----|----------0-|
B|-3---------3-|-1--3-----1-|
G|-0------1----|-2--2--0----|
D|-------------|-------0----|
A|-2------2----|-0----------|
E|-------------|----2--3----|

E|-0--0--1--3-|-3--1--0----|----------0-|
B|-1-----3----|-0-----0--3-|-1--1--3----|
G|------------|------------|-0--------0-|
D|------------|------------|-2-----3----|
A|-3-----3----|------------|------------|
E|------------|-3-----3----|------------|

E|-----------|| |----------|
B|-3----1-1--|| |-3----1-1-|
G|----------*|| |----------|
D|-3------2-*|| |-3------2-|
A|--------3--|| |--------3-|
E|-3---------|| |-3--------|

Обозначения:

E||------------||
B||------------||
G||*-повторить*||
D||*----------*||
A||------------||
E||------------||

Вверх

К Элизе

Am            E           Am
e|-0---0---0---------------------------------------|
B|---4---4---0-3-1-------------0---------0-1-------|
G|-----------------2---------2-----1---1-----------|
D|-------------------2-----2-----2---2-------2---2-|
A|-----------------0---0-3-----------------0---0---|
E|-----------------------------0-------------------|

                 Am            E     E7    Am
e|-0---0---0-------------------------------------|
B|---4---4---0-3-1-------------0-------1-0-------|
G|-----------------2---------2-----1-------2-----|
D|-------------------2-----2-----2---0-----------|
A|-----------------0---0-3-----------------0---0-|
E|-----------------------------0-------------0---|

                 Am            E           Am
e|-0---0---0---------------------------------------|
B|---4---4---0-3-1-------------0---------0-1-------|
G|-----------------2---------2-----1---1-----------|
D|-------------------2-----2-----2---2-------2---2-|
A|-----------------0---0-3-----------------0---0---|
E|-----------------------------0-------------------|
                 Am            E     E7    Am
e|-0---0---0---------------------------------------|
B|---4---4---0-3-1-------------0-------1-0-------0-|
G|-----------------2---------2-----1-------2-------|
D|-------------------2-----2-----2---0-------------|
A|-----------------0---0-3-----------------3---0---|
E|-----------------------------0-------------0-----|

e|-----0-------1-0---------0--------------------0-|
B|-1-3-----1-------3---0-----3-1-------3-1-0------|
G|-------0---0-------0-------------2--------------|
D|-----------------------3-------2---2--------2---|
A|-----3-----------------------0------------------|
E|-----------------3-----------------------0------|

E|------0---0-------------|
B|------------------------|
G|------------------------|
D|--2-2---2---1-2-1-2-1-2-|
A|------------------------|
E|-0----------------------|

                 Am            E           Am
e|-0---0---0---------------------------------------|
B|---4---4---0-3-1-------------0---------0-1-------|
G|-----------------2---------2-----1---1-----------|
D|-------------------2-----2-----2---2-------2---2-|
A|-----------------0---0-3-----------------0---0---|
E|-----------------------------0-------------------|

                 Am            E     E7    Am
e|-0---0---0-------------------------------------|
B|---4---4---0-3-1-------------0-------1-0-------|
G|-----------------2---------2-----1-------2-----|
D|-------------------2-----2-----2---0-----------|
A|-----------------0---0-3-----------------3---0-|
E|-----------------------------0-------------0---|

Вверх

К Элизе (2 вариант)

Часть A:
  E|-12--11--|-12--11--12-------------|-----------------------|
  B|---------|-------------12--15--13-|-----------------------|
3 G|--------o|o-----------------------|-14-----------------14-|
- D|--------o|o-----------------------|----------------14-----|
4 A|---------|------------------------|-0------12--15---------|
  E|---------|------------------------|----12-----------------|

E|-------------------------|-----------------12--11-|
B|-12------------------12--|-13---------------------|
G|-----------------13------|------------------------|
D|-------------14----------|-------------14---------|
A|---------11--------------|-0-------12-------------|
E|-0---12------------------|-----12-----------------|

E|-12--11--12--------------|------------------------|
B|-------------12--15--13--|------------------------|
G|-------------------------|-14------------------14-|
D|-------------------------|-----------------14-----|
A|-------------------------|-0-------12--15---------|
E|-------------------------|-----12-----------------|

E|-------------------------|------------------12--11-|
B|-12--------------13--12--|-------------------------|
G|-------------------------|-14----------------------|
D|-------------14----------|-------------------------|
A|---------11--------------|-0-------12--------------|
E|-0---12------------------|-----12------------------|

E|-12--11--12--------------|------------------------|
B|-------------12--15--13--|------------------------|
G|-------------------------|-14------------------14-|
D|-------------------------|-----------------14-----|
A|-------------------------|-0-------12--15---------|
E|-------------------------|-----12-----------------|

E|-------------------------|-----------------12--11-|
B|-12------------------12--|-13---------------------|
G|-----------------13------|------------------------|
D|-------------14----------|-------------14---------|
A|---------11--------------|-0-------12-------------|
E|-0---12------------------|-----12-----------------|

E|-12--11--12--------------|------------------------|
B|-------------12--15--13--|------------------------|
G|-------------------------|-14------------------14-|
D|-------------------------|-----------------14-----|
A|-------------------------|-0-------12--15---------|
E|-------------------------|-----12-----------------|

E|-------------------------|--------------------------|
B|-12--------------13--12--|-------------12--13--15---|
G|-------------------------|-14---------------------o-|
D|-------------14----------|------------------------o-|
A|---------11--------------|-0-------12---------------|
E|-0---12------------------|-----12-------------------|

Часть B:

E|-12--------------13--12--|-10--------------12-----|
B|-------------------------|--------(0)----------15-|
G|o------------12----------|----(0)-----------------|
D|o--------10--------------|-------------15---------|
A|-----10------------------|-----10--14-------------|
E|-8-----------------------|-3----------------------|

E|-------------------------|-----------------12----|
B|-13--------------15--13--|-12--------------------|
G|-------------------------|-----------------------|
D|-------------14----------|---------14--14--------|
A|-0-------12--------------|-----------------------|
E|-----12------------------|-0---12--------------0-|

E|-----12--24----------10--|-12----------11--12--11---|
B|-------------------------|--------------------------|
G|-------------------------|------------------------o-|
D|-------------------------|------------------------o-|
A|-------------------------|--------------------------|
E|-12----------11--12------|-----11--12---------------|

Часть A:

E|-12--11--12--------------|------------------------|
B|-------------12--15--13--|------------------------|
G|-------------------------|-14------------------14-|
D|-------------------------|-----------------14-----|
A|-------------------------|-0-------12--15---------|
E|-------------------------|-----12-----------------|

E|-------------------------|-----------------12--11-|
B|-12------------------12--|-13---------------------|
G|-----------------13------|------------------------|
D|-------------14----------|-------------14---------|
A|---------11--------------|-0-------12-------------|
E|-0---12------------------|-----12-----------------|

E|-12--11--12--------------|------------------------|
B|-------------12--15--13--|------------------------|
G|-------------------------|-14------------------14-|
D|-------------------------|-----------------14-----|
A|-------------------------|-0-------12--15---------|
E|-------------------------|-----12-----------------|

E|-------------------------|--------------------------|
B|-12--------------13--12--|-------------12--13--15---|
G|-------------------------|-14---------------------o-|
D|-------------14----------|------------------------o-|
A|---------11--------------|-0-------12---------------|
E|-0---12------------------|-----12-------------------|

Играется снова часть В, следом:

Часть A:

E|-12--11--12--------------|------------------------|
B|-------------12--15--13--|------------------------|
G|-------------------------|-14------------------14-|
D|-------------------------|-----------------14-----|
A|-------------------------|-0-------12--15---------|
E|-------------------------|-----12-----------------|

E|-------------------------|-----------------12--11-|
B|-12------------------12--|-13---------------------|
G|-----------------13------|------------------------|
D|-------------14----------|-------------14---------|
A|---------11--------------|-0-------12-------------|
E|-0---12------------------|-----12-----------------|

E|-12--11--12--------------|------------------------|
B|-------------12--15--13--|------------------------|
G|-------------------------|-14------------------14-|
D|-------------------------|-----------------14-----|
A|-------------------------|-0-------12--15---------|
E|-------------------------|-----12-----------------|

E|-------------------------|-------------8---8---8----|
B|-12--------------13--12--|---------------------0----|
G|-------------------------|-14----------9---10--0--o-|
D|-------------14----------|-------------10--10--10-o-|
A|---------11--------------|-0-------12--13--12--13---|
E|-0---12------------------|-----12-------------------|

Вверх

К Элизе (3 вариант)

Обозначения:
h = хамер
p = пулл
s = слайд
H = флажолет
A = искусственный флажолет

E|--------12-11|12-11-12-7-10-8|-5---------5|-7-----0-4-7-|
B|--------------|---------------|---------5--|------------|
G|--------------|---------------|-------5----|------------|
D|--------------|---------------|-----7------|-----6------|
A|--------------|---------------|---7--------|---7--------|
E|-------------|---------------|-5----------|-0-----------|

E|------0-12-11|12-11-12-7-10-8|-5---------5|-7-------8-7-|
B|--------------|---------------|---------5--|-------5----|
G|--------------|---------------|-------5----|------------|
D|-----7--------|---------------|-----7------|-----6------|
A|---7----------|---------------|---7--------|---7--------|
E|-------------|---------------|-5----------|-0-----------|

E|----------||-5-----7-8-10||-12------13-12|10------12-10-|
B|-----------||-------------||--------8-----|-----0-------|
G|----------@||-----2-------||@-------------|---0--10-----|
D|-----7----@||---2---------||@----10-------|-------------|
A|---7-------||-0-----------||---10---------|10-----------|
E|----------||-------------||--8-----------|--------------|

E|-------10-8-|-7------12--|12H12H5-11-12-11|12-11-12-11-12-11-|
B|-------5----|------------|----------------|------------------|
G|------------|-----9-9---9|----------------|------------------|
D|-----7------|------------|----------------|------------------|
A|---7--------|---7--------|----------------|------------------|
E|------------|-0----------|----------------|------------------|

E|-|12-11-12-7-10-8|-5---------5|-7-----0---7|-8-----0-12-11-|
B|-----------------|---------5--|---------9--|---------------|
G|-----------------|-------5----|------------|---------------|
D|-----------------|-----7------|-----6------|-----7---------|
A|-----------------|---7--------|---7--------|---7-----------|
E|-----------------|-5----------|-0----------|-5-------------|

E|-12-11-12-7-10-8|-5---------5|-7-------8-7|-5-----7-8-10-|
B|----------------|---------5--|-------5----|--------------|
G|----------------|-------5----|------------|-----2------@-|
D|----------------|-----7------|-----6------|---2--------@-|
A|----------------|---7--------|---7--------|-0------------|
E|----------------|-5----------|-0----------|--------------|

E|------------|----------1--0|-0-------6--5|-5-----------|
B|-------1-1-1|--1-----------|-------------|---8-6-5-----|
G|-----2-----3|-2----2---2---|-----7---7---|---------7-5-|
D|---2---2-3-2|3---3---3---3-|---8---8---8-|-------------|
A|-0-----1-0-1|--------------|-8-----------|-8-----------|
E|-----------3|--1-----------|-------------|-------------|

E|-----------------|------------|-0-----0-1--|-|
B|------------------|-1-------3-4|-----1-------|
G|-3---2---3p2p0h2h3|---2---2---2|---2---2---2-|
D|-3----------------|------------|---------0---|
A|---3---3-3--------|-----3---3--|-------------|
E|-----------------|-1----------|-0----------|-|

E|----------------|--3-3-3-3-3-3|-----8--------------3p1--|-|
B|-1---3p1p0h1-3--0|-1-----0-1-3-|---8--12-10-8-----3-----3-|
G|-----------------|---0-2-------|-9-----------10-9---------|
D|---2-----2-----3-|-------------|--------------------------|
A|-----------------|-3-----------|----------8-------2-------|
E|----3-------3---|-------------|-8-----------------------|-|

E|-3-3-3-3-3-3|-----8--------------3p1--|-|
B|-1-----0-1-3-|---8--12-10-8-----3-----3-|
G|---0-2-------|-9-----------10-9---------|
D|-------------|--------------------------|
A|-3-----------|----------8-------2-------|
E|------------|-8-----------------------|-|

E|-----------------------|---------0--|-0-----H12--|---|
B|-5-6-5-4-5---5-4-5---5-4|-5-----0----|-----H12----|--|
G|-4---------4-------4----|-----------8|----------A8|*-|
D|------------------------|------------|------------|--|
A|------------------------|------------|------------|--|
E|-----------------------|------------|------------|---|

*
Здесь искусственный флажолет.
Для того, чтобы это сыграть зажимаете 8-ой лад, указательным
пальцем правой руки выполняется глушение на 20 ладу (12+8),
а безымянный палец выполняет щипок. Если вы считаете это
садизмом пролесните дальше. >:->

E|-|H12-H12-H12--|12-11-12-7-10-8|-5---------5|-7-----0---7-|
B|-------------|---------------|---------5--|---------9--|--|
G|---A8--A8--A8|---------------|-------5----|------------|--|
D|-------------|---------------|-----7------|-----6------|--|
A|-------------|---------------|---7--------|---7--------|--|
E|------------|---------------|-5----------|-0----------|---|

E|------0-12-11|12-11-12-7-10-8|-5---------5|-7-------8-7-|
B|--------------|---------------|---------5--|-------5----|
G|--------------|---------------|-------5----|------------|
D|-----7--------|---------------|-----7------|-----6------|
A|---7----------|---------------|---7--------|---7--------|
E|-------------|---------------|-5----------|-0-----------|

E|------7-8-10|12------13-12|10------12-10-|
B|-------------|-------8-----|-----0-------|
G|-----2-------|-------------|---0--10-----|
D|---2---------|----10-------|-------------|
A|-0-----------|--10---------|10-----------|
E|------------|-8-----------|--------------|

E|-------10-8|-7------12--|12H12H5-11-12-11|12-11-12-11-12-11-|
B|-------5----|------------|----------------|-----------------|
G|------------|-----9-9---9|----------------|-----------------|
D|-----7------|------------|----------------|-----------------|
A|---7--------|---7--------|----------------|-----------------|
E|-----------|-0----------|----------------|------------------|

E|-|12-11-12-7-10-8|-5---------5|-7-----0-4-7|-8-----0-12-11-|
B|---------------|---------5--|------------|--------------|--|
G|---------------|-------5----|------------|--------------|--|
D|---------------|-----7------|-----6------|-----7--------|--|
A|---------------|---7--------|---7--------|---7----------|--|
E|--------------|-5----------|-0----------|-5------------|---|

E|-|12-11-12-7-10-8|-5---------5|-7-------8-7-|
B|---------------|---------5--|-------5----|--|
G|---------------|-------5----|------------|--|
D|---------------|-----7------|-----6------|--|
A|---------------|---7--------|---7--------|--|
E|--------------|-5----------|-0----------|---|

E|-----------|-9----------|10------12-13|13------13--|-|
B|------------|-8----------|10------14-15|15------15---|
G|------------|-9----------|10-----------|13------13---|
D|------------|-8----------|-------------|-------------|
A|---0---0---0|-0-0-0-0-0-0|-0-0-0-0-0--0|-0-0-0-0-0-0-|
E|----5---5--|------------|-------------|------------|-|

E|-|12----------|10-------8-7|-5-------5--|-5---8---7-|
B|-|13----------|------------|-7----------|-----------|
G|-|14----------|10-------9-7|-5-------5--|-5---9---7-|
D|------------|-0-0-0-0-0-0|-7----------|-------------|
A|-0-0-0-0-0-0|-0-0-0-0-0-0|-6-6-6-6-6-6|-0-0-0-0-0-0-|
E|-----------|------------|-5-5-5-5-5-5|-0-0-0-0-0-0|-|

E|-----------|------------|---------0-1|-1-------1--|-|
B|------------|-2----------|-3-------2-3|-3-------3---|
G|-5----------|-0----------|-2----------|-------------|
D|------------|-2----------|-3----------|-------------|
A|---0---0---0|-0-0-0-0-0-0|-0-0-0-0-0-0|-0-0-0-0-0-0-|
E|----5---5--|------------|------------|------------|-|

   I...........           I.
    |   |   |    |   |   |    |   |   |    |   |   |
E|-----------|------------|------------|------------|-|
B|-3----------|-4-------3-1|------------|-------------|
G|------------|-0----------|-3-------2--|-1-------1---|
D|------------|---------3-1|-0-------0--|-0-------0---|
A|-1-1-1-1-1-1|-1-1-1-1-1-1|-1-1-1-1-1-1|-2-2-2-2-2-2-|
E|-----------|------------|------------|------------|-|

     p                         pp
    |   |   |    |   |   |    |     |     |
E|-----------|------------|-----------0------|-|
B|------------|-0----------|---------1---3-1-0-|
G|-2----------|-1----------|-2-----2-----------|
D|-2----------|-0----------|-----2-------------|
A|-3----------|-2----------|-0h3---------0-----|
E|-----------|-0----------|------------------|-|

   V.....                А теперь обещаный хитрый кусок
    |     |       |      |        |         |
E|------5-8-12-10-8-7|---8-H12-A5-A8-A0-A10-A8-A7-|
B|-----5--------------|10-------------------------|
G|---5----------------|---------------------------|
D|-7------------------|---------------------------|
A|-0-------------0----|-0------------------0------|
E|-------------------|----------------------------|

* Это играется у правого края отверстия (для правой руки)
и вершнее E
Должно звучать.
Данная конструкция может меняться в зависимости от гитары.
Важно получить по взможности громкие и чистые флажолеты.
                         | Здесь не обязательно исользовать
                         | флажолеты. Можно на 1-ой струне
                         | зажать 11-ый лад и постепенно
                         | спускаться.

E|-|A6-A5-A4-A3-A2-A1-A0------|-------------------------|
B|---------------------A4-A3|A2-A1-A0-------------------|
G|--------------------------|---------A3-A2-A1-A0-------|
D|--------------------------|---------------------A4-A3-|
A|-0------------------------|---------------------------|
E|-------------------------|--------------------------|-|

E|----------------|-5---------5|-7-----0-4-7-|
B|-----------------|---------5--|------------|
G|-----------------|-------5----|------------|
D|-|A2-A1-A2----A0---|-----7------|-----6----|
A|---------A2----A3|---7--------|---7--------|
E|----------------|-5----------|-0-----------|

E|------0-12-11|12-11-12-7-10-8|-5---------5|-7-------8-7-|
B|--------------|---------------|---------5--|-------5----|
G|--------------|---------------|-------5----|------------|
D|-----7--------|---------------|-----7------|-----6------|
A|---7----------|---------------|---7--------|---7--------|
E|-------------|---------------|-5----------|-0-----------|

E|------7-8-10|12------13-12|10------12-10-|
B|-------------|-------8-----|-----0-------|
G|-----2-------|-------------|---0--10-----|
D|---2---------|----10-------|-------------|
A|-0-----------|--10---------|10-----------|
E|------------|-8-----------|--------------|

E|-------10-8|-7------12--|12H12H5-11-12-11|12-11-12-11-12-11-|
B|-------5----|------------|----------------|-----------------|
G|------------|-----9-9---9|----------------|-----------------|
D|-----7------|------------|----------------|-----------------|
A|---7--------|---7--------|----------------|-----------------|
E|-----------|-0----------|----------------|------------------|

E|-|12-11-12-7-10-8|-5---------5|-7-----0-4-7|-8-----0-12-11-|
B|---------------|---------5--|------------|--------------|--|
G|---------------|-------5----|------------|--------------|--|
D|---------------|-----7------|-----6------|-----7--------|--|
A|---------------|---7--------|---7--------|---7----------|--|
E|--------------|-5----------|-0----------|-5------------|---|

E|-|12-11-12-7-10-8|-5---------5|-7-------8-7|-5-------|
B|---------------|---------5--|------------|-------The-|
G|---------------|-------5----|-------7----|-5---------|
D|---------------|-----7------|-----6------|-------End-|
A|---------------|---7--------|---7--------|-0---------|
E|--------------|-5----------|-0----------|------------|


Вверх

К Элизе (4 вариант)

Тональность: G Major
Размер: 3/4
Темп: Poco moto ma non troppo

E||--7-6-|-7-6-7---5---|-0---------0-|-2---------2-|
B||------|-------7---8-|---------0---|-------0-4---|
G||*-----|-------------|-------0-----|-------------|
D||*-----|-------------|-----2-------|-----1-------|
A||------|-------------|---2---------|-2-2---------|
D||------|-------------|-2-----------|-------------|

E|-3-------7-6-|-7-6-7---5---|
B|-------------|-------7---8-|
G|-------0-----|-------------|
D|-----2-------|-------------|
A|---2---------|-------------|
E|-2-----------|-------------|

E|-0---------0-|-2-------3-2-|-0------||
B|---------0---|-------0-----|--------||
G|-------0-----|-------------|-------*||
D|-----2-------|-----1-------|-----2-*||
A|---2---------|-2-2---------|---2----||
D|-2-----------|-------------|-2------||

E|-0-----2-3-5-|-7-------8-7-|-5-------7-5-|
B|-------------|-------------|-------------|
G|-------------|-----0-7-----|-------5-----|
D|-----2-------|---0---------|-----4-------|
A|---2---------|-------------|---5---------|
E|-2-----------|-5-----------|-0-----------|

E|-3-------5-3-|-2-------7---|-----7-----6-|
B|-------------|-----0-------|-0-----------|
G|-------4-----|-------4-----|---4---3-4---|
D|-----2-------|-------------|-------------|
A|---2---------|-2-2-------2-|-------------|
D|-2-----------|-------------|-------------|

E|-7-----6-7-6-|-7-6-7---5---|-0---------0-|
B|-------------|-------7---8-|---------0---|
G|---3-4-------|-------------|-------0-----|
D|-------------|-------------|-----2-------|
A|-------------|-------------|---2---------|
E|-------------|-------------|-2-----------|

E|-2---------2-|-3-------7-6-|-7-6-7---5---|
B|-------0-4---|-------------|-------7---8-|
G|-------------|-------0-----|-------------|
D|-----1-------|-----2-------|-------------|
A|-2-2---------|---2---------|-------------|
D|-------------|-2-----------|-------------|

E|-0---------0-|-2-------3-2-|---0.---|
B|---------0---|-------0-----|---0.---|
G|-------0-----|-------------|---0.---|
D|-----2-------|-----1-------|--------|
A|---2---------|-2-2---------|--------|
E|-2-----------|-------------|---2.---|

Вверх

Лунная соната

E|------------------------|------------------------|
B|-----1-----1-----1-----1|-----1-----1-----1-----1|
G|---2-----2-----2-----2--|---2-----2-----2-----2--|
D|-2-----2-----2-----2----|-2-----2-----2-----2----|
A|-0----------------------|------------------------|
E|------------------------|-3----------------------|

E|------------------------|------------------------|
B|-----1-----1-----3-----3|-----3-----1-----0-----0|
G|---2-----2-----3-----3--|---1-----2-----2-----1--|
D|-3-----3-----3-----3----|-2-----2-----2-----0----|
A|-------------5----------|------------------------|
E|-1----------------------|-0-----------0----------|

E|-------------------0----0|--0-----------------0----0|
B|-----------1-----1-----1-|------3-----3-----3-----3-|
G|-2---2---2-----2-----2---|----4-----4-----4-----4---|
D|-2-2---2-----2-----2-----|--------2-----2-----2-----|
A|-0-----------------------|--------------------------|
E|-------------------------|--0-----------------------|

E|-0-----------1----------|-0-----------------3----|
B|-----1-----1-----3-----3|-----1-----1-3---0-----0|
G|---2-----2-----2-----2--|---0-----0-----0-----0--|
D|-2-----2-----0-----3----|-2-----2-----3-----3----|
A|-0----------------------|------------------------|
E|------------------------|-3-----------3----------|

E|------------------------|--------------------------|
B|-1---1-----1-----1-----1|--------------------------|
G|---0-----0-----0-----0--|-----5-----5-----5-8---5Н8|
D|-2-----2-----2-----2----|---5-----5-----5-----5----|
A|-3----------------------|-6-----6-----6-----6------|
E|------------------------|-8------------------------|

E|-------------------------|------------------------|
B|-4-----------------4----4|-4---------------1-3---1|
G|-----6-----6-----6-----6-|-----5-----5---2-----2--|
D|---5-----5-----5-----5---|---6-----6---1-----0----|
A|-------6-----6-----6-----|-6-----6----------------|
E|-6-----------------------|-4-----3-----2----------|

E|------------------------|------------------------|
B|-3-----------4-----1----|-3-----------3----------|
G|-----3-----3---0-2---0-2|-----3-----3-----2-----2|
D|---5-----5---1-----1----|---5-----5-----4-----4--|
A|-5-----5-----3----------|-5-----5-----5-----5----|
E|-3----------------------|------------------------|

E|-------------------3----|s4-----------------2----|
B|-----3-----3-----3-----3|-----4-----4-----4-----4|
G|---3-----3-----4-----4--|---5-----5-----5-----5--|
D|-5-----5-----5-----5----|-5-----5-----5----------|
A|------------------------|-------3-----------3----|
E|-3=============================------------------|

E|-3-----------------3----|s4-----------------2----|
B|-----3-----3-----3-----3|-----4-----4-----4-----4|
G|---4-----4-----4-----4--|---5-----5-----5-----5--|
D|-5-----5-----5-----5----|-5-----5-----5----------|
A|------------------------|-------3-----------3----|
E|-3=============================------------------|

E|-3-----------3----------|-3---0-----0-1----------|
B|-----3-----3------------|-----------------3-----3|
G|---4-----4-----3-6---3-6|---2-----2-----2-----2--|
D|-5-----5-----5-----5----|-------5-----0-----3----|
A|------------------------|-4----------------------|
E|-3-----------0----------|------------------------|

E|------------------------|------------------------|
B|-4-----------3----------|------------------------|
G|-----3-----3-----4-----4|-------------2-----2----|
D|---5-----5-----3-----3--|-7---3-----3-----2-----2|
A|-------6-----5-----5----|---5-----5-----5-----4--|
E|-3-----------4----------|-5-----5-----5-----5----|

E|-------------------5----5|-5-------0-----0---5----5|
B|-----------------6-----6-|---5-8-----8-----8---5-8-|
G|-----------7---7-----7---|-------------------------|
D|-----7---7---7-----7-----|-7-----7-----7-----7-----|
A|---8---8-----------------|-0-----------------------|
E|10-----------------------|-------------------------|

E|-5-----------------5----|-7---0-----0-----0-7---0|
B|-----6-----6-9---------6|------------------------|
G|---7-----7-----7-9---7--|---7-----7-----7-----7--|
D|-7-----7-----------7----|-6-----6-----6-----6----|
A|-5----------------------|------------------------|
E|-------------7-----5----|-4-----------------4----|

E|-8-----------7-----5----|-4----------------------|
B|----10----10-0---9-----7|-------5-----6---0-----0|
G|---9-----9-----7-----5--|-----4-----4-------7----|
D|10----10-----0-----7----|---6-----6-----6-----6--|
A|-0-----------------6----|------------------------|
E|------------------------|-0----------------------|


E|------------------------|-------5-----8-----5----|
B|-----0-----0-----0-----0|-----5-----5-----5-----5|
G|------------------------|-5-5-----5-----5-----5--|
D|---6-----6-----6-----6--|------------------------|
A|-------7-----8-----5----|------------------------|
E|-0----------------------|-0----------------------|

E|------------------------|-------------------1---4|
B|-------------1----------|-----------0---3-0---3--|
G|-------2-----------2----|-------1-----1----------|
D|-----2-----2-----2-----2|---3-0---3--------------|
A|-3-3-----3-----3-----3--|-2----------------------|
E|-0----------------------|-0----------------------|

E|-----------0--s5---8-5--|-----------------------2|
B|-------1-----1s--5-----5|---------------1---4-1--|
G|---2-----2--------------|-----------2-----2------|
D|-----2------------------|---1---4-1---4----------|
A|-3----------------------|-0---3------------------|
E|-0----------------------|-0----------------------|

E|-------------------4---7|s4---1------------------|
B|-------0-----0-6-----6--|---3---0-3---0----------|
G|---1-------7-----7------|-----------1-----1------|
D|-0---3--s6--------------|---------------3---0-3--|
A|------------------------|-----------------------2|
E|-0======================|=======================-|

E|------------------------|------------------------|
B|------------------------|------------------------|
G|------------------------|------------------------|
D|-0---------0-3---0---0-3|-----2-3-2-----0-3---0-3|
A|-----2---------2---0----|---5-------5-2-----0----|
E|---4---1-4--------------|-4----------------------|

E|------------------------|------------------------|
B|------------------------|------------------------|
G|------------------------|-----------------2-----2|
D|-----2-3-2-----0-3---0-3|-----2-3-2--------------|
A|---5-------5-1-----0----|---5-------5-0Н3---0Н3--|
E|-4----------------------|-4-----------1----------|

E|------------------------|-------------------0----0|
B|------------------------|-----------1-----1-----1-|
G|-----2-----2-----1-----1|-2---2---2-----2-----2---|
D|-0Н3-----3-----2-----2--|---2---2-----2-----2-----|
A|-2-----2-----2-----2----|-0-----------------------|
E|-------------0----------|-------------------------|


E|-0-----------------0----0|-0-----------1----------|
B|-----3-----3-----3-----3-|-----1-----1-----3-----3|
G|---4-----4-----4-----4---|---2-----2-----2-----2--|
D|-------2-----2-----2-----|-2-----2-----0-----3----|
A|-------------------------|-0----------------------|
E|-0-----------------------|------------------------|

E|-0-----------------3----|-------------------3----3|
B|-----1-----1-3---0-----0|-----------5-----5-----5-|
G|---0-----0-----0-----0--|-5---5---5-----5-----5---|
D|-2-----2-----3-----3----|---5---5-----5-----5-----|
A|------------------------|-3-----------------------|
E|-3-----------3----------|-------------------------|

E|-3---1-----1-----1-3---1Н3|-3---0-----0-4---0-5----|
B|---3-----3-----3-----3----|---1-----1-----3-------5|
G|-0-----0-----0-----0------|-0-----0-------------5--|
D|--------------------------|-------------------7----|
A|-2------------------------|-3-----------2-----0----|
E|--------------------------|------------------------|

E|-7---0-----0-8----------|-6-----------4---0-----0|
B|-0-----0--------10----10|---3-6---3-6---3-----3--|
G|---7-----7-----9-----9--|-3-----3-----1-----1----|
D|------------10----10----|-0----------------------|
A|-------------0----------|------------------------|
E|-4----------------------|-------------0----------|

E|-5-----------------5----|-6-----------------4---1|
B|-----5-----5-----5-----5|-----6-----6-----6---3--|
G|---5-----5-----6-----6--|---7-----7-----7---2----|
D|-7-----7-----7-----7----|-7-----7-----7-----0----|
A|-0======================|======-5-----3----------|
E|------------------------|------------------------|

E|-5-----------------5----|-6-----------------4---1|
B|-----5-----5-----5-----5|-----6-----6-----6---3--|
G|---6-----6-----6-----6--|---7-----7-----7---2----|
D|-7-----7-----7-----7----|-7-----7-----7-----0----|
A|-0======================|======-5-----3----------|
E|------------------------|------------------------|

E|-5-----------5----------|-3---1-----1-----1-3---0|
B|-----5-----5-----6-----6|---3-----3-----3-----1--|
G|---6-----6-----7-----7--|-0-----0-----0----------|
D|-7-----7-----7-----7----|------------------------|
A|-------------5----------|-2-----------------3----|
E|-5----------------------|------------------------|


E|-1---0-1-----------0----|-------------0-----1----|
B|---1-----0-3-5---------1|-3---0-----0-----0-----0|
G|---------------4-7---2--|---2-----2-----2-----2--|
D|-3-----3-----6-----2----|-0-----0-----2-----0----|
A|-0-----2-----------0----|------------------------|
E|-------------4----------|-1-----------0----------|

E|-0-----------0----------|-------------------------|
B|-----1-----1-----0-----0|-1---------1-----1-----1-|
G|---2-----2-----1-----1--|-----2---2-----2-----2---|
D|-2-----2-----0-----0----|-2-2---2-----2-----2-----|
A|------------------------|-0-----------------------|
E|-0-----------0----------|-------------------0----0|

E|--------------------------|-----------5---8-5-12-8---|
B|------3-----3-----3-----3-|-------5-----5---------10-|
G|----4-----4-----4-----4---|---5-----5----------------|
D|--2-----2-----2-----2-----|-----7--------------------|
A|--------------------------|-7------------------------|
E|--4-----------------0----0|-5------------------0----0|

E|---7----------------------|-----------5---8-5-12-8---|
B|-9-----9------------------|-------5-----5---------10-|
G|----10---7-10---7---------|---5-----5----------------|
D|--------------9----s6---0-|-7---7--------------------|
A|------------------8---7---|-7------------------------|
E|-0------------------0----0|-5------------------0----0|

E|---7----------------------|------------------------|
B|-9-----9------------------|------------------------|
G|----10---7-10---7---------|-------5-----------2----|
D|--------------9----s6---0-|-7---7---7-------2---2--|
A|------------------8---7---|-7-7-------7---3-------3|
E|-0------------------0----0|-5-----------5----------|

E|-------0----------------|-------------5==========|
B|-----1---1--------------|-------------5==========|
G|---2-------2---2--------|-------------5==========|
D|-2-----------2---2---2--|-------------7==========|
A|-0-----------------3---3|p0==========-0==========|
E|------------------------|------------------------|

E|------------------------|
B|------------------------|
G|------------------------|
D|-7=======================
A|-0=======================
E|------------------------|

Вверх

Лунная соната (2 вариант)

Под табулатурой указаны пальцы левой руки.
Цифры от 1 до 4 указывают пальцы (1 - указательный, 2 - средний,
3 - безымянный, 4-мизинец).
Распальцовка не указана на повторяющихся участках и в местах где
она очевидна.
Подбор в A миноре (но оригинал играется в D миноре).

Обозначения:
p - пулл, h - хаммер, s - слайд.
==== - тянуть. Для сохранения эффекта тянуть все басовые ноты,
где это возможно.

Римскими цифрами указано барре. Целое или половинчатое,
как получается. А ...
его продолжительность.

Adagio Sostenuto.

E|------------------------|------------------------|
B|-----1-----1-----1-----1|-----1-----1-----1-----1|
G|---2-----2-----2-----2--|---2-----2-----2-----2--|
D|-2-----2-----2-----2----|-2-----2-----2-----2----|
A|-0----------------------|------------------------|
E|------------------------|-3----------------------|

E|------------------------|------------------------|
B|-----1-----1-----3-----3|-----3-----1-----0-----0|
G|---2-----2-----3-----3--|---1-----2-----2-----1--|
D|-3-----3-----3-----3----|-2-----2-----2-----0----|
A|-------------5----------|------------------------|
E|-1----------------------|-0-----------0----------|

E|-------------------0----0|--0-----------------0----0|
B|-----------1-----1-----1-|------3-----3-----3-----3-|
G|-2---2---2-----2-----2---|----4-----4-----4-----4---|
D|-2-2---2-----2-----2-----|--------2-----2-----2-----|
A|-0-----------------------|--------------------------|
E|-------------------------|--0-----------------------|

E|-0-----------1----------|-0-----------------3----|
B|-----1-----1-----3-----3|-----1-----1-3---0-----0|
G|---2-----2-----2-----2--|---0-----0-----0-----0--|
D|-2-----2-----0-----3----|-2-----2-----3-----3----|
A|-0----------------------|------------------------|
E|------------------------|-3-----------3----------|

E|------------------------|--------------------------|
B|-1---1-----1-----1-----1|--------------------------|
G|---0-----0-----0-----0--|-----5-----5-----5-8---5h8|
D|-2-----2-----2-----2----|---5-----5-----5-----5----|
A|-3----------------------|-6-----6-----6-----6------|
E|------------------------|-8------------------------|

E|-------------------------|------------------------|
B|-4-----------------4----4|-4---------------1-3---1|
G|-----6-----6-----6-----6-|-----5-----5---2-----2--|
D|---5-----5-----5-----5---|---6-----6---1-----0----|
A|-------6-----6-----6-----|-6-----6----------------|
E|-6-----------------------|-4-----3-----2----------|

E|------------------------|------------------------|
B|-3-----------4-----1----|-3-----------3----------|
G|-----3-----3---0-2---0-2|-----3-----3-----2-----2|
D|---5-----5---1-----1----|---5-----5-----4-----4--|
A|-5-----5-----3----------|-5-----5-----5-----5----|
E|-3----------------------|------------------------|

E|-------------------3----|s4-----------------2----|
B|-----3-----3-----3-----3|-----4-----4-----4-----4|
G|---3-----3-----4-----4--|---5-----5-----5-----5--|
D|-5-----5-----5-----5----|-5-----5-----5----------|
A|------------------------|-------3-----------3----|
E|-3=============================------------------|

E|-3-----------------3----|s4-----------------2----|
B|-----3-----3-----3-----3|-----4-----4-----4-----4|
G|---4-----4-----4-----4--|---5-----5-----5-----5--|
D|-5-----5-----5-----5----|-5-----5-----5----------|
A|------------------------|-------3-----------3----|
E|-3=============================------------------|

E|-3-----------3----------|-3---0-----0-1----------|
B|-----3-----3------------|-----------------3-----3|
G|---4-----4-----3-6---3-6|---2-----2-----2-----2--|
D|-5-----5-----5-----5----|-------5-----0-----3----|
A|------------------------|-4----------------------|
E|-3-----------0----------|------------------------|

E|------------------------|------------------------|
B|-4-----------3----------|------------------------|
G|-----3-----3-----4-----4|-------------2-----2----|
D|---5-----5-----3-----3--|-7---3-----3-----2-----2|
A|-------6-----5-----5----|---5-----5-----5-----4--|
E|-3-----------4----------|-5-----5-----5-----5----|

E|-------------------5----5|-5-------0-----0---5----5|
B|-----------------6-----6-|---5-8-----8-----8---5-8-|
G|-----------7---7-----7---|-------------------------|
D|-----7---7---7-----7-----|-7-----7-----7-----7-----|
A|---8---8-----------------|-0-----------------------|
E|10-----------------------|-------------------------|

E|-5-----------------5----|-7---0-----0-----0-7---0|
B|-----6-----6-9---------6|------------------------|
G|---7-----7-----7-9---7--|---7-----7-----7-----7--|
D|-7-----7-----------7----|-6-----6-----6-----6----|
A|-5----------------------|------------------------|
E|-------------7-----5----|-4-----------------4----|

E|-8-----------7-----5----|-4----------------------|
B|----10----10-0---9-----7|-------5-----6---0-----0|
G|---9-----9-----7-----5--|-----4-----4-------7----|
D|10----10-----0-----7----|---6-----6-----6-----6--|
A|-0-----------------6----|------------------------|
E|------------------------|-0----------------------|

E|------------------------|-------5-----8-----5----|
B|-----0-----0-----0-----0|-----5-----5-----5-----5|
G|------------------------|-5-5-----5-----5-----5--|
D|---6-----6-----6-----6--|------------------------|
A|-------7-----8-----5----|------------------------|
E|-0----------------------|-0----------------------|

E|------------------------|-------------------1---4|
B|-------------1----------|-----------0---3-0---3--|
G|-------2-----------2----|-------1-----1----------|
D|-----2-----2-----2-----2|---3-0---3--------------|
A|-3-3-----3-----3-----3--|-2----------------------|
E|-0----------------------|-0----------------------|

E|-----------0--s5---8-5--|-----------------------2|
B|-------1-----1s--5-----5|---------------1---4-1--|
G|---2-----2--------------|-----------2-----2------|
D|-----2------------------|---1---4-1---4----------|
A|-3----------------------|-0---3------------------|
E|-0----------------------|-0----------------------|

E|-------------------4---7|s4---1------------------|
B|-------0-----0-6-----6--|---3---0-3---0----------|
G|---1-------7-----7------|-----------1-----1------|
D|-0---3--s6--------------|---------------3---0-3--|
A|------------------------|-----------------------2|
E|-0======================|=======================-|

E|------------------------|------------------------|
B|------------------------|------------------------|
G|------------------------|------------------------|
D|-0---------0-3---0---0-3|-----2-3-2-----0-3---0-3|
A|-----2---------2---0----|---5-------5-2-----0----|
E|---4---1-4--------------|-4----------------------|

E|------------------------|------------------------|
B|------------------------|------------------------|
G|------------------------|-----------------2-----2|
D|-----2-3-2-----0-3---0-3|-----2-3-2--------------|
A|---5-------5-1-----0----|---5-------5-0h3---0h3--|
E|-4----------------------|-4-----------1----------|

E|------------------------|-------------------0----0|
B|------------------------|-----------1-----1-----1-|
G|-----2-----2-----1-----1|-2---2---2-----2-----2---|
D|-0h3-----3-----2-----2--|---2---2-----2-----2-----|
A|-2-----2-----2-----2----|-0-----------------------|
E|-------------0----------|-------------------------|

E|-0-----------------0----0|-0-----------1----------|
B|-----3-----3-----3-----3-|-----1-----1-----3-----3|
G|---4-----4-----4-----4---|---2-----2-----2-----2--|
D|-------2-----2-----2-----|-2-----2-----0-----3----|
A|-------------------------|-0----------------------|
E|-0-----------------------|------------------------|

E|-0-----------------3----|-------------------3----3|
B|-----1-----1-3---0-----0|-----------5-----5-----5-|
G|---0-----0-----0-----0--|-5---5---5-----5-----5---|
D|-2-----2-----3-----3----|---5---5-----5-----5-----|
A|------------------------|-3-----------------------|
E|-3-----------3----------|-------------------------|

E|-3---1-----1-----1-3---1h3|-3---0-----0-4---0-5----|
B|---3-----3-----3-----3----|---1-----1-----3-------5|
G|-0-----0-----0-----0------|-0-----0-------------5--|
D|--------------------------|-------------------7----|
A|-2------------------------|-3-----------2-----0----|
E|--------------------------|------------------------|

E|-7---0-----0-8----------|-6-----------4---0-----0|
B|-0-----0--------10----10|---3-6---3-6---3-----3--|
G|---7-----7-----9-----9--|-3-----3-----1-----1----|
D|------------10----10----|-0----------------------|
A|-------------0----------|------------------------|
E|-4----------------------|-------------0----------|

E|-5-----------------5----|-6-----------------4---1|
B|-----5-----5-----5-----5|-----6-----6-----6---3--|
G|---5-----5-----6-----6--|---7-----7-----7---2----|
D|-7-----7-----7-----7----|-7-----7-----7-----0----|
A|-0======================|======-5-----3----------|
E|------------------------|------------------------|

E|-5-----------------5----|-6-----------------4---1|
B|-----5-----5-----5-----5|-----6-----6-----6---3--|
G|---6-----6-----6-----6--|---7-----7-----7---2----|
D|-7-----7-----7-----7----|-7-----7-----7-----0----|
A|-0======================|======-5-----3----------|
E|------------------------|------------------------|

E|-5-----------5----------|-3---1-----1-----1-3---0|
B|-----5-----5-----6-----6|---3-----3-----3-----1--|
G|---6-----6-----7-----7--|-0-----0-----0----------|
D|-7-----7-----7-----7----|------------------------|
A|-------------5----------|-2-----------------3----|
E|-5----------------------|------------------------|

E|-1---0-1-----------0----|-------------0-----1----|
B|---1-----0-3-5---------1|-3---0-----0-----0-----0|
G|---------------4-7---2--|---2-----2-----2-----2--|
D|-3-----3-----6-----2----|-0-----0-----2-----0----|
A|-0-----2-----------0----|------------------------|
E|-------------4----------|-1-----------0----------|

E|-0-----------0----------|-------------------------|
B|-----1-----1-----0-----0|-1---------1-----1-----1-|
G|---2-----2-----1-----1--|-----2---2-----2-----2---|
D|-2-----2-----0-----0----|-2-2---2-----2-----2-----|
A|------------------------|-0-----------------------|
E|-0-----------0----------|-------------------0----0|

E|--------------------------|-----------5---8-5-12-8---|
B|------3-----3-----3-----3-|-------5-----5---------10-|
G|----4-----4-----4-----4---|---5-----5----------------|
D|--2-----2-----2-----2-----|-----7--------------------|
A|--------------------------|-7------------------------|
E|--4-----------------0----0|-5------------------0----0|

E|---7----------------------|-----------5---8-5-12-8---|
B|-9-----9------------------|-------5-----5---------10-|
G|----10---7-10---7---------|---5-----5----------------|
D|--------------9----s6---0-|-7---7--------------------|
A|------------------8---7---|-7------------------------|
E|-0------------------0----0|-5------------------0----0|

E|---7----------------------|------------------------|
B|-9-----9------------------|------------------------|
G|----10---7-10---7---------|-------5-----------2----|
D|--------------9----s6---0-|-7---7---7-------2---2--|
A|------------------8---7---|-7-7-------7---3-------3|
E|-0------------------0----0|-5-----------5----------|

E|-------0----------------|-------------5==========|
B|-----1---1--------------|-------------5==========|
G|---2-------2---2--------|-------------5==========|
D|-2-----------2---2---2--|-------------7==========|
A|-0-----------------3---3|p0==========-0==========|
E|------------------------|------------------------|

E|------------------------|
B|------------------------|
G|------------------------|
D|-7======================|
A|-0======================|
E|------------------------|

Вверх

Немецкий танец (аллегретто в A из "6 немецких танцев")

Тональность: A Major
Размер: 3/4
Темп: Allegretto
    D.C.
E||-----|-------|---0-2-0---|-------|
B||-----|-2-2-2-|-4-------4-|-0-0-0-|
G||*----|-------|-----------|-------|
D||*-2.-|-------|-----------|-------|

G|-----0-----|-----------|------------|
D|-2-3---3-2-|---0-2-0---|-0-2-3--2-0-|
A|-----------|-2-------2-|------------|
E|-----------|-2---------|------------|

0

0--4----4-|
A||-----|-0-0-0-|-2-----|-------|-0---|-----0---0-|-----------|
E||-----|-------|-------|-4-4-4-|-----|-2---------|-----------|
     2    3       4   3   3       2 3   3   3   3    1 2  1 3
                  2                     2              3

            Конец.     c2--/   c2--/ c2           c2--/    c2--/
E|---------------| |--|-------------|------------|-------------|
B|-----0---------| |--|-2---0---2---|-3-0--------|-2---0---2---|
G|-1-2---2-1-2--*| |--|-------------|-----1---1--|-------------|
D|-----0--------*| |2.|---2---2---2-|-------2---2|---2---2---2-|
A|---------2-0---| |--|-0-------0---|-2----------|-0-------0---|
E|-0-------------| |--|-----4-------|-----0------|-----4-------|
   1 2   2 1 3              3 1       4   1 2          3 1
           2

  c2                 c2--/     c2-----------/
E|--------------|-0-------0---|-2---4---5---|---0-----------|
B|-3-0----------|-----3-------|-------------|-2-----2-0-----|
G|------1---1---|---2---2---2-|---2---2---2-|-----2-----1-2-|D.C
D|--------2---2-|-------------|-0---2---4---|-2---2---------|
A|-2------------|-4---2---4---|-------------|-------------0-|
E|------0-------|-------------|-------------|---------0-----|
   4    1 2       3 1 2   3 1       4   4     3   2 3   1 2
                                        3     1   1

Вверх

Патетическая саната

E|----------------|----------------|
2 B|-2-------0------|-5-----------3--|
/ G|-2---2---1---1--|-2---2-------4--|
4 D|---2---2-0-2---2|---2---2---2---2|
  A|-0--------------|-4--------------|
  E|----------------|---------4------|

E|-----0---5---7--|-0-----------1--|
B|-2---0---2------|---0---0---0---0|
G|-2---------2-8--|-1---1---1---1--|
D|---2---2-------7|-2--------------|
A|-0-----------9--|----------------|
E|-----4---2------|---------0------|

E|-2------------------------------|
B|-----0-------0---0-----------2-3|
G|-1-------1-------1-------1------|
D|-0---------------0---2-------2--|
A|--------------------------------|
E|--------------------------------|

E|----------------|----------------|
B|s5--------------|---------2-0----|
G|-2---2---3------|-7-----------2-1|
D|---2---2-2---2--|---0---0-0-0-0-0|
A|-4---------4---4|-9---9----------|
E|---------2------|-7-------0------|

E|-----------------0-5|-9-------7------|12---------7-10---|
B|-0-------------2----|---5---5-9---9--|--10--10-5----9-12|
G|-1-------2---2------|-----6-----9---9|-9---9--------9---|
D|-0-2-0-2---2--------|-7---7---0------|---------6--------|
A|-0---0---4----------|----------------|------------------|
E|---------5----------|-5--------------|-9-------4----0---|

E|-9--12--17--19---|12----------13--|
B|--10--12-------16|---0---0---0---0|
G|-9--------18-----|----------------|
D|-----------------|----------------|
A|-0--11-----------|11--11--11--11--|
E|--------14--14---|-0--------------|

E|14---------------------------9-10|
B|-----0-------0---0---------------|
G|-----------------------------9---|
D|-----------------------------0---|
A|11------11------11------11-------|
E|--------------------12-----------|

E|12--------------|10-------9-7----|
B|----10--11------|-7---7------10-9|
G|---9---9-----9--|---7---7-7-7-7-7|
D|----------11--11|----------------|
A|---------9------|-----9----------|
E|-9--------------|-7-------9------|

E|-7-------5------|-----------5-4-2|
B|---5---5--------|-2--------------|
G|-7---7----------|----------------|
D|-----6----------|----------------|
A|-0-------4-----4|---4-4-4-4-4-4-4|
E|---------5------|----------------|

E|-9---------------------|-----------5-4--|
B|---------------10--9-11|-0-0-0-0-7-7-7-7|
G|10-10-10-10------------|-6-------6-6-6-6|
D|------------11-11-11-11|-6-6-6-6-7-7-7-7|
A|11-11-11-11--9--9--9--9|-8-8-8-8--------|
E|-9--9--9--9--9--9--9--9|----------------|

E|-------------------------2------|
B|-5-------4-------4p2h4s5-------5|
G|-2---2---2---2---2---2---2---2--|
D|-4---4---4---4---4---4----------|
A|-2---2---2---2---3---3---3---3--|
E|--------------------------------|

E|-0-----------------------------4-5-9|
B|-----------------5---7-5-4-5-7------|
G|-1---1---1---1----------------------|
D|-2---2---2---2----------------------|
A|-4---4---4---4---0---0-----0-----0--|
E|------------------------------------|

E|-8-9-11-9-7-16------14-12-11-9------9-------|----------------|
B|------------------------------12-11--12-10-7|-5-----0---0----|
G|--------------------------------------------|---------1---1--|
D|--------------------------------------------|-6-------------2|
A|--------------------------------------------|-7--------------|
E|-------------0------------------------------|----------------|

E|----------------|-----------------|
B|-0--------------|-------------0---|
G|-2---2---2---2--|-1---------------|
D|-2-1-1----------|-2--------------2|
A|-------4-4-3-3-2|-2-----2---2-2---|
E|----------------|-0-------4-------|

E|----------------|----------------|
B|----------------|-0--------------|
G|----------------|-1--------------|
D|-2-1-1----------|-4-3-3-2-2-1-1-2|
A|-0-----4-4-3-3-2|----------------|
E|-2--------------|-0--------------|

E|----------------|
B|----------------|
G|----------------|
D|-2-3-3-2-2-1-1-0|
A|----------------|
E|----------------|

E|----------------|----------------|
B|-2-------0------|-5-----------3--|
G|-2---2---1---1--|-2---2-------4--|
D|---2---2-0-2---2|---2---2---2---2|
A|-0--------------|-4--------------|
E|----------------|---------4------|

E|-----0---5---7--|-0-----------1--|
B|-2---0---2------|---0---0---0---0|
G|-2---------2-8--|-1---1---1---1--|
D|---2---2-------7|-2--------------|
A|-0-----------9--|----------------|
E|-----4---2------|---------0------|

E|-2------------------------------|
B|-----0-------0---0-----------2-3|
G|-1-------1-------1-------1------|
D|-0---------------0---2----------|
A|--------------------------------|
E|--------------------------------|

E|----------------|----------------|
B|s5--------------|---------2-0----|
G|-2---2---3------|-7-----------2-1|
D|---2---2-2---2--|---0---0-0-0-0-0|
A|-4---------4---4|-9---9----------|
E|---------2------|-7-------0------|

E|----------------|------------------------|
B|-0--------------|-------1-----0----------|
G|-1-------2------|-2-----------------2----|
D|-0-2-0-2------2-|-2-2-2-2-2-2-2-2-2-2-2-2|
A|-0---0---4------|-3-3-3-3-3-3-3-3-3-3-3-3|
E|---------5------|------------------------|

E|------------------------|
B|-------------0-0--------|
G|-------7----------------|
D|-6-0-0-0-0-0-0-0-7-6-4--|
A|-7-7-7-7-7-7-7-7-7-7-7-7|
E|-7----------------------|

E|------------------------|------------------------|
B|-------1-----0----------|------------------------|
G|-2-----------------2----|-2-----1----------------|
D|-2-2-2-2-2-2-2-2-2-2-2-2|-2-2-2-2-2-1-2-3-2-0-2-2|
A|-3-3-3-3-3-3-3-3-3-3-3-3|-2-2-2-2-2-2-2-2-2-2-3-2|
E|------------------------|-0----------------------|

E|------------------------|-3-------0---8-------5--|
B|-------1-----0----------|-------------6-6-6-6-6-6|
G|-2-----------------2----|-3-3-3-3-3-5-5-5-5-5-5-5|
D|-2-2-2-2-2-2-2-2-2-2-2-2|-2-2-2-2-2-2-7-7-7-7-7-7|
A|-3-3-3-3-3-3-3-3-3-3-3-3|-3-3-3-3-3-3------------|
E|------------------------|------------------------|

E|13----------10----8-----------|-1----------------------|
B|12-12-12-12-12-12-5-5-5-------|-1-1-1-1-1-1-1-1-1-1-1-1|
G|10-10-10-10-10-10-5-5-5--9----|-2-2-2-2-2-2-2-2-2-2-2-2|
D|12-12-12-12-12-12-7-7-7--8----|------------------------|
A|10-10-10-10-10-10-------10----|------------------------|
E|-------------------------8-8-8|-1----------------------|

E|-1-----5-----3-----1----|-------0----------------|
B|-1-1-1-1-1-1-1-1-1-1-1-1|-1-1-1-1-1-1-1-1-1-1-1-1|
G|-2-2-2-2-2-2-2-2-2-2-2-2|-3-3-3-3-0---0-0-3-3-3-3|
D|------------------------|-2---------4-----3-2-0--|
A|------------------------|-----------------------3|
E|-1----------------------|-3----------------------|

E|-1-----5-----1-----0----|------------------------|
B|-1-1-1-1-1-1-1-1-1-1-1-1|-4-----------------4----|
G|-2-2-2-2-2-2-2-2-2-2-2-2|-------------2-----2----|
D|------------------------|---------1-4------------|
A|------------------------|-----0h3-------3-3-3-3-3|
E|-1----------------------|---2--------------------|

E|------------------------|------------------------|
B|-4-----------------4----|-3-0-0-0-0-0-0-0-0-3----|
G|-------------2-----2----|-2-2-2-2-2-2-1-1-1-1-1-1|
D|---------1-4------------|-------------2-2-2-2-2-2|
A|-----0h3-------3-3-3-3-3|-----0-2-----------2----|
E|---2--------------------|---1-----------0-4------|

E|------------------------|------------------------|
B|-2-----------0----------|-5-----------------3----|
G|-2-----2-----1-----1----|-2-----2-----------4----|
D|---2-2---2-2-0-2-2---2-2|---2-2---2-2---2-2---2-2|
A|-0----------------------|-4----------------------|
E|------------------------|-------------4----------|

E|-------0-----5-----7----|-0-----------------1----|
B|-2-----0-----2----------|---0-0---0-0---0-0---0-0|
G|-2-------------2-2-8----|-1-----1-----1-----1----|
D|---2-2---2-2---------7-7|-2----------------------|
A|-0-----------------9----|------------------------|
E|-------4-----2----------|-------------0----------|

E|-2-----------------------|------------------------|
B|---0-0---0-0-0---------23|s5----------------------|
G|-1-----1-----1-----1-----|-2-----2-----3----------|
D|-0-----------0-2-2---2-2-|---2-2---2-2-2-----2----|
A|-------------------------|-4-------------4-4---4-4|
E|-------------------------|-------------2----------|

E|------------------------|---------------------0-5|
B|-------------3-2-0-0----|-0-----------------2----|
G|-7-----------1-------2-1|-1-----------2---2------|
D|---0-0---0-0---2-0-0-0-0|-0-2-2-0-2-2---2--------|
A|-9-----9----------------|-0-----0-----4----------|
E|-7-----------0----------|-------------5----------|

E|-9-----------7----------|12---------------7-7-10------|
B|---5-5---5-5-9-----9----|--10-10--10-10-5------9-12-12|
G|-------6-------9-9---9-9|-9------9-------------9------|
D|-7-----7-----0----------|---------------6-------------|
A|---7-7------------------|-----------------------------|
E|-5----------------------|-9-------------4------0------|

E|-9-----12-----17------19------|12------------------13----|
B|--10-10--12-12-----------16-16|--------------------------|
G|-9--------------18-18---------|---------------9----------|
D|------------------------------|----9-9---9-9----9-9---9-9|
A|-0-----11---------------------|11-11--11--11-11----11----|
E|--------------14------14------|-0------0-----------------|

E|14------------------0-0----0---9-10|
B|----0--0-----0-0-12----------------|
G|-----------------------13------9---|
D|-----------------12----------------|
A|11-11-11-11-11---11----------------|
E|10-------10------------------------|

E|12------------------------|10----------10-9-7-7----|
B|------10----11------------|-7-----7------------10-9|
G|---9-9---9-9--------9-----|---7-7---7-7---7-7-7-7-7|
D|--------------11-11--11-11|------------------------|
A|-------------9------------|---------------7-7---7-7|
E|-9------------------------|-7-----------0-----0----|

E|--------------------------12-----13|
B|-----------------------------------|
G|14---------------------------------|
D|11---------------------------------|
A|-0---------------------------------|
E|--12-12-12-12-12-12-12-12-12-12-12-|

E|14------12-10-9-------10----|
B|---------------12-10-9--12-9|
G|-9-9-9-9-9--9-9-9--9-9------|
D|-0-0-0-0-0--0-0-0--0-0------|
A|----------------------------|
E|-0-0-0-0-0--0-0-0--0-0------|

E|--------------------9-0----------12---13|
B|10----12-10-9-10-12---------------------|
G|----------------------------------9-----|
D|----------------------------------------|
A|-0--------------------------------------|
E|----------------------0-0-0-0-0-0-0-0-0-|

E|14------12-10-9-------10--|-0------------12-10-9-10-14-12-10|
B|---------------12-10-9---9|10----------------9--------------|
G|-9-9-9-9-9--9-9-9--9-9-9-9|---------------------------------|
D|-0-0-0-0-0--0-0-0--0-0-0-0|11-------------------------------|
A|--------------------------|-0-------------------------------|
E|-0-0-0-0-0--0-0-0--0-0-0-0|------------------0--------------|

E|-9--------------9--------10-9--|--------------------------|
B|-----------------12-11-12----12|10-----------2-0----------|
G|-------------------------------|---------------1-3-4-7-6--|
D|11----------------0------------|11-------------0---------9|
A|-0---------------11------------|-0------------------------|
E|------------------0------------|---------------0----------|

E|------------------|
B|------------------|
G|------------------|
D|-7---7---7=======-|
A|-4---4---4=======-|
E|-5---5---5=======-|

Вверх

Пятая симфония

E|---3-3-3------1-1-1------------------------------------------|
B|2--------4----------3-------------------4-4-4-1--------------|
G|/--0-0-0----------------0-0-0---1-1-1-0--------------0-0-0---|
D|4--------1----3-3-3-0---------1----------------------------0-|
A|-------------------------------------------------------------|
E|-------------------------------------------------------------|

E|---------1-1-1---3-3-1-----------3-3-1-----------3-3-1-----2-|
B|---------------3-------4-------3-------4-------3------4----3-|
G|-1-1-1-0-----------------------0---------------0------5--5-4-|
D|-------------------------1-1-3-----------1-1-3--------5--4-5-|
A|---------------------------------------------------------6-5-|
E|-----------------------------------------------------------2-|

E|-4-4-4-1-----------------------------------------------------|
B|-------------------------------------------------------------|
G|-1-1-1-----1-1-1---------------------1-1-1-------------------|
D|-------3---------3-0-0-0-----------1-------3-0-0-0-----------|
A|-------------------------2-------------------------2---------|
E|---------------------------4-4-4-3-------------------4-4-4-3-|

E|-2-2-2-----------------------------------|
B|-3-3-3-4---1-1-1-0-0-0-3-3-1-1-1-4-4-3-3-|
G|-0-0-0-5-0-------------------------------|
D|-------5---------------------------------|
A|-----------------------------------------|
E|-----------------------------------------|

E|-1-1-0-0-3-3-1-1-4-4-3-3-6-6-|
B|-----------------------------|
G|-----------------------------|
D|-----------------------------|
A|-----------------------------|
E|-----------------------------|

E|-4-4-8-8-7-710-8-11-11-11-8------------------|
B|----------------------------8-8-8------------|
G|----------------------------------8----------|
D|-----------------------------------10--------|
A|-------------------------------------1010-6--|
E|---------------------------------------------|

E|-13------------------------|
B|---151512------------------|
G|---------121010-7----------|
D|------------------9--------|
A|-------------------10-8----|
E|------------------------10-|

E|-11-11-11-------------------5-5-5--------6-------------------|
B|---------13101010-----------7-7-7--------6-------------------|
G|-----------------11-8-8-8---8-8-8--------7-----------------8-|
D|-------------------------10----------------------------8-----|
A|-------------------------------------------------------------|
E|-------------------------------------------------------------|

E|-------------------11-10-11-13-8---8-------------------------|
B|----------------11--------------------11---------------------|
G|-7-8-10----------------------------------------8---7---8--10-|
D|--------10-10-8----------------------------8-----------------|
A|-------------------------------------------------------------|
E|-------------------------------------------------------------|

E|----------6--8--9--8--6--8--6--4--9--11--13--11--9--11--9--8-|
B|-------------------------------------------------------------|
G|-------------------------------------------------------------|
D|-10--10-8----------------------------------------------------|
A|-------------------------------------------------------------|
E|-------------------------------------------------------------|

E|-------8-----8-----6-----6-----5-----5-----5-----5-----5-|
B|-4--6--7--6--4--6--7--6--4--6--7--6--4--6--7--6--4--6--7-|

E|---5-5-6-8-6-4-4-3-1-----------------------------------5-6-5-|
B|-6-7-4-9-------------4-4-3-1-3-6-4-----3-1-----1-------------|
G|------10---------------------------3-0-----1-----3-0---------|
D|---------------------------------------------3-------0-------|
A|-------------------------------------------------------------|
E|-------------------------------------------------------------|

E|-6-5-6-5-6-8-6-4-4-3-1-------------------|
B|-----------------------4-4-3-1-3-6-4-----|
G|-------------------------------------3-0-|
D|-----------------------------------------|
A|-----------------------------------------|
E|-----------------------------------------|

E|---------------------6-6---15151511---|
B|-3-1---------------------8---------11-|
G|-----1---5-3--------------------------|
D|-------3-----0-0---8------------------|
A|--------------------------------------|
E|--------------------------------------|

                           (15 и 11)
E|------------------------15151511-------|
B|-1111-8-4-4-4---6-6-6-8---------111111-|
G|----------------7-7-7-8----------------|
D|--------------8------------------------|
A|---------------------------------------|
E|---------------------------------------|

E|-------------------6-6-6-6-|
B|-8-4-4-4---6-6-6-8-6-6-6-8-|
G|-----------7-7-7-8-7-7-7-8-|
D|---------8-------8---------|
A|---------------------------|
E|---------------------------|

E|-10101011--|--6-6-6-3----------------------------------------|
B|-11111111-o|---------------------------------1-1-1---3-3-3-1-|
G|-10101012--|---------------------------------------1---------|
D|-----------|-------------------------------------------------|
A|----------o|----------4-4-4-3--------------------------------|
E|-----------|-------------------------------------------------|

E|-4-4-4-1---------------6-6-6-3-8-8-6-4-----3-8-8-6-4-------3-|
B|---------1-1-1--3-3-3-1--------------------1---------------1-|
G|--------------0----------------------1-1-3-0-------1-1-1-3-0-|
D|-------------------------------------------------------------|
A|-------------------------------------------------------------|
E|-------------------------------------------------------------|

E|-8-8-6-4-4-4-3-1-1-1---------------------------------------6-|
B|---------------------4-3-3-3-1-0-4-4-6-8-4-4-6-8------10-----|
G|-------------------------------------------------------------|
D|-------------------------------------------------------------|
A|-------------------------------------------------------------|
E|-------------------------------------------------------------|

E|-8-9-101010-8-6-51010-8-6-5------3-3-5-6---------2-5-6-8-----|
B|-----------10-8-7-------8-7--------------------1-------------|
G|-------1111------------------------------0-2-3-------------2-|
D|---------------------------------------------------------4---|
A|-------------------------------------------------------------|
E|-------------------------------------------------------------|

E|-------5-6-8-----------6-810------------|
B|-----7---------------8---------------8--|
G|-3-5-------------5-7---------------7----|
D|-------------7-8---------------810------|
A|----------------------------10----------|
E|----------------------------------------|

              (11 и 10)
E|6-8-10-6-810111111111111111111-|
B|------------101010101010101010-|
G|------------111111111111111111-|
D|-------81012-------------------|
A|-------------------------------|
E|-------------------------------|

   (12 и 11)
E|-121212121212121212121212--10101010---9-9-9---101010101010---|
B|-111111111111111111111111--11111111--111111---101010-------8-|
G|-121212121212121212121212--12121212--121212------------------|
D|-------------------------------------------------------------|
A|-------------------------------------------------------------|
E|-------------------------------------------------------------|

E|-5-----------------------2-2-5---1010--151515-8-----10-------|
B|-----3-----------1-1-3-----------101012--------------------8-|
G|---------------------------------111112121212----------------|
D|-----0---4-4-4-----------------------------------------------|
A|-------------------------------------------------------------|
E|-------------------------------------------------------------|

E|-3-----7-710--151512-----------|---------------1------3------|
B|-0-0-0-7-7----151513131313---8-|o---------------------------o|
G|--------------1212--------10---|----------------------0------|
D|-------------------------------|-2------3--------------------|
A|-------------------------------|o---------------------------o|
E|-------------------------------|-----------------------------|

в "-" 2/4

E|-|-|5|6|-|7|-|9|-|9-|-|9-|-|9-|-|10|-|10|-|10|-|10|
B|-|-|-|-|-|-|-|-|-|10|-|10|-|10|-|10|-|10|-|10|-|10|
G|-|2|-|-|-|-|-|-|-|--|-|11|-|11|-|11|-|11|-|11|-|11|
D|4|-|-|-|-|-|-|-|-|--|-|--|-|--|-|--|0|--|0|--|0|--|
A|-|-|-|-|1|-|2|-|4|--|0|--|0|--|0|--|0|--|0|--|0|--|
E|-|-|-|-|1|-|2|-|4|--|-|--|-|--|-|--|-|--|-|--|-|--|

E|-101010|10|10|10|-|10|-|
B|-------|12|13|10|-|10|-|
G|-------|--|--|--|-|--|-|
D|-------|--|--|--|0|--|0|
A|-------|--|--|--|-|--|-|
E|-------|--|--|--|-|--|-|

E|10|-|10|-|10|
B|10|-|10|-|10|
G|--|-|--|-|--|
D|--|0|--|0|--|
A|--|-|--|-|--|
E|--|-|--|-|--|

 теперь всё как в начале
E|--------4-4-4-1-------4-4-4-1--------4-4-4-1-4-4-4-1151515|15|
B|----------------------------------------------------------|16|
G|----------------------------------------------------------|--|
D|-0--------------------------------------------------------|--|
A|----------------------------------------------------------|--|
E|-4-4-4-1-------4-4-4-1-------4-4-4-1-4-4-4-1-4-4-4-1------|--|

E|-151515|15|-|-|------|
B|-181818|15|-|-|------|
G|-------|--|-|-|-0-0-0|
D|-------|--|-|-|------|
A|-------|--|-|-|------|
E|-------|--|-|-|------|

E|-----------------------------------1-1-1|-|
B|-----------4-4-4-1----------------------|3|
G|---1-1-1-0---------0-0-0---1-1-1-0------|-|
D|-1-----------------------0--------------|-|
A|-3-----------------------2--------------|-|
E|----------------------------------------|-|


E|-3-3-1-----------3-3-1-----------3-3-1|-|-|
B|-------4-------3-------4-------3------|4|1|
G|-------0-------0-------0-------0------|0|-|
D|---------1-1-3-----------1-1-3--------|-|4|
A|--------------------------------------|-|-|
E|--------------------------------------|-|-|

   Adagio(медленнее)
E|3-1-------------1---------|
B|3-----4---3-4313----4---3-|
G|4-------------------------|
D|5-------------------------|
A|5-------------------------|
E|3-------------------------|

E|-----------------------------------------7-7-----------------|
B|-----------------------------------------6-6-0-0-0-1---1-1-1-|
G|-1-1-1-------------------1-1-1-----------7-7---------0-------|
D|-------3-0-0-0-----------------3-----------------------------|
A|---------------2---------------------------------------------|
E|-----------------4-4-4-3---------4-4-4-1---------------------|

E|------------------------------|
B|-0-0-0-3-3------1-1-1-4-4-3-3-|
G|------------------------------|
D|------------------------------|
A|------------------------------|
E|------------------------------|

E|-1-1-0-0-3-3-1-1-4-4-3-3-6-6-4-4-8-8-7-7-10-8-|
B|----------------------------------------------|
G|----------------------------------------------|
D|----------------------------------------------|
A|----------------------------------------------|
E|----------------------------------------------|

E|111111-8--------------|-|--13--------------------|
B|---------8-8-8--------|-|----151512--------------|
G|---------------8------|-|----------121010-7------|
D|----------------10----|-|-------------------9----|
A|------------------1010|6|--------------------10-8|
E|----------------------|-|------------------------|

E|--|--111111-----------------|
B|--|--------13101010---------|
G|--|----------------11-8-8-8-|
D|--|-------------------------|
A|--|-------------------------|
E|10|-------------------------|

		 	 в "-" 1/16
E|--|2|-|-|3|-------|-|-|-|
B|--|4|-|-|3|-------|-|-|-|
G|--|5|-|-|-|--0-0-0|-|-|-|
D|10|-|-|-|-|-------|-|0|-|
A|--|-|-|-|-|-------|3|-|-|
E|--|-|-|-|-|-------|-|-|3|

E|-------------------8-7-810-------------------------8-|
B|---1-0-1-3-------8--------1010-8---1-0-1-3-------8---|
G|-0---------2-2-0-----------------0---------2-2-0-----|
D|-----------------------------------------------------|
A|-----------------------------------------------------|
E|-----------------------------------------------------|

E|-7-810---------------------------------------|
B|------1010-8---1-2-1-------------------------|
G|-------------3-------3-5-3-2-5-7-8-7-5-6-5-4-|
D|---------------------------------------------|
A|---------------------------------------------|
E|---------------------------------------------|

E|---------------------------------|
B|-6-8-9-8-6-8-9-8-6-8-9-8-6-8-9-8-|
G|---------------------------------|
D|---------------------------------|
A|---------------------------------|
E|---------------------------------|

                              |1/8 в "-"
E|----------------------------|15|
B|-7-810-8-7-810-8-7-8-7-8-7-8|--|
G|----------------------------|--|
D|----------------------------|--|
A|----------------------------|--|
E|----------------------------|--|

E|-1715131312------------10-8-----7-5-----5-3---|
B|-----------151313121012-----8-5-----6-3-----4-|
G|----------------------------------------------|
D|----------------------------------------------|
A|----------------------------------------------|
E|----------------------------------------------|

E|-----2-3-2-3141514151715131312------------10-|
B|---0--------------------------151313121012---|
G|-5-------------------------------------------|
D|---------------------------------------------|
A|---------------------------------------------|
E|---------------------------------------------|

E|-8-----7-5-----5-3---------3-3-|
B|---8-5-----6-3-----4-----0-----|
G|---------------------5---------|
D|-----------------------0-------|
A|-------------------------------|
E|-------------------------------|

E|-121212------------------10101012121212-8-|
B|-------13----------------12121213---------|
G|---------121212-9-5-5-5-0---------9-9-9-5-|
D|------------------------------------------|
A|------------------------------------------|
E|------------------------------------------|

E|---------8-8-8--------|-|---8-8-8|8|
B|-8-8-8-5-------8------|5|---8-8-8|5|
G|-----------------7-7-7|-|--------|-|
D|----------------------|-|--------|-|
A|----------------------|-|--------|-|
E|----------------------|-|--------|-|

E|-7-7-7|8|--8-8-8|8|--8-8-8|8|--8-8-8|8|
B|-8-8-8|8|--8-8-8|6|--6-6-6|8|--8-8-8|9|
G|-7-7-7|9|--9-9-9|-|-------|-|-------|-|
D|------|-|-------|-|-------|-|-------|-|
A|------|-|-------|-|-------|-|-------|-|
E|------|-|-------|-|-------|-|-------|-|

E|--8-8-8-9-9-9-9-9-9-9-9-9-9-9-9-|
B|--9-9-9-9-9-9-9-9-9-9-9-9-9-9-9-|
G|-------101010101010101010101010-|
D|--------------------------------|
A|--------------------------------|
E|--------------------------------|

E|--9-9-9-9-9------|--|-|-11111111--111111111111111111111111-8-|
B|--9-9-9-9-9------|--|-|-13131313--131313131313131313131313---|
G|-1010101010------|-1|-|-14141414--141414141414141414141414---|
D|------------3-3-3|--|-|--------------------------------------|
A|-----------------|--|-|--------------------------------------|
E|-----------------|--|-|--------------------------------------|

E|-8-811---------------------4-3-4-3-4-3|-|
B|---------------------4-6-8------------|-|
G|-------0-0-0---4-5-8------------------|-|
D|-------------1------------------------|-|
A|--------------------------------------|-|
E|--------------------------------------|-|

E|--------------4-3-4-3-4-3-4-3-6-4-|
B|--------4-6-8---------------------|
G|--4-5-8---------------------------|
D|----------------------------------|
A|----------------------------------|
E|----------------------------------|

E|------------------------10-81110-8-610-|
B|-8-6-9-8-6-4-8-6-4-3-6-4---------------|
G|---------------------------------------|
D|---------------------------------------|
A|---------------------------------------|
E|---------------------------------------|

E|-8-6-4-8-6-4-3-6-4---3---3---3---3---3-|
B|-------------------6---4---3---4---6---|
G|---------------------------------------|
D|---------------------------------------|
A|---------------------------------------|
E|---------------------------------------|

E|---3---3-3-8---8---8---8--13--13--13--13--1311-8-10-11-13-10-|
B|-4---6-------9---8---9--12--13--12--13--15-------------------|
G|-------------------------------------------------------------|
D|-------------------------------------------------------------|
A|-------------------------------------------------------------|
E|-------------------------------------------------------------|

E|-11-13-15-11-13-15-4-1-3-5--7--3---5---7---8---3---4-------1-|
B|-------------------------------------------------------4-----|
G|-------------------------------------------------------------|
D|-------------------------------------------------------------|
A|-------------------------------------------------------------|
E|-------------------------------------------------------------|

E|--------------------------------------------6---8---9---6----|
B|-3--4--6--8--7--8-----1--3--4--6--3------------------------0-|
G|-------------------0-----------------------------------------|
D|------------------------------------1-3-5-1------------------|
A|-------------------------------------------------------------|
E|-------------------------------------------------------------|

E|-----------8--10--11--10--8--7--4--3--------4--3--16--15--15-|
B|-1---3--0-----------------------------------------18--16--16-|
G|--------------------------------------1--0-------------------|
D|-------------------------------------------------------------|
A|-------------------------------------------------------------|
E|-------------------------------------------------------------|

E|-15-------------------------4--3--------16--15--15--15-------|
B|-15-4---3---1---------------------1--1----------16--15-------|
G|----------------3---1---0-----------------------------17-0-0-|
D|------------------------------------------------------17-----|
A|-------------------------------------------------------------|
E|-------------------------------------------------------------|

                                    crescendo
E|-----3-3-3-3--3--3--3--3--3--3--3----------3-3-3-3-315151515-|
B|-----3-3-3-3--3--4--6--3--4--6--4-------------------------16-|
G|-0-0-------------------------------0-0-0-0-0-0-0-0-0121212---|
D|-------------------------------------------------------------|
A|-------------------------------------------------------------|
E|-------------------------------------------------------------|

E|-151515-|-15-|
B|-181818-|-15-|
G|--------|----|
D|--------|----|
A|--------|----|
E|--------|----|

E|-------------------------4-3-------------------------|
B|-----------------4-4-4-1---------------------4-4-4-1-|
G|-0-0-0---1-1-1-0-------------0-0-0---1-1-1-0---------|
D|-------1---------------------------1-----------------|
A|-----------------------------------------------------|
E|-----------------------------------------------------|

E|-4-315151515-15151515-15151515--7---8--7---8---7---8---7---8-|
B|----12121213-12121213-12121213-------------------------------|
G|----12121212-12121212-12121212--7---8--7---8---7---8---7---8-|
D|--------------------------------9--10--9--10---9--10---9--10-|
A|-------------------------------------------------------------|
E|-------------------------------------------------------------|

E|-7----------8-|
B|------------8-|
G|-7----------8-|
D|-9---------10-|
A|--------------|
E|--------------|

Вверх

Тема из "6-ти Вариаций в G"

Обозначения:
 . Четверть
 ; Шестнадцатая
 ~ Пауза

Все ноты, кроме указанных, являются восьмушками.

E|-----|---------------|---------------|--------0---0-|
B|--3--|--0-0-3-----1--|----0-3-0---3--|--3-----------|
G|-----|--0---4-2---2--|--0---0---0----|------0-----2-|
D|-----|--------0-4----|------------0--|----0-----2---|
A|-----|---------------|---------------|--2-----3-----|
E|-----|---------------|---------------|--------------|

E|---------------|---------------|--------0---0-|--------------|
B|---------------|--0-0-3-1-0-1--|--3-0-3-------|------0-----1-|
G|--2---2-----2--|--0---4-0-2----|--0---------2-|--0-0-0-2---2-|
D|--0-4---0-4----|---------------|----------2---|--0-----0-4---|
A|---------------|---------------|--------3-----|--------------|
E|---------------|---------------|--------------|--------------|
         .			     ; ;
E|---------------|--------0------|---------------|-------------|
B|----0-3---3----|----0-3---0-3--|-1---1-1-----1-|-----1-3---1-|
G|--0-----0------|--1---1--------|---2-------2---|---2-----2---|
D|---------------|--2-----2------|-2-------2-----|-4---4-0-----|
A|---------------|---------------|---------------|-5-----------|
E|---------------|---------------|---------------|-------------|
     ; ;			     .   .
E|-----------------|---------------|---------|--------------|
B|--0---0-0-----0--|--2---2-2-0-2--|--3-~-3--|--1---1-0---0-|
G|----0-------0-0--|----0-2---0-2--|--2------|------2---0---|
D|--0-------0------|--2-----2------|--4------|--0-4---0-----|
A|-----------------|---------------|--5------|--------------|
E|-----------------|---------------|---------|--------------|

E|---------------|---------------|--------0---0-|--------------|
B|---------------|--0-0-3-1-0-1--|--3-0-3-------|------0-----1-|
G|--2---2-2---2--|--0---4-0-2----|--0---------2-|--0-0-0-2---2-|
D|--0-4---0-4----|---------------|----------2---|--0-----0-4---|
A|---------------|---------------|--------3-----|--------------|
E|---------------|---------------|--------------|--------------|
         .
E|----------|
B|----0-3---|
G|--0-----0-|
D|----------|
A|----------|
E|----------|

Вверх
English songs 109

ABBA
AC-DC
Adams Bryan
Adriano Celentano
Aerosmith
A-Ha
Animals
Antonio Banderos
Apocalyptica
Armstrong Louis
Billy's Band
Bjork
Blink 182
Blondie
Blur
Bob Dylan
Boney M
Bon Jovi
Bowie David
Brainstorm
Braxton Toni
Butch
Celine Dion
Chris De Burgh
Chris Isaak
Chuck Berry
Clapton Eric
Cohen Leonard
Cranberries
Deep Purple
Depeche Mode
Dire Straits
Donovan Jason
Eagles
Electric Light Orchestra
Elton John
Elvis Presley
Era
Europe
Evanescence
Garbage
Gary Moore
Glen Wiston
Gorillaz
Green Day
Guano Apes
Guns N Roses
Hendrix Jimi
Iggy Pop
Iron Maiden
Joe Dassin
Kansas
King Crimson
Kiss
Led Zeppelin
Leonard Cohen
Limp Bizkit
Linkin Park
Louis Amstrong
Madonna
Marilyn Manson
Marley Bob
Metallica
Moby
Morricone Ennio
Muse
Nazareth
Nelly Furtado
Nick Cave
Nirvana
No Doubt
Oasis
Offspring
Ottawan
Outkast
Ozzy Osbourne
Pain
Para Bellum
Pink Floyd
Placebo
P.O.D.
Queen
RadioHead
Rainbow
Rammstein
Rea Chris
Red Hot Chili Peppers
Ritchie Blackmore
Rolling Stones
Roxette
Rufus Wainwright
Santana
Sarah Brightman
Scorpions
Sex Pistols
Simon & Garfunkel
Shocking Blue
Soul Asylumx
Status Quo
Sting
System of a down
Sum 41
The Beatles
The Doors
Tito & Tarantula
U2
UB 40
Uriah Heep
Van Halen

Українські пісні 109

Boom Box
Escape
Flit
Kapela Drewutnia
Lama
LЮK
Mad Heads (XL)
Motor' rolla
NEON
Ot Vinta
The Вйо
Абздольц
Аероплан
Акорд
Ані Лорак
Бандурна розмова
Білик Ірина
Борщ
Брати Гадюкіни
Вася Club
Вій
Воплі Відоплясова
Гайдамаки
Гончар Олесь
Гринжоли
Гроно
Гуляйгород
Дарка і Славко
Дивні
Друга Ріка
Другий подих
Дударик
Експампей
Євтушенко Андрій
Жарівка (Дяк Олесь)
Журбовіз
Зібров Павло
Зінкевич Василь
Злотник Олександр
Івасюк Володимир
Калєкція
Карна
Карпа Ірена
Клямка
Козловський Віталій
Кому вниз
Крихітка Цахес
Курінь
Лесик-Band
Лорд Юрія
Львівські музики
Мандри
Менестрелі
Мері
Мертвий Півень
Міпеніум
Монте Крісто
Морозов Віктор
Нахтіґаль
Не журись!
Неборак Віктор
НеДІля
НЕМО
Нічлава блюз
Океан Ельзи
ПереBANDя
Перкалаба
Петрович
Піккардійська Терція
Піпа Олександр
Плач Єремїі
Пономарьов Олександр
Пророк
Росава
Ротару Софія
Руслана
Рутенія
С.К.А.Й.
САД
Самі свої
Серцевий Напад
Скрябін
Смерічка
Сокира Перука
Соколи
Таліта Кум
Тартак
Тінь сонця
Ткач Михайло
ТНМК
Тостер
Тріо Мареничів
Фарбований лис
Фестиваль Снів
Хвилю тримай
Цісик Квітка
Черемош
Черемшина
Четвертий кут
Чорний вересень
Чорні черешні
Шевченко Тарас
Щастя
Юркеш
Юрченко Юрко
Юрчишин Ярослав
Явір
Яка існуЄ
Яремчук Назарій

   
 sait@i.ua



Рейтинг@Mail.ru