accordS-land.ru Аккорды и табулатуры к гитаре.
Главная | Песенник | Аккорды | Учебник
Руссике песни 180
5nizza
7Б
9-й Район
Animal ДжаZ
Billy's Band
Butch
Para Bellum
TequilaJazzz
Worms
Zdob Si Zdub
Автоматические удовлетворители
Агата Кристи
Агузарова Жанна
Агутин Леонид
Адо
Аквариум
Алиса
Алсу
Амирамов Е.
Антонов Ю.
Арефьева Ольга
Ария
АукцЫон
Барыкин
Башаков Михаил
Башлачев Александр
БекХан
Бернес М.
Би - 2
Бони неМ
Борзов Найк
Боярский Михаил
Браво
Братья Грим
Ва-Банкъ
Вертинский Александр
Визбор Юрий
Високосный год
Воскресенье
Восьмая Марта
Высоцкий В.С.
Високосный год
Газманов О.
Галич Александр
Герман А.
Городницкий Александр
Глызин А.
Градский Александр
Гражданская Оборона
Гребещенков
Данко
ДДТ
Дидюля
Диоды
Дискотека Авария
Дягилева Янка
Ёлка
Жуки
Заблудовский Андрей
Запрещенные Барабанщики
Звери
Земляне
Земфира
Зинчук Виктор
Зоопарк
Иван Кайф
Иванов А.
Иваси
ИЗ КИНО И МУЛЬТФИЛЬМОВ
Империя
Калинов мост
Кашин Павел
Кельми К.
КИНО
Кипелов
Конец Фильма
Контингент
Корни
Король и Шут
Коррозия металла
Крематорий
Крупнов Анатолий
Кузьмин Владимир
Куликов Е.
Кукрыниксы
Курехин Сергей
Лаэртский Александр
Ласковый май
Ленинград
Леонидов Максим
Лесоповал
Лещенко Л.
Линда
Лицей
Лоза Юрий
Любэ
Люмен
Ляпис Трубецкой
Мальчишник
Манго-манго
Мара
Маркин В.
Маршал Александр
Маша и медведи
Машина времени
Мечтать
Мистер Кредо
Митяев Олег
Многоточье
Монгол Шуудан
Моральный Кодекс
Мультfильмы
Мумий Тролль
Настя
Науменко Майк
Наутилус Помпилиус
Непара
Неприкасаемые
Несчастный случай
Никоваев И.
Никольский Константин
Ногу свело
Ноль
Носков Николай
Ночные Снайперы
Окуджава Булат
Оркрист
Осин Е.
Оскар
Отиева И.
Паперный Т.А.М.
Парк Горького (Gorky Park)
Пикник
Пилот
Пламя
Полковник и однополчане
Пугачева А.
ПЭХ
Приключения Электроников
Просто прикольные песни
Рада и Терновник
Римский-Корсаков
Розенбаум Александр
Рок-Острова
Рондо
Сансара
Саруханов
Сегодня Ночью
Секрет
Сектор газа
Сенчина Л.
СерьГа
Смысловые Галлюцинации
Сплин
Солодуха А.
Старые блатные песни
Сукачев Гарик
Сурганова и Оркестр
Сюткин Валерий
Тальков Игорь
Танцы минус
Тараканы
Тату
Технология
УмаТурман
Умка и Броневичок
Ундервудъ
Фабрика звезд
Х.З. (Хуй Забей)
Центр
ЧайФ
Черный кофе
Черный Лукич
Чиж и Ко
Чистяков Федор
Шанхай
Щербаков Михаил
Ю-Питер

Классика 22

Албениз Исаак
Албениз Матео
Бах Иоган Себостьян
Бетховен Людвиг ван
Бизе Жорж
Брамс Иоганнес
Вивальди Антонио
Гендель Георг Фридрих
Гершвин Джордж
Григ Эдвард
Дебюсси Клод
Камиль Сен-Санс
Мендельсон
Моцарт Вольфгант Амадей
Мусоргский Модест Пертрович
Норис Крис
Огинский Михал Клеофас
Паганини Никколо
Рахманинов Сергей Васильевич
Римский-Корсаков
Чайковский Пётр Ильич
Шуберт Франц
 

Аккорды и табулатуры.  Вивальди Антонио . Все песни

Вивальди Антонио

Spring
The Four Seasons, Op.8 No.1-4
Весна
Зима
Концерт №6 в Am для виолночели
Концерт №9 в D
Концерт Барроко
Концерт в Am op.3 №8
Концерт в D 1-ая часть, Аллегро
Концерт в D 2-ая часть, Ларго
Концерт в D 3-ая часть, Аллегро
Концерт в D 3-ая часть, Аллегро
Концерт в Dm
Вверх

Spring

Intro theme

1                       2
E|-0--4-4-4-----7---7-5-|-4-4-4-----7---7-5-|
B|-0--5-5-5-7-5-9-------|-5-5-5-7-5-9-------|
G|----------------------|-------------------|
D|----------------------|-------------------|
A|-7--7---7-----7-7-----|-7---7-----7-7-----|
E|----------------------|-------------------|

3
E|-4--5^7^5---------|
B|-5--5-----9-7-----|
G|------------8-8---|
D|--------------9-9-|
A|-7--7-----------9-|
E|--------5-6-7-----|

4                       5
E|-0--4-4-4-----7---7-5-|-4-4-4-----7---7-5-|
B|-0--5-5-5-7-5-9-------|-5-5-5-7-5-9-------|
G|----------------------|-------------------|
D|----------------------|-------------------|
A|-7--7---7-----7-7-----|-7---7-----7-7-----|
E|----------------------|-------------------|

6
E|-4--5^7^5-----|
B|-5--5-----9-7-|
G|------------8-|
D|--------------|
A|-7--7---------|
E|--------5-6-7-|

Main theme
7                      8
E|---7----------7-9--7--|---7----------7-9--7--|
B|-9-9--10^9-10-9-10-9--|-9-9--10-9-10-9-10-9--|
G|-9-----9---9----------|-9-----9---9----------|
D|----------------------|----------------------|
A|-7-7-------7----7----7|---7-------7----7---7-|
E|----------------------|----------------------|

9                      tr
E|---9--7----5--4--2-0--2(4)--0--0-|
B|-9-10-9----7--5-------4--------0-|
G|-9-----------------------------1-|
D|----------------------9--------2-|
A|---7----7-----7----------------2-|
E|-----------7-----0----------7--0-|

10                     11
E|-0-7----------7-9--7--|-0-7----------7-9--7-|
B|-0-9--10^9-10-9-10-9--|-0-9--10-9-10-9-10-9-|
G|-------9---9----------|-------9---9---------|
D|----------------------|---------------------|
A|---7-------7----7----7|---7-------7-----7---|
E|----------------------|---------------------|

12                     tr        tr   tr
E|-0-9--7----5--4--2-0--2(4)--0--7(9)--7(9)-|
B|-0-10-9----7--5-------4-------------------|
G|------------------------------------------|
D|----------------------9-------------------|
A|---7----7-----7---------------------------|
E|-----------7-----0----------7---0---------|

13 tr          tr      tr          tr
E|-7(9)----------------7(9)--------------|
B|-----10-9-10-9(10)-------10-9-10-9(10)-|
G|---------------------------------------|
D|---------------------------------------|
A|---------------------------------------|
E|---------------------------------------|

14    *             *
|-7-7-----------7-7---------|
|----10^9^7--------10^9^7---|
|-----------9-------------9-|
|---------------------------|
|---------------------------|

15 tr          tr      tr          tr
E|-7(9)---------------7(9)-------------7-9-11-|
B|-----10-9-10-9(10)------10-9-10-9(10)-------|
G|--------------------------------------------|
D|--------------------------------------------|
A|--------------------------------------------|
E|--------------------------------------------|

16                  17   *          *
E|12-11-9------------|7-7--------7-7--------|
B|-------12-10-9-----|---10^9^7-----10^9^7--|
G|--------------11-9-|---------9----------9-|
D|-------------------|----------------------|
A|-------------------|----------------------|
E|-------------------|----------------------|

18    *
E|-7-7----------7-9-11-12-11-9------------|
B|----10^9^7------------------12-10-9-----|
G|-----------9-----------------------11-9-|
D|----------------------------------------|
A|----------------------------------------|
E|----------------------------------------|

19           speed up >>>           tr
E|----------------------------------------|
B|-9--10^9--10^9--10^9--10^9--10^9--9(10)-|
G|----------------------------------------|
D|----------------------------------------|
A|----------------------------------------|
E|----------------------------------------|

20            21
E|-7--7-12-7-9|7--7-12-7-9-7-12-7-9-7-12-7-9-7-|
B|------------|--------------------------------|
G|------------|--------------------------------|
D|------------|--------------------------------|
A|------------|--------------------------------|
E|------------|--------------------------------|

22                        tr
E|-12-7-9-7-12-7-9--7--0--4(5)-|
B|-----------------------------|
G|-----------------------------|
D|-----------------------------|
A|-----------------------------|
E|-----------------------------|
23
E|--------------------------------------------|
B|-0--0-5-0-2-0-5-0-2-0-5-0-2-0-5-0-2-0-5-0-2-|
G|--------------------------------------------|
D|--------------------------------------------|
A|--------------------------------------------|
E|--------------------------------------------|
      24
E|----|---------------------------------------|
B|0---|---------------------------------------|
G|----|-----4--------4-----4-----4-----4------|
D|--2-|-2--2-2-4-2--2-2-4-2-2-4-2-2-4-2-2-4-2-|
A|----|---------------------------------------|
E|----|---------------------------------------|
25
E|---------|  Repeat main theme from meas. 7-9-|
B|---------|-----------------------------------|
G|--4------|-----------------------------------|
D|-2-2-4-2-|-----------------------------------|
A|---------|-----------------------------------|
E|---------|-----------------------------------|

29
|-0-----------------------------|
|-0-----------------------------|
|-1-1^2^4^2^4^2^1^2^1^2^4^2^4^2-|
|-2-2^4^6^4^6^4^2^4^2^4^6^4^6^4-|
|-2-----------------------------|
|-0-----------------------------|

30
|---------------------------------|
|-------------------------0^2^0^2-|
|^1^2^1^2^4^2^4^2^1^2^1^2^1^2^1^2-|
|-2^4^2^4^6^4^6^4^2^4^2^4---------|
|-2-------------------------------|
|-0-------------------------------|

31
|---------------------------------|
|-4^5^4^5^7^5^7^5^4^5^4^5^7^5^7^5-|
|-4^6^4^6^8^6^8^6^4^6^4^6^8^6^8^6-|
|-4-------------------------------|
|-2-------------------------------|
|---------------------------------|

32
|------------------------------------|
|-4^5^4^5^7^9^7^9^10^9^10^9^7^10^9^7-|
|-4^6^4^6^8^9^8^9^11^9^11^9^8^11^9^8-|
|-4----------------1-----------------|
|-2----------------2-----------------|
|------------------------------------|

33
E|-------------------------------|
B|-9^7^5^------------------------|
G|-9^8^6-8^6^4^2^1^2^1^2^4^2^4^2-|
D|-9-----9^7^6^4^2^4^2^4^2^4^2^4-|
A|-7-----------------------------|
E|-------------------------------|

34
|---------------------------------|
|-1^2^1^2^4^2^4^2^1^2^1^2^4^2^4^2-|
|-2^4^2^4^6^4^6^4^2^4^2^4^6^4^6^4-|
|-9-------------------------------|
|-7-------------------------------|
|---------------------------------|

35      Slow down
E|-------4-----5-----------|
B|-------------------------|
G|-1-----------------------|
D|-2--2--2--2--1--1--1--1--|
A|--2--2--2--2--2--2--2--2-|
E|-------------------------|

36
E|-4-----------2-----------|
B|-------------------------|
G|-------------------------|
D|-2--2--2--2--4--4--4--4--|
A|--2--2--2--2--2--2--2--2-|
E|-------------------------|

37
E|-------4-----5-----------|
B|-------------------------|
G|-------------------------|
D|-2--2--2--2--1--1--1--1--|
A|--2--2--2--2--2--2--2--2-|
E|-------------------------|

38
E|-------4-------|
B|-------------7-|
G|-1-----------8-|
D|-2--2--2--2--9-|
A|--2--2--2--2-2-|
E|---------------|

39                    40
E|--------------------|--------------------|
B|-4--7-------7-9-7---|-4--7-------7-9-7---|
G|-4--8-9-8-9-8-9-8---|-4--7-------7-9-7---|
D|--------------------|--------------------|
A|--------------------|--------------------|
E|-7--7-------7-7---7-|-7--7-------7-7---7-|

41                   tr
E|---------------------------|
B|-4---9-7---5-4-2-0--2(4)---|
G|-4---9-7---6-4-------------|
D|-------------9-------------|
A|-----------9---7----9------|
E|-----7---7---------------2-|

42 1   +   2   +   3   +   4   +
G|---|
D|-0-|
A|---|
E|---|
|---222222222222222222222222222222-|
|----------------------------------|

43 * (a blur of eight 32nd notes)
E|-------0-2-4-5-7----------0-2-4-5-7-|
B|-0-2-4--------------0-2-4-----------|
G|------------------------------------|
D|------------------------------------|
A|------------------------------------|
E|------------------------------------|

44
42 1   +   2   +   3   +   4   +
E|---|
B|---|
G|---|
D|---|
A|222222222222222200000000000000000-|
E|----------------------------------|

43*     tp   tp        tp   tp
E|-7^4^7-12^7-12--7^4^7-12^7-12-|
B|------------------------------|
G|------------------------------|
D|------------------------------|
A|------------------------------|
E|-4----------------------------|

44*     tp   tp        tp   tp   tp
E|-7^4^7-11^7-11--7^4^7-11^7-11----9-|
B|-----------------------------------|
G|-----------------------------------|
D|-----------------------------------|
A|-----------------------------------|
E|---------------------------------5-|

45*     tp   tp        tp   tp
E|-9^6^9-14^9-14--9^6^9-14^9-14-|
B|------------------------------|
G|------------------------------|
D|------------------------------|
A|------------------------------|
E|-6----------------------------|

46*     tp   tp        tp   tp   tp
E|-9^6^9-12^9-12--9^6^9-12^9-12----11-|
B|------------------------------------|
G|------------------------------------|
D|------------------------------------|
A|------------------------------------|
E|---------------------------------7--|

47*       tp    tp          tp    tp
E|-11^8^11-16^11-16--11^8^11-16^11-16-|
B|------------------------------------|
G|------------------------------------|
D|------------------------------------|
A|------------------------------------|
E|-8----------------------------------|

48*       tp    tp          tp    tp  tp
E|-11^8^11-14^11-14--11^8^11-14^11-14--12-|
B|----------------------------------------|
G|----------------------------------------|
D|----------------------------------------|
A|----------------------------------------|
E|--------------------------------------9-|

49*       tp    tp          tp    tp
E|-12^9^12-16^12-16--12^9^12-16^12-16-|
B|------------------------------------|
G|------------------------------------|
D|------------------------------------|
A|------------------------------------|
E|-9----------------------------------|

50*       tp    tp          tp    tp
E|-11^7^11-16^11-16--11^7^11-16^11-16-|
B|------------------------------------|
G|------------------------------------|
D|------------------------------------|
A|------------------------------------|
E|-7----------------------------------|

51*     tp   tp        tp   tp
E|-9^5^9-14^9-14--9^5^9-14^9-14-|
B|------------------------------|
G|------------------------------|
D|------------------------------|
A|------------------------------|
E|-5----------------------------|

52*     tp   tp        tp   tp
E|-7^4^7-12^7-12--7^4^7-12^7-12-|
B|------------------------------|
G|------------------------------|
D|------------------------------|
A|------------------------------|
E|-4----------------------------|

53*     tp   tp        tp   tp
E|-5^2^5-11^5-11--5^2^5-11^5-11-|
B|------------------------------|
G|------------------------------|
D|------------------------------|
A|------------------------------|
E|-2----------------------------|

54*     tp  tp      tp  tp
E|-4^0^4-9^4-9--4^0^4-9^4-9-|
B|--------------------------|
G|--------------------------|
D|--------------------------|
A|--------------4-----------|
E|-0------------------------|

55*     tp  tp      tp  tp
E|-4^-^4-9^4-9--4^-^4-9^4-9-|
B|---4------------4---------|
G|--------------------------|
D|--------------------------|
A|--------------------------|
E|-4------------------------|

56*     tp  tp      tp  tp
E|-4^-^4-8^4-8--4^-^4-8^4-8---9-|
B|---4------------4-------------|
G|------------------------------|
D|------------------------------|
A|----------------------------4-|
E|-4----------------------------|

57                    58
E|----4-------4-5-4---|----4-------4-5-4---|
B|-5--5-7-5-7-5-7-5---|-5--5-7-5-7-5-7-5---|
G|-6--------8---------|-6--------8---------|
D|--------------------|--------------------|
A|--------------------|--------------------|
E|-9--9-----9---9---9-|-9--9-----9---9---9-|

59                   tr
E|-4-5-4---2--0--------------4-|
B|-5-7-5---4--2--4-2-4(5)-2--5-|
G|---------------------------6-|
D|---------------11----------6-|
A|------------11--------11---4-|
E|---9-----9---------9-----4---|

A. Vivaldi: The Four Seasons/ Spring
violin solo arr. for guitar

E|-7---7-12-7-12-|----|-7---7-11-7-11-|----..-9-|
B|---9-----------|----|---9-----------|---------|
G|---------------|-0/-|---------------|-0/------|
D|---------------|-/0-|---------------|-/0------|
A|---------------|----|---------------|---------|
E|---------------|----|---------------|---------|

E|-9----9-14-9-14-|----|-9----9-12-9-12-|----..-11-|
B|---11-----------|----|---11-----------|----------|
G|----------------|-0/-|----------------|-0/-------|
D|----------------|-/0-|----------------|-/0-------|
A|----------------|----|----------------|----------|
E|----------------|----|----------------|----------|

E|-11----11-16-11-16-|----|-11----11-14-11-14-|---..-12-|
B|----13-------------|----|----13-------------|---------|
G|-------------------|-0/-|-------------------|-0/------|
D|-------------------|-/0-|-------------------|-/0------|
A|-------------------|----|-------------------|---------|
E|-------------------|----|-------------------|---------|

E|-12----12-16-12-16-|----|-11----11-16-11-16-|
B|----14-------------|----|----12-------------|
G|-------------------|-0/-|-------------------|
D|-------------------|-/0-|-------------------|
A|-------------------|----|-------------------|
E|-------------------|----|-------------------|

E|----|-9----9-14-9-14-|----|
B|----|---10-----------|----|
G|-0/-|----------------|-0/-|
D|-/0-|----------------|-/0-|
A|----|----------------|----|
E|----|----------------|----|

E|-7---7-12-7-12-|----|---------11----11-|----|
B|---9-----------|----|-10-7-10----10----|----|
G|---------------|-0/-|------------------|-0/-|
D|---------------|-/0-|------------------|-/0-|
A|---------------|----|------------------|----|
E|---------------|----|------------------|----|

E|-------9---9-|----|
B|-9-7-9---9---|----|
G|-------------|-0/-|
D|-------------|-/0-|
A|-------------|----|
E|-------------|----|

E|-------9---9-|----|-------8---8-|---..-9-|
B|-9---9---9---|----|-9---9---9---|--------|
G|---8---------|-0/-|---8---------|-0/-----|
D|-------------|-/0-|-------------|-/0-----|
A|-------------|----|-------------|--------|
E|-------------|----|-------------|--------| : repeat last bar

Вверх

The Four Seasons, Op.8 No.1-4

E|---------------------------|---------------------------|
B|---------------------------|---------------------------|
G|--12-0-0-0-0-0-0-0-0-0-0-0-|--10-0-0-0-0-0-0-0-0-0-0-0-|
D|---------------------------|---------------------------|
A|---------------------------|---------------------------|
E|---------------------------|---------------------------|

E|-------------------------|--------------------|
B|-------------------------|--------------------|
G|-8-0-0-0-0-0-0-0-0-0-0-0-|--7-0-0-0-0-0-0-0-0-|
D|-------------------------|--------------------|
A|-------------------------|--------------------|
E|-------------------------|--------------------|

E|--------------------------|---------------------------|
B|--------------------------|---------------------------|
G|--------------------------|---------------------------|
D|-12-0-0-0-0-0-0-0-0-0-0-0-|--10-0-0-0-0-0-0-0-0-0-0-0-|
A|--------------------------|---------------------------|
E|--------------------------|---------------------------|

E|-------------------------|--------------------|
B|-------------------------|--------------------|
G|-------------------------|--------------------|
D|-8-0-0-0-0-0-0-0-0-0-0-0-|--7-0-0-0-0-0-0-0-0-|
A|-------------------------|--------------------|
E|-------------------------|--------------------|

E|---------------|-------------------------|
B|---------------|-------------------------|
G|---------------|---7-5-------------------|
D|---------------|-------8-7-5-4-----------|
A|---------------|---------------7-5-3-----|
E|---------------|---------------------6-5-|

E|-------------------------|--------------------------|
B|-------------------------|----8-6-------------------|
G|---7-5-------------------|--------8-7-5-------------|
D|-------8-7-5-4-----------|--------------8-7-5-3-----|
A|---------------7-5-3-----|----------------------6-5-|
E|-3-------------------6-5-|--3-----------------------|

E|-------------------------|-------------------------------|
B|---8-6-------------------|----11-10-8--------------------|
G|--------8-7-5------------|------------10-8-7-------------|
D|-------------8-7-5-------|-------------------10-8-7------|
A|-3-----------------8-6-5-|--------------------------10-8-|
E|-------------------------|--8----------------------------|

E|---6-5-3-----------------|----10-8-6------------------|
B|---------6-4-3-----------|-----------10-8-7-----------|
G|---------------5-3-2-----|------------------9-7-5-----|
D|---------------------5-3-|------------------------8-7-|
A|-6-----------------------|--6-------------------------|
E|-------------------------|----------------------------|

E|---10-8-6------------------|----10-8-6------------------|
B|----------10-8-7-----------|-----------10-8-7-----------|
G|-----------------9-7-5-----|------------------9-7-5-----|
D|-5---------------------8-7-|--5---------------------8-7-|
A|---------------------------|----------------------------|
E|---------------------------|----------------------------|

E|---10-8-6------------------|--------------------------|
B|----------10-8-7-----------|--------------------------|
G|-----------------9-7-5-----|--7-0-0-0-7-0-0-0-7-0-0-0-|
D|-5---------------------8-7-|--------------------------|
A|---------------------------|--------------------------|
E|---------------------------|--------------------------|

E|-----------------5----|------------------5-|
B|-----------5-7-8------|------------5-7-8---|
G|-------5-7------------|--------5-7---------|
D|-0-7-8----------------|--0-7-8-------------|
A|----------------------|--------------------|
E|----------------------|--------------------|

E|--------------------6----|-------------------8-10-|
B|-------------7-8-10------|-----------8-10-11------|
G|---------7-8-------------|----7-9-11--------------|
D|----8-10-----------------|--0---------------------|
A|-10----------------------|------------------------|
E|-------------------------|------------------------|

E|-----------------5-|-----------------5-|-------------------6-|
B|-----------5-7-8---|-----------5-7-8---|------------7-8-10---|
G|-------5-7---------|-------5-7---------|--------7-8----------|
D|-0-7-8-------------|-0-7-8-------------|---8-10--------------|
A|-------------------|-------------------|---------------------|
E|-------------------|-------------------|---------------------|

E|----------------8-10--|--------------------------------------|
B|--------8-10-11-------|--11----------11----------11----------|
G|-7-9-11---------------|-----12----------12----------12-------|
D|----------------------|--------12----------12----------12----|
A|----------------------|-----------13----------13----------13-|
E|----------------------|--------------------------------------|

E|-------------------------|--------------------------|
B|-3-------3-------3-------|--------------------------|
G|---3-------3-------3-----|--------------------------|
D|-----5-------5-------5---|--5-------5-------5-------|
A|-------5-------5-------5-|----5-------5-------5-----|
E|-------------------------|------8-5-----8-5-----8-5-|

E|-------------------------|--------------------------|
B|-------------------------|--------------------------|
G|-0---0---0---0---0---0---|--0---0---0---0---0---0---|
D|---0---0---0---0---0---0-|----1---1---1---1---1---1-|
A|-2---2---2---2---2---2---|--3---3---3---3---3---3---|
E|-------------------------|--------------------------|

E|-------------------------|--------------------------|
B|-------------------------|--------------------------|
G|-0---0---0---0---0---0---|--2---2---2---2---2---2---|
D|---2---2---2---2---2---2-|----3---3---3---3---3---3-|
A|-4---4---4---4---4---4---|--5---5---5---5---5---5---|
E|-------------------------|--------------------------|

E|-------------------------|--------------------------|
B|-------------------------|--------------------------|
G|-2---2---2---2---2---2---|--2---2---2---2---2---2---|
D|---2---2---2---2---2---2-|----2---2---2---2---2---2-|
A|-5---5---5---5---5---5---|--4---4---4---4---4---4---|
E|-------------------------|--------------------------|

E|--------------------------|----------------------------9|-10-|
B|--------------------------|--------8-10--------8-10-12--|----|
G|---------------6-7--------|-7-9-10------7-9-10----------|----|
D|---------5-7-9-----7-9-11-|-----------------------------|----|
A|-8-5-7-8------------------|-----------------------------|----|
E|--------------------------|-----------------------------|-0--|

Вверх

Весна

Темп allegro, но можно и быстрее.

tr = трель
tp = ноту играть темпингом
^ = пулл или хаммер взависимости от направления.

Вступление
1                       2
E|-0--4-4-4-----7---7-5-|-4-4-4-----7---7-5-|
B|-0--5-5-5-7-5-9-------|-5-5-5-7-5-9-------|
G|----------------------|-------------------|
D|----------------------|-------------------|
A|-7--7---7-----7-7-----|-7---7-----7-7-----|
E|----------------------|-------------------|

3
E|-4--5^7^5---------|
B|-5--5-----9-7-----|
G|------------8-8---|
D|--------------9-9-|
A|-7--7-----------9-|
E|--------5-6-7-----|

4                       5
E|-0--4-4-4-----7---7-5-|-4-4-4-----7---7-5-|
B|-0--5-5-5-7-5-9-------|-5-5-5-7-5-9-------|
G|----------------------|-------------------|
D|----------------------|-------------------|
A|-7--7---7-----7-7-----|-7---7-----7-7-----|
E|----------------------|-------------------|

6
E|-4--5^7^5-----|
B|-5--5-----9-7-|
G|------------8-|
D|--------------|
A|-7--7---------|
E|--------5-6-7-|

Главная часть
7                      8
E|---7----------7-9--7--|---7----------7-9--7--|
B|-9-9--10^9-10-9-10-9--|-9-9--10-9-10-9-10-9--|
G|-9-----9---9----------|-9-----9---9----------|
D|----------------------|----------------------|
A|-7-7-------7----7----7|---7-------7----7---7-|
E|----------------------|----------------------|

9                      tr
E|---9--7----5--4--2-0--2(4)--0--0-|
B|-9-10-9----7--5-------4--------0-|
G|-9-----------------------------1-|
D|----------------------9--------2-|
A|---7----7-----7----------------2-|
E|-----------7-----0----------7--0-|

10                     11
E|-0-7----------7-9--7--|-0-7----------7-9--7-|
B|-0-9--10^9-10-9-10-9--|-0-9--10-9-10-9-10-9-|
G|-------9---9----------|-------9---9---------|
D|----------------------|---------------------|
A|---7-------7----7----7|---7-------7-----7---|
E|----------------------|---------------------|

12                     tr        tr   tr
E|-0-9--7----5--4--2-0--2(4)--0--7(9)--7(9)-|
B|-0-10-9----7--5-------4-------------------|
G|------------------------------------------|
D|----------------------9-------------------|
A|---7----7-----7---------------------------|
E|-----------7-----0----------7---0---------|

Такты 13-23 имитируют птичие пение. Вспомнити птичий шебит и
посторайтесь сыграть также. Не бойтесь импровизировать.

13 tr          tr      tr          tr
E|-7(9)----------------7(9)--------------|
B|-----10-9-10-9(10)-------10-9-10-9(10)-|
G|---------------------------------------|
D|---------------------------------------|
A|---------------------------------------|
E|---------------------------------------|

14      *             *
E|-7-7-----------7-7---------|
B|----10^9^7--------10^9^7---|
G|-----------9-------------9-|
D|---------------------------|
A|---------------------------|

15 tr          tr      tr          tr
E|-7(9)---------------7(9)-------------7-9-11-|
B|-----10-9-10-9(10)------10-9-10-9(10)-------|
G|--------------------------------------------|
D|--------------------------------------------|
A|--------------------------------------------|
E|--------------------------------------------|

16                  17   *          *
E|12-11-9------------|7-7--------7-7--------|
B|-------12-10-9-----|---10^9^7-----10^9^7--|
G|--------------11-9-|---------9----------9-|
D|-------------------|----------------------|
A|-------------------|----------------------|
E|-------------------|----------------------|

18    *
E|-7-7----------7-9-11-12-11-9------------|
B|----10^9^7------------------12-10-9-----|
G|-----------9-----------------------11-9-|
D|----------------------------------------|
A|----------------------------------------|
E|----------------------------------------|

19           быстрее  >>>            tr
E|----------------------------------------|
B|-9--10^9--10^9--10^9--10^9--10^9--9(10)-|
G|----------------------------------------|
D|----------------------------------------|
A|----------------------------------------|
E|----------------------------------------|

20            21
E|-7--7-12-7-9|7--7-12-7-9-7-12-7-9-7-12-7-9-7-|
B|------------|--------------------------------|
G|------------|--------------------------------|
D|------------|--------------------------------|
A|------------|--------------------------------|
E|------------|--------------------------------|

22                        tr
E|-12-7-9-7-12-7-9--7--0--4(5)-|
B|-----------------------------|
G|-----------------------------|
D|-----------------------------|
A|-----------------------------|
E|-----------------------------|
23
E|--------------------------------------------|
B|-0--0-5-0-2-0-5-0-2-0-5-0-2-0-5-0-2-0-5-0-2-|
G|--------------------------------------------|
D|--------------------------------------------|
A|--------------------------------------------|
E|--------------------------------------------|
      24
E|----|---------------------------------------|
B|0---|---------------------------------------|
G|----|-----4--------4-----4-----4-----4------|
D|--2-|-2--2-2-4-2--2-2-4-2-2-4-2-2-4-2-2-4-2-|
A|----|---------------------------------------|
E|----|---------------------------------------|
25
E|---------|  повторить из главной темы кусок 7-9-|
B|---------|--------------------------------------|
G|--4------|--------------------------------------|
D|-2-2-4-2-|--------------------------------------|
A|---------|--------------------------------------|
E|---------|--------------------------------------|

Этот кусок имитирует фонтаны в вемсених парках, поэтому
играть как можно плавнее на легато. Играть горманично с
другими  инструментами или  с большой  отдачей на одной
гитаре.

29
E|-0-----------------------------|
B|-0-----------------------------|
G|-1-1^2^4^2^4^2^1^2^1^2^4^2^4^2-|
D|-2-2^4^6^4^6^4^2^4^2^4^6^4^6^4-|
A|-2-----------------------------|
E|-0-----------------------------|

30
E|---------------------------------|
B|-------------------------0^2^0^2-|
G|^1^2^1^2^4^2^4^2^1^2^1^2^1^2^1^2-|
D|-2^4^2^4^6^4^6^4^2^4^2^4---------|
A|-2-------------------------------|
E|-0-------------------------------|

31
E|---------------------------------|
B|-4^5^4^5^7^5^7^5^4^5^4^5^7^5^7^5-|
G|-4^6^4^6^8^6^8^6^4^6^4^6^8^6^8^6-|
D|-4-------------------------------|
A|-2-------------------------------|
E|---------------------------------|

32
E|------------------------------------|
B|-4^5^4^5^7^9^7^9^10^9^10^9^7^10^9^7-|
G|-4^6^4^6^8^9^8^9^11^9^11^9^8^11^9^8-|
D|-4----------------1-----------------|
A|-2----------------2-----------------|
E|------------------------------------|

33
E|-------------------------------|
B|-9^7^5^------------------------|
G|-9^8^6-8^6^4^2^1^2^1^2^4^2^4^2-|
D|-9-----9^7^6^4^2^4^2^4^2^4^2^4-|
A|-7-----------------------------|
E|-------------------------------|

34
E|---------------------------------|
B|-1^2^1^2^4^2^4^2^1^2^1^2^4^2^4^2-|
G|-2^4^2^4^6^4^6^4^2^4^2^4^6^4^6^4-|
D|-9-------------------------------|
A|-7-------------------------------|
E|---------------------------------|

35      медленнее
E|-------4-----5-----------|
B|-------------------------|
G|-1-----------------------|
D|-2--2--2--2--1--1--1--1--|
A|--2--2--2--2--2--2--2--2-|
E|-------------------------|

36
E|-4-----------2-----------|
B|-------------------------|
G|-------------------------|
D|-2--2--2--2--4--4--4--4--|
A|--2--2--2--2--2--2--2--2-|
E|-------------------------|

37
E|-------4-----5-----------|
B|-------------------------|
G|-------------------------|
D|-2--2--2--2--1--1--1--1--|
A|--2--2--2--2--2--2--2--2-|
E|-------------------------|

38
E|-------4-------|
B|-------------7-|
G|-1-----------8-|
D|-2--2--2--2--9-|
A|--2--2--2--2-2-|
E|---------------|

Играть главную тему на 4 тона ниже.
39                    40
E|--------------------|--------------------|
B|-4--7-------7-9-7---|-4--7-------7-9-7---|
G|-4--8-9-8-9-8-9-8---|-4--7-------7-9-7---|
D|--------------------|--------------------|
A|--------------------|--------------------|
E|-7--7-------7-7---7-|-7--7-------7-7---7-|

41                   tr
E|---------------------------|
B|-4---9-7---5-4-2-0--2(4)---|
G|-4---9-7---6-4-------------|
D|-------------9-------------|
A|-----------9---7----9------|
E|-----7---7---------------2-|

Это кусок-гроза, посторайтесь, чтоб звук был более глубокий.
Здесь все ноты 1/32.

42 1   +   2   +   3   +   4   +
E|---|
B|-0-|
G|---|
D|---|
A|---222222222222222222222222222222-|
E|----------------------------------|

43
E|-------0-2-4-5-7----------0-2-4-5-7-|
B|-0-2-4--------------0-2-4-----------|
G|------------------------------------|
D|------------------------------------|
A|------------------------------------|
E|------------------------------------|

44
42 1   +   2   +   3   +   4   +
E|---|
B|---|
G|---|
D|---|
A|222222222222222200000000000000000-|
E|----------------------------------|

Это виртуозный кусок, который изоюражает дождь в солнечный
день. Здесь играется темпингом. Здесь много триольных нот,
когда будете играть не зюейтесь со счёта.

43*     tp   tp        tp   tp
E|-7^4^7-12^7-12--7^4^7-12^7-12-|
B|------------------------------|
G|------------------------------|
D|------------------------------|
A|------------------------------|
E|-4----------------------------|

44*     tp   tp        tp   tp   tp
E|-7^4^7-11^7-11--7^4^7-11^7-11----9-|
B|-----------------------------------|
G|-----------------------------------|
D|-----------------------------------|
A|-----------------------------------|
E|---------------------------------5-|

45*     tp   tp        tp   tp
E|-9^6^9-14^9-14--9^6^9-14^9-14-|
B|------------------------------|
G|------------------------------|
D|------------------------------|
A|------------------------------|
E|-6----------------------------|

46*     tp   tp        tp   tp   tp
E|-9^6^9-12^9-12--9^6^9-12^9-12----11-|
B|------------------------------------|
G|------------------------------------|
D|------------------------------------|
A|------------------------------------|
E|---------------------------------7--|

47*       tp    tp          tp    tp
E|-11^8^11-16^11-16--11^8^11-16^11-16-|
B|------------------------------------|
G|------------------------------------|
D|------------------------------------|
A|------------------------------------|
E|-8----------------------------------|

48*       tp    tp          tp    tp  tp
E|-11^8^11-14^11-14--11^8^11-14^11-14--12-|
B|----------------------------------------|
G|----------------------------------------|
D|----------------------------------------|
A|----------------------------------------|
E|--------------------------------------9-|

49*       tp    tp          tp    tp
E|-12^9^12-16^12-16--12^9^12-16^12-16-|
B|------------------------------------|
G|------------------------------------|
D|------------------------------------|
A|------------------------------------|
E|-9----------------------------------|

50*       tp    tp          tp    tp
E|-11^7^11-16^11-16--11^7^11-16^11-16-|
B|------------------------------------|
G|------------------------------------|
D|------------------------------------|
A|------------------------------------|
E|-7----------------------------------|

51*     tp   tp        tp   tp
E|-9^5^9-14^9-14--9^5^9-14^9-14-|
B|------------------------------|
G|------------------------------|
D|------------------------------|
A|------------------------------|
E|-5----------------------------|

52*     tp   tp        tp   tp
E|-7^4^7-12^7-12--7^4^7-12^7-12-|
B|------------------------------|
G|------------------------------|
D|------------------------------|
A|------------------------------|
E|-4----------------------------|

53*     tp   tp        tp   tp
E|-5^2^5-11^5-11--5^2^5-11^5-11-|
B|------------------------------|
G|------------------------------|
D|------------------------------|
A|------------------------------|
E|-2----------------------------|

54*     tp  tp      tp  tp
E|-4^0^4-9^4-9--4^0^4-9^4-9-|
B|--------------------------|
G|--------------------------|
D|--------------------------|
A|--------------4-----------|
E|-0------------------------|

55*     tp  tp      tp  tp
E|-4^-^4-9^4-9--4^-^4-9^4-9-|
B|---4------------4---------|
G|--------------------------|
D|--------------------------|
A|--------------------------|
E|-4------------------------|

56*     tp  tp      tp  tp
E|-4^-^4-8^4-8--4^-^4-8^4-8---9-|
B|---4------------4-------------|
G|------------------------------|
D|------------------------------|
A|----------------------------4-|
E|-4----------------------------|

играть главную тему на 3 тона ниже

57                    58
E|----4-------4-5-4---|----4-------4-5-4---|
B|-5--5-7-5-7-5-7-5---|-5--5-7-5-7-5-7-5---|
G|-6--------8---------|-6--------8---------|
D|--------------------|--------------------|
A|--------------------|--------------------|
E|-9--9-----9---9---9-|-9--9-----9---9---9-|

59                   tr
E|-4-5-4---2--0--------------4-|
B|-5-7-5---4--2--4-2-4(5)-2--5-|
G|---------------------------6-|
D|---------------11----------6-|
A|------------11--------11---4-|
E|---9-----9---------9-----4---|

Главная тема как в начале.

Вверх

Зима

E|----18-16-15----------------16--15---------------16---16--15-|
B|-16----------18-16-18---------------18--16--15---------------|
G|----------------------15-15----------------------------------|
D|-------------------------------------------------------------|
A|-------------------------------------------------------------|
E|-------------------------------------------------------------|

E|-15----15-16-18-20-22---------15--16--18--20--------------15-|
B|----18----------------16--18------------------15--16--18-----|
G|-------------------------------------------------------------|
D|-------------------------------------------------------------|
A|-------------------------------------------------------------|
E|-------------------------------------------------------------|

E|-16-18----------13-15---------------------13--------------15-|
B|-------13-15-16-------16-15----------------------------------|
G|------------------------------15--14--15------15--14--15-----|
D|-------------------------------------------------------------|
A|-------------------------------------------------------------|
E|-------------------------------------------------------------|

E|----------17----------18-----18~--18--17---------------------|
B|-------------18-16-18---------------------20--18--16---------|
G|-15-14-15----------------15---------------------------19--17-|
D|-------------------------------------------------------------|
A|-------------------------------------------------------------|
E|-------------------------------------------------------------|

E|-------------------------------------------------------------|
B|--15-13h14p13h14p13h14p13h14p13h14p13h14p13----------18-16-15|
G|15------------------------------------------15-15-15---------|
D|-------------------------------------------------------------|
A|-------------------------------------------------------------|
E|-------------------------------------------------------------|

E|--------------------------------------------------16--15-----|
B|----------------------------------------------------------18-|
G|-17-15-17-------20-19-17-------20---20--19----15-------------|
D|----------15-15----------20-19-------------------------------|
A|-------------------------------------------------------------|
E|-------------------------------------------------------------|

E|-------16-16-15--------------15--16---------------15--16--18-|
B|-16-15-------------15-16-18-----------15--16--18-------------|
G|----------------17-------------------------------------------|
D|-------------------------------------------------------------|
A|-------------------------------------------------------------|
E|-------------------------------------------------------------|

								    2 раза
E|-------15-16-18-20----|-------------------15-16-18-15--------|
B|-16-18-------------15-|-15-16-18-16--------------------18----|
G|----------------------|-------------17-15-----------------15-|
D|----------------------|--------------------------------------|
A|----------------------|--------------------------------------|
E|----------------------|--------------------------------------|

E|------18--15--------------------------------------------|
B|--18----------18--16--15h16p15h16p15h16p15h16---16---16-|
G|--------------------------------------------------------|
D|--------------------------------------------------------|
A|--------------------------------------------------------|
E|--------------------------------------------------------|

Вверх

Концерт №6 в Am для виолночели

размер: 2/4
E|--------7--|-8---7---|----------|--------------|-------------|
B|----10-----|---------|-10---10--|-8------------|-------------|
G|-9---------|---------|----------|----10--9--7--|-------------|
D|-----------|---------|----------|--------------|-10--9--7--9-|
A|-----------|---------|----------|--------------|-------------|
E|-----------|---------|----------|--------------|-------------|

E|--------|----|---------7--|-8---7---|----------|-------------|
B|--------|----|-----10-----|---------|-10---10--|-8-----------|
G|------7-|-9--|--9---------|---------|----------|----10--9--7-|
D|-10-----|----|------------|---------|----------|-------------|
A|--------|----|------------|---------|----------|-------------|
E|--------|----|------------|---------|----------|-------------|

E|-------------|--------|-------|-8--8--8--8-|-8-----8-8-----8-|
B|-------------|--------|-------|------------|-----------------|
G|-------------|------7-|-9---9-|------------|---7-7-----7-7---|
D|-10--9--7--9-|-10-----|-------|------------|-----------------|
A|-------------|--------|-------|------------|-----------------|
E|-------------|--------|-------|------------|-----------------|

E|-7--7--7--7--|-7-----7-7-----7-|-5--5--5--5--|-4----4-5--7-5-|
B|-------------|-----------------|-------------|----7----------|
G|-------------|---5-5-----5-5---|-------------|---------------|
D|-------------|-----------------|-------------|---------------|
A|-------------|-----------------|-------------|---------------|
E|-------------|-----------------|-------------|---------------|

E|-4----4-5--7-5-|-4--2-0-1--0---|-0------|------|-------------|
B|----7----------|-------------3-|--------|------|-------------|
G|---------------|---------------|-----10-|-9-10-|-9-7-9-10-10-|
D|---------------|---------------|--------|------|-------------|
A|---------------|---------------|--------|------|-------------|
E|---------------|---------------|--------|------|-------------|

E|-----------|---------5-7|-8-8-10-12-|--------|------5-8-7-10-|
B|-----------|--7-9-10----|-----------|-10---9-|-10-5----------|
G|9-7-9-10-10|9-----------|-----------|----9---|---------------|
D|-----------|------------|-----------|--------|---------------|
A|-----------|------------|-----------|--------|---------------|
E|-----------|------------|-----------|--------|---------------|

E|8-7|-----|-----------------|--------------|------------------|
B|---|10-10|8-10-6-8-5-6-3-5-|-1-3-0-1---10-|-8-10-6-8-5-6-3-5-|
G|---|-----|-----------------|---------2----|------------------|
D|---|-----|-----------------|--------------|------------------|
A|---|-----|-----------------|--------------|------------------|
E|---|-----|-----------------|--------------|------------------|

E|-----------|--------------|------------------|---------------|
B|1-3-0-1----|--8---8--8----|10-8-----10-8-----|6-------6------|
G|--------2-9|9--10--9--10-9|----10-9------10-9|--7-6-7---7-6-7|
D|-----------|--------------|------------------|---------------|
A|-----------|--------------|------------------|---------------|
E|-----------|--------------|------------------|---------------|

E|-----------------|-----------------|-----------------|
B|-8-6-----8-6-----|-5-------5-------|-6-5-----6-5-----|
G|-----9-7-----9-7-|---5-4-5---5-4-5-|-----7-5-----7-5-|
D|-----------------|-----------------|-----------------|
A|-----------------|-----------------|-----------------|
E|-----------------|-----------------|-----------------|

E|-----------------|
B|-3-------3-------|
G|---4-2-4---4-2-4-|
D|-----------------|
A|-----------------|
E|-----------------|

E|-----------------|---------5-7-5-7-|---------5-7-5-7-|
B|-5-3-----5-3-----|-------5---------|-------5---------|
G|-----5-4-----5-4-|-5---5-----------|-5---5-----------|
D|-----------------|---7-------------|---7-------------|
A|-----------------|-----------------|-----------------|
E|-----------------|-----------------|-----------------|

E|---------5-7-5-7-|
B|-4---4-7---------|
G|---4-------------|
D|-----------------|
A|-----------------|
E|-----------------|

E|---------5-7-5-7-|-3-2-0---------|-----0-2-|-3-2-|-0-----0-2-|
B|-4---4-7---------|-------4-5-5-5-|-5-0-----|-----|----0------|
G|---4-------------|---------8-8-8-|---------|-----|-----------|
D|-----------------|---------------|---------|-----|-----------|
A|-----------------|---------------|---------|-----|-----------|
E|-----------------|---------------|---------|-----|-----------|

E|3-2|0--|-------------------|---------------|-----------------|
B|---|---|8-10-8-10-8-10-8-10|8-7-8-10-8-7-5-|-7-8-7-8-7-8-7-8-|
G|---|---|-------------------|---------------|-----------------|
D|---|--9|-------------------|---------------|-----------------|
A|---|---|-------------------|---------------|-----------------|
E|---|---|-------------------|---------------|-----------------|

E|----------------|-----------------|----------------|
B|-7--5-7-8-7-5-4-|-5-7-5-7-5-7-5-7-|-5--4-5-7-5-4-2-|
G|----------------|-----------------|----------------|
D|----------------|-----------------|----------------|
A|----------------|-----------------|----------------|
E|----------------|-----------------|----------------|

E|-----------7-|
B|-4--2-4-0----|
G|-------------|
D|-------------|
A|-------------|
E|-------------|

E|-4----4-5--7-5-|-4----4-5--7-5-|-4--2-0-1--0---|-0----|------|
B|----7----------|----7----------|-------------3-|------|------|
G|---------------|---------------|---------------|---10-|-9-10-|
D|---------------|---------------|---------------|------|------|
A|---------------|---------------|---------------|------|------|
E|---------------|---------------|---------------|------|------|

E|-------------|--------------|----------------|-----8-10-12---|
B|-------------|--------------|---7-9-10-10-12-|-13------------|
G|-9-7-9-10-10-|-9-7-9-10--10-|-9--------------|-------------9-|
D|-------------|--------------|----------------|---------------|
A|-------------|--------------|----------------|---------------|
E|-------------|--------------|----------------|---------------|

E|---------------8-10-|-12-----------|---------------8-10-|
B|-10--10-12-13-------|--------------|-10--10-12-13-------|
G|--------------------|-----9--9--9--|--------------------|
D|--------------------|--------------|--------------------|
A|--------------------|--------------|--------------------|
E|--------------------|--------------|--------------------|

E|-12----------|
B|-------------|
G|-----9--9--9-|
D|-------------|
A|-------------|
E|-------------|

E|-5-------5-------|-5-------5-------|-------0-------0-|
B|-------5-------5-|-------5-------5-|-8-------8-------|
G|-----6-------6---|-----6-------6---|-----6-------6---|
D|---7-------7-----|---7-------7-----|---7-------7-----|
A|-----------------|-----------------|-----------------|
E|-----------------|-----------------|-----------------|

E|-------0-------0-|
B|-8-------8-------|
G|-----6-------6---|
D|---7-------7-----|
A|-----------------|
E|-----------------|

E|-2---------------|-----------------|-----------------|
B|---------3-------|-3-------3-------|-1-------1-------|
G|-------2-------2-|-------2-------2-|-------2-------2-|
D|-----4-------4---|-----4-------4---|---0-4-----0-4---|
A|---5-------5-----|---5-------5-----|-----------------|
E|-----------------|-----------------|-----------------|

E|-----------------|
B|-1-------1-------|
G|-------2-------2-|
D|---0-4-----0-4---|
A|-----------------|
E|-----------------|

E|-------------0-1-|-3-----0-1-3-5-7-|-8-------8-------|
B|-0-----0-1-3-----|---1-3-----------|---8---8---8---8-|
G|---0-2-----------|-----------------|-----9-------9---|
D|-----------------|-----------------|-----------------|
A|-----------------|-----------------|-----------------|
E|-----------------|-----------------|-----------------|

E|-8-------8-------|
B|---8---8---8---8-|
G|-----9-------9---|
D|-----------------|
A|-----------------|
E|-----------------|

E|-8-------8-------|-8-------8-------|-7-------7-------|
B|---8---8---8---8-|---8---8---8---8-|---8---8---8---8-|
G|-----7-------7---|-----7-------7---|-----7-------7---|
D|-----------------|-----------------|-----------------|
A|-----------------|-----------------|-----------------|
E|-----------------|-----------------|-----------------|

E|-7-------7-------|
B|---8---8---8---8-|
G|-----7-------7---|
D|-----------------|
A|-----------------|
E|-----------------|

E|-8----------|---------|-------------|---------|-------|
B|------------|-5-------|-------------|-5-------|-------|
G|------5--7--|-----7---|-5-----5--7--|-----7---|-5---9-|
D|---5--------|---------|----5--------|---------|-------|
A|------------|---------|-------------|---------|-------|
E|------------|---------|-------------|---------|-------|

E|----------------|---------7------|--------------|------------|
B|-10--10--10--10-|-10--8-7----10--|-8--7---------|----------7-|
G|----------------|----------------|------9----8--|-9-----9----|
D|----------------|----------------|--------9-----|----9-------|
A|----------------|----------------|--------------|------------|
E|----------------|----------------|--------------|------------|

E|---------|-------------|---------|--------|-8--8--8--8-|
B|-8---7---|----------7--|-8---7---|--------|------------|
G|---------|-9-----9-----|---------|-9---9--|------------|
D|---------|----9--------|---------|--------|------------|
A|---------|-------------|---------|--------|------------|
E|---------|-------------|---------|--------|------------|

E|-8-----8-8-----8-|-7--7--7--7-|-7-----7-7-----7-|-5--5--5--5-|
B|-----------------|------------|-----------------|------------|
G|---7-7-----7-7---|------------|---5-5-----5-5---|------------|
D|-----------------|------------|-----------------|------------|
A|-----------------|------------|-----------------|------------|
E|-----------------|------------|-----------------|------------|

E|-4-4-7-4--|-7-4-7-4--|----0-0-0----0-0-0-|----0-0-0----0-0-0-|
B|--5-5-5-5-|--5-5-5-5-|-10-------10-------|-12-------12-------|
G|----------|----------|-------------------|-------------------|
D|----------|----------|-------------------|-------------------|
A|----------|----------|-------------------|-------------------|
E|----------|----------|-------------------|-------------------|

E|----0-0-0----0-0-0|----0-0-0----0-0-0|-12------7|-8-7|-------|
B|-13-------13------|-15-------15------|------10--|----|-10-10-|
G|------------------|------------------|----9-----|----|-------|
D|------------------|------------------|----------|----|-------|
A|------------------|------------------|----------|----|-------|
E|------------------|------------------|----------|----|-------|

E|----------|-----------|--------|-------|-8-10-8-10-8-10-8-10-|
B|-8--------|-----------|--------|-------|---------------------|
G|---10-9-7-|-----------|------7-|-9---9-|---------------------|
D|----------|-10-9-7--9-|-10-----|-------|---------------------|
A|----------|-----------|--------|-------|---------------------|
E|----------|-----------|--------|-------|---------------------|

E|8-7-8-10-8-7-5|7-8-7-8-7-8-7-8|7-5-7-8-7-5-4|5-7-5-7-5-7-5-7-|
B|--------------|---------------|-------------|----------------|
G|--------------|---------------|-------------|----------------|
D|--------------|---------------|-------------|----------------|
A|--------------|---------------|-------------|----------------|
E|--------------|---------------|-------------|----------------|

E|-4---4-5--7-5-|-4----4-5--7-5-|-4--2-0-1--0---|-0-5-4-5-0--1-|
B|---7----------|----7----------|-------------3-|--------------|
G|--------------|---------------|---------------|--------------|
D|--------------|---------------|---------------|--------------|
A|--------------|---------------|---------------|--------------|
E|--------------|---------------|---------------|--------------|

E|-0-5-4-5-0----|-------------|--------------|-----------------|
B|--------------|-------------|--------------|---7-9-10--10-12-|
G|-----------10-|-9-7-9-10-10-|-9-7-9-10--10-|-9---------------|
D|--------------|-------------|--------------|-----------------|
A|--------------|-------------|--------------|-----------------|
E|--------------|-------------|--------------|-----------------|

E|-----8-10-12---|---------------|--------------|--------------|
B|-13------------|--------10-----|----10-----9--|-10----10--10-|
G|-------------9-|-10--9---------|--------------|----9---------|
D|---------------|------------10-|-9------9-----|--------------|
A|---------------|---------------|--------------|--------------|
E|---------------|---------------|--------------|--------------|

E|---------------|--------------|---------------|--------------|
B|-9-7-5-7-8--10-|-7-5-3-5-6--8-|-5-3-1-3-5--6--|-3-1-0-1-3--5-|
G|---------------|--------------|---------------|--------------|
D|---------------|--------------|---------------|--------------|
A|---------------|--------------|---------------|--------------|
E|---------------|--------------|---------------|--------------|

E|-------0-5-----|----5-----4--|-5-----*-|
B|-1---1---------|-------------|-------*-|
G|---2--------5--|-4-----4-----|-------*-|
D|---------------|-------------|-------*-|
A|---------------|-------------|-------*-|
E|---------------|-------------|-------*-|

Вверх

Концерт №9 в D

I - Andante

e||-2-|-2-2-2-5-3-5-5-|-------2-0-2-5-|---------------|
B||-3-|-3-3-3---------|-3-3-3-----2---|-0-0-0-3-2-3-3-|
G||-2-|-2-2-2-----6---|-4-4-4-----2---|-0-0-0-----2---|
D||---|---0-0-----7---|-4-4-4---------|-0-0-0-----4---|
A||---|-----------0---|-2-2-2---------|---------------|
D||-0-|-0-------------|-----------4---|-5-5-5-----0---|

E|---5-0---0-3-2-0-2-5-|-------5---7-5-----0-2-3-2-5-3-2-|
B|-2-----3-------------|-8-7-8---8-----8-7---------------|
G|-2-------------------|---------------------------------|
D|-2-----------0-------|-----------------0-----------0---|
A|-0---4---------------|---------0-----------------------|
E|---------------------|-5-------------------------------|

e|-0-------5-2-5-3-5-5-|-0-5-3-5-5-2-5-3-5-5-|
B|-----------3---------|-2---------3---------|
G|---2-----------------|---------------------|
D|-----------0---------|-----------0---------|
A|-0-0-2-4-0-----------|-0-------------------|
D|---------------------|---------------------|

e|-0-5-3-5-5-2-5-3-2-0-------|-------------2-0---0-|
B|-2-------------------3-2-0-|---3-----2-3-----3-2-|
G|-------------------0-------|-2---0-2-------------|
D|-----------0---------------|---4-------0---------|
A|-0-------------------------|---------0---------0-|
D|---------------------------|---------------------|

E|-2-3-2-0---0-2-3-5-3-2-|-0-----5-3-5-2-3-0-2---3-2-3-|
B|-3-------3-------------|---------------------3-------|
G|-----------------------|---2-------------------------|
D|-0-----------0-2-4-0---|-------------0---------------|
A|-----------4-----------|-0-2-4---0-----------2-------|
E|-----------------------|-----------------------------|

e|-0-2---0---2-0-2---0-------0---0-|
B|-----3---2-------3---2-3-0---3---|
G|---------------------------------|
D|---------------------------------|
A|-4-------0-------2---------------|
D|-------------------------6-------|

e|-----------0---0-2-4-0-2-4-5-2-4-|
B|-2-3-0-2-----3-------------------|
G|---------2-----------------------|
D|-----------------0-------2-------|
A|-0-----------0-------------------|
D|---------------------------------|

E|-5-4-5-7-5-4-5-7-5-4-5-7-5-4-5-7-|
B|---------------------------------|
G|---------------------------------|
D|-7-------6-------4---------------|
A|-------------------------7-------|
E|---------------------------------|

e|-5-4-5-7-5-4-5-7-5-4-5-7-4-5-7-4-|
B|---------------------------------|
G|---------------------------------|
D|-0---------------0-------7-------|
A|---------4-----------------------|
D|---------------------------------|

E|-5---------5-3-2-0-----0-2-3-2-3-|
B|-----0-2-3---------3-2-----------|
G|---2-----------------------------|
D|-------------0-----------0---0---|
A|-0---------------0---0-----------|
E|---------------------------------|

e|-0-----0-2-3-2-3-0-----0-2-3-2-3-|
B|---3-2-------------3-2-----------|
G|---------------------------------|
D|---------0---0-----------0---0---|
A|-0---0-----------0---0-----------|
D|---------------------------------|

E|-0-------0-2-0-----------0---0-|
B|---------------3-2-0-2-3---3---|
G|---2-----------1---------------|
D|---------------2---------------|
A|-0-0-2-4---0-------------------|
E|-------------------------------|

e|-----------0---0-----------2-0---|
B|-3-2-0-2-3---3---3-2-0-2-3-----3-|
G|---------------------------------|
D|-2---------------2---------------|
A|---------------------------------|
D|---------------------------------|

E|-----------5-7-5-3-2-0-2-3-5-3-5-|
B|-2-3-2-0-------------------------|
G|---------2-----------------------|
D|-----------------2---------------|
A|-0-------------------------------|
E|---------------------------------|

e|-3-2-0-2-3-7-5-3-2-0---0-2-3-2-3-|
B|---------------------3-----------|
G|---------------------------------|
D|-----------------0---------------|
A|-4-------------------------------|
D|---------------------------------|

E|-2-0---0-2-5-3-2-0-------0-2-0-2-|
B|-----3-------------3-2-3---------|
G|---------------------------------|
D|---------------------------------|
A|-2---------------4---------------|
E|---------------------------------|

e|-0-------0-3-2-0---2-0-2---2-0-2-|---2-0-2---2-0-2-------2-2-|
B|---3-2-3---------3-------2-------|-3-------2-------3-0---3-3-|
G|---------------------------------|---------------------------|
D|---------------------------------|-----------------------0---|
A|-1---------------2-------1-------|-2-------1-------2-2-4---2-|
D|---------------------------------|---------------------------|

e|-2-3-2-0-0-0-2-0-----|---2-0-------------2-2-|
B|-3-5-3-2-2-2-3-2-3-3-|-3-----3-2-3-2---0-3-2-|
G|-----------------4-4-|-4---------------------|
D|---------------------|-2-------4---------0---|
A|-4-------1-2-------2-|-----4-----------2-----|
D|---------------------|---------------4-------|

E|-2-5-3-2-0-0-0-3-2-0---7-5-|
B|-0-------2-0---------3-----|
G|-0-----------3-------4-----|
D|-------------4---------0---|
A|---------4-----------2-----|
E|---------------------------|

e|-3-2-0---------------2-0-2---0-----|
B|-------3-2-3-2---0-0-------3---2-3-|
G|-----------------------------------|
D|-2-------4-------------------------|
A|-------------------2---------------|
D|---------------4-------------------|

E|-----------------0-3-2-3-0-2---0-|
B|-0-0-2-3-0-0-2-4-------------3---|
G|---------------------------------|
D|---------------------------------|
A|-2-------0-----------------------|
E|-----------------5---------------|

e|-------0-------0-2-5-3-5-2-3-0-2-|
B|-2-2-3---2-2-3-------------------|
G|---------------------------------|
D|-----------------0---------------|
A|-0-------0-----------------------|
D|---------------------------------|

E|-----0-2-----0-2-3-5-7-5-3-5-2-3-|
B|-3-3-----3-2---------------------|
G|---------------------------------|
D|-----------------2-----------0---|
A|-2-------2-----------------------|
E|---------------------------------|

e|-0-2-3-2-0-2---0-----0-----------|
B|-------------3---2-3---3-2-3-0-2-|
G|---------------------------------|
D|---------------------------------|
A|-4-----------2---0---------------|
D|---------------------------------|

E|-----------5-3-2-0-----0-2-3-2-3-|
B|-------------------3-2-----------|
G|-2-------------------------------|
D|---------0---0-----------0---0---|
A|---0-2-4---------0---0-----------|
E|---------------------------------|

e|-0-----0-2-3-2-3-0-----0-2-3-2-3-|-0---5-5-5-3-2-3-3-|
B|---3-2-------------3-2-----------|-------7-7-------5-|
G|---------------------------------|---2---6-4-------4-|
D|---------0---0-----------0---0---|---------0-----2---|
A|-0---0-----------0---0-----------|-0-----0-----------|
D|---------------------------------|-------------------|

E|-3-2-0-2-2-2-0---0-0-|-0---0-------------|
B|-5-------3-3---3---2-|-2-3---3-3-3-2-3-2-|
G|-2-------2-0-------0-|---------4-4-2-----|
D|-------0-------------|-4-------4-2-2-----|
A|-4---------2-----4---|-0-----2-----0-----|
E|---------------------|-----------5-------|

e|---5-3-5-5-0-5-3-5-5-|-2-5-3-5-5-0-5-3-5-5-|
B|-3---------2---------|-3---------2---------|
G|-2-------------------|---------------------|
D|-4-------------------|-0-------------------|
A|-----------0---------|-----------0---------|
D|-0-------------------|---------------------|

e|-2-3-2-0---2-0---0-3-2-0-2-5-|
B|-3-------3-----3-------------|
G|-----------------------------|
D|-0---------0---------0-------|
A|-------------4---------------|
D|-----------------------------|

E|-3-2-3-5-3-7-5-3-2-0-2-3-2-5-3-2-|
B|---------------------------------|
G|---------------------------------|
D|-2---------------0-----------0---|
A|---------0-----------------------|
E|---------------------------------|

e|-0-----0-2-0---2-0-----0-2-0---2-|
B|---3-2-------3-----3-2-------3---|
G|---------------------------------|
D|---------------------------------|
A|-0===============================|
D|---------------------------------|

E|-0-----0-------------------------|
B|---3-2---3-2-0-3-2-0---2-3-2-0-3-|
G|---------------------2-----------|
D|---------------------------------|
A|=0---------------0===============|
E|---------------------------------|

e|-----------------0-----0-2-0---2-|
B|-2-0---2-3-2-0-3---3-2-------3---|
G|-----2---------------------------|
D|---------------------------------|
A|=0---------------0===============|
D|---------------------------------|

E|-3-2-0-2-3-2-3-0-5---5-7-5---5-7-|
B|-------------------8-------8-----|
G|---------------------------------|
D|---------------------------------|
A|=0---------------0---------------|
E|---------------------------------|

e|-5---5-7-5---5-7-5---5-7-5---5-7-|-5-3-2-0-----------2-2-|
B|---8-------8-------8-------8-----|---------3-2-0-2---3-3-|
G|---------------------------------|-----------------2-2-2-|
D|---------------------------------|-------------------0-0-|
A|-0---------------0-------0-------|-0-------------0-------|
D|---------------------------------|-----------------------|

e|-0-0---0-0---5-3-5-5-|-0-5-3-5-5-2-5-3-5-5-|
B|-3---3-2-2-3---------|-2---------3---------|
G|-2-----2-2-2---------|-2---------2---------|
D|-----------4---------|-----------0---------|
A|-------0-0-----------|-0-------------------|
E|-----------0---------|---------------------|

e|-0-5-3-5-5-2-5-3-2-0-------|--------------||
B|-2-----------------0-3-2-0-|---3-----2-3--||
G|-2---------2---------------|-2-----2-2-2--||
D|-----------0---------------|---------2-4--||
A|-0-------------------------|-0-----0-0----||
D|-------------------5-------|---4-5-----0--||

II- Largo

e||-2-2-2-2-2-2-|-3-3-3-3-3-3-|-3-3-2-2-1-1-|-------------|
B||-3-3-3-3-3-3-|-3-3-2-2-2-2-|-3-3-3-3-3-3-|-6-6-5-5-5-5-|
G||-2-2-2-2-2-2-|-0-0-2-2-2-2-|-2-2-2-2-2-2-|-7-7-7-7-6-6-|
D||-------------|-------------|---------0-0-|-9-9-7-7-7-7-|
A||-------------|-----0-0-0-0-|-------------|-----0-0-0-0-|
D||-0-0-0-0-0-0-|-2-2---------|-0-0-0-0-----|-6-6---------|

e|-----------------------------------|
B|-3-7-5-7-----7-5-7-----7-7-8-7-5---|
G|---------7-7---------------------7-|
D|-4-----------------7-7-------------|
A|-------5---5-----5---5---5---------|
D|-0---------------------------------|

E|-------------------------5-------|
B|-5-8-7-8-5-5-8-7-8-----8---8-7-5-|
G|-7-----7---6-----6-------6-------|
D|-7-----7-----------7-7-----------|
A|-----------0-----0---0---0-------|
E|---------------------------------|

e|-2-2-2-2-1-1-|-------------|---------------------------------|
B|-3-3-3-3-3-3-|-6-6-5-5-5-5-|-3-7-5-7-----7-5-7---7-7-8-7-5---|
G|---2-2-2-2-2-|-7-7-7-7-6-6-|---------7-7-------------------7-|
D|-0-------0-0-|-9-9-7-7-7-7-|-4-----------------7-------------|
A|-------------|-----0-0-0-0-|-------5---5-----5-5---5---------|
D|---0-0-0-----|-6-6---------|-0-------------------------------|

e|-------------------------5-------|
B|-5-8-7-8-5-5-8-7-8-----8---8-7-5-|
G|-7-----7---6-----6-------6-------|
D|-7-----7-----------7-7-----------|
A|-----------0-----0---0---0-------|
D|---------------------------------|

E|---5---5-----------------------|
B|-7---8-------7-5-7---0-----0---|
G|-7-------7-7-------4---7-6-7---|
D|-0-----0---0-----0---0-----0---|
A|-----------------------------7-|
E|-------------------------------|

e|-------0-0---------------|-------------------------|
B|---0-0---------0-0-------|-------5-5-----5-7-----7-|
G|-----------------------7-|-7-6-6---6-------7-------|
D|-----------6-6-----------|-0---7-----7-7-----7-7---|
A|-7---7---7---7---7-7-7---|-0---0---0---0---5---5---|
D|-6---6---6---6---6---6---|-------------------------|

e|-----------------0---------------|-------5-5-5-5-7-5-7-5-3---|
B|-5---7-5---7-5-7---3-2-0-2-0-----|-------------------------7-|
G|---7-----7---6-----------------2-|-2-------6---6-----6-------|
D|-------------------0---2---------|---------------------------|
A|-------------0-------------------|-0-0-0---0---0-----0-------|
D|---6-----6-------------------2---|---------------------------|

e|-----0-------0-------0-------0-----5---5-----0-|
B|-8-7---7-8-7---7-8-7---7-8-7---7-8---8---8-7---|
G|-6-------6-------6-------6-------6-----6-------|
D|-----------------------------------------------|
A|-0-------0-------0-------0-------0-----0-------|
D|-----------------------------------------------|

e|---0---0---------------------------------|
B|-7---7---7------0-----0--------0---------|
G|-7-----------11-11-11-11-12-11-12-11-9-7-|
D|-0-------0-0----0-----0--------0---------|
A|-----------------------------------------|
D|-----------------------------------------|

e|-----------------------------------------------|
B|-----------------------------------7---7-------|
G|-9-7-6-7-9-7-6-7-9-7-6-7-9-7-6-7-9---9---9-7-6-|
D|-----------------------------------------------|
A|-9-------9-------9-------9-------9-----9-------|
D|-8-------8-------8-------8-------8-----8-------|

e|---------0-2-0-------2-----0-2-0-----|
B|-3---2-3-------3-0-3---2-3-------3-2-|
G|---4---------------------------------|
D|-4-----------------------------------|
A|-2-----2-------2---2---1-----1-------|
D|-------------------------------------|

E|---------0-2-0-----7-------------|---------2-------7-------|
B|-3---2-3-------3-7-0-----------0-|-0-3-2-0---4-2-0---3-2-0-|
G|---4-----------4-----7-6-7-6-----|-------------------------|
D|---------------0-------4-----4---|-------------------------|
A|-2-----2-----------7-------------|-2-----------------------|
E|---------------------------------|-------------------------|

E|-3-2-0-2-3-2-0-2-3-2-0-2-3-2-0-2-3-5-3-5-3-2-0-|
B|-0-------0-------2-------2-------5-----2-------|
G|-----------------0---------------2-------------|
D|-2-------2-------------------------------------|
A|-----------------0-------0-------0-----0-------|
E|-----------------------------------------------|

e|-2-3-2-3-5-7-0-0-3-2-3-0-0---|
B|-3-----3-------0-----0---0-3-|
G|-----------7---0-----0-------|
D|-0-----0---5-----------------|
A|-----------------------------|
D|-------------------------5---|

E|---------------------------------|
B|-2-------6---5-6-6-6-8-6---5-6-6-|
G|-2-2-2-2-7-7---7---7-----7---7---|
D|---------------------------------|
A|-0---0---------------------------|
E|---------6-----6---6---------6---|

e|-----------------0-1-1-1-3-1---0-1-1-|
B|-6-8-6-5-5---6-----3---3-----3---3---|
G|-7-------6---7-7---0---0---------0---|
D|-----------7-6-----------------------|
A|-0-------0---------------------------|
D|-------------------------------------|

E|-1-0-0---3-2-3-5-3-2-3-5-3-5-3-5-3-2-0-|
B|-3---2---2-------2-------2-----2-------|
G|-2-----2-------------------------------|
D|---------------------------------------|
A|-----0---0-------0-------0-----0-------|
E|---------------------------------------|

e|-2-3-5-3-2-0---------------------|
B|-3-----------3-2-3---------------|
G|---------------------7-----7---6-|
D|-0-----------------4---4---------|
A|---------4-------2---0---7---7---|
D|-------------------------6---7---|

e|---------------------------------------0-2-3-|
B|-3-2-3-3-3-2-3-3-3-2-3-3-3-2-3-3-3-2-3-------|
G|---------------------------------------------|
D|-4-------0-----------------------------------|
A|-----------------4-------4-------2-------2---|
E|-0-------------------------------------------|

e|---------------------------------------0-2-3-5-7-|
B|-3-2-3-3-3-2-3-3-3-2-3-3-3-2-3-3-3-2-3-----------|
G|-------------------------------------------------|
D|-4-------0---------------------------------------|
A|-----------------4-------4-------2-------2-------|
D|-0-----------------------------------------------|

e|---------------------------------------0-----5-7-|
B|-3---3-3-3-2-3-3-3-2-3-3-3-2-3-3-3-2-3---7-8-----|
G|---6---------------------------------------------|
D|-4-----------------------------------------------|
A|-0-------0---------------------------------------|
D|-----------------5-------5-------4-------4-------|

e|-------7-------7-------5-------5-------------0---|
B|---------------------------------------8---------|
G|-7-6-7---7-6-7---7-6-7---7-6-7---7-6-7---6-7---6-|
D|-------------------------------------------------|
A|-----------------0-------0-------0-------0-------|
D|-5-------5---------------------------------------|

e|---2-2-2-2-2-|-3-3-3-3-3-3-|-3-3-2-2-2-2-|-0-0-0-0-0-0-|---||
B|-3-3-3-3-3-3-|-3-3-2-2-2-2-|-3-3-3-3-3-3-|-3-3-3-3-2-2-|-3-||
G|---2-2-2-2-2-|-0-0-2-2-2-2-|-2-2-2-2-2-2-|-0-0-2-2-2-0-|-2-||
D|-0-----------|-------------|---------0-0-|-------------|-4-||
A|-------------|-----0-0-0-0-|-------------|-----0-0-0-0-|---||
D|---0-0-0-0-0-|-2-2---------|-0-0-0-0-----|-5-5---------|-0-||

III- Allegro

e|-5-2-3-5-|-5-2-3-5-|-5-7-5-7-5-|-3-2-0-2-3-|-3-0-2-3-|
B|-7-3-5-7-|-7-3-5-7-|-7-8-7-8-7-|-5-3-2-3-5-|-5-2-3-5-|
G|---------|---------|-----------|-----------|---------|
D|---------|---------|-----------|-----------|---------|
A|---------|---------|-----------|-----------|---------|
D|---------|---------|-----------|-----------|---------|

E|-3-0-2-3-|-3-5-3-5-3-|-2-0-2-3-|-5-5-5-5-5-5-|-5-5-5-5-5-5-|
B|-5-2-3-5-|-5-7-5-7-5-|-3-2-3-5-|-7-7-7-7-7-7-|-7-7-7-7-7-7-|
G|---------|-----------|---------|-------------|-4-4-4-4-4-4-|
D|---------|-----------|---------|-0-0-0-0-0-0-|-0-0-0-0-0-0-|
A|---------|-----------|---------|-------------|-------------|
E|---------|-----------|---------|-------------|-------------|

e|-3-3-3-3-3-3-|-3-3-3-3-2-2-|-0-0-0-0-0-0-|-2-----------|
B|-5-5-5-5-5-5-|-2-2-2-2-3-3-|-3-3-2-2-2-2-|-------------|
G|-4-4-4-4-4-4-|-2-2-2-2-2-2-|-4-4-2-2-2-2-|-2-2-2-2-2-2-|
D|-2-2-2-2-2-2-|---------0-0-|-5-5---------|-4-----------|
A|-------------|-0-0-0-0-----|---------0-0-|-------------|
D|-------------|-------------|-------------|-0-----------|

e|-------0-2-0---|-0-----------|-0---0-2-3-5-3-2-0-|
B|-3---3-------3-|-------------|-------------------|
G|---2-----------|---2-2-2-2-2-|---2---------------|
D|-0-------------|-------------|-------------------|
A|---------------|-4-----------|-0-----------------|
D|---------------|-------------|-------------------|

e|-2---------0-2-3-5-2-|-0-5-4-5-0-0-2-|-0-5-4-5-0-0-2-|
B|-----0-2-3-----------|-----------0---|-2---------0---|
G|---2-----------------|-----------1---|-2---------1---|
D|-0-------------------|---------------|---------------|
A|---------------------|-0-------------|---------------|
D|---------------------|---------------|---------------|

E|-0-------|-----------|---0-0-0-0-0-|-2-2-2-2-2-2-|
B|-2-3-2-0-|-2-3-0-----|---2-2-2-2-2-|-5-5-5-5-5-5-|
G|-2-------|---------2-|-2-2-2-2-2-2-|-2-2-2-2-2-2-|
D|---------|-0---2-----|-------------|-0-0-0-0-0-0-|
A|-----0---|-----------|-0-0-0-0-0-0-|-------------|
E|---------|-------2---|-------------|-------------|

e|-2-2-2-2-2-2-|-4-4-4-4-5-5-|-5-5-4-4-3-3-|-5---5-5-5-5-|
B|-3-3-3-3-3-3-|-3-3-3-3-2-2-|-3-3-3-3-3-3-|-2-----------|
G|-2-2-2-2-2-2-|-4-4-4-4-2-2-|-4-4-4-4-4-4-|-2-2---------|
D|-0-0-0-0-0-0-|-2-2-2-2-----|-0-0-2-2-----|-------------|
A|-------------|---------0-0-|-------------|-0-----------|
D|-------------|-------------|---------2-2-|-------------|

e|-5---5-5-5-7-5-3-2-|-3---3-3-3-3-|-3---3-3-3-5-3-2-0-|
B|-------------------|-------------|-------------------|
G|---2---------------|---2---------|---2---------------|
D|-------------------|-------------|-------------------|
A|-0-----------------|-0-----------|-0-----------------|
D|-------------------|-------------|-------------------|

e|-2---2-2-2-3-2-0---|-0---0-0-0-2-0-----|-2---2-2-2-3-2-0---|
B|-----------------3-|---------------3-2-|-----------------3-|
G|---2---------------|---2---------------|---2---------------|
D|-0-----------------|-------------------|-0-----------------|
A|-------------------|-0-----------------|-------------------|
D|-------------------|-------------------|-------------------|

E|-0-----------|-------------|---------0-0-|-0-----0-2-2-|
B|-------0-----|---0-0-2-3-3-|-3-2-2-3-----|---3-3-------|
G|---2-2---5-5-|-5-----------|-------------|-------------|
D|-------------|-------------|-------------|-------------|
A|-0-----------|-------------|-0-------1---|-2-------2---|
E|---------4---|-5-------6---|-------------|-------------|

e|-3-0-0-----3-|-3-0-0-------|---3-2-0-----|---7-----------|
B|-------1-1---|-------1-1---|---------3---|-------------0-|
G|-------------|-----------3-|-3-------4-6-|-7---6-7-6-----|
D|-2-----------|-2-----------|-4-------5---|-----4---------|
A|-------------|-------------|-------------|-7-------------|
D|-------------|-------------|-------------|-----------4---|

e|---2---2-----|-----------0-|---------7-5-|-3-0---0-5-3-|
B|-0---3---0-3-|-2-------2---|-3-2-0-7-----|-----2-------|
G|-------------|---3---3-----|-------------|-------------|
D|-------------|-----4-------|---------0---|-2-----------|
A|-2-------2---|-1-------1---|-2-----------|-----0---4---|
D|-------------|-------------|-------------|-------------|

e|-2-0---2-3-2-|-0-----0-2-0-|---------7---|-------------|
B|-----3-------|---2---------|-3-2-0-7---7-|-9-6-------0-|
G|-------------|-----3-------|-------------|-----6-7-6---|
D|-0-----------|-------------|---------9---|-------------|
A|---------2---|-4-------1---|-2-----------|-8-------8---|
D|-------------|-----4-------|-------------|-------------|

e|---2---2---2-|---2---2---2-|---2---2---2-|---2---2---2-|
B|-------------|-0---0---0---|-2---2---2---|-3---3---3---|
G|-2---2---2---|-1-----------|-2-----------|-4-----------|
D|-4-----------|-------------|-------------|-------------|
A|-------------|-------------|-------------|-------------|
D|-------------|-------------|-------------|-------------|

E|---2---2---2-|-------------|---2---2---1-|
B|-------------|---7---7---7-|-2---2---2---|
G|-2---2---2---|-4---4---4---|-------------|
D|-------------|-------------|-------------|
A|-------------|-------------|-4-------4---|
E|-4-----------|-6-----------|-------------|

e|-----2-------2-------0---|-------------------------|
B|-------------------------|-----4-------4-------4---|
G|---3---3---3---3---3---3-|---4---4---4---4---4---4-|
D|---------4-------4-------|-------------------------|
A|-------------------------|-2-------2-------0-------|
D|-4-----------------------|-------------------------|

e|-----0-------0-----------|-------------------------|
B|---0---0---0---0-----3---|-----2-------2-------2---|
G|-------------------4---4-|---2---2---2---2---2---2-|
D|-------------------------|-------------------------|
A|-------------------------|-0-------0---------------|
E|-6-------6-------6-------|-----------------5-------|

e|-------------------------|-------------------------|
B|-----3-------3-------3---|-----3-------3-------3---|
G|---2---2---2---2---2---2-|---4---4---4---4---4---4-|
D|-------------------------|---------5---------------|
A|-------------------------|-------------------------|
D|-4-------4-------4-------|-5---------------5-------|

e|-----0-------0-------0---|-----0-------0-------0---|
B|---0---0---0---0---0---0-|---2---2---2---2---2---2-|
G|-------------------------|---------2---------------|
D|---------6---------------|-------------------------|
A|-------------------------|-0---------------0-------|
D|-6---------------6-------|-------------------------|

e|-----2-------2-------2---|-----2-------2-------2---|
B|---2---2---2---2---2---2-|---3---3---3---3---3---3-|
G|---------3---------------|---------4---------------|
D|-------------------------|-------------------------|
A|-1---------------1-------|-2---------------2-------|
D|-------------------------|-------------------------|

E|-----3-------3-------3---|-------------|-------------|
B|---3---3---3---3---3---3-|-2-----0-----|---0-0-2-3-3-|
G|---------4---------------|---2-2---5-5-|-5-----------|
D|-------------------------|-------------|-------------|
A|-2---------------2-------|-0-----------|-------------|
E|-------------------------|---------4---|-5-------6---|

e|---------0-0-|-0-----0-2-2-|-3-5-3-2-0---|-------------|
B|-3-2-2-3-----|---3-3-------|-0---------3-|-2-----0-----|
G|-------------|-------------|---------1---|---2-2---5-5-|
D|-------------|-------------|-2-----------|-------------|
A|-0-------1---|-2-------2---|-------------|-0-----------|
D|-------------|-------------|-------------|---------4---|

e|-------------|---------0-0-|-0-----0-2-2-|-3-5-3-2-0---|
B|---0-0-2-3-3-|-3-2-2-3-----|---3-3-------|-0---------3-|
G|-5-----------|-------------|-------------|---------1---|
D|-------------|-------------|-------------|-2-----------|
A|-------------|-0-------1---|-2-------2---|-------------|
D|-5-------6---|-------------|-------------|-------------|

e|-------------|-----3---5-0-|-1-------------|---5-5-5-5-5-|
B|-2---3---5---|-6-----------|---3-2-3-2---3-|-3-7-7-7-7-7-|
G|---2---2---2-|---2---2-----|---0-2---------|-------------|
D|-----3-------|-0-----------|-0-------------|-0-0-0-0-0-0-|
A|-0-------4---|-----4---0---|-----------0---|-------------|
D|-------------|-------------|---------------|-------------|

E|-5-5-5-5-5-5-|-3-3-3-3-3-3-|-3-----------|-3-----------|
B|-7-7-7-7-7-7-|-5-5-5-5-5-5-|-2-------2---|-2-------2---|
G|-4-4-4-4-4-4-|-4-4-4-4-4-4-|-2-2-2-2---2-|-2-2-2-2---2-|
D|-0-0-0-0-0-0-|-2-2-2-2-2-2-|-------------|-------------|
A|-------------|-------------|-0-----------|-0-----------|
E|-------------|-------------|-------------|-------------|

e|-3-----------|-1-------1-0-|-------------|
B|-2-------2---|---3-2-3-----|-6-------6-5-|
G|-2-2-2-2---2-|-------------|---7-6-7-----|
D|-------------|-0---0---0---|-------------|
A|-0-----------|-------------|-------------|
D|-------------|-------------|-6---6---6---|

e|-----0-------0-------0---|-----0-------0-------0---|
B|---6---6---6---6---6---6-|---5---5---5---5---5---5-|
G|---------7-------7-------|---------7-------7-------|
D|-------------------------|-------------------------|
A|-------------------------|-------------------------|
D|-6-----------------------|-6-----------------------|

e|-----0-------0-------0---|-----------0-----5-7-5-7-|
B|---3---3---3---3---3---3-|-----0-------7-8---------|
G|---------4-------4-------|-6-----6-7---------------|
D|-------------------------|---7---------------------|
A|-------------------------|-0-----------------------|
D|-6-----------------------|-------------------------|

E|-5---------0-----5-7-5---|---0-----------|---5-5-5-5-5-|
B|-----0-------7-8-------8-|-7---3-2-3---2-|-3-7-7-7-7-7-|
G|-------6-7---------------|---------------|-------------|
D|---7---------------------|-0---------2---|-0-0-0-0-0-0-|
A|-0-----------------------|-----------0---|-------------|
E|-------------------------|---------------|-------------|

e|-5-5-5-5-5-5-|-3-3-3-3-3-3-|-3-3-3-3-----|-------------|
B|-7-7-7-7-7-7-|-5-5-5-5-5-5-|-5-5-5-5-6-6-|-5-5-5-5-6-6-|
G|-4-4-4-4-4-4-|-4-4-4-4-4-4-|-6-6-6-6-7-7-|-6-6-6-6-7-7-|
D|-0-0-0-0-0-0-|-2-2-2-2-2-2-|-------------|---------6-6-|
A|-------------|-------------|-0-0-0-0-----|-0-0-0-0-----|
D|-------------|-------------|---------6-6-|-------------|

e|-------------|-0-0-0-0-0-0-|---2-2-2-2-2-|-0-0-0-0-0-0-|---||
B|-5-5-5-5-6-6-|-3-3-2-2-2-2-|-3-3-3-3-3-3-|-3-3-2-2-2-2-|-3-||
G|-6-6-6-6-7-7-|-4-4-2-2-2-2-|-2-2-2-2-2-2-|-4-4-2-2-2-2-|-2-||
D|-7-7-7-7-7-7-|-5-5---------|-4-----------|-------------|-4-||
A|---------5-5-|---------0-0-|-------------|-----0-0-0-0-|---||
D|-------------|-------------|-0-0-0-0-0-0-|-5-5---------|-0-||

Вверх

Концерт Барроко

E||-------------0----|-------------0----|--------------|
B||----------1-------|----------1-------|--------------|
G||--2---------------|--2---------------|--2-----------|
D||-------2-----2----|-------2-----2----|-------2----2-|
A||--0---------------|--0---------------|--0-----------|
E||------------------|------------------|--------------|

E|---------------------0-|--1--5--1--0--0h1p0---|
B|----1--0h1p0---0h1h3---|--------------------3-|
G|-------------2---------|--------2-----2-------|
D|-------2-------2-------|--0-------------------|
A|-0---------------------|----------------------|
E|-----------------------|----------------------|

E|-----1----------------|------------------0-|
B|--3-----3--1--0h1p0---|------------0h1h3---|
G|--------2-----2-----2-|-1-------2----------|
D|--0-------------------|------0-----0-------|
A|----------------------|--------------------|
E|----------------------|-0------------------|

E|-------------------0-|-----------------|
B|-------------0h1h3---|--1------0h1p0---|
G|--1-------2----------|---------------2-|
D|-------0-----0-------|-------2-------2-|
A|---------------------|--0--------------|
E|--0------------------|-----------------|

E|-----------0----|--5---------0----|-----------------|
B|----------------|-----------------|--1------0h1p0---|
G|-2--------------|-----------------|---------------2-|
D|------2----2----|-------2----2----|-------2-------2-|
A|-0--------------|--0--------------|--0--------------|
E|----------------|-----------------|-----------------|

E|-------------------|------------------|
B|--4--0-----0--1--0-|-4--0-----0--1--0-|
G|--------2----------|-------2----------|
D|--------1-----1----|-------1-----1----|
A|--2----------------|-2----------------|
E|-------------------|------------------|

E|-----------------------0h1h3-|--5-------3--2-|
B|--0-------1p-0---0h1h3-------|---------------|
G|---------------2-------------|---------------|
D|-------1---------1-----------|-------1-----1-|
A|--2--------------------------|--2------------|
E|-----------------------------|---------------|

E|-3-------2--0----|--2------0h2p0------|--0-----------|
B|-----------------|---------------4----|--------------|
G|-----------------|--------------------|--------------|
D|------2-----2----|-------1-------1----|-------2----2-|
A|-----------------|--2-----------------|--------------|
E|-0---------------|--------------------|--0-----------|

E|----------0-----0-|------------0----|-------------0-|
B|-------------3----|---------1-------|----------1----|
G|------------------|-2---------------|--2------------|
D|-------2-----2----|------2-----2----|-------2-----2-|
A|------------------|-0---------------|--0------------|
E|--0---------------|-----------------|---------------|

E|--------------|---------------------0-|--1--5--1--0--0h1p0---|
B|--------------|----1--0h1p0---0h1h3---|--------------------3-|
G|--2-----------|-------------2---------|--------2-----2-------|
D|-------2----2-|-------2-------2-------|--0-------------------|
A|--0-----------|-0---------------------|----------------------|
E|--------------|-----------------------|----------------------|

E|-----1----------------|------------------0-|
B|--3-----3--1--0h1p0---|------------0h1h3---|
G|--------2-----2-----2-|-1-------2----------|
D|--0-------------------|------0-----0-------|
A|----------------------|--------------------|
E|----------------------|-0------------------|

E|-------------------0-|-----------------|-----------0-|
B|-------------0h1h3---|--1------0h1p0---|-------------|
G|--1-------2----------|---------------2-|-2-----------|
D|-------0-----0-------|-------2-------2-|------2----2-|
A|---------------------|--0--------------|-0-----------|
E|--0------------------|-----------------|-------------|

E|--5---------0----|--------------------|-------------------|
B|-----------------|--1------0h1p0------|--4--0-----0--1--0-|
G|-----------------|---------------2----|--------2----------|
D|-------2----2----|-------2-------2----|--------1-----1----|
A|--0--------------|--0-----------------|--2----------------|
E|-----------------|--------------------|-------------------|

E|------------------|--------------------0h1h3-|--5-------3--2-|
B|-4--0-----0--1--0-|-0-----1p-0---0h1h3-------|---------------|
G|-------2----------|------------2-------------|---------------|
D|-------1-----1----|-----1--------1-----------|-------1-----1-|
A|-2----------------|-2------------------------|--2------------|
E|------------------|--------------------------|---------------|

E|-3-------2--0-|-2------0h2p0---|-0-----------|---------------|
B|--------------|--------------4-|-------------|-------------0-|
G|--------------|----------------|-------------|----------0----|
D|------2-----2-|------1-------1-|-------------|--2----2-----2-|
A|--------------|-2--------------|-------------|---------------|
E|-0------------|----------------|-0-----------|--0------------|

E|--------------|-0-------|---------------------|--------------|
B|------------0-|---------|----3--1--0----------|--------------|
G|---------0----|---------|-------------2p0-----|--------------|
D|-2----2-----2-|----2--2-|-------2---------4p2-|-1-------2--4-|
A|--------------|---------|---------------------|-2----0-----0-|
E|-0------------|-0-------|-0-------------------|--------------|

E|------------2----|--3-------2--0h2p0--|--0---------0-|
B|-4-------5-------|--------------------|--------------|
G|-----------------|--------------------|--------------|
D|------4-----4----|-------2-----2------|-------2----2-|
A|-2---------------|--------------------|--------------|
E|-----------------|--0-----------------|--0-----------|

E|-------------------------0--|--------------------------0-|
B|-2p-0--------0--2--2h-3-----|--2p-0--------0--2--2h-3----|
G|-------2--2-----------------|--------2--2----------------|
D|----------2--------2--------|-----------2--------2-------|
A|-0--------------------------|--0-------------------------|
E|----------------------------|----------------------------|

E|-1--5--1-0h1p0------|-------------|--------------------------|
B|---------------3--2-|-3---------3-|-0-------------0--0h-1--3-|
G|-------2-------2----|------2----2-|---2p-0--0h-2-------------|
D|-0------------------|-0-----------|---------0--------0-------|
A|--------------------|-------------|--------------------------|
E|--------------------|-------------|-3------------------------|

E|---------------------------|-0-3--0h3p0--------|-------------|
B|-0--------------0--0h-1--3-|------------3-1--0-|-1---------0-|
G|----2p-0--0h-2-------------|-------------------|-------------|
D|----------0--------0-------|------2-------2----|------2----2-|
A|---------------------------|-3-----------------|-3-----------|
E|-3-------------------------|-------------------|-------------|

E|-------------------------0--|--------------------------0-|
B|-1p-0--------0--1--1h-3-----|--1p-0--------0--1--1h-3----|
G|-------2--2-----------------|--------2--2----------------|
D|----------2--------2--------|-----------2--------2-------|
A|-0--------------------------|--0-------------------------|
E|----------------------------|----------------------------|

E|-1---------0h1p0--|--------------|
B|------------------|--3---------1-|
G|------2----2------|--------------|
D|-0----------------|-------0----0-|
A|------------------|--------------|
E|------------------|--2-----------|

E|-------------------|-----1--0-----------|----------------|
B|----0--------------|--3--------3--1--0--|--0h1p0---------|
G|-1-----2--1--------|--------------------|---------2----1-|
D|-------2-----4--2--|--------2-----2-----|---------2----2-|
A|-------------------|--------------------|--0-------------|
E|-0-----------------|--0-----------------|----------------|

E|-------|---------------------------|-------------------------|
B|-------|-------------------3h-5p-3-|------------------3--5-3-|
G|-2-----|----------2h-4p-2--2-------|---------2--4--2---------|
D|---2-2-|-3h-5p-3--3----------------|-3-5--3--3--------3------|
A|-0-----|-0-------------------------|-0-----------------------|
E|-------|---------------------------|-------------------------|

E|-------------------0h-1--0--|--------------------0--1--0-|
B|----------0h-1--0-----------|-----------0--1--0----------|
G|-1h-2--1--------------------|--1--2--1-------------------|
D|----------0--------0--------|-----------0--------0-------|
A|----------------------------|----------------------------|
E|-0--------------------------|--0-------------------------|

E|----0----------------|----------------------|----|
B|-1-----3--1--0h1p0---|--0--3--1p0h1p0-------|----|
G|-------------------2-|----------------2--1--|--2-|
D|-------2-----2-------|--------0-------0-----|----|
A|-0-------------------|----------------------|--0-|
E|---------------------|--0-------------------|----|

E|-----------------|------------------|--0-----------|
B|------------0----|-------------0----|--------------|
G|---------0-------|----------0-------|--------------|
D|-2----2-----2----|--2----2-----2----|-------2----2-|
A|-----------------|------------------|--------------|
E|-0---------------|--0---------------|--0-----------|

E|----------------------|-----------------|-------------2-|
B|-----3--1--0----------|-----------------|--4-------5----|
G|--------------2p0-----|-----------------|---------------|
D|--------2---------4p2-|-1-------2--4----|-------4-----4-|
A|----------------------|-2----0-----0----|--2------------|
E|--0-------------------|-----------------|---------------|

E|--3-------2--0h2p0--|--0---------0-|
B|--------------------|--------------|
G|--------------------|--------------|
D|-------2-----2------|-------2----2-|
A|--------------------|--------------|
E|--0-----------------|--0-----------|

E|-------------------------0--|--------------------------0-|
B|-2p-0--------0--2--2h-3-----|--2p-0--------0--2--2h-3----|
G|-------2--2-----------------|--------2--2----------------|
D|----------2--------2--------|-----------2--------2-------|
A|-0--------------------------|--0-------------------------|
E|----------------------------|----------------------------|

E|-1--5--1-0h1p0-------|--------------|
B|---------------3--2--|--3---------3-|
G|-------2-------2-----|-------2----2-|
D|-0-------------------|--0-----------|
A|---------------------|--------------|
E|---------------------|--------------|

E|----------------------------|---------------------------|
B|--0--------------0--0h-1--3-|-0--------------0--0h-1--3-|
G|-----2p-0--0h-2-------------|----2p-0--0h-2-------------|
D|-----------0--------0-------|----------0--------0-------|
A|----------------------------|---------------------------|
E|--3-------------------------|-3-------------------------|

E|--0--3--0h3p0---------|--------------|
B|--------------3-1--0--|--1---------0-|
G|----------------------|--------------|
D|--------2-------2-----|-------2----2-|
A|--3-------------------|--3-----------|
E|----------------------|--------------|

E|-------------------------0--|--------------------------0-|
B|-1p-0--------0--1--1h-3-----|--1p-0--------0--1--1h-3----|
G|-------2--2-----------------|--------2--2----------------|
D|----------2--------2--------|-----------2--------2-------|
A|-0--------------------------|--0-------------------------|
E|----------------------------|----------------------------|

E|-1---------0h1p0--|--------------|
B|------------------|--3---------1-|
G|------2----2------|--------------|
D|-0----------------|-------0----0-|
A|------------------|--------------|
E|------------------|--2-----------|

E|-------------------|-----1--0-----------|----------------|
B|----0--------------|--3--------3--1--0--|--0h1p0---------|
G|-1-----2--1--------|--------------------|---------2----1-|
D|-------2-----4--2--|--------2-----2-----|---------2----2-|
A|-------------------|--------------------|--0-------------|
E|-0-----------------|--0-----------------|----------------|

E|----------------|----------------------------|
B|----------------|--------------------3h-5p-3-|
G|-2--------------|-----------2h-4p-2--2-------|
D|------2----2----|--3h-5p-3--3----------------|
A|-0--------------|--0-------------------------|
E|----------------|----------------------------|

E|----------------------------|
B|--------------------3--5--3-|
G|-----------2--4--2----------|
D|--3--5--3--3--------3-------|
A|--0-------------------------|
E|----------------------------|

E|-------------------0h-1--0--|--------------------0--1--0-|
B|----------0h-1--0-----------|-----------0--1--0----------|
G|-1h-2--1--------------------|--1--2--1-------------------|
D|----------0--------0--------|-----------0--------0-------|
A|----------------------------|----------------------------|
E|-0--------------------------|--0-------------------------|

E|----0----------------|----------------------|----|
B|-1-----3--1--0h1p0---|--0--3--1p0h1p0-------|----|
G|-------------------2-|----------------2--1--|--2-|
D|-------2-----2-------|--------0-------0-----|----|
A|-0-------------------|----------------------|--0-|
E|---------------------|--0-------------------|----|

Вверх

Концерт в Am op.3 №8

E|-17-16--17-15-13----------------|--------17--16--17-15-13----|
B|-----------------17-15-13-------|-17----------------------17-|
G|--------------------------16-14-|----------------------------|
D|--------------------------------|----14----------------------|
A|--------------------------------|----------------------------|
E|--------------------------------|----------------------------|

E|-------------|-----------------------------|
B|-15-13-------|-17--------------------------|
G|-------16-14-|----------------13-14--14-16-|
D|-------------|-----14--14--16--------------|
A|-------------|-----------------------------|
E|-------------|-----------------------------|

E|----------------------------------------|--------------------|
B|-13-13-15-17----------------------------|-13--13--15--17-----|
G|--------------------------13-14---14-16-|--------------------|
D|-------------14--14---16----------------|-----------------14-|
A|----------------------------------------|--------------------|
E|----------------------------------------|--------------------|

2.

E|--------|---------------------------------------------|
B|--------|-18h20--18h20--18h20--18h20--18--------------|
G|-21-----|---------------------------------19----------|
D|--------|-------------------------------------21--17--|
A|--------|---------------------------------------------|
E|--------|---------------------------------------------|

E|---------------------|------------------------|
B|-17h18--17h18--17h18-|-17h18--17--------------|
G|---------------------|------------17----------|
D|---------------------|----------------19------|
A|---------------------|--------------------20--|
E|---------------------|------------------------|

E|--------------------------------------------|
B|-15h17--15h17--15h17--15h17--15-------------|
G|---------------------------------16---------|
D|-------------------------------------18--14-|
A|--------------------------------------------|
E|--------------------------------------------|

E|------------------------|-19----------------------|
B|-13------17-17-15-21-15-|----15-18-15-17-15-18-15-|
G|-----14-----------------|-------------------------|
D|------------------------|-------------------------|
A|------------------------|-------------------------|
E|------------------------|-------------------------|

E|-------19-------|----19-----|-------------------17-----|
B|-21-15----15-17-|-15----15--|-17-15-18-15-21-17----13--|
G|----------------|-----------|--------------------------|
D|----------------|-----------|--------------------------|
A|----------------|-----------|--------------------------|
E|----------------|-----------|--------------------------|

E|----17------16--17~-|
B|-12-----12----------|
G|--------------------|
D|--------------------|
A|--------------------|
E|--------------------|

3.

E|-17----17----------------15----15-----|
B|----13----13-15-13-12-15----12----12--|
G|--------------------------------------|
D|--------------------------------------|
A|--------------------------------------|
E|--------------------------------------|

E|-------------13----13---------------|-12---12----|
B|-13-12-10-13----10----10-12-10-8-12-|----8----8--|
G|------------------------------------|------------|
D|------------------------------------|------------|
A|------------------------------------|------------|
E|------------------------------------|------------|

E|-----------10-12-10-------------10-15h17p15----|-------------|
B|-10-8----8----------13-12-10----------------18-|-17-15-------|
G|------10---------------------12----------------|-------17----|
D|-----------------------------------------------|----------17-|
A|-----------------------------------------------|-------------|
E|-----------------------------------------------|-------------|

E|--------------------------------------|
B|-------------------------15-17-15-----|
G|17-19-17-16-----------------------17--|
D|------------19-17-15-19---------------|
A|--------------------------------------|
E|--------------------------------------|

E|-------------------------------------|-------------|
B|----------12-13----13-------13----13-|----13----13-|
G|-16-14-12----------------------------|-12----12----|
D|----------------14----14-15----15----|-------------|
A|-------------------------------------|-------------|
E|-------------------------------------|-------------|

E|-------------------------------------------------|
B|----13----13----13----13----13----13----13----13-|
G|-14----14----------------------------12----12----|
D|-------------14----14----15----15----------------|
A|-------------------------------------------------|
E|-------------------------------------------------|

E|-------------|-------------------------------------|----|
B|----13----13-|----13----13----13----13----12----12-|-13-|
G|-14----14----|-------------------------12----12----|----|
D|-------------|-14----14----15----15----------------|----|
A|-------------|-------------------------------------|----|
E|-------------|-------------------------------------|----|

4.

E|-----19-17-15--19--15--19--|-17--------17--------------|
B|---------------------------|-----19-20-----19------19--|
G|-16------------------------|-------------------20------|
D|---------------------------|---------------------------|
A|---------------------------|---------------------------|
E|---------------------------|---------------------------|

E|-15---19-17-15--19-|15---19--|-15-------15--------------|
B|-------------------|---------|----17-18-----17------17--|
G|-------------------|---------|------------------18------|
D|-------------------|---------|--------------------------|
A|-------------------|---------|--------------------------|
E|-------------------|---------|--------------------------|

E|-13---17-15-13--17--13--17-|-13-----|----13--------------|
B|---------------------------|-----15-|17------15------15--|
G|---------------------------|--------|------------16------|
D|---------------------------|--------|--------------------|
A|---------------------------|--------|--------------------|
E|---------------------------|--------|--------------------|

E|-12---15-13-12--15--12--15-|-13--------13-----------|----|
B|---------------------------|-----15-17----15-----15-|-13-|
G|---------------------------|------------------16----|----|
D|---------------------------|------------------------|----|
A|---------------------------|------------------------|----|
E|---------------------------|------------------------|----|

5.

E|------5---7----|-8---5---7----|-8---5---------------|
B|----5---5---5--|---5---5---5--|---5---8-6-5---------|
G|---------------|--------------|--------------7-5-4--|
D|-7-------------|--------------|---------------------|
A|---------------|--------------|---------------------|
E|---------------|--------------|---------------------|

E|-------------------|
B|-------------------|
G|-------------------|
D|-7---7-5-----------|
A|---7-----8-7-5-----|
E|---------------8-7-|

E|-0-|-0-|-0-|-0-|-1-|-6-|-4-|
B|-1-|-0-|-1-|-2-|-3-|-3-|-3-|
G|-2-|-1-|-2-|-0-|-2-|---|---|
D|---|---|---|---|---|-3-|-2-|
A|-0-|---|---|---|---|---|---|
E|---|-0-|---|---|---|---|---|

E|--5---------|--5---------|--4------|---5-|
B|------------|--0---------|--0------|-----|
G|--5---------|------------|---------|---5-|
D|------------|--2---------|--2------|-----|
A|--7---------|------------|---------|---7-|
E|------------|------------|---------|-----|

Вверх

Концерт в D 1-ая часть, Аллегро

E|-2--2--2--2--0--0--0--0-|-2--2--2--2--0--0--0--0-|
B|-3--3--3--3--2--2--2--2-|-3--3--3--3--2--2--2--2-|
G|-2--2--2--2--2--2--2--2-|-2--2--2--2--2--2--2--2-|
D|-0--0--0--0-------------|-0--0--0--0-------------|
A|-------------0--0--0--0-|-------------0--0--0--0-|
E|------------------------|------------------------|

E|-2--2--2--2--0-|-2--2--2--2--3--3--3--3-|-0--0--0--0---------|
B|-3--3--3--3--2-|-3--3--3--3--3--3--3--3-|-2--2--2--2-2-2-2-2-|
G|-2--2--2--2--2-|-2--2--2--2--4--4--4--4-|-2--2--2--2-2-2-2-2-|
D|-0--0--0--0----|-0--0--0--0-------------|------------2-2-2-2-|
A|-------------0-|------------------------|-0--0--0--0-0-0-0-0-|
E|---------------|-------------3--3--3--3-|--------------------|

E|-2--------1--1--0--0--1--|--1--------1--1--0--0--1-|
B|-3--------3--3--2--2--3--|--3--3--3--3--3--2--2--3-|
G|-2--------2--2--2--2--2--|--2--2--2--2--2--2--2--2-|
D|-0--------0--0--------0--|--0--0--0--0--0--------0-|
A|----------------0--0-----|-----------------0--0----|
E|-------------------------|-------------------------|

E|-1-----------------0--0-|-1--1--2--2--3--3--4-4-|-5--5--5----|
B|-3--3--3--3--4--4--1--1-|-1--1--3--3--3--3--0-0-|----------8-|
G|-2--2--2--2--5--5-------|-----------------------|-6--6--6--6-|
D|-0--0--0--0-------------|-------0-----------2-0-|-7--7--7--7-|
A|-------------3--3--1--1-|-0--0-----3--1--1------|-0--0--7--0-|
E|------------------------|-----------------------|-------5----|

E|-------0--0--------0--0--|----------------0------5-3-2-|
B|-7--7--------7--7--------|--7-----------7---3----------|
G|-7--7--6--6--7--7--6--6--|--7--------7-----------------|
D|-7--7--7--7--7--7--7--7--|--7-----------0--------------|
A|-5--5--0--0--5--5--0--0--|--5--------------------------|
E|-------------------------|-----------------------------|

E|-0-----------0--------3-2-0----|--2--------5--7-5-3----7-5-3-|
B|---------------3-2-------------|-----3--3--------------------|
G|----2--2--2--------------------|--------------0--------------|
D|-------------------------------|--0--------------------------|
A|-4-----------0-----------------|-----------------------------|
E|-------------------------------|-----------------------------|

E|-0-----------0-----------5-3-2----5-3-2-|
B|----2-----2-----2-----2-----------------|
G|----------------------------------------|
D|-------------------------4--------------|
A|-------4-----------4--------------------|
E|----------------------------------------|

E|-------------------------3-2-0----3-2-0-|
B|-3--0-----0--3--0-----0-----------------|
G|----------------------------------------|
D|-------------------------2--------------|
A|-------2-----------2--------------------|
E|----------------------------------------|

E|-2-0------2-0------4-2-0----4-2-0----|--5-|
B|-----3--------3----------------------|----|
G|-------------------------------------|--6-|
D|-0-----------------2-----------------|--7-|
A|-------------------------------------|--7-|
E|-------------------------------------|--5-|

E|------5--4--2--0--0--2--0-----|----0--5--4-2-0---0--2--0-----|
B|---5----------------------3-2-|--------------------------3-2-|
G|------------------------------|------------------------------|
D|------------------------------|------------------------------|
A|---------------0------------0-|--------------0-------------0-|
E|------------------------------|------------------------------|

E|-------0-------5------------|---------0-------5-----------|
B|---0-------3-2-----2--3--0--|--2--0-------3-2-----2--3--0-|
G|-----2----------------------|-------2---------------------|
D|----------------------------|-----------------------------|
A|-------0-------0------------|--0------0-------0-----------|
E|----------------------------|-----------------------------|

E|----5--7--4-5-|-------------0-0-0-0-|-2--2--2--2--0--0--0--0-|
B|----------0---|-7--7--7--7------2-2-|-3--3--3--3--2--2--2--2-|
G|-2--6--7----6-|-7--7--7--7--6-6-2-2-|-2--2--2--2--2--2--2--2-|
D|-------0--2-7-|-7--7--7--7--7-7-----|-0--0--0--0-------------|
A|-0----------7-|-5--5--5--5--0-0-0-0-|-------------0--0--0--0-|
E|------------5-|---------------------|------------------------|

E|-2-2-2-2-0-|-2--2--2--2--3--3--3--3-|-0--0--0--0-------------|
B|-3-3-3-3-2-|-3--3--3--3--3--3--3--3-|-2--2--2--2--2--2--2--2-|
G|-2-2-2-2-2-|-2--2--2--2--4--4--4--4-|-2--2--2--2--2--2--2--2-|
D|-0-0-0-0---|-0--0--0--0-------------|-------------2--2--2--2-|
A|---------0-|------------------------|-0--0--0--0--0--0--0--0-|
E|-----------|-------------3--3--3--3-|------------------------|

E|-2--------1--1--0--0--1--|--1--------1--1--0--0--1-|
B|-3--------3--3--2--2--3--|--3--3--3--3--3--2--2--3-|
G|-2--------2--2--2--2--2--|--2--2--2--2--2--2--2--2-|
D|-0--------0--0--------0--|--0--0--0--0--0--------0-|
A|----------------0--0-----|-----------------0--0----|
E|-------------------------|-------------------------|

E|-1-----------0-0-|-1--1--2--2--3--3--4--4-|-5----5----5------|
B|-3-3-3-3-4-4-1-1-|-1--1--3--3--3--3--0--0-|----------------8-|
G|-2-2-2-2-5-5-----|------------------------|-6----6----6----6-|
D|-0-0-0-0---------|-------0-----------2--0-|-7----7----7----7-|
A|---------3-3-1-1-|-0--0-----3--1--1-------|-0----0----7----0-|
E|-----------------|------------------------|-----------5------|

E|-------0--0--------0--0--|----------------0------5-3-2-|
B|-7--7--------7--7--------|--7-----------7---3----------|
G|-7--7--6--6--7--7--6--6--|--7--------7-----------------|
D|-7--7--7--7--7--7--7--7--|--7-----------0--------------|
A|-5--5--0--0--5--5--0--0--|--5--------------------------|
E|-------------------------|-----------------------------|

E|-0-----------0--------3-2-0----|--2--------5--7-5-3----7-5-3-|
B|---------------3-2-------------|-----3--3--------------------|
G|----2--2--2--------------------|--------------0--------------|
D|-------------------------------|--0--------------------------|
A|-4-----------0-----------------|-----------------------------|
E|-------------------------------|-----------------------------|

E|-0-------0-------5-3-2--5-3-2-|-----------------3-2-0--3-2-0-|
B|---2---2---2---2--------------|-3-0---0-3-0---0--------------|
G|------------------------------|------------------------------|
D|-----------------4------------|-----------------2------------|
A|-----4-------4----------------|-----2-------2----------------|
E|------------------------------|------------------------------|

E|-2-0------2-0------4-2-0----4-2-0----|--5-|
B|-----3--------3----------------------|----|
G|-------------------------------------|--6-|
D|-0-----------------2-----------------|--7-|
A|-------------------------------------|--7-|
E|-------------------------------------|--5-|

E|------5--4-2-0---0--2--0-----|----0--5--4-2-0---0--2--0-----|
B|---5---------------------3-2-|--------------------------3-2-|
G|-----------------------------|------------------------------|
D|-----------------------------|------------------------------|
A|-------------0-------------0-|--------------0-------------0-|
E|-----------------------------|------------------------------|

E|-------0-------5------------|----------0--------5----------|
B|---0-------3-2-----2--3--0--|--2--0-------3--2-----2--3--0-|
G|-----2----------------------|-------2----------------------|
D|----------------------------|------------------------------|
A|-------0-------0------------|--0-------0--------0----------|
E|----------------------------|------------------------------|

E|---5-7-4-5-|------------------------|------------------------|
B|-------0---|-2--2--2--2--0--0--0--0-|-2--2--2--2--0--0--0--0-|
G|-2-6-7---6-|-2--2--2--2--1--1--1--1-|-2--2--2--2--1--1--1--1-|
D|-----0-2-7-|-2--2--2--2--2--2--2--2-|-2--2--2--2--2--2--2--2-|
A|-0-------7-|-0--0--0--0-------------|-0--0--0--0-------------|
E|---------5-|-------------0--0--0--0-|-------------0--0--0--0-|

E|----------------------0--|--5--0-----3--2--------2-|
B|-2--2--2--2--0-----------|-----------------3-------|
G|-2--2--2--2--1-----------|--------2----------------|
D|-2--2--2--2--2-----------|--------------------0----|
A|-0--0--0--0--------------|-------------------------|
E|-------------0-----------|-------------------------|

E|-7--------5--4--0-----4--|--9--------7--5--5--5--5-|
B|----7--0-----------------|-----9-------------------|
G|-------------------------|--------6-----6--6--6--6-|
D|-------------------2-----|--------------4----------|
A|-------------------------|-------------------------|
E|-------------------------|-------------------------|

E|-4-4-4-4-5--5--5--5-|-4--4--4--4--5-|-6--6--6--6--7--7--7--7-|
B|--------------------|---------------|------------------------|
G|-6-6-6-6-6--6--6--6-|-6--6--6--6--6-|-6--6--6--6--7--7--7--7-|
D|---------4----------|-------------4-|-4----------------------|
A|-4------------------|-4-------------|-------------9----------|
E|--------------------|---------------|------------------------|

E|-6--6--6--6--7--7--7--7--|--6--6--6--6--7-|
B|-------------------------|----------------|
G|-6--6--6--6--7--7--7--7--|--6--6--6--6--7-|
D|-4-----------------------|--4-------------|
A|-------------9-----------|--------------9-|
E|-------------------------|----------------|

E|-7--5--3--2--0-----7-----7--|--0--7-----7-----7-----7-|
B|----------------3-----------|--------7-----8----------|
G|----------------------7-----|--------------------7----|
D|----------------------------|-------------------------|
A|----------------------------|-------------------------|
E|----------------------------|-------------------------|

E|-0--7-----6--7----------|----------------------------|
B|-------7-----0----------|--0-----------------0-----0-|
G|------------------------|-----2--0-------------------|
D|------------------------|-----------4--2--0-----0----|
A|------------------------|----------------------------|
E|------------------------|----------------------------|

E|-------------------------|-----------------------2-|
B|----0-----0-----0-----0--|-----0--------0--------3-|
G|-------------0-----------|-----------3-----------2-|
D|-2-----4-----------0-----|--2-----4--------------0-|
A|-------------------------|--------------2----------|
E|-------------------------|-------------------------|

E|-2--2--2--2--0--0--0--0--|--2--2--2--2--2--2--2--2-|
B|-3--3--3--3--2--2--2--2--|--3--3--3--3--3--3--3--3-|
G|-2--2--2--2--2--2--2--2--|--2--2--2--2--2--2--2--2-|
D|-0--0--0--0--------------|--0--0--0--0--0--0--0--0-|
A|-------------0--0--0--0--|-------------------------|
E|-------------------------|-------------------------|

E|-0--------1--1--0--0--1--3--|--1--------1--1--0--0--1--3-|
B|-2--------------------------|-----3--3-------------------|
G|-2--------------------------|----------------------------|
D|----------------------------|--0-------------------------|
A|-0-----------0--------------|--------------0-------------|
E|----------------------------|----------------------------|

E|-1--------5--6--6--6--5--3--|--5--5--5--3--1--3--3--3--1--0-|
B|----3--3--------------------|-------------------------------|
G|-------------0-----5--------|--------3--------------2-------|
D|-0--------------------------|--3--------------2-------------|
A|----------------------------|-------------------------------|
E|----------------------------|-------------------------------|

E|-1-1-2-2-3-3-4-4-|-5-5-5-5-5-5--5--5--3--3--3--3--3--3--3--3-|
B|-----------------|-------------------------------------------|
G|-----------------|-------------------------------------------|
D|-0-----------2-0-|-------------------------------------------|
A|-----3---1-------|-4------------------4-----------0----------|
E|-----------------|---------5---------------------------------|

E|-2--0-----0--------2--0--0--|--2--2--0--0--2--2--0--0-|
B|-------3-----2--3--3--2--2--|--3--3--2--2--3--3--2--2-|
G|-------------------2--2--2--|--2--2--2--2--2--2--2--2-|
D|-0--------------0--0--------|--0--0--------0--0-------|
A|----------0-----------0--0--|--------0--0--------0--0-|
E|----------------------------|-------------------------|

E|-2---0-----|------------------------|------------------------|
B|-3-3-0-2-3-|-2--2--2--2--0--0--0--0-|-2--2--2--2--0--0--0--0-|
G|-2-2-0-2-2-|-2--2--2--2--1--1--1--1-|-2--2--2--2--1--1--1--1-|
D|-0-0---2-0-|-2--2--2--2--2--2--2--2-|-2--2--2--2--2--2--2--2-|
A|-------0---|-0--0--0--0-------------|-0--0--0--0-------------|
E|-----3-----|-------------0--0--0--0-|-------------0--0--0--0-|

E|----------------------0--|--5--0-----3--2--------2-|
B|-2--2--2--2--0-----------|-----------------3-------|
G|-2--2--2--2--1-----------|--------2----------------|
D|-2--2--2--2--2-----------|--------------------0----|
A|-0--0--0--0--------------|-------------------------|
E|-------------0-----------|-------------------------|

E|-7--------5--4--0-----4--|--9--------7--5--5--5--5-|
B|----7--0-----------------|-----9-------------------|
G|-------------------------|--------6-----6--6--6--6-|
D|-------------------2-----|--------------4----------|
A|-------------------------|-------------------------|
E|-------------------------|-------------------------|

E|-4--4--4--4--5--5--5--5-|-4-4-4-4-5-|-6--6--6--6--7--7--7--7-|
B|------------------------|-----------|------------------------|
G|-6--6--6--6--6--6--6--6-|-6-6-6-6-6-|-6--6--6--6--7--7--7--7-|
D|-------------4----------|---------4-|-4----------------------|
A|-4----------------------|-4---------|-------------9----------|
E|------------------------|-----------|------------------------|

E|-6--6--6--6--7--7--7--7--|--6--6--6--6--7-|
B|-------------------------|----------------|
G|-6--6--6--6--7--7--7--7--|--6--6--6--6--7-|
D|-4-----------------------|--4-------------|
A|-------------9-----------|--------------9-|
E|-------------------------|----------------|

E|-7--5--3--2--0-----7-----7--|--0--7-----7-----7-----7-|
B|----------------3-----------|--------7-----8----------|
G|----------------------7-----|--------------------7----|
D|----------------------------|-------------------------|
A|----------------------------|-------------------------|
E|----------------------------|-------------------------|

E|-0--7-----6--7----------|----------------------------|
B|-------7-----0----------|--0-----------------0-----0-|
G|------------------------|-----2--0-------------------|
D|------------------------|-----------4--2--0-----0----|
A|------------------------|----------------------------|
E|------------------------|----------------------------|

E|-------------------------|-----------------------2-|
B|----0-----0-----0-----0--|-----0--------0--------3-|
G|-------------0-----------|-----------3-----------2-|
D|-2-----4-----------0-----|--2-----4--------------0-|
A|-------------------------|--------------2----------|
E|-------------------------|-------------------------|

E|-2--2--2--2--0--0--0--0--|--2--2--2--2--2--2--2--2-|
B|-3--3--3--3--2--2--2--2--|--3--3--3--3--3--3--3--3-|
G|-2--2--2--2--2--2--2--2--|--2--2--2--2--2--2--2--2-|
D|-0--0--0--0--------------|--0--0--0--0--0--0--0--0-|
A|-------------0--0--0--0--|-------------------------|
E|-------------------------|-------------------------|

E|-0--------1--1--0--0--1--3--|--1--------1--1--0--0--1--3-|
B|-2--------------------------|-----3--3-------------------|
G|-2--------------------------|----------------------------|
D|----------------------------|--0-------------------------|
A|-0-----------0--------------|--------------0-------------|
E|----------------------------|----------------------------|

E|-1--------5--6--6--6--5--3--|--5--5--5--3--1--3--3--3--1--0-|
B|----3--3--------------------|-------------------------------|
G|-------------0-----5--------|--------3--------------2-------|
D|-0--------------------------|--3--------------2-------------|
A|----------------------------|-------------------------------|
E|----------------------------|-------------------------------|

E|-1-1-2-2-3-3-4-4-|-5-5-5-5-5-5--5--5--3--3--3--3--3--3--3--3-|
B|-----------------|-------------------------------------------|
G|-----------------|-------------------------------------------|
D|-0-----------2-0-|-------------------------------------------|
A|-----3---1-------|-4------------------4-----------0----------|
E|-----------------|---------5---------------------------------|

E|-2--0-----0--------2--0--0--|--2--2--0--0--2--2--0--0-|
B|-------3-----2--3--3--2--2--|--3--3--2--2--3--3--2--2-|
G|-------------------2--2--2--|--2--2--2--2--2--2--2--2-|
D|-0--------------0--0--------|--0--0--------0--0-------|
A|----------0-----------0--0--|--------0--0--------0--0-|
E|----------------------------|-------------------------|

E|-2-----0-------|
B|-3--3--0--2--3-|
G|-2--2--0--2--2-|
D|-0--0-----2--0-|
A|----------0----|
E|-------3-------|

Вверх

Концерт в D 2-ая часть, Ларго

E||-------2-3---5-|------2-5---2-|--0---------0-|------7-5---3-|
B||---3-----------|--3-----------|--2---2-3-----|--------------|
G||*--2-----------|--2-----------|--2-----------|--2-----------|
D||*--0-----0-----|--0-----0-----|--------------|--------------|
A||---------------|--------------|--0-----0-----|--0-----0-----|
E||---------------|--------------|--------------|--------------|

E|--2---5-----2-|-5---2-------|--0---------|-------5----|
B|--3-----3-----|-3-----5---3-|--2---------|------------|
G|--2-----------|-2-----------|--2----2----|------------|
D|--0-----0-----|-0-----0-----|------------|------------|
A|--------------|-------------|--0----0----|--0----0----|
E|--------------|-------------|------------|------------|

E|--5-----------|--5-----------|-7--5--7--7--|--7--5--7--7--|
B|--7---7-5-----|--7---7-5-----|-7-----------|--7-----------|
G|--7---------7-|--7---------7-|-0-----0-----|--0-----0-----|
D|--0-----0-----|--0-----0-----|-------------|--------------|
A|--------------|--------------|-------------|--------------|
E|--------------|--------------|-------------|--------------|

E|--7-----------|--7-----------|--5--3--5--5-|-5--3--5--5--|
B|--5--5--7--5--|--5--5--7--5--|--5----------|-5-----------|
G|--4-----------|--4-----------|-------------|-------------|
D|--------------|--------------|--4-----4----|-4-----4-----|
A|--4-----4-----|--4-----4-----|-------------|-------------|
E|--------------|--------------|-------------|-------------|

E|--5-----------|--5-----------|--4--5--7--5--|--4-----0----|
B|--3--3--5--3--|--3--3--5--3--|--0-----------|--0--7-----3-|
G|--------------|--------------|--7-----------|--7----------|
D|--------------|--------------|--------------|-------------|
A|--2-----2-----|--2-----2-----|--------------|-------------|
E|--------------|--------------|--0-----0-----|--0-----0----|

E|-------------|--------------|--5-----------|--------------|
B|-2---2-------|--5---2-------|------2-------|--5---2-------|
G|-2-----4---2-|--2-----4---2-|--2-----4---2-|--2-----4---2-|
D|-2-----------|--2-----------|--2-----------|--2-----------|
A|-0-----0-----|--0-----0-----|--0-----0-----|--0-----0-----|
E|-------------|--------------|--------------|--------------|

E|--5--7--5--7-|-5--7--5--7--|--5----4-----|--0-----------|
B|--5----------|-5-----------|--5-------7--|-----3-----0--|
G|--6----------|-6-----------|--6----------|--------6-----|
D|--7-----7----|-7-----7-----|--7----------|--------------|
A|--0----------|-0-----------|--0----------|--------------|
E|-------------|-------------|-------------|--------------|

E|--------5-----|-------4-|-0--------|-----------|
B|------5-------|--0----0-|-2--------|-----------|
G|--6---------6-|--1------|-2--------|----------*|
D|--7-----------|--2----2-|-2--------|----------*|
A|--7-----------|---------|-0--------|-----------|
E|--5-----5-----|--0------|----------|-----------|

E||---3---0-----0-|--3---7-3---0-|--------------|
B||---0-----0-----|--0-----0-----|------2-----2-|
G||*--0-----0-----|--0-----0-----|--3-----------|
D||*--------------|--------------|--4-----4-----|
A||---------------|--------------|--------------|
E||---0-----0-----|--0-----0-----|--2-----2-----|

E|-0---3-2---0-|-------------|-------2----|--2---------------|
B|-------------|--3--2-------|------------|--3---2---2---2---|
G|-3-----3-----|--4-----4----|------------|--4-4---4---4---4-|
D|-------------|--4----------|------------|----------0-------|
A|-------------|--2-----2----|--2----2----|--2-------2-------|
E|-2-----2-----|-------------|------------|------------------|

E|-2---------------|--7---------------|
B|-3---2---2---2---|--7-7-8-7-8-7-8-7-|
G|-4-4---4---4---4-|--7-------7-------|
D|---------0-------|----------9-------|
A|-2-------2-------|------------------|
E|-----------------|--7-------7-------|

E|-7---------------|--7-----------|-------------|---------|
B|-7-7-8-7-8-7-8-7-|--7--7--------|--2-------0--|--0------|
G|-7-------7-------|--7-----9--7--|--3----------|---------|
D|---------9-------|--------------|--4----4-----|--4----4-|
A|-----------------|--------------|-------------|--5----5-|
E|-7-------7-------|--7-----7-----|--2----2-----|--7----7-|

E|-----------|------2-3---5-|------2-5---2-|--0--------0--|
B|------3----|--3-----------|--3-----------|--2--2--3-----|
G|-----------|--2-----------|--2-----------|--2-----------|
D|-4---------|--0-----0-----|--0-----0-----|--------------|
A|-5----2----|--------------|--------------|--0-----0-----|
E|-7---------|--------------|--------------|--------------|

E|-----3--7--3-|-2----------|-------5----|--5--7--5-----|
B|-------------|-3--5--3----|------------|--7-----7--8--|
G|--2-----6----|-2----------|------------|--------------|
D|-------------|-0-----0----|--0----0----|--0-----0-----|
A|--0-----0----|------------|------------|--------------|
E|-------------|------------|------------|--------------|

E|--------------|----------|------7----|--7--9--7--5--|
B|--7--5--3-----|----------|-----------|--8-----------|
G|--7--------5--|--4-------|-----------|--0-----7-----|
D|--0-----4-----|-----7--5-|-----------|--------5-----|
A|--------5-----|--5-------|-----------|--------------|
E|--------------|--3-----3-|-3----3----|--------------|

E|--3--2--0-----|-------------|--------0--3-|-2---------------|
B|--0--------3--|--2--0-------|-----2--2----|-----0---0---0---|
G|-----2--0-----|--------2----|--------2----|---2---2---2---2-|
D|-----------4--|--2--0-------|-------------|-0-------0-------|
A|--------------|--0-----4----|--0-----0----|-----------------|
E|--3-----3-----|--------5----|-------------|-----------------|

E|--2---------------|--0---------------|--3---------------|
B|------0---0---0---|------0---0---0---|------0---0---0---|
G|----2---2---2---2-|--6---------------|--6---------------|
D|--0-------0-------|----7---7---7---7-|----7---7---7---7-|
A|------------------|--0-------0-------|--0-------0-------|
E|------------------|------------------|------------------|

E|-2---3-5-----|--0--2-0-2-0-2-0-2-0-------|------|------------|
B|-3---------3-|--2---------------------2--|--3---|------------|
G|-2-----------|--2------------------------|--2---|----------*-|
D|-0-----0-----|---------------------------|--4---|----------*-|
A|-------------|--0------------------0-----|--5---|------------|
E|-------------|---------------------------|------|------------|

Вверх

Концерт в D 3-ая часть, Аллегро

E||----5-----5-----5-----5---|----5-----5-------------|
B||--7---7-5---5-7---7-5---5-|--7---7-7---7-5-------5-|
G||--------------------------|-----------------2------|
D||--0-----------0-----------|--0-----0----------2----|
A||--------0-----------0-----|--------------0-------0-|
E||--------------------------|------------------------|

E|---5-----5-----7-----7---|----3-----3-----5-----5---|
B|-7---7-7---7-7---7-7---7-|--5---5-5---5-5---5-5---5-|
G|-------------------------|--------------------------|
D|-0-----0-----0-----0-----|--------------------------|
A|-------------------------|--4-----4-----4-----4-----|
E|-------------------------|--------------------------|

E|---2-----2-----3-----3---|----3-----5-----3-----5---|
B|-3---3-3---3-3---3-3---3-|--5---5-7---7-5---5-7---5-|
G|-------------------------|--------------------------|
D|-------------------------|--------------------------|
A|-2-----2-----2-----2-----|--0-----0-----0-----0-----|
E|-------------------------|--------------------------|

E|---3-----5-----3-----5---|--2---------5-----5---|
B|-5---5-7---7-5---5-7---7-|-------7--7---7-7---7-|
G|-------------------------|----------7-----------|
D|-------------------------|--0-------------0-----|
A|-0-----0-----0-----0-----|----------------------|
E|-------------------------|----------------------|

E|----7-----7---------------|-2---2-5---5-2---2-5---5-|
B|--8---8-8---8-5-8-5-5-8-5-|---3-----5-----3-----5---|
G|--0-----0-----6-----6-----|-------------------------|
D|--------------------------|-0-----------0-----------|
A|--------------------------|-------4-----------4-----|
E|--------------------------|-------------------------|

E|----------5-7---7-7---7-|--------------5---5-5---5-|
B|--7-----------8-----8---|--5---5-5---5---7-----7---|
G|-----7------0-----0-----|----6-----6---------------|
D|--0-------0-------------|--------------4-----4-----|
A|-----7-9----------------|--4-----4-----------------|
E|------------------------|--------------------------|

E|-------------3---3-3---3-|--------------2---2-2---2-|
B|-3---3-3---3---5-----5---|--2---2-2---2---3-----3---|
G|---4-----4---------------|----2-----2---------------|
D|-------------2-----2-----|--------------0-----0-----|
A|-2-----2-----------------|--0-----0-----------------|
E|-------------------------|--------------------------|

E|-4-4-4-4-4-4-5-5-5-5-5-5-|--4-4-4-4-4-4-5-5-5-5-5-5-|
B|-3-3-3-3-3-3-2-2-2-2-2-2-|--3-3-3-3-3-3-2-2-2-2-2-2-|
G|-4-4-4-4-4-4-2-2-2-2-2-2-|--4-4-4-4-4-4-2-2-2-2-2-2-|
D|-2-2-2-2-2-2-2-2-2-2-2-2-|--2-2-2-2-2-2-2-2-2-2-2-2-|
A|-------------0-0-0-0-0-0-|--------------0-0-0-0-0-0-|
E|-------------------------|--------------------------|

E|--4-4-4-4-4-4-5-|---0-----0-----0-----0---|
B|--3-3-3-3-3-3-2-|-2---2-0---0-2---2-0---0-|
G|--4-4-4-4-4-4-2-|-------------------------|
D|--2-2-2-2-2-2-2-|-------2-----------2-----|
A|--------------0-|-0-----------0-----------|
E|----------------|-------------------------|

E|--------------2-----2---|----2-----2-----------2-|
B|--2---------3---3-2---2-|--3---3-2---2-3--0----0-|
G|-----2------------------|------------------------|
D|------------------4-----|--------4---------------|
A|--0--0-1--1-2-----------|--2-----------2--2-2----|
E|------------------------|------------------------|

E|-7---7-7---7---7----------|--5---5-5---5---5---------|
B|---7-----7---8---10-8-7-5-|----5-----5---7---8-7-5---|
G|-8---8-8---8-9---9--9-----|--6---6-6---6-7---7-7---7-|
D|--------------------------|--------------------------|
A|--------------------------|--------------------------|
E|--------------------------|--------------------------|

E|-3---3-3---3---3-2-0-----|------7-----7-----7---2-6-|
B|---3-----3---5---2---3-2-|----7-----7-----7---2-----|
G|-4---4-4---4-6-----------|--7-----7-----6-----------|
D|-------------------4---4-|--9---9-------4---4-------|
A|-------------------------|--------------------------|
E|-------------------------|--------7---7-------2---2-|

E|--7-----------5-----5---|---5-----5-----5-----5---|
B|------------7---7-5---5-|-7---7-5---5-7---7-7---7-|
G|------------------------|-------------------------|
D|------------0-----------|-0-----------0-----0-----|
A|-------4--4-------0-----|-------0-----------------|
E|--7--7------------------|-------------------------|

E|-------------10-10-10-10-10-10-|-7-10-9-7------9-9-9-9-9-9-|
B|--5-------10-------------------|----------10-8-------------|
G|-------------------------------|-0------0------------------|
D|-----7-7-----------------------|---------------------------|
A|--0-------10-9-----9--9-----9--|---------------7---7-7---7-|
E|-------------------------------|---------------------------|

E|-----9-------------7-7-7-7-7-7-|---7----------5-5-5-5-5-5-|
B|--10---12-10-------------------|-8---10-8-7---------------|
G|-------------12-11-------------|------------9-------------|
D|-------------------0---0-0---0-|--------------------------|
A|--9-------9--------------------|-7------7-----4---4-4---4-|
E|-------------------------------|--------------------------|

E|--2-5-3-2-----5-5-5-5-5-5-|-2-5-3-2-------3-2-------|
B|----------5-3-------------|---------5-3-5-----5-3-2-|
G|--------------------------|-------------2-----------|
D|--0-----0-----------------|-0-----0-----------------|
A|--------------4---4-4---4-|-------------------0-----|
E|--------------------------|-------------------------|

E|----5-----5-----------5---|--2-3-5-2-3-----|
B|------7-5---5-7-5-7-5---5-|------------5-3-|
G|--7-----------------------|--------2-------|
D|--0---0-------0---0-------|--0---0-------0-|
A|--------0---0-------0---0-|------------0---|
E|--------------------------|----------------|

Вверх

Концерт в D 3-ая часть, Аллегро

Allegro
E||--2------2--0------0--2------2--0------0-|
B||--3------3--2------2--3------3--2------2-|
G||-----------------------------------------|
D||--0-------------------0------------------|
A||------------0-------------------0--------|
E||-----------------------------------------|

E|-2------2--2------2--0-----------5-|
B|-3------3--3------3--2-----------7-|
G|-----------------------------------|
D|-0---------0-----------------------|
A|---------------------0-------------|
E|-----------------------------------|

E|-5------5--5------5--7------7--7------7-|
B|-7------7--7------7--7------7--7------7-|
G|----------------------------------------|
D|-0-------------------0---------0--------|
A|-----------5----------------------------|
E|----------------------------------------|

E|-0------0--0------0--5------5--5------5-|
B|-8------8--8------8--5------5--5------5-|
G|----------------------------------------|
D|----------------------------------------|
A|---------------------4---------4--------|
E|-9---------9----------------------------|

E|----------------------------------------|
B|-7------7--7------7--8------8--8------8-|
G|-7------7--7------7--7------7--7------7-|
D|----------------------------------------|
A|----------------------------------------|
E|-7---------7---------7---------7--------|

E|-0------0--5------5--0------0--5------5-|
B|-8------8--7------7--8------8--7------7-|
G|----------------------------------------|
D|----------------------------------------|
A|-0---------0---------0---------0--------|
E|----------------------------------------|

E|-0------0--5------5--0------0--5------5-|
B|-8------8--7------7--8------8--7------7-|
G|----------------------------------------|
D|----------------------------------------|
A|-0---------0---------0---------0--------|
E|----------------------------------------|

E|--------------------5--------5----|
B|--7-----------7--7-----7--7-----7-|
G|--7-------------------------------|
D|--0-------------------------------|
A|----------------------------------|
E|----------------------------------|

E|----7--------7----------------------|
B|-8-----8--8-----8-----8--------8----|
G|-------------------9-----9--9-----9-|
D|------------------------------------|
A|------------------------------------|
E|------------------------------------|

E|-----------5-----5--2-----2--5--0--5-|
B|--7-----7-----5--------3-------------|
G|-----7-------------------------------|
D|-------------------------------------|
A|-------------------------------------|
E|-------------------------------------|

E|-2-----2-------5--7-----7--7-----7-|
B|----3-----3----------8--------8----|
G|-----------------------------------|
D|-----------------------------------|
A|-----------------------------------|
E|-----------------------------------|

E|--0-----0--0-----0--5--2--5--5--2--5-|
B|--------------2----------------------|
G|-----6-------------------------------|
D|-------------------------------------|
A|-------------------------------------|
E|-------------------------------------|

E|-------------------3--0--3--3--0--3-|
B|-3--0--3--3--0--3-------------------|
G|------------------------------------|
D|------------------------------------|
A|------------------------------------|
E|------------------------------------|

E|--------------------2-----2--2-----2-|
B|--2-----2--2-----2-----3--------3----|
G|-----2--------2----------------------|
D|-------------------------------------|
A|-------------------------------------|
E|-------------------------------------|

E|-4------------5-|--4------------5-|
B|-0--------------|-----------------|
G|--------------6-|--4------------6-|
D|-2------------7-|--2------------7-|
A|--------------7-|---------------7-|
E|--------------5-|---------------5-|

E|-4------------5-|-----------0------0--2------2--0------0-|
B|----------------|-7------7---------2--3------3--2------2-|
G|-4------------6-|-7------7--6----------------------------|
D|-2------------7-|-0-------------------0------------------|
A|--------------7-|-----------0-------------------0--------|
E|--------------5-|----------------------------------------|

E|-2------2--2------2--0-----------5-|
B|-3------3--3------3--2-----------7-|
G|-----------------------------------|
D|-0---------0-----------------------|
A|---------------------0-------------|
E|-----------------------------------|

E|-5------5--5------5--7------7--7------7-|
B|-7------7--7------7--7------7--7------7-|
G|----------------------------------------|
D|-0-------------------0---------0--------|
A|-----------5----------------------------|
E|----------------------------------------|

E|-0------0--0------0--5------5--5------5-|
B|-8------8--8------8--5------5--5------5-|
G|----------------------------------------|
D|----------------------------------------|
A|---------------------4---------4--------|
E|-9---------9----------------------------|

E|----------------------------------------|
B|-7------7--7------7--8------8--8------8-|
G|-7------7--7------7--7------7--7------7-|
D|----------------------------------------|
A|----------------------------------------|
E|-7---------7---------7---------7--------|

E|-0------0--5------5--0------0--5------5-|
B|-8------8--7------7--8------8--7------7-|
G|----------------------------------------|
D|----------------------------------------|
A|-0---------0---------0---------0--------|
E|----------------------------------------|

E|-0------0--5------5--0------0--5------5-|
B|-8------8--7------7--8------8--7------7-|
G|----------------------------------------|
D|----------------------------------------|
A|-0---------0---------0---------0--------|
E|----------------------------------------|

E|--------------------5--------5----|
B|--7-----------7--7-----7--7-----7-|
G|--7-------------------------------|
D|--0-------------------------------|
A|----------------------------------|
E|----------------------------------|

E|----7--------7----------------------|
B|-8-----8--8-----8-----8--------8----|
G|-------------------9-----9--9-----9-|
D|------------------------------------|
A|------------------------------------|
E|------------------------------------|

E|-----------5-----5--2-----2--5--0--5-|
B|--7-----7-----5--------3-------------|
G|-----7-------------------------------|
D|-------------------------------------|
A|-------------------------------------|
E|-------------------------------------|

E|-2-----2-------5--7-----7--7-----7-|
B|----3-----3----------8--------8----|
G|-----------------------------------|
D|-----------------------------------|
A|-----------------------------------|
E|-----------------------------------|

E|--0-----0--0-----0--5--2--5--5--2--5-|
B|--------------2----------------------|
G|-----6-------------------------------|
D|-------------------------------------|
A|-------------------------------------|
E|-------------------------------------|

E|-------------------3--0--3--3--0--3-|
B|-3--0--3--3--0--3-------------------|
G|------------------------------------|
D|------------------------------------|
A|------------------------------------|
E|------------------------------------|

E|--------------------2-----2--2-----2-|
B|--2-----2--2-----2-----3--------3----|
G|-----2--------2----------------------|
D|-------------------------------------|
A|-------------------------------------|
E|-------------------------------------|

E|-4------------5------------|--4------------5-|
B|-0-------------------------|-----------------|
G|--------------6------------|--4------------6-|
D|-2------------7------------|--2------------7-|
A|--------------7------------|---------------7-|
E|--------------5------------|---------------5-|

E|-4------------5-|
B|----------------|
G|-4------------6-|
D|-2------------7-|
A|--------------7-|
E|--------------5-|

E|-----------------------------------------|
B|------------0------0--2------2--0------0-|
G|--6------6---------1--2------2--1------1-|
D|--7------7--6----------------------------|
A|--0-------------------0------------------|
E|------------0-------------------0--------|

E|------------------------------------|
B|-2---------------3------3--2------2-|
G|-2------2--------4------4--3------3-|
D|--------4---------------------------|
A|-0---------------2------------------|
E|---------------------------2--------|

E|------------------------------------2-|
B|--3------3--2------2--3---------------|
G|--4------4--3------3--4------4--------|
D|-----------------------------4--------|
A|--2-------------------2---------------|
E|------------2-------------------------|

E|-7-----7--7-----7-----7--5--3--2--0-|
B|----7--------7-----8----------------|
G|------------------------------------|
D|------------------------------------|
A|------------------------------------|
E|------------------------------------|

E|--5--0--5--5--0--5--2--5--3--2--0----|
B|-----------------------------------3-|
G|-------------------------------------|
D|-------------------------------------|
A|-------------------------------------|
E|-------------------------------------|

E|-3--0--3--3--0--3--0----3--2--0-------|
B|---------------------------------3--2-|
G|--------------------------------------|
D|--------------------------------------|
A|--------------------------------------|
E|--------------------------------------|

E|-----2--7--------7--------7--------6-|
B|--3-----------7--------7--------7----|
G|-----------7--------6--------6-------|
D|-------------------------------------|
A|-------------------------------------|
E|-------------------------------------|

E|-7-----------------------0------0-|
B|-0-------------7------7---------2-|
G|---------------7------7--6--------|
D|---------------0------------------|
A|-------------------------0--------|
E|----------------------------------|

E|--2------2--0------0--2------2--2------2-|
B|--3------3--2------2--3------3--3------3-|
G|-----------------------------------------|
D|--0-------------------0---------0--------|
A|------------0----------------------------|
E|-----------------------------------------|

E|-0-----------5--10--10--10--10--10--10-|
B|-2-------------------------------------|
G|---------------------------------------|
D|---------------------------------------|
A|-0-------------------------------------|
E|---------------------------------------|

E|-7--10--9--7--5--3--9--9--9--9--9--9-|
B|-------------------------------------|
G|-------------------------------------|
D|-------------------------------------|
A|-------------------------------------|
E|-------------------------------------|

E|------9--7--5--3--2--7--7--7--7--7--7-|
B|--10----------------------------------|
G|--------------------------------------|
D|--------------------------------------|
A|--------------------------------------|
E|--------------------------------------|

E|----7--5--3--2--0--5--5--5--5--5--5-|
B|-8----------------------------------|
G|------------------------------------|
D|------------------------------------|
A|------------------------------------|
E|------------------------------------|

E|--2--5--3--2--0-----5--5--5--5--5--5-|
B|-----------------3-------------------|
G|-------------------------------------|
D|-------------------------------------|
A|-------------------------------------|
E|-------------------------------------|

E|-2--5--3--2--0-----0--3--2--0-------|
B|----------------3--------------3--2-|
G|------------------------------------|
D|------------------------------------|
A|------------------------------------|
E|------------------------------------|

E|-2------2--0------0--2------2--0------0-|
B|-3------3--2------2--3------3--2------2-|
G|----------------------------------------|
D|-0-------------------0------------------|
A|-----------0-------------------0--------|
E|----------------------------------------|

E|--2--3--5--2--3--0----|
B|--3-----------------3-|
G|--------------------2-|
D|--0-----------------0-|
A|-----------0----------|
E|----------------------|

E|----------------------------------------|
B|-2------2--0------0--2------2--0------0-|
G|-2------2--1------1--2------2--1------1-|
D|----------------------------------------|
A|-0-------------------0------------------|
E|-----------0-------------------0--------|

E|------------------------------------|
B|-2---------------3------3--2------2-|
G|-2------2--------4------4--3------3-|
D|--------4---------------------------|
A|-0---------------2------------------|
E|---------------------------2--------|

E|------------------------------------2-|
B|--3------3--2------2--3---------------|
G|--4------4--3------3--4------4--------|
D|-----------------------------4--------|
A|--2-------------------2---------------|
E|------------2-------------------------|

E|-7-----7--7-----7-----7--5--3--2--0-|
B|----7--------7-----8----------------|
G|------------------------------------|
D|------------------------------------|
A|------------------------------------|
E|------------------------------------|

E|--5--0--5--5--0--5--2--5--3--2--0----|
B|-----------------------------------3-|
G|-------------------------------------|
D|-------------------------------------|
A|-------------------------------------|
E|-------------------------------------|

E|-3--0--3--3--0--3--0--3--2--0-------|
B|-------------------------------3--2-|
G|------------------------------------|
D|------------------------------------|
A|------------------------------------|
E|------------------------------------|

E|-----2--7--------7--------7--------6-|
B|--3-----------7--------7--------7----|
G|-----------7--------6--------6-------|
D|-------------------------------------|
A|-------------------------------------|
E|-------------------------------------|

E|-7-----------------------0------0-|
B|-0-------------7------7---------2-|
G|---------------7------7--6--------|
D|---------------0------------------|
A|-------------------------0--------|
E|----------------------------------|

E|--2------2--0------0--2------2--2------2-|
B|--3------3--2------2--3------3--3------3-|
G|-----------------------------------------|
D|--0-------------------0---------0--------|
A|------------0----------------------------|
E|-----------------------------------------|

E|-0-----------5--10--10--10--10--10--10-|
B|-2-------------------------------------|
G|---------------------------------------|
D|---------------------------------------|
A|-0-------------------------------------|
E|---------------------------------------|

E|-7--10--9--7--5--3--9--9--9--9--9--9-|
B|-------------------------------------|
G|-------------------------------------|
D|-------------------------------------|
A|-------------------------------------|
E|-------------------------------------|

E|------9--7--5--3--2--7--7--7--7--7--7-|
B|--10----------------------------------|
G|--------------------------------------|
D|--------------------------------------|
A|--------------------------------------|
E|--------------------------------------|

E|----7--5--3--2--0--5--5--5--5--5--5-|
B|-8----------------------------------|
G|------------------------------------|
D|------------------------------------|
A|------------------------------------|
E|------------------------------------|

E|--2--5--3--2--0-----5--5--5--5--5--5-|
B|-----------------3-------------------|
G|-------------------------------------|
D|-------------------------------------|
A|-------------------------------------|
E|-------------------------------------|

E|-2--5--3--2--0-----0--3--2--0-------|
B|----------------3--------------3--2-|
G|------------------------------------|
D|------------------------------------|
A|------------------------------------|
E|------------------------------------|

E|-2------2--0------0--2------2--0------0-|
B|-3------3--2------2--3------3--2------2-|
G|----------------------------------------|
D|-0-------------------0------------------|
A|-----------0-------------------0--------|
E|----------------------------------------|

E|--2--3--5--2--3--0----|
B|--3-----------------3-|
G|--------------------2-|
D|--0-----------------0-|
A|-----------0----------|
E|----------------------|

Вверх

Концерт в Dm

Красивый кусок, который просто играется.

E|-----------------------------------------------------------|
B|---7-8-10---7-10-7-5---------12-10-8-7-10---7-10-7---------|
G|-7--------7----------6-7-9----------------7--------9-7-9---|
D|-0-----------------0-------7---------0-------------------7-|
A|-------------------------------------------------------0---|
E|-----------------------------------------------------------|

E|----------------------7^5-7-7--------------------------------|
B|-10-10-7-----10-7-------------12^10-12-12-12--------12-------|
G|---------9-7------9-7---------10-------------9-10-9----9-10-9|
D|----0-----------------5--------------------------------------|
A|-------------------------------------------------------------|
E|------------------------------------------9------------------|

E|----------------------------------------4^5-7-5-4-2-----|
B|-10^8-10-10-10^8-10-10-10-------8-------------------5-3-|
G|--------------------------7-9-7---7-9-7-----------------|
D|--------------------------------------------------------|
A|-9--------------------------------------0---------------|
E|-----------------------7--------7-----------------------|

E|---------0-------5---------------5-7-5-7-5-7----------|
B|-2-2-------2-------2-----2-2-----------------10-12-12-|
G|-----4-2-----4-2-----4-2-----4-2-------------------0--|
D|------------------------------------------------------|
A|-0---------------0-------0-------0--------------------|
E|------------------------------------------------------|

E|-----------------------------------|
B|-10-9-----------------10------9-10-|
G|------11-9----------9---------7-9--|
D|-----------12-11-11------11-9---11-|
A|-----------------0----------0---0--|
E|-----------------------------------|

E|-----------7---------------3-2-0---------2---------------|
B|-8-------8---8-----2---2-5-------3^2---------3---3---3---|
G|---9---9-------8-3---3---------------4-----4---4---4---4-|
D|-----9---------------------------------------------------|
A|-7---------------1---------------2-----2-----------------|
E|---------------------------------------------------------|

E|-2---------------7-------------------7-------------------|
B|-----3---3---3--------8----8----8---------8----8----8----|
G|---4---4---4---4---11---11---11---11---11---11---11---11-|
D|---------------------------------------------------------|
A|---------------------------------------------------------|
E|-----------------7---------------------------------------|

E|-7----------------------0-2-3-----------------------------|
B|--------------------2-3---------7-8-10---7-10-7-5---------|
G|---11-9-7-6-4-4-2-4-----------7--------7----------6-7-9---|
D|--------------2---------------0-----------------7-------7-|
A|----------------------------------------------------------|
E|-7--------------------------------------------------------|

E|---7---------5-5-7-5-----------------7-7-9-7------------|
B|-8---8-7^5-----------8-7-5-------------------10-9-7-----|
G|-----------7---------------7-6-4-2-0----------------9-7-|
D|-------0-------0-----------------------0----------------|
A|--------------------------------------------------------|
E|-------------------------------3------------------------|

E|-----------------------------------------------|
B|---------5-8---7---0---0---0---7---0---0---0---|
G|-6-----6---------------------------------------|
D|---9-7-----------7---7---7---7---7---7---7---7-|
A|-0-----------0---------------------------------|
E|-----------------------------------------------|

E|-0-------------------------------2-3-5-------------|
B|-----0---0---0---8---0---0---0---------3---5---3-3-|
G|---------------------------------------------------|
D|---7---7---7---7---7---7---7---7-0-----------5---4-|
A|-----------------0-----------------------0-------5-|
E|---------------------------------------------------|

Вверх
English songs 109

ABBA
AC-DC
Adams Bryan
Adriano Celentano
Aerosmith
A-Ha
Animals
Antonio Banderos
Apocalyptica
Armstrong Louis
Billy's Band
Bjork
Blink 182
Blondie
Blur
Bob Dylan
Boney M
Bon Jovi
Bowie David
Brainstorm
Braxton Toni
Butch
Celine Dion
Chris De Burgh
Chris Isaak
Chuck Berry
Clapton Eric
Cohen Leonard
Cranberries
Deep Purple
Depeche Mode
Dire Straits
Donovan Jason
Eagles
Electric Light Orchestra
Elton John
Elvis Presley
Era
Europe
Evanescence
Garbage
Gary Moore
Glen Wiston
Gorillaz
Green Day
Guano Apes
Guns N Roses
Hendrix Jimi
Iggy Pop
Iron Maiden
Joe Dassin
Kansas
King Crimson
Kiss
Led Zeppelin
Leonard Cohen
Limp Bizkit
Linkin Park
Louis Amstrong
Madonna
Marilyn Manson
Marley Bob
Metallica
Moby
Morricone Ennio
Muse
Nazareth
Nelly Furtado
Nick Cave
Nirvana
No Doubt
Oasis
Offspring
Ottawan
Outkast
Ozzy Osbourne
Pain
Para Bellum
Pink Floyd
Placebo
P.O.D.
Queen
RadioHead
Rainbow
Rammstein
Rea Chris
Red Hot Chili Peppers
Ritchie Blackmore
Rolling Stones
Roxette
Rufus Wainwright
Santana
Sarah Brightman
Scorpions
Sex Pistols
Simon & Garfunkel
Shocking Blue
Soul Asylumx
Status Quo
Sting
System of a down
Sum 41
The Beatles
The Doors
Tito & Tarantula
U2
UB 40
Uriah Heep
Van Halen

Українські пісні 109

Boom Box
Escape
Flit
Kapela Drewutnia
Lama
LЮK
Mad Heads (XL)
Motor' rolla
NEON
Ot Vinta
The Вйо
Абздольц
Аероплан
Акорд
Ані Лорак
Бандурна розмова
Білик Ірина
Борщ
Брати Гадюкіни
Вася Club
Вій
Воплі Відоплясова
Гайдамаки
Гончар Олесь
Гринжоли
Гроно
Гуляйгород
Дарка і Славко
Дивні
Друга Ріка
Другий подих
Дударик
Експампей
Євтушенко Андрій
Жарівка (Дяк Олесь)
Журбовіз
Зібров Павло
Зінкевич Василь
Злотник Олександр
Івасюк Володимир
Калєкція
Карна
Карпа Ірена
Клямка
Козловський Віталій
Кому вниз
Крихітка Цахес
Курінь
Лесик-Band
Лорд Юрія
Львівські музики
Мандри
Менестрелі
Мері
Мертвий Півень
Міпеніум
Монте Крісто
Морозов Віктор
Нахтіґаль
Не журись!
Неборак Віктор
НеДІля
НЕМО
Нічлава блюз
Океан Ельзи
ПереBANDя
Перкалаба
Петрович
Піккардійська Терція
Піпа Олександр
Плач Єремїі
Пономарьов Олександр
Пророк
Росава
Ротару Софія
Руслана
Рутенія
С.К.А.Й.
САД
Самі свої
Серцевий Напад
Скрябін
Смерічка
Сокира Перука
Соколи
Таліта Кум
Тартак
Тінь сонця
Ткач Михайло
ТНМК
Тостер
Тріо Мареничів
Фарбований лис
Фестиваль Снів
Хвилю тримай
Цісик Квітка
Черемош
Черемшина
Четвертий кут
Чорний вересень
Чорні черешні
Шевченко Тарас
Щастя
Юркеш
Юрченко Юрко
Юрчишин Ярослав
Явір
Яка існуЄ
Яремчук Назарій

   
 sait@i.ua



Рейтинг@Mail.ru