accordS-land.ru Аккорды и табулатуры к гитаре.
Главная | Песенник | Аккорды | Учебник
Руссике песни 180
5nizza
7Б
9-й Район
Animal ДжаZ
Billy's Band
Butch
Para Bellum
TequilaJazzz
Worms
Zdob Si Zdub
Автоматические удовлетворители
Агата Кристи
Агузарова Жанна
Агутин Леонид
Адо
Аквариум
Алиса
Алсу
Амирамов Е.
Антонов Ю.
Арефьева Ольга
Ария
АукцЫон
Барыкин
Башаков Михаил
Башлачев Александр
БекХан
Бернес М.
Би - 2
Бони неМ
Борзов Найк
Боярский Михаил
Браво
Братья Грим
Ва-Банкъ
Вертинский Александр
Визбор Юрий
Високосный год
Воскресенье
Восьмая Марта
Высоцкий В.С.
Високосный год
Газманов О.
Галич Александр
Герман А.
Городницкий Александр
Глызин А.
Градский Александр
Гражданская Оборона
Гребещенков
Данко
ДДТ
Дидюля
Диоды
Дискотека Авария
Дягилева Янка
Ёлка
Жуки
Заблудовский Андрей
Запрещенные Барабанщики
Звери
Земляне
Земфира
Зинчук Виктор
Зоопарк
Иван Кайф
Иванов А.
Иваси
ИЗ КИНО И МУЛЬТФИЛЬМОВ
Империя
Калинов мост
Кашин Павел
Кельми К.
КИНО
Кипелов
Конец Фильма
Контингент
Корни
Король и Шут
Коррозия металла
Крематорий
Крупнов Анатолий
Кузьмин Владимир
Куликов Е.
Кукрыниксы
Курехин Сергей
Лаэртский Александр
Ласковый май
Ленинград
Леонидов Максим
Лесоповал
Лещенко Л.
Линда
Лицей
Лоза Юрий
Любэ
Люмен
Ляпис Трубецкой
Мальчишник
Манго-манго
Мара
Маркин В.
Маршал Александр
Маша и медведи
Машина времени
Мечтать
Мистер Кредо
Митяев Олег
Многоточье
Монгол Шуудан
Моральный Кодекс
Мультfильмы
Мумий Тролль
Настя
Науменко Майк
Наутилус Помпилиус
Непара
Неприкасаемые
Несчастный случай
Никоваев И.
Никольский Константин
Ногу свело
Ноль
Носков Николай
Ночные Снайперы
Окуджава Булат
Оркрист
Осин Е.
Оскар
Отиева И.
Паперный Т.А.М.
Парк Горького (Gorky Park)
Пикник
Пилот
Пламя
Полковник и однополчане
Пугачева А.
ПЭХ
Приключения Электроников
Просто прикольные песни
Рада и Терновник
Римский-Корсаков
Розенбаум Александр
Рок-Острова
Рондо
Сансара
Саруханов
Сегодня Ночью
Секрет
Сектор газа
Сенчина Л.
СерьГа
Смысловые Галлюцинации
Сплин
Солодуха А.
Старые блатные песни
Сукачев Гарик
Сурганова и Оркестр
Сюткин Валерий
Тальков Игорь
Танцы минус
Тараканы
Тату
Технология
УмаТурман
Умка и Броневичок
Ундервудъ
Фабрика звезд
Х.З. (Хуй Забей)
Центр
ЧайФ
Черный кофе
Черный Лукич
Чиж и Ко
Чистяков Федор
Шанхай
Щербаков Михаил
Ю-Питер

Классика 22

Албениз Исаак
Албениз Матео
Бах Иоган Себостьян
Бетховен Людвиг ван
Бизе Жорж
Брамс Иоганнес
Вивальди Антонио
Гендель Георг Фридрих
Гершвин Джордж
Григ Эдвард
Дебюсси Клод
Камиль Сен-Санс
Мендельсон
Моцарт Вольфгант Амадей
Мусоргский Модест Пертрович
Норис Крис
Огинский Михал Клеофас
Паганини Никколо
Рахманинов Сергей Васильевич
Римский-Корсаков
Чайковский Пётр Ильич
Шуберт Франц
 

 

Eagles

After The Thrill Is Gone
Already Gone
Best Of My Love
Crossroads
Desperado
Desperado (2 вариант)
Doolin Dalton
Earlybird
Get Over It
Hole In The World
Hotel California
Hotel California (табулатура)
I Cant Tell You Why
In The City
Learn To Be Still
Life In The Fast Lane
Life In The Fast Lane (2 вариант)
Love Will Keep Us Alive
Love Will Keep Us Alive (2 вариант)
Lyin Eyes
New Kid In Town
New Kid In Town (2 вариант)
New York Minute
One Of These Nights
On The Border
Outlaw Man
Out Of Control
Peaceful Easy Feeling
Peaceful Easy Feeling (2 вариант)
Seven Bridges
Take It Easy
Take It To The Limit
Tequila Sunrise
Tequila Sunrise (2 вариант)
The Girl From Yesterday
The Long Run
The Long Run (2 вариант)
Try And Love Again
Victim Of Love
Witchy Women
Вверх

After The Thrill Is Gone

VERSE1
C                   F              C                   F
Same Dances in the same old shoes Some habits that you just cant lose
Same dances in the same old shoes;you get to careful with the step you choose
Dm                        C         Dm                 C
There's no tellin' what a man use  After the thrill is gone
You don't care bout winning but you don't want to lose
After the thrill is gone
C                        F              C                  F
The flame rises but it soon descends Empty pages and a fronzen pen;
Time passes and you must move on,   Half the distance takes you twice as long
Dm                         C                     Dm                  C      C/B
Your quite lovers and your not quite friends;    After the thrill is gone x2
So you keep on singing for the sake of the song; After the thrill is gone x2

  Am                            Em7                 Dm
What can you do when your dreams come true and it not quite like you
Your afraid you might fall out of fashion and your feeling cold

C        Am                         Em7                 Fm6
planned; What have you done to be losing the one, you held it so tight in your
small;   Any kind of love without passion , that ain't no kind of loving at

G7sus /G7
hand
all

Fm6                  C
After the thrill is gone
Вверх

Already Gone

intro     G    D    C
          G    D    C


                  G                 D                C         Bb
verse1    Well, I heard some people talking just the other day
                   G                   D            C
          And they said you were gonna put me on a shelf
                                     G                 D
          Well, let me tell you I've got some news for you
                     C
          And you'll soon find out it's true
                          G                 D                C
          And then you'll have to eat your lunch all by yourself


                  G          D        C             G    D           C
chorus    Coz I'm al      -     ready gone, and I'm fee--ee--eeling strong
                 G   D                C             G      D          C
          I will si--ing this vict'ry song,  woo-oo-oo, my my, woo-oo-oo



verse2    The letter that you wrote me made me stop and wonder why
          But I guess you felt like you had to set things right
          Just remember this my girl when you look up in the sky
          You can see the stars and still not see the light, that's right

chorus    repeat  And I'm-

verse3    solo

verse4    Well, I know it wasn't you who held me down
          Heaven knows it wasn't you who set me free
          So oftentimes it happens that we live our lives in chains
          That we never even know we have the key

chorus    Me, I'm already gone, and I'm feeling strong
          I will sing this vict'ry song, coz I'm already gone


                  C          G         F              C  G          F
chorus    Coz I'm al      -     ready gone, and I'm fee--ee--eeling strong
                 C   G                F              C      G             F
          I will si--ing this vict'ry song,  coz I'm al      -     ready gone


outro     Yes, I'm already gone, already gone (awright, nighty night)
          Already gone, already gone

finis     ride out
Вверх

Best Of My Love

C   C   Dm   Dm
[intro]

   C                C             Dm                      Dm
   Every night, I'm lying in bed, holding you close in my dreams
   C                      C                        Dm                    Dm
   Thinking about all the things that we said, and coming apart at the seams
Em                    Dm           Em                 F/G
   We try to talk it over, but the words come out too rough
     C                       Dm                       C     G7
   I know you were trying to give me the best of your love

   C                    C                 Dm                       Dm
   Beautiful faces, and loud empty places, look at the way that we live
   C                   C                   Dm                     Dm
   Wasting our time on cheap talk and wine, left us so little to give
       Em                        Dm                   Em                    F/G
  That same old crowd was like a cold dark cloud that we could never rise above
       C                   Dm                      C     G7
   But here in my heart, I give you the best of my love

              C            C     Dm                      Dm
   Oh-oh-oh ohhhh, sweet darlin', you get the best of my love
              C            C     Dm                      Dm
   Oh-oh-oh ohhhh, sweet darlin', you get the best of my love

Fm7          Fm7                     C            C
   I'm going back in time and it's a sweet dream
            Fm7                     Fm7                     Dm    G7
   It was a quiet night and I would be all right if I could go on sleeping

       C               C                 Dm                      Dm
   But every morning I wake up and worry, what's gonna happen today?
   C                        C                     Dm                     Dm
   You see it your way, and I see it mine, but we both see it slipping away
Em                             Dm         Em                      Dm   G7
   You know we always had each other baby, I guess that wasn't enough; o-o-ohh
       C                   Dm                      C     G
   But here in my heart, I give you the best of my love

            C              C     Dm                      Dm
   Oh-oh-oh ohhhh, sweet darlin', you get the best of my love
            C              C     Dm                      Dm
   Oh-oh-oh ohhhh, sweet darlin', you get the best of my love

   [repeat & fade]
Вверх

Crossroads

A
D7 C
A
E D7 C
A

 A                       D7    D7   C
-----------------------|----2----2--------|
-----------------------|----1----1--------|
----2--0--2--0--2--0---|----2----2--2-----|
-2--2-----2-----2----2-|-0-----0----3--3--|
-0-------------------3-|------------------|
-----------------------|------------------|
Вверх

Desperado

      G  G7              C              Cm
Desperado, why don't you come to your senses ?
         G            Em7      A7        D7
You been out ridin' fences for so long now
             G       G7            C               Cm
Oh, you're a hard one, I know that you got your reasons,
      G           B7     Em7           A7       D7     G
These things that are pleasin' you can hurt you somehow


D         Em                Bm
Don't you draw the queen of diamonds boy,
       C                 G
She'll beat you if she's able,
             Em7                C                G   D
You know the queen of hearts is always your best bet
       Em               Bm                    C              G
Now it seems to me some fine things have been laid upon your table
        Em            A7             Am7
But you only want the ones you can't get


D D7  G  G7             C             Cm
Desperado, oh you ain't gettin' no younger,
     G               Em7           A7          D7
Your pain and your hunger, they're drivin' you home
    G      G7                  C             Cm
And freedom, well, that's just some people talkin'
     G      B7   Em7                A7        D7     G
Your prison is walkin' through this world all alone


D          Em                   Bm
Don't your feet get cold in the winter time ?
    C                  G
The sky won't snow and the sun won't shine
     Em7              C                   G    D
It's hard to tell the night time from the day
       Em              Bm
You're losin' all your highs and lows
         C             G             Am7
Ain't it funny how the feelin' goes away


D  D7 G  G7              C              Cm
Desperado, why don't you come to your senses
     G         D      Em  A7         D7
Come down from your fences, open the gate
          G      G7               C           Cm
It may be rainin',  but there's a rainbow above you
           G       B7   Em         C  G  Am7
You better let somebody love you,
           G       B7   Em         Am7       D7  G
You better let somebody love you before it's too late
Вверх

Desperado (2 вариант)

Ab    Fm            Bbm          Fm
Desperado, why don't you come to your senses
       Cm              Fm   Bbm
You've been out riding fences for so long now
   Ab                      Fm                     Bbm     Fm
Oh you are hard one, but I know that you have got your reason
         Cm                   Fm      Bbm             Ab  Cm
These things that are pleasing you can't hurt you somehow
           Fm                   Cm
Don't you draw the cream of diamonds, boy
       Fm                Cm
She'll beat you if she's able
          Fm             Bbm       Ab
The queen of hears is always your best bet
Cm       Fm              Cm
How it seems to me some fine thing
          Fm             Cm
Have been laid upon your table
        Fm             Bbm     Eb
But you only want the ones you can't

Desperado, Oh you ain't getting younger
Your pain and you hunger, they're ruining your home freedom,
Oh, freedom
       Fm               Bb  Fm
That's just some people talking
        Cm       Em                 Bbm
You are prison walking through this world all alone
Cm              Fm            Cm
Don't your feet get cold in winter time
    Fm                     Cm
The sky won't snow and the sun won't shine
     Fm                Bbm                 Ab
It's hard to tell the night time from the day
Cm     Fm               Cm
You're loosing all your highs and lows
         Fm                 Cm  Fm   Bbm
Ain't it funny how the feeling goes away

Desperado, why don't you come to your senses
Come down from your fences open the gate
It may be raining, but there's a rainbow above you
You better let somebody love you
Before it's too late
Вверх

Doolin Dalton

            F#m
There were Doolin
        A
Doolin-Dalton
         F#m
High or low
            A   A7
It all the same
      D
Easy money
               A
And faithless women
           E  D
With a wiskey
         A    E
For the pain

* Introduces drums and bass:

Go down feel darker in the ***
Two brothers cryin? there in coffee bill
Two voices callin? you from where they stood
Lay down your lawbooks, now you know they?re good

Better keep on movin?
Doolin-Dalton
Till your shadow
Set you free
Leave your ***
If you?re lucky
You will never
See that *** in tree

*Again acoustic guitar only:

The times lay on the crossed doors ***...
Like *** lay the tombstones waitin? for the men
And men could use it *** coul use it ***
Before some winsdore crazy lords
Cause nothing ever changes

*Again full sound:

Till-till Doolin
*** Dalton
He was working cheer
Just paradise
When he left
He said "I?m going"
So he left
This peaceful life behing
Вверх

Earlybird

Intro. A     C#m      C      D

   A
1. Early in the morning, by the break of day

   Earlybird is working so his life don't fade away
      Dm                                Em                           A
   He spends his time denying that he's got no time to flying in the breeze
   Dm                      Em                          A
   High above his own, the eagle flies alone and he is free


   A throughout
2. Early bird is scratching when the load is getting tough
   Time is passing by and he just can't get enough
   Tell you all is good and well but knows that something's wrong
   Earlybird will wake one day and find his life is gone

Bridge. C#m      C       D      A


   A throughout
3. You know I like to lay in bed and sleep out in the sun
   Reading books and playing crazy music just for fun
   You know it makes me feel so fine and sets my mind at ease
   You know that I don't harm a soul in doing what I please

Outro. Dm        Em       A         A
Вверх

Get Over It

Intro Solo
+++++++
---------------------------------------------|
---------------------------------------------|
--------------------10-13--13--10~/----------|
--------5s9---12-----------------------------|
---------------------------------------------|
---------------------------------------------|

-------------------------------------------------|
-------------------------------------------------|
-----------10-13-13b15r---12--10-----------------|
---11s12---------------------------9s12--12--12--|
-------------------------------------------------|
-------------------------------------------------|

--------------------------------------------|
--------------------------------------------|
-------13--10-------------------------------|
-----------------12--9----------------------|
--------------------------12--9-------------|
----------------------------------12--9-----|

Main Riff/Chorus
+++++++++++++
You can play it by sliding while holding the Barred D-Shape..much easier this way
     D
-------------------------------------------------|
---7s10~--------7s10~------7s10~-----------------|    Make a little Vibrato
-7-7s9~-----7---7s9~----7--7s9~---7---14---------|(stop)-    at the end of the slide
-7-7s9~-----7---7s9~----7--7s9~---7---14(stop)---|
-5----------5-----------5---------5--------------|
-5----------5-----------5---------5--------------|

Verse
++++
Listen to the song to figure out the strumming pattern,it's simple just alternating
between D/D7-G/G7-A/A7
-----------------3-3--3-3------5-5-5-5---------------|
-----------------7-3--7-3------8-5-8-5---------------|
---7-5-7-5-------4-4--4-4------6-6-6-6---------------|
---7-7-7-7-------------------------------------------|
---5-5-5-5-------------------------------------------|
-----------------------------------------------------|

D/D7
I turn on the tube
What do I see
A whole lotta people
Cryin' Don't blame me,They point their
Crooked little fingers
At everybody else
Spend all of their time
Feeling Sorry for themselves

G/G7
Victim of this
Victim of that

A/A7
Your momma's too thin and
Your daddy's too fat!

Chours
+++++
D5
Get over it  (The Slide in the Intro)
F5
Get over it  (The Slide again)
G5
All this whinin', cryin' (One more time)
Pitchin' a fit
D5
Get over it
Get over it

First Solo
+++++++
Second Guitar can Play Power Chords
D5                                                   F5
---------------------------------------------------------------|
---------------------------------------------------------------|
-------------9--12-----9--9s12-12-14--9-12-14-9-12-14-9b12-----|
---------------------12----------------------------------------|
---------------------------------------------------------------|
---------------------------------------------------------------|
 G5                                                  A5                                      D5
--------------------------------------------15--17--15-------------------|
-----------------------------------------16-------------16-----12-16-----|
----10--8------10-8-----10-8----10-8s15--------------------15------------|
--9--------9-9------9-9-------9------------------------------------------|
-------------------------------------------------------------------------|
-------------------------------------------------------------------------|

Second Verse
++++++++++
D/D7
You said you haven't been the same
Since you had your little crash
But you might feel better
If they gave you some cash
The more I think about it
Old Billy was right
Let's kill all the lawyers
Kill 'em tonight!
G7/G
Don't wanna work
You want to live like a king
A7/A
But the big bad world
Doesn't owe you a thing

Repeat Chours

Second Solo
+++++++++
Same Power chords Progression
---------------------------------------------------------------|
---------------------------------------------------------------|
----------------------------------------12s13b-13b-12----------|
--9s16p--12s9-9s12--15b16-15s12--9s12------------------9s12----|
---------------------------------------------------------------|
---------------------------------------------------------------|

--------------------------------------------------------|
--19-16-----15b16---------15-15---15-15----15-15--------|
---------17--------------------17-------17-------17-----|
--------------------12s15-------------------------------|
--------------------------------------------------------|
--------------------------------------------------------|

------------------------------------------------------------|
-15-----15-----15-----15-----15-20--------------------------|
-----17-----17-----17-----17--------------------------------|
------------------------------------12s15-12----------------|
------------------------------------------------------------|
------------------------------------------------------------|

---------------------------------------------------|
-----15-15------15-----20--------------------------|
-17----------17-----17-----------------------------|
------------------------------12s15-12-------------|
---------------------------------------------------|
---------------------------------------------------|

------------------------------------------------------------|
--20b21r20-16-------------------21----21-20-----------------|
-----------------15hp17--115s7--17-17-17-17-----------------|
----------------------------------------------3s5--3s5------|
----------------------------------------------3s5--3s5------|
------------------------------------------------------------|

Bridge
+++++
C5                                                                              C5/D5
----------------------------------------------------------------------|
----------------------------------------------------------------------|
----------------------------------------------------------------------|
-----------10-------------------------------------------10s12--12-12--|
-----------10-------------------------------------------10s12--12-12--|
-----------8--------------------------------------------8s10---10-10--|
It's like going to confession every time I hear you Speak
-----------------------------------------------------------|
-----------------------------------------------------------|
-----------------------------------------------------------|
----------5------------------------------------------------|
----------5------------------------------------------------|
----------3------------------------------------------------|
You're making the most of your losing streak
------------------------------------------------------|
------------------------------------------------------|
--------------------------------9---------------------|
---7----------------------------9---------------------|
---7----------------------------7---------------------|
---5--------------------------------------------------|
   Some call it sick I call it weak

Verse :
+++++
You're draggin' around
Like a ball and chain
You wallow in the guilt
You wallow in the pain
You wave it like a flag
You wear it like a crown
Got your mind in the gutter
Bringin' everybody down

You bitch about the present
Blame it on the past

I'd like to find you in a child
And kick it's little ass!

Outro :
+++++
Same Power Chords Progression
-----------------------------------------------------------|
---20-20-15-13-15--------------15-15s13--------------------|
---19-19---------------------14---------------14-----------|
------------------------12-15----------------------15------|
-----------------------------------------------------------|
-----------------------------------------------------------|

-------------------------------------------------------------|
--------------15-17b19~--17hp19-17---------------------------|
----------14-----------------------19----19-17---------------|
------15---------------------------------------19-16---------|
-------------------------------------------------------------|
-------------------------------------------------------------|

                          Slide Up
----------------20b--20-17---------------20s-----------|
----------------19b----------19----------19s-----------|
----------17---------------------17s19-----------------|
-16-19-------------------------------------------------|
-------------------------------------------------------|
-------------------------------------------------------|

---------------------------------------------------------|
-----------18p15--13-15-13-----13------------------------|
--15h17--------------------15-----15--15p13--------------|
---------------------------------------------15----------|
---------------------------------------------------------|
---------------------------------------------------------|

----------------------------------------------------|
--18-15----18-15------18-15-----18-15---------------|
--------17---------17--------17---------17----------|
----------------------------------------------------|
----------------------------------------------------|
----------------------------------------------------|

----------------------------------------------------|
-----18-15------------------------------------------|
------------17-15hp17-13------15-13-----------------|
--------------------------15----------15---12~------|
-------------------------------------------12~------|
-------------------------------------------10~------|
Вверх

Hole In The World

Chorus:
            A          F#m     E
  There's a hole in the world tonight,
            A        F#m       E
  There's a cloud of fear and sorrow,
            A         F#m      E
  There's a hole in the world tonight,
  C#m                 F#m         E     A
  Don't let there be a hole in the world tomorrow.


Verse1:

  A             F#m         E
  They say that anger is just love disappointed,
  A             F#m         E
  They say that love is just a state of mind,
  A             F#m             E      C#m
  But all this fighting over who is anointed,
  F#m                  E     A
  Oh how could people be so blind.

Chorus:

             A          F#m     E
  There's a hole in the world tonight,
   D         A        F#m       E
  There's a cloud of fear and sorrow,
   D         A         F#m      E
  There's a hole in the world tonight,
  C#m                 F#m         E     A
  Don't let there be a hole in the world tomorrow.


Verse2:

  A         F#m                E
  Oh they tell me there's a place over yonder,
  A         F#m                     E
  Cool water running through the burning sand,
  A         F#m        E         C#m
  Until we learn to love one another,
  F#m      E               A
  We will never reach the promise land.


Chorus:

   D          A          F#m     E
  There's a hole in the world tonight,
   D         A        F#m       E
  There's a cloud of fear and sorrow,
   D         A         F#m      E
  There's a hole in the world tonight,
  C#m                 F#m         E     A
  Don't let there be a hole in the world tomorrow.


  B              AЃуm           F#              E
  They say that anger is just love disappointed,
  B              AЃуm           F#              E
  They say that love is just a state of mind,
  B              AЃуm           F#         C#m
  But all this fighting over who will be anointed,
  AЃуm         F#      B
  Oh how could people be so blind.

Chorus: (no music)1x

Chorus:
              B          AЃуm     F#
  There's a hole in the world tonight,
   E         B        AЃуm       F#
  There's a cloud of fear and sorrow,
   E         B        AЃуm       F#
  There's a hole in the world tonight,
  EЃуm                 AЃуm         F#     B
  Don't let there be a hole in the world tomorrow.


Repeat Chorus 4x's or as perferred, (fade out)
Вверх

Hotel California mp3

Hm
On a dark desert highway
 F#
Cool wind in my hair
 A
Warm smell of colitas
 E
Rising up through the air
G
Up ahead in the distance
D
I saw a shimmering light
 Em
My head grew heavy and my sight grew dim
F#7
I had to stop for the night
There she stood in the doorway
I heard the mission bell
and I was thinking to my self
this could be heaven or this could be hell
Then she lit up a candle
and she showed me the way
there were voices down the corridor
I thought I heard them say:
     G                        D
    Welcome to the Hotel California
  Em
    such a lovely place,  such a lovely place
            Hm
    such a lovely face
     G                        D
    Plenty of room at the Hotel California
  Em
    any time of year, any time of year
             F#7
    you can find it here
Her mind is Tiffany twisted
she got the Mersedes-benz
she got a lot of pretty, pretty boys
she calls friends
How they dance in the courtyard
sweet summer sweat
some dance to remember
some dance to forget
So I called up the Captain
please bring me my wine
he said: "We haven't had that spirit here
since nineteen sixty nine"
And still those voices are calling
from far away
wake you up in the middle of the night
just to hear them say:
        Welcome to the Hotel California
        such a lovely place
            such a lovely place
        such a lovely face
        They're livin up at the Hotel California
        what a nice surprise
            what a nice surprise
        bring you're alibis
Mirrors on the ceiling
the pink champange on ice and she said:
We are all just prisoners here
of our own device
And in the masters chambers
they gathered for the feast
they stabbed it with their steely knives
but they just can't kill the beast
Last thing I remember. I was
running for the door
I had to find the passage back
to the place I was before
Relax, said the nightman
we are programmed to receive
you can check out any time you like
but you can never leave
Вверх

Hotel California (табулатура)

E|-------7--------------|-7---0-|---0-2-0-9-2-0-|---|---0-5-0-7|
B|-----7----------7---3-|---3---|---------------|---|----------|
G|---7-----4----4---4---|-------|-3-------------|-3-|-2--------|
D|-----------12---------|-------|---------------|---|----------|
A|-2--------------------|-------|---------------|---|----------|
E|----------------------|-------|---------------|---|----------|

E|--|---0-5---0-5-|---2---2-------|7|------3-------|-7-------|-|
B|10|-------------|-----3---3-0---|-|--3-0---3-----|-------3-|3|
G|--|-2-----------|-1-----------1-|-|0---------4-0-|---0-2---|-|
D|--|-------2-----|---------------|-|--------------|---------|0|
A|--|-------------|---------------|-|--------------|---------|-|
E|--|-------------|---------------|-|--------------|---------|-|

E|5-2---10-2--|----2-----2|--------3---3|7----------|-----0---2|
B|----3------3|--3-----3--|--0-3-0---0--|--0-----0-3|----------|
G|------------|-----------|-------------|----7------|---3---3--|
D|------------|4-----0----|2------------|-----------|-4--------|
A|------------|-----------|-------------|2-----2----|----------|
E|------------|-----------|-------------|-----------|----------|

E|---|9|-----------7-------------|-7---0-|---0-2-0-9-2-0-|-|--0|
B|5--|-|---------7---------7-----|---3---|---------------|-|---|
G|--3|-|-------7-----4-7-4---4-7-|-------|-3-------------|3|2--|
D|---|-|-----9-------------------|-------|---------------|-|---|
A|---|-|---9---------------------|-------|---------------|-|---|
E|---|-|-7-----------------------|-------|---------------|-|---|

E|5-0-7---|--0-5---0-5|--2---2------|7-|-------3-------|-7-----|
B|------10|-----------|----3---3----|--|---3-0---3-----|-------|
G|--------|2----------|1---------4-1|--|-0---------4-0-|---0-2-|
D|--------|------2----|-------------|--|---------------|-------|
A|--------|-----------|-------------|--|---------------|-------|
E|--------|-----------|-------------|--|---------------|-------|

E|-|--5-2---10-2--|----2-----2|--------3---3|-7-----------|----|
B|3|3-----3------3|--3-----3--|--0-3-0---0--|---0-----0-3-|----|
G|-|--------------|-----------|-------------|-----7-------|---3|
D|-|0-------------|4-----0----|2------------|-------------|-4--|
A|-|--------------|-----------|-------------|-2-----2-----|----|
E|-|--------------|-----------|-------------|-------------|----|

E|0---2----|9|--------2----|7---0-|---0-2-0-9-2-0-|---|---0-5-0|
B|------5--|-|--0-3-0---0-3|--3---|---------------|---|--------|
G|--3-----3|-|-------------|------|-3-------------|-3-|-2------|
D|---------|-|-------------|------|---------------|---|--------|
A|---------|-|2------------|------|---------------|---|--------|
E|---------|-|-------------|------|---------------|---|--------|

E|7---|--0-5---0-5|--2---2-------|-7-|-------3-------|-7-------|
B|--10|-----------|----3---3-0---|---|---3-0---3-----|-------3-|
G|----|2----------|1-----------1-|---|-0---------4-0-|---0-2---|
D|----|------2----|--------------|---|---------------|---------|
A|----|-----------|--------------|---|---------------|---------|
E|----|-----------|--------------|---|---------------|---------|

E|--5-2---10-2--|----2-----2|--------3---3|7----------|-----0--|
B|3-----3------3|--3-----3--|--0-3-0---0--|--0-----0-3|--------|
G|--------------|-----------|-------------|----7------|---3---3|
D|0-------------|4-----0----|2------------|-----------|-4------|
A|--------------|-----------|-------------|2-----2----|--------|
E|--------------|-----------|-------------|-----------|--------|

E|2----|9-|----2|----2-----2|-----2-|-----6-|-----0-|-----0----|
B|--5--|--|--3--|--3-----3--|---2---|---7---|---2---|---2-----2|
G|----3|--|4----|4-----4----|-3-----|-6-----|-2-----|-2-----2--|
D|-----|--|-----|-----------|-------|-------|-------|----------|
A|-----|--|-----|-----------|-------|-------|-------|----------|
E|-----|--|-----|-----------|-------|-------|-------|----------|

E|-0|-----|----0-----0|-----|-------------|-------|-----2-|----|
B|--|----0|--0-----0--|----3|-----3-----3-|-----3-|---3---|---8|
G|--|--1--|1-----1----|--4--|---4-----4---|---2---|-2-----|-9--|
D|--|2----|-----------|5----|-5-----5-----|-4-----|-------|----|
A|--|-----|-----------|-----|-------------|-------|-------|----|
E|--|-----|-----------|-----|-------------|-------|-------|----|

E|-7|----7-----7|----2|----6|------7-7-7-7-7-7-7|-------7------|
B|--|--8-----8--|--2--|--7--|----8---8-8-8-8-8-8|-----8-----8--|
G|--|9-----9----|3----|6----|--7-----7-7-7-7-7-7|---7-----7----|
D|--|-----------|-----|-----|5------------------|-5------------|
A|--|-----------|-----|-----|-------------------|--------------|
E|--|-----------|-----|-----|-------------------|--------------|

E|-7|-------5-5-5-5-5-5-5|------5-----5|------6-6-6-6-6-6-6|---|
B|--|-----7---7-7-7-7-7-7|----7-----7--|----7---7-7-7-7-7-7|---|
G|--|---7-----7-7-7-7-7-7|--7-----7----|--6-----6-6-6-6-6-6|--6|
D|--|-0------------------|0------------|4------------------|4--|
A|--|--------------------|-------------|-------------------|---|
E|--|--------------------|-------------|-------------------|---|

E|--6-----6|------7-7-7-7-7-7-7|------7-----7|------7-7-7-7-7-7|
B|7-----7--|----7---7-7-7-7-7-7|----7-----7--|----8---8-8-8-8-8|
G|----6----|--7-----7-7-7-7-7-7|--7-----7----|--7-----7-7-7-7-7|
D|---------|-------------------|-------------|5----------------|
A|---------|2------------------|2------------|-----------------|
E|---------|-------------------|-------------|-----------------|

E|-7|------7-----7|------5-5-5-5-5-5-5|------5-----5|-------7-7|
B|-8|----8-----8--|----7---7-7-7-7-7-7|----7-----7--|-----8---8|
G|-7|--7-----7----|--7-----7-7-7-7-7-7|--7-----7----|---9-----9|
D|--|5------------|0------------------|0------------|-2--------|
A|--|-------------|-------------------|-------------|----------|
E|--|-------------|-------------------|-------------|----------|

E|-7-7-7-7-7|------7-----7|------6-6-6-6-6-6-6|------6-----6|--|
B|-8-8-8-8-8|----8-----8--|----7---7-7-7-7-7-7|----7-----7--|--|
G|-9-9-9-9-9|--9-----9----|--6-----6-6-6-6-6-6|--6-----6----|--|
D|----------|2------------|4------------------|4------------|--|
A|----------|-------------|-------------------|-------------|-2|
E|----------|-------------|-------------------|-------------|--|

E|-------2----|7---0|--0-2-0-9-2-0|-|---0-5-0-7----|---0-5---0-|
B|-0-3-0---0-3|--3--|-------------|-|-----------10-|-----------|
G|------------|-----|3------------|3|-2------------|-2---------|
D|------------|-----|-------------|-|--------------|-------2---|
A|------------|-----|-------------|-|--------------|-----------|
E|------------|-----|-------------|-|--------------|-----------|

E|5|--2---2------|7|------3------|-7-------|---5-2---10-2---|--|
B|-|----3---3-0--|-|--3-0---3----|-------3-|-3-----3------3-|--|
G|-|1-----------1|-|0---------4-0|---0-2---|----------------|--|
D|-|-------------|-|-------------|---------|-0--------------|-4|
A|-|-------------|-|-------------|---------|----------------|--|
E|-|-------------|-|-------------|---------|----------------|--|

E|---2-----2|--------3---3|7----------|----0---2----|-9-|-----2|
B|-3-----3--|--0-3-0---0--|--0-----0-3|----------5--|---|---3--|
G|----------|-------------|----7------|--3---3-----3|---|-4----|
D|-----0----|2------------|-----------|4------------|---|------|
A|----------|-------------|2-----2----|-------------|---|------|
E|----------|-------------|-----------|-------------|---|------|

E|-----2-----2|----2|----6|-----0-|-----0-----0-|-------|-----0|
B|---3-----3--|--2--|--7--|---2---|---2-----2---|-----0-|---0--|
G|-4-----4----|3----|6----|-2-----|-2-----2-----|---1---|-1----|
D|------------|-----|-----|-------|-------------|-2-----|------|
A|------------|-----|-----|-------|-------------|-------|------|
E|------------|-----|-----|-------|-------------|-------|------|

E|----0|-----|------------|-------|-----2-|-----7-|-----7-----7|
B|--0--|----3|----3-----3-|-----3-|---3---|---8---|---8-----8--|
G|1----|--4--|--4-----4---|---2---|-2-----|-9-----|-9-----9----|
D|-----|5----|5-----5-----|-4-----|-------|-------|------------|
A|-----|-----|------------|-------|-------|-------|------------|
E|-----|-----|------------|-------|-------|-------|------------|

E|----2|----6|------7-7-7-7-7-7-7|------7-----7-|-------5-5-5-5|
B|--2--|--7--|----8---8-8-8-8-8-8|----8-----8---|-----7---7-7-7|
G|3----|6----|--7-----7-7-7-7-7-7|--7-----7-----|---7-----7-7-7|
D|-----|-----|5------------------|5-------------|-0------------|
A|-----|-----|-------------------|--------------|--------------|
E|-----|-----|-------------------|--------------|--------------|

E|5-5-5|------5-----5|------6-6-6-6-6-6-6|------6-----6-|------|
B|7-7-7|----7-----7--|----7---7-7-7-7-7-7|----7-----7---|-----7|
G|7-7-7|--7-----7----|--6-----6-6-6-6-6-6|--6-----6-----|---7--|
D|-----|0------------|4------------------|4-------------|------|
A|-----|-------------|-------------------|--------------|-2----|
E|-----|-------------|-------------------|--------------|------|

E|7-7-7-7-7-7-7|------7-----7|------7-7-7-7-7-7-7|------7-----7|
B|--7-7-7-7-7-7|----7-----7--|----8---8-8-8-8-8-8|----8-----8--|
G|--7-7-7-7-7-7|--7-----7----|--7-----7-7-7-7-7-7|--7-----7----|
D|-------------|-------------|5------------------|5------------|
A|-------------|2------------|-------------------|-------------|
E|-------------|-------------|-------------------|-------------|

E|------5-5-5-5-5-5-5|------5-----5|------7-7-7-7-7-7-7-|------|
B|----7---7-7-7-7-7-7|----7-----7--|----8---8-8-8-8-8-8-|-----8|
G|--7-----7-7-7-7-7-7|--7-----7----|--9-----9-9-9-9-9-9-|---9--|
D|0------------------|0------------|2-------------------|-2----|
A|-------------------|-------------|--------------------|------|
E|-------------------|-------------|--------------------|------|

E|7-----7|------6|---|-------7-------------|-7---0-|---0-2-0-9-|
B|----8--|----7--|---|-----7-------0-7---3-|---3---|-----------|
G|--9----|--6----|---|---7-----4-7-----4---|-------|-3---------|
D|-------|4------|---|---------------------|-------|-----------|
A|-------|-------|---|-2-------------------|-------|-----------|
E|-------|-------|---|---------------------|-------|-----------|

E|2-0|-|--0-5-0-7---|--0-5---0-5|---2---2-------|-7-|-------3--|
B|---|-|----------10|-----------|-----3---3-0---|---|---3-0---3|
G|---|3|2-----------|2----------|-1-----------1-|---|-0--------|
D|---|-|------------|------2----|---------------|---|----------|
A|---|-|------------|-----------|---------------|---|----------|
E|---|-|------------|-----------|---------------|---|----------|

E|----|-7-------|---5-2---10-2---|----2-----2|--------3---3|7--|
B|----|-------3-|-3-----3------3-|--3-----3--|--0-3-0---0--|--0|
G|4-0-|---0-2---|----------------|-----------|-------------|---|
D|----|---------|-0--------------|4-----0----|2------------|---|
A|----|---------|----------------|-----------|-------------|2--|
E|----|---------|----------------|-----------|-------------|---|

E|-------|----0---2----|9|-----2-|-----2-----2-|-----2-|-----6-|
B|----0-3|----------5--|-|---3---|---3-----3---|---2---|---7---|
G|7------|--3---3-----3|-|-4-----|-4-----4-----|-3-----|-6-----|
D|-------|4------------|-|-------|-------------|-------|-------|
A|--2----|-------------|-|-------|-------------|-------|-------|
E|-------|-------------|-|-------|-------------|-------|-------|

E|-----0|----0-----0|-----|----0-----0-|-------|-------------|-|
B|---2--|--2-----2--|----0|--0-----0---|-----3-|-----3-----3-|-|
G|-2----|2-----2----|--1--|1-----1-----|---4---|---4-----4---|-|
D|------|-----------|2----|------------|-5-----|-5-----5-----|4|
A|------|-----------|-----|------------|-------|-------------|-|
E|------|-----------|-----|------------|-------|-------------|-|

E|---|----2|----7|----7-----7-|-------6-|-6-6-|-------7-7-7-7-7|
B|--3|--3--|--8--|--8-----8---|-----7---|-7-7-|-----7---7-7-7-7|
G|2--|2----|9----|9-----9-----|---6-----|-6-6-|---7-----7-7-7-7|
D|---|-----|-----|------------|-4-------|-4-4-|----------------|
A|---|-----|-----|------------|---------|-----|-2--------------|
E|---|-----|-----|------------|---------|-----|----------------|

E|7-7|------7-----7|------6-6-6-6-6-6-6|------6-----6-|-------5|
B|7-7|----7-----7--|----7---7-7-7-7-7-7|----7-----7---|-----5--|
G|7-7|--7-----7----|--6-----6-6-6-6-6-6|--6-----6-----|---6----|
D|---|-------------|4------------------|4-------------|-7------|
A|---|2------------|-------------------|--------------|--------|
E|---|-------------|-------------------|--------------|--------|

E|5-5-5-5-5-5|------5-----5|------7-7-7-7-7-7-7-|-------7-----7|
B|5-5-5-5-5-5|----5-----5--|----9---9-9-9-9-9-9-|-----9-----9--|
G|6-6-6-6-6-6|--6-----6----|--7-----7-7-7-7-7-7-|---7-----7----|
D|-----------|7------------|2-------------------|-2------------|
A|-----------|-------------|--------------------|--------------|
E|-----------|-------------|--------------------|--------------|

E|------7-7-7-7-7-7-7|------7-----7|------5-5-5-5-5-5-5|------5|
B|----8---8-8-8-8-8-8|----8-----8--|----7---7-7-7-7-7-7|----7--|
G|--7-----7-7-7-7-7-7|--7-----7----|--7-----7-7-7-7-7-7|--7----|
D|5------------------|5------------|0------------------|0------|
A|-------------------|-------------|-------------------|-------|
E|-------------------|-------------|-------------------|-------|

E|----5|------7-7-7-7-7-7-7|------7-----7|-------6-6-6-6-6-6-6-|
B|--7--|----8---8-8-8-8-8-8|----8-----8--|-----7---7-7-7-7-7-7-|
G|7----|--9-----9-9-9-9-9-9|--9-----9----|---6-----6-6-6-6-6-6-|
D|-----|2------------------|2------------|-4-------------------|
A|-----|-------------------|-------------|---------------------|
E|-----|-------------------|-------------|---------------------|

E|------6-----6|------7-7-7-7-7-7-7|------7-----7|------6-6-6-6|
B|----7-----7--|----7---7-7-7-7-7-7|----7-----7--|----7---7-7-7|
G|--6-----6----|--7-----7-7-7-7-7-7|--7-----7----|--6-----6-6-6|
D|4------------|-------------------|-------------|4------------|
A|-------------|2------------------|2------------|-------------|
E|-------------|-------------------|-------------|-------------|

E|6-6-6|------6-----6|------5-5-5-5-5-5-5|------5-----5-|------|
B|7-7-7|----7-----7--|----5---5-5-5-5-5-5|----5-----5---|-----9|
G|6-6-6|--6-----6----|--6-----6-6-6-6-6-6|--6-----6-----|---7--|
D|-----|4------------|7------------------|7-------------|-2----|
A|-----|-------------|-------------------|--------------|------|
E|-----|-------------|-------------------|--------------|------|

E|7-7-7-7-7-7-7|------7-----7|------7-7-7-7-7-7-7|------7-----7|
B|--9-9-9-9-9-9|----9-----9--|----8---8-8-8-8-8-8|----8-----8--|
G|--7-7-7-7-7-7|--7-----7----|--7-----7-7-7-7-7-7|--7-----7----|
D|-------------|2------------|5------------------|5------------|
A|-------------|-------------|-------------------|-------------|
E|-------------|-------------|-------------------|-------------|

E|-------5-5-5-5-5-5-5-|------5-----5|------7-7-7-7-7-7-7|-----|
B|-----7---7-7-7-7-7-7-|----7-----7--|----8---8-8-8-8-8-8|----8|
G|---7-----7-7-7-7-7-7-|--7-----7----|--9-----9-9-9-9-9-9|--9--|
D|-0-------------------|0------------|2------------------|2----|
A|---------------------|-------------|-------------------|-----|
E|---------------------|-------------|-------------------|-----|

E|7-----7|------6-6-6-6-6-6-6|------6-----6|------7-7-7-7-7-7-7|
B|----8--|----7---7-7-7-7-7-7|----7-----7--|----7---7-7-7-7-7-7|
G|--9----|--6-----6-6-6-6-6-6|--6-----6----|--7-----7-7-7-7-7-7|
D|-------|4------------------|4------------|-------------------|
A|-------|-------------------|-------------|2------------------|
E|-------|-------------------|-------------|-------------------|

E|-------7-----7-|------6-6-6-6-6-6-6|------6-----6|------5-5-5|
B|-----7-----7---|----7---7-7-7-7-7-7|----7-----7--|----5---5-5|
G|---7-----7-----|--6-----6-6-6-6-6-6|--6-----6----|--6-----6-6|
D|---------------|4------------------|4------------|7----------|
A|-2-------------|-------------------|-------------|-----------|
E|---------------|-------------------|-------------|-----------|

E|5-5-5-5-|-------5-----5|------7-7-7-7-7-7-7|------7-----7|---|
B|5-5-5-5-|-----5-----5--|----9---9-9-9-9-9-9|----9-----9--|---|
G|6-6-6-6-|---6-----6----|--7-----7-7-7-7-7-7|--7-----7----|--7|
D|--------|-7------------|2------------------|2------------|5--|
A|--------|--------------|-------------------|-------------|---|
E|--------|--------------|-------------------|-------------|---|

E|--7-7-7-7-7-7-7|------7-----7|------5-5-5-5-5-5-5|------5----|
B|8---8-8-8-8-8-8|----8-----8--|----7---7-7-7-7-7-7|----7-----7|
G|----7-7-7-7-7-7|--7-----7----|--7-----7-7-7-7-7-7|--7-----7--|
D|---------------|5------------|0------------------|0----------|
A|---------------|-------------|-------------------|-----------|
E|---------------|-------------|-------------------|-----------|

E|5|------7-7-7-7-7-7-7|------7-----7|------6-6-6-6-6-6-6|-----|
B|-|----8---8-8-8-8-8-8|----8-----8--|----7---7-7-7-7-7-7|-----|
G|-|--9-----9-9-9-9-9-9|--9-----9----|--6-----6-6-6-6-6-6|---6-|
D|-|2------------------|2------------|4------------------|-4---|
A|-|-------------------|-------------|-------------------|-----|
E|-|-------------------|-------------|-------------------|-----|

E|--6-----6|------7-7-7-7-7-7-7|------7-----7|------6-6-6-6-6-6|
B|7-----7--|----7---7-7-7-7-7-7|----7-----7--|----7---7-7-7-7-7|
G|----6----|--7-----7-7-7-7-7-7|--7-----7----|--6-----6-6-6-6-6|
D|---------|-------------------|-------------|4----------------|
A|---------|2------------------|2------------|-----------------|
E|---------|-------------------|-------------|-----------------|

E|6|------6-----6|------5-5-5-5-5-5-5|------5-----5|-------7-7-|
B|7|----7-----7--|----5---5-5-5-5-5-5|----5-----5--|-----9---9-|
G|6|--6-----6----|--6-----6-6-6-6-6-6|--6-----6----|---7-----7-|
D|-|4------------|7------------------|7------------|-2---------|
A|-|-------------|-------------------|-------------|-----------|
E|-|-------------|-------------------|-------------|-----------|

E|7-7-7-7-7|------7-----7|------7-7-7-7-7-7-7|------7-----7|---|
B|9-9-9-9-9|----9-----9--|----8---8-8-8-8-8-8|----8-----8--|---|
G|7-7-7-7-7|--7-----7----|--7-----7-7-7-7-7-7|--7-----7----|---|
D|---------|2------------|5------------------|5------------|-0-|
A|---------|-------------|-------------------|-------------|---|
E|---------|-------------|-------------------|-------------|---|

E|----5-5-5-5-5-5-5|------5-----5|------7-7-7-7-7-7-7|------7--|
B|--7---7-7-7-7-7-7|----7-----7--|----8---8-8-8-8-8-8|----8----|
G|7-----7-7-7-7-7-7|--7-----7----|--9-----9-9-9-9-9-9|--9-----9|
D|-----------------|0------------|2------------------|2--------|
A|-----------------|-------------|-------------------|---------|
E|-----------------|-------------|-------------------|---------|

E|--7|------6-6-6-6-6-6-6|------6-----6|------7-7-7-7-7-7-7|---|
B|8--|----7---7-7-7-7-7-7|----7-----7--|----7---7-7-7-7-7-7|---|
G|---|--6-----6-6-6-6-6-6|--6-----6----|--7-----7-7-7-7-7-7|---|
D|---|4------------------|4------------|-------------------|---|
A|---|-------------------|-------------|2------------------|-2-|
E|---|-------------------|-------------|-------------------|---|

E|----7-----7|------6-6-6-6-6-6-6|------6-----6|------5-5-5-5-5|
B|--7-----7--|----7---7-7-7-7-7-7|----7-----7--|----5---5-5-5-5|
G|7-----7----|--6-----6-6-6-6-6-6|--6-----6----|--6-----6-6-6-6|
D|-----------|4------------------|4------------|7--------------|
A|-----------|-------------------|-------------|---------------|
E|-----------|-------------------|-------------|---------------|

E|5-5|------5-----5|------7-7-7-7-7-7-7|------7-----7|-------7-|
B|5-5|----5-----5--|----9---9-9-9-9-9-9|----9-----9--|-----8---|
G|6-6|--6-----6----|--7-----7-7-7-7-7-7|--7-----7----|---7-----|
D|---|7------------|2------------------|2------------|-5-------|
A|---|-------------|-------------------|-------------|---------|
E|---|-------------|-------------------|-------------|---------|

E|7-7-7-7-7-7|------7-----7|------5-5-5-5-5-5-5|-------5-----5-|
B|8-8-8-8-8-8|----8-----8--|----7---7-7-7-7-7-7|-----7-----7---|
G|7-7-7-7-7-7|--7-----7----|--7-----7-7-7-7-7-7|---7-----7-----|
D|-----------|5------------|0------------------|-0-------------|
A|-----------|-------------|-------------------|---------------|
E|-----------|-------------|-------------------|---------------|

E|-------7-7-7-7-7-7-7-|
B|-----8---8-8-8-8-8-8-|
G|---9-----9-9-9-9-9-9-|
D|-2-------------------|
A|---------------------|
E|---------------------|
Вверх

I Cant Tell You Why

Dmaj7                        Gmaj7
Look at us baby up all night tearing our love apart
Dmaj7                                           Gmaj7             F#7sus4  F#7
Aren't we the same two people who lived through years in the dark?
Bm                  A/B       Gmaj7                    F#7sus4  F#7
Every time I try to walk away something makes me turn around and stay
Bm                   A/B     G       F#m7
And I can't tell you why.
Dmaj7                                 Gmaj7
When we get crazy it just ain't right girl I get lonely too
Dmaj7                                      Gmaj7  F#7sus4  F#7
You don't have to worry just hold on tight  'cause I love you.
Bb                        A/B       Gmaj7                     F#7sus4 F#7
Nothing's wrong as far as I can see we make it harder then it has to be
    Bm               A/B
And I can't tell you why no baby
Gmaj7        F#7sus4 F#7
I can't tell you why.....
Вверх

In The City

E E E A D                 A    E

Somewhere out on that horizon

Out beyond the neon lights

I know there must be something better
D                   E       A             E        D
But there's nowhere else in sight.     Wo-oh-oh-oh


It's survival in the city, children

When you live from day to day

City streets don't have much pity, no
            E                     A
When you're down that's where you stay

A D/A E/A         D/A     E    A
      IN THE CITY
                                     G   D  A  E
      IN THE CITY

Guitar solo

I was born here in the city

With my back against the wall

Nothing grows and life ain't very pretty

No-one's there to catch you when you fall


Somewhere out on that horizon

Far away from the neon sky

I know there must be something, must be something better

And I can't stay another night
Вверх

Learn To Be Still

E    A    E    A     E    A    B    ./.
------------------------------------------------------------------------1:

E                          A        C#m                        B
  IT'S JUST ANOTHER DAY IN PARADISE,    AS YOU STUMBLE TO YOUR BED.
E                  A       C#m                              B
  GIVE ANYTHING TO SILENCE,    THOSE VOICES RINGING IN YOUR HEAD.
C#m                            A         C#m                     A
    YOU THOUGHT YOU COULD FIND HAPPINESS,   JUST OVER THAT GREEN HILL.
C#m                          G#m       A               B
    YOU THOUGHT YOU WOULD BE SATISFIED,  BUT YOU NEVER WILL;
            E    A    E    A
LEARN TO BE STILL.
------------------------------------------------------------------------2:

E                      A        C#m                        B
  LIKE SHEEP WITHOUT A SHEPHERD,    DON'T KNOW HOW TO BE A-LONE.
E                         A     C#m                      B
 SO WE WANDER AROUND THIS DESERT,  WIND UP FOLLOWING THE WRO-NG GODS HOME.
C#m                            A     C#m                          A
    THE FLOCK CRIES OUT FOR AN-OTHER,    THEY KEEP ANSWERING THAT BELL.
C#m                           G#m    A                      B
    ONE MORE STARRY EYED MESS-IAH,     MEETS A VIOLENT FARE-WELL;
            E    A    E    A             E    A    E    A
LEARN TO BE STILL,           LEARN TO BE STILL.
+++++++++++++++++++++++++++++++++++++++++++++++++++++++++++++++++++BRIDGE:

B                         ./.    A                     ./.
  NOW THE FLOWERS IN YOUR GARDEN,  THEY DON'T SMELL SO SWEET SO SWEET.
B                 ./.    C#m                 B           ./.
  MAYBE YOU'D FOR-GOTTEN,   THE HEAVEN LYING AT YOUR FEET.
****************************************************************INTERLUDE:

E    ./.    A    ./.    E    ./.    A    ./.
------------------------------------------------------------------------3:

E                A        C#m                         B
  SO MANY CONTRA-DICTIONS,   IN ALL THESE MESSAGES WE SEND. KEEP ASKING,
E              A           C#m                B
  HOW DO I GET OUT OF HERE,    WHERE DO I FIT IN.
C#m                             A       C#m                      A
   THOUGH THE WORLD IS TORN AND SHAKING,   EVEN IF YOUR HEART IS BREAKING.
C#m                          G#m     A                 B
   IT'S WAITING FOR YOU TO A-WAKEN,    AND SOMEDAY YOU WILL;
            E    A    E    A              E    A    E    A
LEARN TO BE STILL,            LEARN TO BE STILL.
++++++++++++++++++++++++++++++++++++++++++++++++++++++++++++++++++++OUTRO:

             E       A    E    A          E       A    E    A    E
JUST KEEP ON RUNNING,             KEEP ON RUNNING
Вверх

Life In The Fast Lane mp3

Guitar 1 is in Open E tuning w/ a slide (E B E G# B E)
Guitar 2 is in standard tuning


Solo (the first tab line is the first guitar, the
      second is the other one)   :

_________
|   guitar 1
|  e----1/-----/7--------------------------------------------|
|  b----1/-----/7--------------------------------------------|
|  g----1/-----/7--------------------------------------------|
|  d----1/-----/7--------------------------------------------|
|  a------gradual--------------------------------------------|
|  e-----slide-----------------------------------------------|
|   guitar 2
|  e-------------------------------------------------------|
|  b------------14b-14-14b-14-14b-14b~r14-12----12b(1/4)12-|
|  g-----------------------------------------14------------|
|  d-------------------------------------------------------|
|  a-------------------------------------------------------|
|  e-------------------------------------------------------|
_________

_________
|
|  e----7/---/10------------------------------------------|
|  b----7/-------8-/10----/10----------------------------|
|  g----7/--------------/8-----8---------/8~~------------|
|  d----7/------------------------/9-7-7-----------------|
|  a------------------------------------------------------|
|  e------------------------------------------------------|
|tacet
|  e-------------------------------------------------------|
|  b-------------------------------------------------------|
|  g-------------------------------------------------------|
|  d-------------------------------------------------------|
|  a-------------------------------------------------------|
|  e-------------------------------------------------------|
_________

_________
| tacet
|  e-------------------------------------------------------|
|  b-------------------------------------------------------|
|  g-------------------------------------------------------|
|  d-------------------------------------------------------|
|  a-------------------------------------------------------|
|  e-------------------------------------------------------|
|
|  e---------------------------------------------------------|
|  b---------------------------------------------------------|
|  g--12-13-14-14b(1/2)-14b(16)--14b(15)--14b(1/4)-14b--14b--|
|  d---------------------------------------------------------|
|  a---------------------------------------------------------|
|  e---------------------------------------------------------|
_________

_________
|
|  e-------------------------------------------------------|
|  b-------------------------------------------------------|
|  g-------------------------------------------------------|
|  d-------------------------------------------------------|
|  a-------------------------------------------------------|
|  e-------------------------------------------------------|
|
|  e--12-13-14---------------------------------------------|
|  b-------------------------------------------------------|
|  g------------14br14-12-14-------------------------------|
|  d-------------------------------------------------------|
|  a-------------------------------------------------------|
|  e-------------------------------------------------------|
_________

_________
|
|  e---/--12-----------------------------------------------|
|  b---/-----10-12----------------------------------------|
|  g---/-----------8-10-----------------------------------|
|  d---/----------------7-9~------------------------------|
|  a------------------------------------------------------|
|  e-------------------------------------------------------|
|
|  e-------------------------------------------------------|
|  b-------------------------------------------------------|
|  g-------------------------------------------------------|
|  d-------------------------------------------------------|
|  a-------------------------------------------------------|
|  e-------------------------------------------------------|
_________

_________
| guitar 1 & 3 playthis (interude) 4x
|  e-------------------------------------------------------|
|  b--10p9--10p--h10-10---9---10--9--10-9--10--------------|
|  g-----9-----9----------9-------9-----9------------------|
|  d--11p9--11p9-h11-p9--p9--h11-p9--11-9--11--------------|
|  a-------------------------------------------------------|
|  e-------------------------------------------------------|
|After 2nd time bass& guitar play this 2x
|  e-------------------------------------------------------|
|  b-------------------------------------------------------|
|  g-9--13--13~~~~-13-11--9-9h11--9~~~~~-------------------|
|  d-9-----------------------------------------------------|
|  a-7-----------------------------------------------------|
|  e-^-----------------------------------------------------|
____hold 8 beats_____

_________
|
|  e-------------------------------------------------------|
|  b-------------------------------------------------------|
|  g-------------------------------------------------------|
|  d-------5b(1/4)---5-------------------------------------|
|  a---5h7---------7---7-5---------------------------------|
|  e------------------------7-5--3b(1/2)-------------------|
|guitar 2 does this after a while
|  e-------------------------------------------------------|
|  b-------------------------------------------------------|
|  g---------14b(1/4)----12--------------------------------|
|  d---12h14----------14----14-12--------------------------|
|  a------------------------------14p12--10b(1/2)----------|
|  e-------------------------------------------------------|
Вверх

Life In The Fast Lane (2 вариант) mp3

|-----------------------|-----------------------|---------------------------|---
|-----------------------|-----------------------|---------------------------|---
|-----------------------|-----------------------|---------------------------|---
|-----7---5-------------|-----7---5-------------|-----7---5-----------------|---
|-5h7---7---7-5---------|-5h7---7---7-5---------|-5h7---7---7-5---------5-7-|---
|---------------7p5-3-0-|---------------7p5-3/4-|---------------7p5-3-0-----|---



------------------|-----------------------|-----------------------|-------------
------------------|-----------------------|-----------------------|-------------
------------------|-----------------------|-----------------------|-------------
7---5-------------|-----7---5-------------|-----7---5-------------|-------------
--7---7-5---------|-5h7---7---7-5---------|-5h7---7---7-5---------|-------------
----------75-3b4-|---------------7p5-3-0-|---------------7p5-3b4-|-------------



--------------------------|-----------------------||---------------------|------
--------------------------|-----------------------||---------------------|------
--------------------------|-----------------------||---------------------|------
----7---5-----------------|-7---5-----------------||---5p2-----2---------|------
5h7---7---7-5---------5-7-|---7---7-5-------------||-------(3)---5/7-7-7-|------
--------------7p5-3-0-----|-----------75-3-5-6-7-||-0-------------------|------



----------------------|-----------------------|-------------------||------------
----------------------|-----------------------|-------------------||------------
----------------------|-----------------------|-------------------||------------
--5p2-----2---0-------|-5p2---x-2-------------|---5p2---2-0-------||------------
------x-2-------2-----|-----x-----5/7---7---x-|-x-----x-----2-----||------------
0-----------------3/4-|-------------------0---|---------------3/4-||------------
Вверх

Love Will Keep Us Alive

 *
e||---------0-----------------0---|---------0-----------------0-----|
B||-------------0----------0------|-------------0---------0---------|
G||------2-------------2----------|------2-------------2------------|
D||--2----------------------------|---2-----------------------------|
A||--0----------------------------|---0-----------------------------|
E||-------------------------------|---------------------------------|

e|---------0------------------0---|----------0----------------0-----|
B|-------------0-----------0------|-------------0----------0--------|
G|-------2-------------2----------|-------2-------------2-----------|
D|---2----------------------------|---2-----------------------------|
A|--------------------------------|---------------------------------|
E|---2----------------------------|---2-----------------------------|

e|----------0-----------------0---|---------0----------------0------|
B|-------------0-----------0------|------------0----------0---------|
G|---2---2--------------2---------|---2--2-------------2------------|
D|---0----------------------------|---0-----------------------------|
A|--------------------------------|---------------------------------|
E|--------------------------------|---------------------------------|
                                                                   @
e|---------0------------------0---|-------------0--------------0----|
B|------------0------------0------|----------0-------------0--------|
G|------2---------------2---------|-------2---------1 / 2-----------|
D|---2----------------------------|---2-------------0---------------|
A|--------------------------------|---------------------------------|
E|---0----------------------------|---0-------------0---------------|

e|----------0-----------------0---|---------0-----------------0-----|
B|--------------0----------0------|-------------0---------0---------|
G|-------2-------------2----------|------2-------------2------------|
D|---2----------------------------|---2-----------------------------|
A|---0----------------------------|---0-----------------------------|
E|--------------------------------|---------------------------------|

e|---------0---------------0------|----------0----------------0-----|
B|-------------0--------------0---|-------------0----------0--------|
G|-------2-------------2----------|-------2-------------2-----------|
D|---2----------------------------|---2-----------------------------|
A|--------------------------------|---------------------------------|
E|---2----------------------------|---2-----------------------------|

e|----------0-----------------0---|---------0----------------0------|
B|-------------0-----------0------|------------0----------0---------|
G|---2---2--------------2---------|---2--2-------------2------------|
D|---0----------------------------|---2-----------------------------|
A|--------------------------------|---------------------------------|
E|--------------------------------|---------------------------------|

e|----------0-----------------0---|---------0-----------------0----||
B|--------------0----------0------|-------------0---------0--------||
G|-------2-------------2----------|------2-------------2-----------||
D|---2----------------------------|---2----------------------------||
A|---0----------------------------|---0----------------------------||
E|--------------------------------|--------------------------------||

e|----------2-----------------2---|---------2-----------------2-----|
B|--------------3----------3------|-------------3---------3---------|
G|---2---2-------------2----------|---2---2------------2------------|
D|---0----------------------------|---0-----------------------------|
A|--------------------------------|---------------------------------|
E|--------------------------------|---------------------------------|

e|----------2-----------------2---|----------2----------------2-----|
B|--------------2----------2------|--------------2--------2---------|
G|---------------------2----------|--------------------2------------|
D|---4---4------------------------|---4---4-------------------------|
A|---4----------------------------|---4-----------------------------|
E|--------------------------------|---------------------------------|

e|----------2-----------------2---|----------2----------------0-----|
B|--------------3----------3------|-------------3---------3---------|
G|---2---2-------------2----------|---2---2------------2------------|
D|---0----------------------------|---0-----------------------------|
A|--------------------------------|---------------------------------|
E|--------------------------------|---------------------------------|

                                   (slide but also pluck)
e|--------------0-------------0---|-------------0------------------||
B|----------0--------------0------|----------0---------------------||
G|---1---2----------1 / 2---------|---1-/-2-----/---1--------------||
D|---2--------------0-------------|--------------------------------||
A|--------------------------------|---4---------/---2--------------||
E|---0----------------------------|--------------------------------||
                                                                ~~~
e|----------0-----------------0---|---------0-----------------0--0-||
B|--------------0----------0------|-------------0---------0------0-||
G|-------2-------------2----------|------2-------------2---------2-||
D|---2----------------------------|---2--------------------------2-||
A|---0----------------------------|---0--------------------------0-||
E|--------------------------------|--------------------------------||

Lyrics :

I was standing
All alone against the world outside
You were searching
For a place to hide

Lost and lonely
Now you've given me the will to survive
When we're hungry...love will keep us alive

Don't you worry
Sometimes you've just gotta let it ride
The world is changing
Right before your eyes
Now I've found you
There's no more emptiness inside
When we're hungry...love will keep us alive

I would die for you
Climb the highest mountain
Baby, there's nothing I wouldn't do

I was standing
All alone against the world outside
You were searching
For a place to hide
Lost and lonely
Now you've given me the will to survive
When we're hungry...love will keep us alive
When we're hungry...love will keep us alive
When we're hungry...love will keep us alive
Вверх

Love Will Keep Us Alive (2 вариант)

                              0:14
G--------|----------|----------|--------|--------|----------|---------
D--------|--24--4-4-|-4--0-0-|-2--2---|--------|--24--4-4-|-0--0-0--
A-0--0-0-|-4--------|----------|--------|-0--0-0-|-4--------|---------
E--------|----------|----------|------0-|--------|----------|---------


        0:39
         |Fig 1..  ..   ..   ..   ..   ..  ..end fig 1|
G--------|--------|----------|---------------|--------|--------|
D-2--2-2-|--------|--24--4-4-|-4----02-2---|---(7-7)|--------|
A--------|-0--0-0-|-4--------|---------------|-0--0-0-|-0--0-0-|
E--------|--------|----------|---------------|--------|--------|
                                                  ^ ^
                                                 (V2 uses
                                                 high A)

                            1:18
G----------|--------|--------|-------|------------|----------|--------
D--24--4-4|-0--0-0-|-2------|-Fig 1-|-----0--0-0-|-024--4-4-|4-------
A-4--------|--------|--------|-------|-2-4--------|----------|--2--2-2
E----------|--------|----0-0-|-------|------------|----------|--------


              1:57
G--------------|-----------|-----------|----------|----------|--------
D--02--0-------|-Fig 1-----|-4-0-------|--24--4-4-|-4--0-0-|--------
A-4-------4--2-|---V2------|----0--0-0-|-4--------|----------|-0--0-0-
E--------------|-----------|-----------|----------|----------|--------


                       2:44
G------------|----------|----------|--------------|--------|----------
D-----0--0-0-|-244--4-4-|-40-------|--02--0-------|--------|--24--4-4-
A-2-4--------|----------|---2--2-2-|-4-------4--2-|-0--0-0-|-4--------
E------------|----------|----------|--------------|--------|----------


                   3:13                3:24
G----------|--------|--------|----------|------------|---------|
D-4--0-0-|-2--2---|--------|--24--4-4-|-4---02-2-|------24-|
A----------|--------|-0--0-0-|-4--------|------------|-0---4---|
E----------|------0-|--------|----------|------------|---------|



G------------|---------|------------|--------|----------------------
D-4---02---|------24-|-4-----2--|--------|----------------------
A------------|-0---4---|------------|-0--0-0-|-0------0-------------
E----------0-|---------|------------|--------|----------------------
                                                      ^
                                                   Late, with cymbal
Вверх

Lyin Eyes

     G   Gmaj7               C
E|---------------------------------------------------|
B|--8-----7-------7h8--7p5---5-----------------------|
G|------------------------------4--2--------2--4-----|
D|------------------------------------5--2--------2--|
A|---------------------------------------------------|
E|---------------------------------------------------|

   Am        D           G
E|---------------------------------------------------|
B|-----------------------7h8-7--5h7-5--3h5-3---------|
G|-----4b-4b-2--0-----0--7h9-7--5h7-5--4h5-4---------|
D|--5--------------4---------------------------------|
A|---------------------------------------------------|
E|---------------------------------------------------|

VERSE 1
 G               Gmaj7            C
City girls just seem to find out early,
Am                            D
how to open doors with just a smile.
  G                Gmaj7             C
A rich old man and she won't have to worry;
       Am              C              G
she'll dress up all in lace and go in style.

G               Gmaj7              C
Late at night a big old house gets lonely;
  Am                                 D
I guess every form of refuge has its price.
G                          Gmaj7             C
And it breaks her heart to think her love is only
      Am            C                G
Given to a man with hands as cold as ice.
       G                  Gmaj           C
So she tells him she must go out for the evening
    Am                                 D
To comfort an old friend who's feeling down.
    G                    Gmaj7          C
But he knows where she's goin' as she's leavin';
      Am              C                G
She's headed for that cheatin' side of town.

(CHORUS)
          G   C           G              Em   Bm            Am      D
You can't hide your lyin' eyes, and your smile is a thin disguise.
             G  G9         C  A      Am              D                G
I thought by now you'd realize there ain't no way to hide those lying eyes.

VERSE 2
 On the other side of town a boy is waiting
 with stormy eyes and dreams no-one could steal
 She drives on throught the night anticipating
 Cos she makes him feel the way she used to feel

 She rushes to his arms they fall together
 She whispers that its only for a while
 She says that soon she'll be coming back forever
 She pulls away and leaves him with a smile

CHORUS

VERSE 3
    G           Gmaj7           C
She gets up and pours herself a strong one
    Am                                D
And stares out at the stars up in the sky.
 G                  Gmaj7      C
Another night, it's gonna be a long one;
    Am                  C                 G
She draws the shade and hangs her head to cry.

 And she wonders how it ever got this crazy
 She thinks about a boy she knew in school
 Did she get tired or did she just get lazy
 She's so far gone, she feels just like a fool

G              Gmaj7              C
My, oh my, you sure know how to arrange things;
    Am                           D
You set it up so well, so carefully.
         G              Gmaj7           C
Ain't it funny how your new life didn't change things;
       Am                 C                G
You're still the same old girl you used to be.

(Chorus)

There aint no way to hide your lyin eyes
Honey you cant hide your lyin eyes
Вверх

New Kid In Town mp3

Intro:
	E | E | F#m B | F#m B | A | B | E | E |

Verse 1:
	E		     | E		 | F#m B | F#m B |
	There's talk on the street, it sounds so familiar;
	A        | B			 | E	    | E |
	great expectations, ev'rybody's watchin' you.
	E          | E                 | F#m  B  | F#m7 B |
	People you meet they all seem to know you,
	A         | B                             | E            | Absus4 Ab7 |
	even your old friends treat you like you're somethin' new.

Chorus:
	C#m         | F#  |
	Johnny come lately,
	C#m           | F# |
	the new kid in town.
	C#m	 | F#      |
	Ev'rybody loves you,
	F#m              | B7 |
	so don't let them down.

Verse 2:
	E              | E              | F#m     B   | F#m B |
	You look in her eyes, the music begins to play,
	A        | B                  | E   | E |
	hopeless romantics, here we go again.
	E           | E			   | F#m   B  | F#m7 B |
	But after a while you're lookin' the other way,
		   A      | B		    | E   | Absus4 Ab7 |
	it's those restless hearts that never mend.

Chorus:
	C#m         | F#  |
	Johnny come lately,
	C#m           | F# |
	the new kid in town.
	C#m           | F#    |
	Will she still love you
	F#m7           | B7   |
	when you're not around?

Bridge:
	E | E | B | B | A | B | E | A E F#m E |

	B7              | B7                 | E       | E |
	There's so many things you should have told her,
	B7             | B7		      | C#m     |
	but night after night you're willing to hold her,
	     B    F#7 | Am7        | C    D  |
	just hold her, tears on your shoulder.

Verse 3:
	G                 | G                     | Am7  D  | Am7 D |
	There's talk on the street, it's there to remind you.
	C            | D           | G        | G |
	Doesn't really matter which side you're on.
	G	      | G			| Am7  D  | D7 |
	You're walkin' away and they're talkin' behind you,
		  C                   | D                 | G   | B7 |
	they will never forget you 'til somebody new comes along.

Chorus:
	Em7		 | A    |
	Where've you been lately?
	Em7		    | A  |
	There's a new kid in town.
	Em7	 | A			|
	Ev'rybody loves him (don't they?)
	Am7	       | B7		     | E    | Abm7 | A |
	Now he's holdin' her and you're still around.

Outro:
	B7		   | E   | Abm7 | A |
	There's a new kid in town,
	B7		      | E   | Abm7 | A | Am7 | E |
	just another new kid in town.
	E			    | C#m	     | C#m | E |
	Ev'rybody's talkin' 'bout the new kid in town.
	E			    | C#m	     | C#m |
	Ev'rybody's talkin' 'bout the new kid in town.

		  E		  | E			   |
	There's a new kid in town, (I don't want to hear it)
		  C#m		  | C#m			   |
        There's a new kid in town, (I don't want to hear it)
Вверх

New Kid In Town (2 вариант) mp3

Pattern 1
|------------------------------------------------------|
|-----9-9-----9-9--------------------------------------|
|---7-------7-----7--9-9----9-9----7-7----9-9--7-9-9---|
|---------7---------7----5-7---7-5----5-7-----7--------|

Pattern 2
|------------------6-----------6-----------6-----6---------|
|------------6-5-4---6---6-5-4---6---6-5-4-----4---4-------|
|----6-6-5-4-----------4-----------4---------4---------9---|
|---4------------------------------------------------7-----|

Pattern 3
|-----------------------------------------------------------------------|
|---7-6-----------------------9-9-----9-9-------------------------11-11-|
|-------9-7---9-9-----9-9---7-------7-----7---9-9----9-9--11-11--9------|
|-----------7-----5-7-----7-------7---------7-----5-7----9------9-------|

|---------------------7-7---|
|-----------------4-5-------|
|---9---7-7---5-7-----------|
|-----5-----5---------------|

Pattern 4
|-------7-7------------------------7---|
|-----5----5-7---7-----5-----7---5-----|
|---5----------5---5-3---3-5---3-------|
|--------------------------------------|

Pattern 5
|--------------------9--------------9--------------9-----9---|
|--------------9-8-7----------9-8-7----------9-8-7-----7-----|
|-----9-10-9-7---------10-9-7---------10-9-7---------7-------|
|---7--------------------------------------------------------|

Pattern 6
|-----------------------------------|
|-------------------------2---4-----|
|---------6-7-7-----6---0---2---2---|
|---7-7-9-------2-4---4-------------|

Pattern 7
|----------------------------|
|-----9----9-----6-----6-----|
|---7----7---7-4-----4---6---|
|------7-----------4---------|
Вверх

New York Minute

(0:39)
G---------15-----------------------------------------------------
D--15/17------17~---15P13-12-13-15-------------------------------
A-----------------------------------13/15------8H9P8P6-----------
E-------------------------------------------------------8---8---

(vocals enter)(0:54)
-----------------------------8-7---------------------------------8-----
------86------------------------10~--------------------------10----10-
-------------------------10--------------------------------/10---------
4---6------4---6/8--6------------------8--3-3-4--5-5-7--8--------------

(1:24)
---------------12tr13-----------------------8-7------------------
------6--------------13------------8/10----------10-8P0-5--------
----6------------------11----------------------------------------
4-------6/8-6--------------6/8-6--------8------------------4--5--

-------------15-17-15-------------
-------15/17----------17-15-------
----------------------------15----
7--8------------------------------


Chorus(1:53)
G----------------------------------------------------------------
D------------------------------6---------------------------------
A----------------------------6-----------------------------------
E-3-3-4---4-6-8----3-4/6-4-------4-6-8---3-3-4--4-6-8----3-4/6-4-

-----------------
--6--------------
6----------------
----4-6-4-6-8----


2nd Verse (2:22)
G----8P7~----7--5~----------7H8P7-5-0------------------
D--------------------------------------5----------------
A----------5-----------------------------3~-------------
E-4-------------------6/8-6--------------------3-4-5-7-8

----------------------
17P15P14-15/17-13-----
-------------------15-
----------------------


2nd Chorus(2:51)
G----------------------------------------------------------------
D------------------------------6---------------------------------
A----------------------------6-----------------------------------
E-3-3-4---4-6-8----3-4/6-4-------4-6-8---3-3-4--4-6-8----3-4/6-4-

-----------
--6--------
6----------
----4-6-4-6


Bridge(3:21) Starts with a Drum fill at the end of the chorus.
It's hard to follow but it's all there.

G---------------------------------------------7H8P7-5-0----
D-----6-5-3-------5-------------------6-5-3-------------3-5
A-----------5-3------5-6-3---0-3---------------------------
E-1-------------3----------------3-1-----------------------

---------------------------------------------------------
---------------------------------------------------------
--3-----------3--1----8-7-5--3-0--------3~---------------
3-----3--1--3------4--------------3----------------------

(3:52)
-12-15-------------------------------7-8------10-8-------
-------12-15-------5-------------------------------------
-------------15~-----8-7----------10-------10------------
-------------------------8~-----8--------8---------------

--------7-8-------10-8-------------
-----------------------------------
-----10-------10-------------------
---8--------8-------------8-------

(4:15) 3rd Verse
G-------------------7H8P7------------------------------------------
D--------------------------8------10----10-------------------------
A----------------------------8/10----------10----------------------
E--4--6--4---6/8-6----------------------------8---3--4--5--7--8-6-8

------3/5-----------------------------8-7------------------
--------------6/8-----86-----------------8------10-10-----
3-5-6---------------------------------------8/10-------10--
-----------4------6--6-----4---6/8-6----------------------8

--------------------15-17-15-------------
--------------15/17-----------17-15------
------------------------------------15---
---3-4-5-7-8-----------------------------

(5:12)Last Chorus
G----------------------------------------------------------------
D------------------------------6---------------------------------
A----------------------------6-----------------------------------
E-3-3-4---4-6-8----3-4/6-4-------4-6-8---3-3-4--4-6-8----3-4/6-4-

-----------
--6-------- (play till the end)
6----------
----4-6-4-6
Вверх

One Of These Nights

Em D6 | Cj7 | Am | Em Bm7 B7 |

             Em      D6           Cmaj7
One of these nights, one of these crazy old nights
Am                                            Em      Bm7   B7
we're gonna find out, pretty mama, what turns on your lights
    Em                        D6
The full moon is calling, the fever is high
        Cmaj7
and the wicked wind whispers and moans,
Am
you got your demons, you got your desires,
      Em      Bm7       B7
well, I got a few of my own.

Cmaj7                     Gmaj7
Oh, someone to be kind to in between the darkness and light.
Cmaj7                              Am
Oh, coming right behind you, well, I'm gonna find you
B7
One of these Nights.

             Em      D6           Cmaj7
One of these dreams, one of these lost and lonely dreams
Am                                 Em     Bm7  B7
we are gonna find a girl, one that really screams
          Em                                D6
I've been searchin' for the daughter of the devil himself
          Cmaj7
I've been searchin' for an angel in white.
          Am
I've been waitin' for a woman who's a little of both
          Em                 Bm7        B7
and I can feel her but she's nowhere in sight.

Cmaj7                        Gmaj7
Oh, loneliness will bind you in between the wrong and the right
Cmaj7                        Am
Oh, coming right behind you, swear I'm gonna find you
B7
One of these Nights...
Вверх

On The Border

INTRO:
   C#m   B	     B     A	       A     E		 A     E
GUITAR 1:
   +   +   +   +     +   +   +   +     +   +   +   +     +   +   +   +
e:-----------------|-----------------|-----------------|-----------------|
B:-9-----7---------|-7-----5---------|-5-----5---------|-2-----0---------|
G:-9-----8---------|-8-----6---------|-6-----4---------|-2-----1---------|
D:-11----9---------|-9-----7---------|-7-----6---------|-2-----2---------|
A:-----------------|-----------------|-----------------|-----------------|
E:-----------------|-----------------|-----------------|-----------------|
GUITAR 2:
e:-9-----7---------|-7-----5---------|-5-----4---------|-0-----0---------|
B:-9-----7---------|-7-----5---------|-5-----5---------|-2-----0---------|
G:-9-----8---------|-8-----6---------|-6-----4---------|-2-----1---------|
D:-11----9---------|-9-----7---------|-7-----6---------|-2-----2---------|
A:-11----9---------|-9-----7---------|-7-----7---------|-0-----2---------|
E:-9-----7---------|-7-----5---------|-5---------------|-------0---------|


------------------------------------------------------------------------
   C#m   B		   A	       B     C#m	 Dm    D#dim
GUITAR 1:
   +   +   +   +     +   +   +   +     +   +   +   +     +   +   +   +
e:-----------------|-----------------|-----------------|-----------------|
B:-9-----7---------|-7-----5---------|-7-----9---------|-10----10--------|
G:-9-----8---------|-8-----6---------|-8-----9---------|-10----11--------|
D:-11----9---------|-9-----7---------|-9-----11--------|-12----13--------|
A:-----------------|-----------------|-----------------|-----------------|
E:-----------------|-----------------|-----------------|-----------------|
GUITAR 2:
e:-9-----7---------|-7-----5---------|-7-----9---------|-10--------------|
B:-9-----7---------|-7-----5---------|-7-----9---------|-10--------------|
G:-9-----8---------|-8-----6---------|-8-----9---------|-10----11--------|
D:-11----9---------|-9-----7---------|-9-----11--------|-12----13--------|
A:-11----9---------|-9-----7---------|-9-----11--------|-12----12--------|
E:-9-----7---------|-7-----5---------|-7-----9---------|-10----11--------|


------------------------------------------------------------------------
Here's the part behind the verse (GUITAR 2).  I have no idea what
effect he has on there, but I think there's a little distortion
and maybe a little wah.  Anywhere you see RIFF, GUITAR 1 and 3 play
the riff shown here.

   Cruisin down the center...
						   RIFF
   +     +     +     +         +      +      +           +
e:---------------------------|--------------------------------11^~~|
B:---------------------------|---------------------10h11h12--------|
G:----9-----7-----9----------|------------9~~~---------------------|
D:-----------------------8p7-|-----7-------------------------------|
A:---------------------------|-10-----10---------------------------|
E:---------------------------|-------------------------------------|


------------------------------------------------------------------------
   Wond'rin' who is really...
                                                 RIFF
   +     +     +     +         +      +      +       +
e:---------------------------|-------------------------------|
B:---------------------------|-------------------------------|
G:----9-----7-----9----------|-------------------9-----------|
D:-----------------------8p7-|-----7---------------------8p7-|
A:---------------------------|-10-----10--7~~~---------------|
E:---------------------------|-------------------------------|


------------------------------------------------------------------------
   Mindin' my business, along comes...
                                                    RIFF         1/2
   +     +     +     +         +      +       +           +
e:---------------------------|---------------------------------11^~~|
B:---------------------------|----------------------10h11h12--------|
G:----9-----7-----9----------|------------9~~~----------------------|
D:-.---------------------8p7-|-----7--------------------------------|
A:-10------------------------|-10-----10----------------------------|
E:---------------------------|--------------------------------------|


------------------------------------------------------------------------
...son you'd better get on one side or the other___
   +     +     +     +         +            +        +       +
e:---------------------------|---------------------------------------|
B:-----------------------8---|-10-----10h11p10p8---------------------|
G:----9-----7-----9----------|-------------------9-------------------|
D:---------------------------|---------------------------------------|
A:---------------------------|---------------------------------------|
E:---------------------------|---------------------------------------|


------------------------------------------------------------------------
Here's the riff heard during the verse.
GUITAR 1 plays the top.
GUITAR 3 plays the bottom.

			RIFF
   +       +       +        +
e:--------------------------.-------|
B:----------------------7h8h9-------|
G:----------------------7h8h9-------|
D:----------------------------------|
A:----------------------------------|
E:----------------------------------|


------------------------------------------------------------------------
Now, we get to the chorus.  GUITAR 1 and 3
are going here, with GUITAR 1 playing the
tab below, and GUITAR 3 playing the chords.
Right after this, they go into another verse
and chorus, then they go to the bridge.

   side or the other               I'm out on the border                I'm walking the line
		     B		       A      E		  B		    A      E
                                           1/2                                   1/2
   +   +   +   +     +   +   +   +     +   +    +   +     +   +   +   +     +   +    +   +
e:-----------------|-----------------|------------------|-----------------|------------------|
B:-----------------|-----------------|------------------|-----------------|------------------|
G:-----------------|-----------------|------------------|-----------------|------------------|
D:-----------------|-9~~~~~~~~~~~~~~-|-7-7--------------|-9~~~~~~~~~~~~~~-|-7-7----2~~-------|
A:-----------------|-9~~~~~~~~~~~~~~-|-7-7--------------|-9~~~~~~~~~~~~~~-|-7-7--------------|
E:-----------4-5-6-|-7~~~~~~~~~~~~~~-|-5-5-3^-0~~-4-5-6-|-7~~~~~~~~~~~~~~-|-5-5-3^-----4-5-6-|


------------------------------------------------------------------------
   Don't you tell me bout your....        I'm tryin to change this....
   B		     A	    E		B		  A      E
                          1/2                                  1/2
   +   +   +   +     +   +    +   +     +   +   +   +     +   +    +   +
e:-----------------|------------------|-----------------|------------------|
B:-----------------|------------------|-----------------|------------------|
G:-----------------|------------------|-----------------|------------------|
D:-9~~~~~~~~~~~~~~-|-7-7--------------|-9~~~~~~~~~~~~~~-|-7-7--------------|
A:-9~~~~~~~~~~~~~~-|-7-7----2---------|-9~~~~~~~~~~~~~~-|-7-7------------7~|
E:-7~~~~~~~~~~~~~~-|-5-5-3^-0---4-5-6-|-7~~~~~~~~~~~~~~-|-5-5-3^-0---7-9---|


------------------------------------------------------------------------
divisi: GUITAR 2 plays top, GUITAR 1 plays bottom

   +     +     +     +        +    +    +    +
e:--------------------------|---------------------|
B:----------17~~~-------17~~|~~~~~~~~~---------|
G:---16--18------16--18-----|---------------------|
D:--------------------------|---------------------|
A:~~--------7~~~--------7~~~|~~~~~~~~~---------|
E:---7---9-------7---9------|---------------------|

During the second verse, the last part doesn't happen,
it goes right into the bridge.


------------------------------------------------------------------------

Here's the bridge.  A lot of what you hear
is bass, and I haven't notated that.
GUITAR 1 and 3 play the bottome line
    (with divisi where indicated).
GUITAR 2 plays the top.

       Never mind your name...
   +   +   +    +      +   +   +     +     +   +   +   +
e:-------------------|-------------------|--------------------|
B:-------------------|-------------------|--------------------|
G:-----4-----6----7--|---------6--6----4~|~~-9---7---9--------|
D:-----6-----7----9--|---------7--7----6~|~~--------------8p7-|
A:-------------------|-------------------|--------------------|
E:-------------------|-------------------|--------------------|
	     .
e:-----7-----9----10-|---------9--9----7~|~~~~~~~~~~~~~~~-----|
B:-----9-----10---12-|---------10-10---9~|~~~~~~~~~~~~~~~-----|
G:-------------------|-------------------|--------------------|
D:-------------------|-------------------|--------------------|
A:-------------------|-------------------|--------------------|
E:-------------------|-------------------|--------------------|


------------------------------------------------------------------------
                                              Never mind your face...
                                      1/2
   +       +       +            +         +   +   +    +      +   +   +     +
e:----------------------------------11^~|~~---------------|-------------------|
B:------------------------10h11h12------|-------------------|-------------------|
G:-------------9~~~~~-------------------|-----4-----6----7--|---------6--6----6-|
D:-----7--------------------------------|-----6-----7----9--|---------7--7----7-|
A:-10------10---------------------------|-------------------|-------------------|
E:--------------------------------------|-------------------|-------------------|
						    .
e:--------------------------------------|-----7-----9----10-|---------9--9----7~|
B:--------------------------------------|-----9-----10---12-|---------10-10---9~|
G:--------------------------------------|-------------------|-------------------|
D:--------------------------------------|-------------------|-------------------|
A:--------------------------------------|-------------------|-------------------|
E:--------------------------------------|-------------------|-------------------|


------------------------------------------------------------------------
                                                   And we wanna know, whose wing....
   +   +   +   +        +    +    +       +      +   +   +    +      +   +   +     +
e:--------------------|------------------------|-------------------|-------------------|
B:--------------------|------------------------|-----------.-------|-------------------|
G:---9---7---9--------|---------9--------------|-----------6----7--|---------6--6----4~|
D:----------------8p7-|----7----------8p7----7-|-----------7----9--|---------7--7----6~|
A:--------------------|-10---10-----------10---|---7---------------|-------------------|
E:--------------------|------------------------|-------------------|-------------------|
							   .
e:~~~~~~~~~-----------|------------------------|-----7-----9----10-|---------9--9----7~|
B:~~~~~~~~~-----------|------------------------|-----9-----10---12-|---------10-10---9~|
G:--------------------|------------------------|-------------------|-------------------|
D:--------------------|------------------------|-------------------|-------------------|
A:--------------------|------------------------|-------------------|-------------------|
E:--------------------|------------------------|-------------------|-------------------|


------------------------------------------------------------------------
							You'd better step to the right....
   +   +   +   +          +    +       +   +          +   +   +    +      +   +   +     +
e:----------------------|---------------------------|-------------------|-------------------|
B:----------------------|---------------------------|-------------------|-------------------|
G:~~-9---7---9----------|----9-----7-----9----------|-----4-----6-----7-|---------6--6----4-|
D:~~----------------8p7-|-----------------------8p7-|-----6-----7-----9-|---------7--7----6-|
A:---------------10-----|-10-----------------10-----|-10----------------|-------------------|
E:----------------------|---------------------------|-------------------|-------------------|
            divisi 1/2 prebend    1/2 prebend
e:~~~~~~~~~~-------^10~r|p7-------------------------|-----7-----9----10-|---------9--9----7~|
B:~~~~~~~~~~-------^10~r|p8-------^11rp8------------|-----9-----10---12-|---------10-10---9~|
G:----------------------|---------^11rp8------------|-------------------|-------------------|
D:----------------------|---------------------------|-------------------|-------------------|
A:----------------------|---------------------------|-------------------|-------------------|
E:----------------------|---------------------------|-------------------|-------------------|


------------------------------------------------------------------------
   hard_______
   +   +   +   +
e:-----------------|
B:-----------------|
G:-4-4-4-4-4-4-4-4-|
D:-6-6-6-6-6-6-6-6-|
A:-----------------|
E:-----------------|

e:~~~~~~~~~~-------|
B:~~~~~~~~~~-------|
G:-----------------|
D:-----------------|
A:-----------------|
E:-----------4-5-6-|


------------------------------------------------------------------------
Now we go to the chorus, and then to the solo.
The two measures I have here repeat all the way
till the end, it finally just fades out.  Play
around with this a little, cause of course
Leadon does:

   E                 1/2                                1/2
   +       +.         +      +         +       +       +       +
e:---------12------------------------|---------.------------.----------|
B:-----------------------------------|---------14-----12^---14---------|
G:-----------------12^---------------|---------------------------------|
D:----14------14---------14--14~~~~--|-12--14------14---------------12~|
A:-----------------------------------|---------------------------------|
E:-----------------------------------|---------------------------------|


------------------------------------------------------------------------
   E                 1/2
   +       +.         +      +         +       +       +       +
e:---------12------------------------|---------.-----------------------|
B:-----------------------------------|---------14-----12-----------|
G:-----------------12^---------------|---------------------------------|
D:~~~-14------14---------14--14~~~~--|-12--14------14------------------|
A:-----------------------------------|---------------------------------|
E:-----------------------------------|---------------------------------|
Вверх

Outlaw Man

   Intro & Verse: 4X
G----------------------------|
D----------------------------|
A----------7 77-7------------|
E-----------5-----5--0505----|

   Chorus: Woman don't try to love me......
  (careful with the timing here; it's different)
G--------------------------------|
D--------------------------------|
A----5--33----7533--------7------|
E-----3---3355----33-55--5-------|

   Bridge is same as the verse
   but has the improvisations.

   Outro: repeat,(Jam & improvisation)
G-----------------------|--------------------------------|
D-----------H5/77775----|----------------H5/7777 H5/7777-|
A------777----------757-|H5/7777 H5/7777-----------------|
E--0555---5-------------|--------------------|

  Here are some examples of the improvisations at the ending:
G-------------777----------------|
D---------S7/9---97577-77755-----|
A--H5/7777------------------75---|
E--------------------------------|


G-------------777------------------|
D---------S7/9---97577-7-7755------|
A--H5/7777-------------------757---|
E---------------------5-5----------|
Вверх

Out Of Control

Intro:
G----------|
D----------|
A----------|
E--5-1-3-5-|

   Verse:4X     2X        1X then
G-----------|---------|------4-----------|
D-----------|------4--|--4477-7--47-474--|
A--------4--|--4477-7-|-5-------5--5---5-|
E--0-4477-7-|-5-------|------------------|

     4X         1X        1X  then back to verse.
G-----------|---------|------4-------------------|
D-----------|------4--|--4477-7------------------|
A--------4--|--4477-7-|-5------7-S7---------4567-|
E--0-4477-7-|-5-------|------------555555555-----|

  Lead part is same as the verse.

  Bridge right after lead parts:

G---------------------------------------------|
D---------------------------------------------|
A--55555555------------------------7777777777-|
E----------55555555-77777777777---------------|
Вверх

Peaceful Easy Feeling

D              G                  D        G
_ _ I LIKE THE WAY YOUR SPARKLING EARRINGS LAY
D            G         A7    A7
AGAINST YOUR SKIN SO BROWN
D             G                 D             G
AND I WANT TO SLEEP WITH YOU IN THE DESERT TO-NIGHT
D              G         A7
WITH A MILLION STARS ALL AROUND

A7            G        G    D         D
CAUSE I GOT A PEACEFUL EASY FEEL-ING
G              G            Em     A7
AND I KNOW YOU WON'T LET ME DOWN
      D     Em        G        A7       D
CAUSE I'M ALLLL-READY STANDING ON THE GROUND

D           G          D    G
AND I FOUND OUT A LONG TIME AGO
D                G          A7    A7
WHAT A WOMAN CAN DO TO YOUR SOUL
D       G                  D   G
AH, BUT SHE CAN'T TAKE YOU ANY WAY
D                 G           A7
YOU DON'T ALREADY KNOW HOW TO GO

A7            G        G    D         D
CAUSE I GOT A PEACEFUL EASY FEEL-ING
G              G            Em     A7
AND I KNOW YOU WON'T LET ME DOWN
      D     Em        G        A7       D
CAUSE I'M ALLLL-READY STANDING ON THE GROUND

D         G             D    G
I GET THE FEELING I MAY KNOW YOU
D         G      A7      A7
AS A LOVER AND A FRIEND
D        G                      D           G
BUT THIS VOICE KEEPS WHISPERING IN MY OTHER EAR
         D           G       A7
TELLS ME I MAY NEVER SEE YOU AGAIN

- - CHORUS - -
Вверх

Peaceful Easy Feeling (2 вариант)

Intro:E Esus4

      E            A           E       A
verse1:I like the way sparklin earrings lay
      E            A         B
       against your skin so brown
      E              A                    E           A
       and i want to sleep with you in the desert tonight
      E              A             B
      with a billion stars all around

                   A                E
Chorus:'cos i got a peacefull ,easy feeling
        A                         B
       and i know you wont let me down
                E  F#m   A
       cos' i'm already standing
        B7     E
        on the ground

interlude: E  Esus4 x2


verse2: i found out a long time ago
        what a woman can do to your soul
        ah,but she can't take you any way
        you don't already know how to go.

chorus

instrumental verse

verse3: i got this feeling i may know you
        as a lover and a friend
        but this voice keeps whispering in my other ear
        tells me i may never see you agaim

    Chorusx2
Вверх

Seven Bridges

INTRO (play a 1000 times)

	D
e-----------------------------------------------------------------
B-----3-------3-----3-------3-----3-------3-----3-------3---------
G--------0h2-----------0h2-----------0h2-----------0h2------------
D--0-------------0-------------0-------------0--------------------
A-----------------------------------------------------------------
E-----------------------------------------------------------------

VERSES:

	D					C
e-----------------------------------------------------------------
B-----3-------3-----3-------3-------------------------------------
G--------0h2-----------0h2--------0-------0-----0-------0---------
D--0-------------0-------------------0h2-----------0h2------------
A------------------------------3-------------3--------------------
E-----------------------------------------------------------------

	There are 			stars in the
	Southward				as you

	G					D
e-----------------------------------------------------------------
B---------------------------------3-------3-----3-------3---------
G------------------------------------0h2-----------0h2------------
D-----0-------0-----0-------0--0-------------0--------------------
A--------0h2-----------0h2----------------------------------------
E--3-------------3------------------------------------------------

	sou--------------thern 	sky
	go------------------------o

FANCY RUNS (nothing more than standard bass runs in C and G)

	D (4X)
e-----------------------------------------------------------------
B-----3-------3-----3-------3-----3-------3-----3-------3---------
G--------0h2-----------0h2-----------0h2-----------0h2------------
D--0-------------0-------------0-------------0--------------------
A-----------------------------------------------------------------
E-----------------------------------------------------------------

	C				   G				   D
e-----------------------------------------------------------------
B---------------------------------------------------3-------3-----
G---------------0--0h2p0-------------------------------0h2--------
D-----------0h2----------2-----------0-0h2p0-----0----------------
A--0-2-3--3----------------------0h2---------2--------------------
E----------------------------3-3----------------------------------

BRIDGE

C riff 4X			G riff 4X
Sometimes there's a part of me
C riff					    D
(that) wants to turn from here and go.
C					 G
Running like a child from these warm stars,
		D	C	  G
Down the seven bridges road


REST OF VERSES
There are stars in the southern sky,
Southward as you go.
There is moonlight and moss in the trees,
Down the seven bridges road.

There are stars in the southern sky.
And if ever you decide you should go.
There is a taste of thyme sweet and honey.
Down the seven bridges road.
Вверх

Take It Easy

INTRO:
        G       C/G  Am7/G
        G       C/G  Am7/G

G                   G
        Well, I'm a runnin' down the road, tryin' to loosen my load,
                        D  C
I've got seven women on my mind.
G                       D
Four that wanna own me, two that wanna stone me,
 C                         G
one says she's a friend of mine.
        Em            C    G
Take it easy, take it ea - sy,
              Am                C                Em
don't let the sound of your own wheels drive you crazy.
       C                    G              C           G
Lighten up while you still can, don't even try to understand,
            Am                 C                  G
just find a place to make your stand and take it easy.

            G
Well, I'm a standin' on a corner in Winslow, Arizona
                D        C
and such a fine sight to see:
       G                   D
it's a girl, my Lord, in a flat bed Ford
        C                      G
slowin' down to take a look at me.
         Em   D             C     G
Come on, ba - by, don't say may - be.
        Am                  C            Em
I gotta know if your sweet love is gonna save me.
       C               G                  C              G
We may lose and we may win though we will never be here again.
        Am               C               G
So open up, I'm climbin' in, so take it easy.

guitar solo
        G            D  C
        G       D       C       G
        Em              C       G
        Am      C       G

            G
Well, I'm a runnin' down the road, tryin' to loosen my load,
                       D     C
got a world of trouble on my mind.
G                       D
Lookin' for a lover who won't blow my cover,
      C          G
she's so hard to find.
        Em            C    G
Take it easy, take it ea - sy,
              Am                C                Em
don't let the sound of your own wheels drive you crazy.
         C    G             C     G
Come on, ba - by, don't say may - be.
        Am                 C             G
I gotta know if your sweet love is gonna save me.

C       G
C       G
C                     G  G9  C
        Oh, we got it ea  -  sy,
                  G  G9  C
we oughta take it ea  -  sy.

(end on) Em


CHORDS:

C/G     3x2013
Am7/G   3x0213
G9      30212x


Electric Part
GUITAR 2
(clean electric)

INTRO
play this twice:

e:-3------------|-3-------------|-3--------------|
B:-3------------|-1-------------|-1--------------|
G:-0------------|-0-------------|-2--------------|
D:-0------------|-2-------------|-0--------------|
A:--------------|---------------|----------------|
E:--------------|---------------|----------------|


     1     1    1
    +     +    +      +         +  +  +  +
|-----------------------------|------------|
|-----------------------------|------------|
|---7-----7----7--------------|------------|
|---7^----7^---7^p5-----------|------------|
|-------------------7p5-------|------------|
|-----------------------6p5-2-|-3~~~~~-----|
                                  Well I'm a runnin' down the road...



After the 1st verse play this:

     1     1    1
    +     +    +          +
|---------------------------------|
|---------------------------------|
|---7-----7----7---7--------------|
|---7^----7^---7^--7^p5-----------|
|-----------------------7p5-------|
|---------------------------6p5-3-|
                           Well, I'm a standin'...


SOLO:

G                                                                     D7

|-------3-3---3----3-3-3-3|--------3-3-3--------------|----------------------|
|-------3-3---3----3-3-3-3/5-------3-3-3--31--0-0-0--|--1/3----3----3/1-----|
|-2/4-------4-------------|----4----------42--0-0-0--|--2/4----4----4/2---0-|
|-------------------------|---------------------------|----------------------|
|-------------------------|---------------------------|----------------------|
|-------------------------|---------------------------|----------------------|

      C                                          G
|--------|--------------------------------------|--------------------------|
|-1------|----------------1-------------1----1///3---3-----------31----0--|
|-2---0--|----------------0-------------0----2///4-------4~~~~---42----0--|
|--------|------0--0--2-------------2-----------|--------------------------|
|--------|--------------------------------------|--------------------------|
|--------|--------------------------------------|--------------------------|

           D                                C                G
                                                    1     1
|---------|--------------------------------------------------|
|---------|-------10------------------------8-----10^---10^--|
|-----2///////11-------11~~~~-119--7--7/9-----9-------------|
|---------|--------------------------------------------------|
|---------|--------------------------------------------------|
|---------|--------------------------------------------------|

                                      Em
     1     1      1    1
|-----------------------------10/12--|---12-------12--12--10h12--|
|--10^---10^----10^--10^p8----10/12--|---12-------12--12--10h12--|
|------------------------------------|---------------------------|
|------------------------------------|---------------------------|
|------------------------------------|---------------------------|
|------------------------------------|---------------------------|

                D                        C                        G
                          1 1/2                             1 hold bend - - -
|---12---10h12---10-----------------|-------------------------10---|
|---12---10h12---10-----10----------|---------8---10--8---10^------|
|------------------------9^p7-------|---7h8h9---9------------------|
|---------------------------------9-|------------------------------|
|-----------------------------------|------------------------------|
|-----------------------------------|------------------------------|

                                   Am                       C

- - - - - - release bend
|------------------------------7-8-7-----------|
|-(10)^----(10)^p8--8----8/10---------10---8---|
|---------------------9--------------------7b9-|
|----------------------------------------------|
|----------------------------------------------|
|----------------------------------------------|

                                            Em
|------------------------------------------------------------------------------|
|--8-------8--------8------------5----------10h12-----10h12-----10h12---10h12--|
|-----7b9-------7b9----7p5-------5----------11h12-----11h12-----11h12---11h12--|
|----------------------------7--------7----------------------------------------|
|------------------------------------------------------------------------------|
|------------------------------------------------------------------------------|

                 D
|--------------------------|
|-10h12p10--10--/20~~~-----|
|-11h12p11--11--/21~~~-----|
|--------------------------|
|--------------------------|
|--------------------------|


OUTRO:
  C             Em
    1            1
|-----------------------------|
|-----------------------------|
|--7^--7--5-----7^~~~~~~~~~---|
|------------7----------------|
|-----------------------------|
|-----------------------------|
Вверх

Take It To The Limit

Intro:   C  F  C  G  F

C                            F
All alone at the end of the evening
          C                          F
And the bright lights have faded to blue
        C               E7                   Am
I was thinkin' 'bout a woman who might have loved me
             G    C
And I never knew
               D              C                    F
You know I've always been a dreamer Spent my life running round
                      C                   F
And it's so hard to change Can't seem to settle down
                          Dm     F
But the dreams I've seen lately
                     FaddG          G               F     G
Keep turnin' out and burnin' out & turnin' out the same

Chorus
    F           C         F         C
So put me on a highway & show me a sign
     F              G              C    G   F
And take it to the limit one more time

          C                         F
You can spend all your time making money
          C                         F
You can spend all your love making time
      C            E7        Am                       G
If it all fell to pieces tomorrow would you still be mine
                  D                C             F
And when you're looking for your freedom nobody seems to care
                        C                  F
And you can't find the door, can't find it anywhere
                           Dm       F
When there's nothin' to believe in
                                 FaddG                  G                F
Still you're commin' back, you're runnin' back, you're commin' back for more

Chorus
    F            C         F        C
So put me on a highway & show me a sign
     F              G              Am       G
And take it to the limit one more time

Ending
F                G      F              G
Take it to the limit,  take it to the limit
F               G              C
Take it to the limit one more time
         F              G          F               G
You can take it to the limit, yes take it to the limit
          C
One more time.
Вверх

Tequila Sunrise

G
 It?s another tequila sunrise
D                         Am  D7         G
 Starin? slowly ?cross the sky,  said goodbye
G
 He was just a hired hand
D                                  Am  D7            G
 Workin on the dreams he planned to try,  the days go by

Em                    C
 Every night when the sun goes down
Em            C             Em
 Just another lonely boy in town
     Am                D7
 And she?s out runnin? round

G
 She wasn?t just another woman
D                                Am D7             G
 And I couldn?t keep from comin? on,  it?s been so long
G
 Oh and it?s a hollow feelin?
D                              Am      D7         G
 When it comes down to dealin? friends,  it never ends

Am            D
 Take another shot of courage
Bm              E                 Am   B              Em7   A
 Wonder why the right words never come,  you just get numb

G
 It?s another tequila sunrise
D                               Am   D7        G
 This old world still looks the same,  another frame
Вверх

Tequila Sunrise (2 вариант)

 {1}
   G       G6       G       G6       G       G6       G       G6
e |3--33-3-3-3-3-3-|3--33-3-3-3-3-3-|3--33-3-3-3-3-3-|3--33-3-3-3-3-3-|
B |0--00-0-0-0-0-0-|0--00-0-0-0-0-0-|0--00-0-0-0-0-0-|0--00-0-0-0-0-0-|
G |0--00-0-0-0-0-0-|0--00-0-0-0-0-0-|0--00-0-0-0-0-0-|0--00-0-0-0-0-0-|
D |0--00-0-2-2-2-2-|0--00-0-2-2-2-2-|0--00-0-2-2-2-2-|0--00-0-2-2-2-2-|
A |x--xx-x-x-x-x-x-|x--xx-x-x-x-x-x-|x--xx-x-x-x-x-x-|x--xx-x-x-x-x-x-|
E |3--33-3-3-3-3-3-|3--33-3-3-3-3-3-|3--33-3-3-3-3-3-|3--33-3-3-3-3-3-|

 {5}
   Am               D                G       G6       Gmaj7   G6
e |0--00-0-0-0-0-0-|2--22-2-2-2-2-2-|3--33-3-3-3-3-3-|3--33-3-3-3-3-3-|
B |1--00-0-0-0-0-0-|3--33-3-3-3-3-3-|0--00-0-0-0-0-0-|0--00-0-0-0-0-0-|
G |2--22-2-2-2-2-2-|2--22-2-2-2-2-2-|0--00-0-0-0-0-0-|0--00-0-0-0-0-0-|
D |2--22-2-2-2-2-2-|0--00-0-0-0-0-0-|0--00-0-2-2-2-2-|4--44-4-2-2-2-2-|
A |0--00-0-0-0-0-0-|x--xx-x-x-x-x-x-|x--xx-x-x-x-x-x-|x--xx-x-x-x-x-x-|
E |x--xx-x-x-x-x-x-|x--xx-x-x-x-x-x-|3--33-3-3-3-3-3-|3--33-3-3-3-3-3-|


{9}
|G                 |G             |D             |D             |Am
  It's another tequila sunrise       starin' slowly 'cross the sky

|D7        |G   G6  |Gmaj7  G6
  said goodbye.

{17}
|G              |G         |D               |D                    |Am
  He was just a hired hand   workin' on the dreams he planned to try

|D7            |G  Gmaj7 |G6   G
  the days go by.

{25}
|Em                   |C            |Em             |C              |Em
 Ev'ry night when the sun goes down,   just another lonely boy in town,

    |Am                 |D7    |G/D
and she's out runnin' round........

{33}
|G                   | G         | D              |D                |Am
   She wasn't just another woman   and I couldn't keep from comin' on,

|D7              |G  G6 | G
  it's been so long.

{41}                                                            {45}
|G               |G             |D              |D              |Am
  Oh, and it's a hollow feelin',  when it comes down to dealin' friends,


 {46}
   D7               G                G
e |2--22-2-2-2-2-2-|3--33-3-3-3-3-3-|3-----777-8-8-a-|
B |1--11-1-1-1-1-1-|0--00-0-0-0-0-0-|0-----888-a-a-c-|
G |2--22-2-2-2-2-2-|0--00-0-0-0-0-0-|0-----777-9-9-c-|
D |0--00-0-0-0-0-0-|0--00-0-0-0-0-0-|0---------------|
A |x--xx-x-x-x-x-x-|x--xx-x-x-x-x-x-|x---------------|
E |x--xx-x-x-x-x-x-|3--33-3-3-3-3-3-|3---------------|
       it never ends.___________

 {49}
   G                G                D                D
e |a-----a-a-----c-|--a---8---7---55|5-----5-5-----7-|8-7-6-5-----4---|
B |c-----c-c-----d-|--c---a---8---77|7-----7-7-----9-|a-9-8-7-----6---|
G |c-----c-c-----c-|--c---9---7---77|7-----7-7-----7-|7-7-7-7-----7---|
D |----------------|----------------|----------------|----------------|
A |----------------|----------------|----------------|----------------|
E |----------------|----------------|----------------|----------------|

 {53}
   Am7              D                G                G
e |0---------------|----------------|-------0--------|------aca-7-5-3-|
B |8---------------|--------------0-|------3-3-1-0---|------8-8-7-5-3-|
G |5-----------5---|----------0-2---|0-------------2-|0---------------|
D |7---------7-----|6/7---024-------|----------------|----------------|
A |----------------|----------------|----------------|----------------|
E |----------------|----------------|----------------|----------------|


{57}
|Am            |D              |Bm               |E                  |Am
  Take another shot of courage,   wonder why the right words never come,

{62}
|B               | Em7     | A
  You just get numb.

{65}
| G                |G         |D           |D                   |Am
 It's another tequila sunrise  this old world still looks the same

{70}
|D7         |
  another frame.


 {71}
   G       G6       Gmaj7   G6       G       Gmaj7    G6      G
e |3--33-3-3-3-3-3-|3--33-3-3-3-3-3-|3--33-3-3-3-3-3-|3--33-3-3-3-3-3-|
B |0--00-0-0-0-0-0-|0--00-0-0-0-0-0-|0--00-0-0-0-0-0-|0--00-0-0-0-0-0-|
G |0--00-0-0-0-0-0-|0--00-0-0-0-0-0-|0--00-0-0-0-0-0-|0--00-0-0-0-0-0-|
D |0--00-0-2-2-2-2-|4--44-4-2-2-2-2-|0--00-0-4-4-4-4-|2--22-2-0-0-0-0-|
A |x--xx-x-x-x-x-x-|x--xx-x-x-x-x-x-|x--xx-x-x-x-x-x-|x--xx-x-x-x-x-x-|
E |3--33-3-3-3-3-3-|3--33-3-3-3-3-3-|3--33-3-3-3-3-3-|3--33-3-3-3-3-3-|

frame_________                                                    (mmmmm__


 {75}
   G       Gmaj7    G6      G        G6
e |3--33-3-3-3-3-3-|3--33-3-3-3-3-3-|3---------------|
B |0--00-0-0-0-0-0-|0--00-0-0-0-0-0-|0---------------|
G |0--00-0-0-0-0-0-|0--00-0-0-0-0-0-|0---------------|
D |0--00-0-4-4-4-4-|2--22-2-0-0-0-0-|2---------------|
A |x--xx-x-x-x-x-x-|x--xx-x-x-x-x-x-|x---------------|
E |3--33-3-3-3-3-3-|3--33-3-3-3-3-3-|3---------------|

  mmm.________________________________)
Вверх

The Girl From Yesterday

INTRO:
C  G/B  Am7  G		D7	G	D7

   G		   G7		     C
It wasn't really sad the way they said good-bye
   D				 G		D
Or maybe it just hurt so bad she couldn't cry
C/E  D/F#  G			     G7		      C
     He    packed his things, walked out the door and drove away
G/B  Am7   G		  D7		     G		D7
       And she became the girl from yesterday


He took a plane across the sea to some foreign land
She stayed at home and tried so hard to understand
How someone who had been so close could be so far away
G/B  Am7   G		  D7		     G
       And she became the girl from yesterday
D/F#  Em7   D
        She doesn't know what's right
    C			G
She doesn't know what's wrong
    C    D/F#        Em7       G/D	C		   D7
She only knows the pain that comes from waiting for so long
	C		     G
And she doesn't count the teardrops
	   C			G
That she's cried while he's away
  Em		D      C	G/B
Because she knows deep in her heart
     Am7		D7sus	D7	Em7  D/F#
That he'll be back someday

guitar solo
G	G7	C	C   G/B  Am7
G	D7	G	E  D/F#  E/G#

    A			A7	    D
The light's on in the window; she's waiting by the phone
E7			   A		   E7  F#m7  E/G#
Talking to a memory that's never coming home
    A		    A7		    D
She dreams of his returning and the things that he might say
A/C#  Bm7      A	     E7			A  Bm7  A/C#  D
   But  she'll always be the girl from yesterday
A/C#  Bm7      A	     E7			D  A/C#  Bm7  A
   Yeh  she'll always be the girl from yesterday
Вверх

The Long Run

Intro:

E----8---5^--3---5---3--------------|------3--5---8---11^-11^--10--10--5--8---^12-|
B-----------------------4---3---1---|---/5-----------------------------------------|
(^ = bend)

C
I used to hurry a lot

I used to worry a lot
          F
I used to stay out till the break of day
C
Oh that didn't git it

It was high time I quit it
       F
I just couldn't carry on that way
Am
Oh, I did some damage, I know it's true
       F
Didn't know I was so lonely till I found you
C
You can go the distance

We'll find out
       F
In the long run (in the long run)
       C
We can handle some resistance

if our love
     F
is a strong one(is a strong one)
       Am
People talkin' about us

they got nothin' else to do
        F
When it all comes down

we will still come through
       C
In the long run
    F
Ooh I want to tell you
       C         G   G7
it's a long run
Вверх

The Long Run (2 вариант)

                                                        1.
||------------------|-----------------|-----------------|-------------------||
||o-----------------|-------------3---|-3-3-0---3---0---|-3-3--------------o||
||o-3-3-0---3---0---|-3-3-0---3-3---3-|-------3---3---3-|-----0-0-1-1-2-2--o||
||--------3---3---3-|-------3---------|-----------------|-------------------||


  2.
|-----2--3--4-5-||------------------|-----------------|------------------|
|-3-3-----------||o-----------------|-------------3---|-3-3-0---3---0----|
|---------------||o-3-3-0---3---0---|-3-3-0---3-3---3-|-------3---3---3--|
|---------------||--------3---3---3-|-------3---------|------------------|

|-----------------|-----------------|-----------------|------------------|
|-3-3-------------|-----------------|-------------3---|-3-3-0---3---0----|
|-----0-0-1-1-2-2-|-3-3-0---3---0---|-3-3-0---3-3---3-|-------3---3---3--|
|-----------------|-------3---3---3-|-------3---------|------------------|


|-----------------|-----------------|-----------------|------------------|
|-3-3-0---3-------|-----------------|-----------------|------------------|
|-------3---3-----|-----------------|-----------------|------------------|
|-------------3-5-|-5-5-5-5-5-5-5-5-|-5-5-5-5-5-5-5-0-|-1-1-1-1-1-1-1-1--|


|-----------------|-----------------|-----------------|------------------|
|-----------------|-----------------|-------------3---|-3-3-0---3---0----|
|-----0-0-1-1-2-2-|-3-3-0---3---0---|-3-3-0---3-3---3-|-------3---3---3--|
|-1-1-------------|-------3---3---3-|-------3---------|------------------|

|-----------------|-----------------|-----------------|------------------|
|-3-3-------------|-----------------|-------------3---|-3-3-0---3---0----|
|-----0-0-1-1-2-2-|-3-3-0---3---0---|-3-3-0---3-3---3-|-------3---3---3--|
|-----------------|-------3---3---3-|-------3---------|------------------|


|-----------------|-----------------|-----------------|------------------|
|-3-3-0---3-------|-----------------|-----------------|------------------|
|-------3---3-----|-----------------|-----------------|------------------|
|-------------3-5-|-5-5-5-5-5-5-5-5-|-5-5-5-5-5-5-5-0-|-1-1-1-1-1-1-1-1--|


                                                      1.
|-----------------|-----------------|-----------------|------------------|
|-----------------|-------------0---|-3-3-------------|------------------|
|-----0-0-1-1-2-2-|-3-3-0---3-3---3-|-----0-0-1-1-2-2-|-3-3-0---3-3-0----|
|-1-1-------------|-------0---------|-----------------|-------3-------3--|

              2.
|--------------||-----------------|--------------|------------------|
|-------------o||-------------3---|-3-3-----0----|-------------0----|
|-------------o||-3-3-0---3-3---3-|------1-----4-|-3-3-0---3-3---3--|
|--3-3-3-3-----||-------3---------|--------------|-------0----------|

|-----------------|-----------------|-------------||-------------------|
|-3-3-------------|-----------------|-------------||o------------------|
|-----0-0-1-1-2-2-|-3-3-0---3-3-0---|-------------||o-3-3-0---3---0----|
|-----------------|-------3-------3-|--3-3-3-3----||--------3---3---3--|


                                    1.                2.
|-----------------|-----------------|------------------||----------------|
|-------------3---|-3-3-0---3---0---|-3-3-------------o||-3-3------------|
|-3-3-0---3-3---3-|-------3---3---3-|-----0-0-1-1-2-2-o||-----0--1--2-3--|
|-------3---------|-----------------|------------------||----------------|


||------------------|-----------------|-----------------|-------------------||
||o-------------3---|-3-3-0---3---0---|-3-3-------------|-3-3--------------o||
||o-3-3-0---3-3---3-|-------3---3---3-|-----0-0-1-1-2-2-|-----0-0-1-1-2-2--o||
||--------3---------|-----------------|-----------------|-------------------||
   repeat and fade
Вверх

Try And Love Again mp3

C
When you're out there on your own
                        Fmaj7
Where your memories can find you
                    C
Like a circle goes around

You were lost until you found out
                  Fmaj7
What it all comes down to
F   Em  Dm       Em        G      C
One by one, the lonely feelings come
F   Em  Dm         Em     G    C
Day by day, they slowly fade away

Ooh, the look was in her eyes
You never know what might be found there
She was dancing right in time
And the moves she made so fine
Like the music that surrounds her
Should I stay or go? I really want to know
Would I lose or win if I try and love again?

(chorus)
Fmaj7                         C
Oh, I'm gonna try and love again
Fmaj7                           C
Oh, I'm gonna try and love again
Fmaj7                   C
Oh, I'm gonna try and love

(solo)

Right or wrong, what's done is done
It's only moments that you borrow
But the thoughts will linger on
Of the lady and her song
When the sun comes up tomorrow
Well it might take years to see through all these tears
Don't let go, when you find that you will know

(chorus several times and fade...
Вверх

Victim Of Love mp3

INTRO
|--------6------------------------------------|
|----3-6---6----------------------------------|
|------------5b7r5-3--5b7r5-3--5b7-5-3-5------|
|----------------------------------------5----|
|-5-------------------------------------------|
|-3-------------------------------------------|

|-----------6---------------------------------|
|-------3-6---6-------------------------------|
|---------------5b7r5-3-5-5b7------3-5b7r5-3--|
|-5-5--------------------------3-2-----------5|
|-3-3-5------------------------1-0------------|
|-----3---------------------------------------|

|--------6------------------------------------|
|----3-6---6----------------------------------|
|------------5b7r5-3--5b7r5-3-5-3b5-----------|
|---------------------------------------------|
|-5-------------------------------------------|
|-3-------------------------------------------|

|-----------6---------------------------------|
|-------3-6---6-------------------------------|
|---------------5b7r5-3-5b7r5-3---------------|
|-5-5---------------------------5-------------|let this note ring
|-3-3-5---------------------------------------|
|-----3---------------------------------------|

then the verses go something like this

|---------------------------|-------------------|
|---------------------------|-------------------|
|---------------------------|-------------------|
|----------------------5-5--|---------------3-2-|
|-5-x-5--5-x-5--5-x-5--3-3--|-5-x-5--5-x-5--1-0-|
|-3-x-3--3-x-3--3-x-3-------|-3-x-3--3-x-3------|

|--------------------------|-----------------|
|--------------------------|-----------------|
|--------------------------|-----------------|
|----------------------5-5-|--------5-5------|let the two C's and the
|-5-x-5--5-x-5--5-x-5--3-3-|-5-x-5--3-3--5---|G ring
|-3-x-3--3-x-3--3-x-3------|-------------3---|

|--------------------------|---------------------------------|
|--------------------------|---------------------------------|
|--------------------------|--------------------3-------2----|
|----------------------5-5-|------------------3---3---2---2--|
|-5-x-5--5-x-5--5-x-5--3-3-|-5-x-5--5-x-5---5-------0--------|
|-3-x-3--3-x-3--3-x-3------|-3-x-3--3-x-3--------------------|

|----------------------------------------|----------------|
|----------------------------------------|----------------|
|----------------------------------------|----------------|
|----------------------5-5---------5-5---|----------------|
|-5-x-5--5-x-5--5-x-5--3-3--5-x-5--3-3-5-|-3-3--5-5--7-7--|
|-3-x-3--3-x-3--3-x-3-------3-x-3------3-|-1-1--3-3--5-5--|

then the chorus goes:

|--------------------|----------------|-----------------|
|--------------------|----------------|-----------------|
|--------------------|----------------|-----------------|
|-3--3---5-7-9-10----|----------------|-3-3----9--10----|
|-1--0-5-3-5-7--8--5-|-3-3--5-5--7-7--|-1-0-5--7---8-5--|
|------3-----------3-|-1-1--3-3--5-5--|-----3--------3--|

then repeat the verse stuff and the chorus/solo/chorus x2

I think that's about it. Sorry I didn't have time to figure out the
solo, but it's not that hard.If you don't want it, just play the verse
stuff over it.
Вверх

Witchy Women

Intro
Gm |: F Dm :| Gm |: Gm play 4 times :|

Gm             D7                              Gm
Raven hair and ruby lips,  Sparks fly from her finger tips,
                     D7                                     Gm
Echoed voices in the night,  She's a restless spriit on and endless flight

Chorus
Gm      D7                                   Gm
Woo-hoo witchy woman, see how high she flies
Gm      D7                                    Gm
Woo-hoo witchy woman, see got the moon in her eyes

Bb Gm - | F D - - | F D C D C Gm C | (to coda (+) Gm

Gm                     D7                                    Gm
She had me spell-bound in the night.  Dancing shadows in the fire light
                    D7
Crazy laughter in another room,
                                        Gm
And she drove herself to madness with a silver spoon. (al coda (+)

                  ah__        ah__
C Gm |: Gm     Dm7 |        D7 |          | Gm
     Ah__

Gm
I know you want to love her, but let me tell you brother,
             Cm           Bb      Gm
She's been sleepin in the devil's bed.

There's some rumors goin round.  Someone's underground,
        Bb              C                Gm
She can rock you in the night until your skin turns red

Chorus
Вверх
English songs 109

ABBA
AC-DC
Adams Bryan
Adriano Celentano
Aerosmith
A-Ha
Animals
Antonio Banderos
Apocalyptica
Armstrong Louis
Billy's Band
Bjork
Blink 182
Blondie
Blur
Bob Dylan
Boney M
Bon Jovi
Bowie David
Brainstorm
Braxton Toni
Butch
Celine Dion
Chris De Burgh
Chris Isaak
Chuck Berry
Clapton Eric
Cohen Leonard
Cranberries
Deep Purple
Depeche Mode
Dire Straits
Donovan Jason
Eagles
Electric Light Orchestra
Elton John
Elvis Presley
Era
Europe
Evanescence
Garbage
Gary Moore
Glen Wiston
Gorillaz
Green Day
Guano Apes
Guns N Roses
Hendrix Jimi
Iggy Pop
Iron Maiden
Joe Dassin
Kansas
King Crimson
Kiss
Led Zeppelin
Leonard Cohen
Limp Bizkit
Linkin Park
Louis Amstrong
Madonna
Marilyn Manson
Marley Bob
Metallica
Moby
Morricone Ennio
Muse
Nazareth
Nelly Furtado
Nick Cave
Nirvana
No Doubt
Oasis
Offspring
Ottawan
Outkast
Ozzy Osbourne
Pain
Para Bellum
Pink Floyd
Placebo
P.O.D.
Queen
RadioHead
Rainbow
Rammstein
Rea Chris
Red Hot Chili Peppers
Ritchie Blackmore
Rolling Stones
Roxette
Rufus Wainwright
Santana
Sarah Brightman
Scorpions
Sex Pistols
Simon & Garfunkel
Shocking Blue
Soul Asylumx
Status Quo
Sting
System of a down
Sum 41
The Beatles
The Doors
Tito & Tarantula
U2
UB 40
Uriah Heep
Van Halen

Українські пісні 109

Boom Box
Escape
Flit
Kapela Drewutnia
Lama
LЮK
Mad Heads (XL)
Motor' rolla
NEON
Ot Vinta
The Вйо
Абздольц
Аероплан
Акорд
Ані Лорак
Бандурна розмова
Білик Ірина
Борщ
Брати Гадюкіни
Вася Club
Вій
Воплі Відоплясова
Гайдамаки
Гончар Олесь
Гринжоли
Гроно
Гуляйгород
Дарка і Славко
Дивні
Друга Ріка
Другий подих
Дударик
Експампей
Євтушенко Андрій
Жарівка (Дяк Олесь)
Журбовіз
Зібров Павло
Зінкевич Василь
Злотник Олександр
Івасюк Володимир
Калєкція
Карна
Карпа Ірена
Клямка
Козловський Віталій
Кому вниз
Крихітка Цахес
Курінь
Лесик-Band
Лорд Юрія
Львівські музики
Мандри
Менестрелі
Мері
Мертвий Півень
Міпеніум
Монте Крісто
Морозов Віктор
Нахтіґаль
Не журись!
Неборак Віктор
НеДІля
НЕМО
Нічлава блюз
Океан Ельзи
ПереBANDя
Перкалаба
Петрович
Піккардійська Терція
Піпа Олександр
Плач Єремїі
Пономарьов Олександр
Пророк
Росава
Ротару Софія
Руслана
Рутенія
С.К.А.Й.
САД
Самі свої
Серцевий Напад
Скрябін
Смерічка
Сокира Перука
Соколи
Таліта Кум
Тартак
Тінь сонця
Ткач Михайло
ТНМК
Тостер
Тріо Мареничів
Фарбований лис
Фестиваль Снів
Хвилю тримай
Цісик Квітка
Черемош
Черемшина
Четвертий кут
Чорний вересень
Чорні черешні
Шевченко Тарас
Щастя
Юркеш
Юрченко Юрко
Юрчишин Ярослав
Явір
Яка існуЄ
Яремчук Назарій

   
 sait@i.ua



Рейтинг@Mail.ru