accordS-land.ru Аккорды и табулатуры к гитаре.
Главная | Песенник | Аккорды | Учебник
Руссике песни 180
5nizza
7Б
9-й Район
Animal ДжаZ
Billy's Band
Butch
Para Bellum
TequilaJazzz
Worms
Zdob Si Zdub
Автоматические удовлетворители
Агата Кристи
Агузарова Жанна
Агутин Леонид
Адо
Аквариум
Алиса
Алсу
Амирамов Е.
Антонов Ю.
Арефьева Ольга
Ария
АукцЫон
Барыкин
Башаков Михаил
Башлачев Александр
БекХан
Бернес М.
Би - 2
Бони неМ
Борзов Найк
Боярский Михаил
Браво
Братья Грим
Ва-Банкъ
Вертинский Александр
Визбор Юрий
Високосный год
Воскресенье
Восьмая Марта
Высоцкий В.С.
Високосный год
Газманов О.
Галич Александр
Герман А.
Городницкий Александр
Глызин А.
Градский Александр
Гражданская Оборона
Гребещенков
Данко
ДДТ
Дидюля
Диоды
Дискотека Авария
Дягилева Янка
Ёлка
Жуки
Заблудовский Андрей
Запрещенные Барабанщики
Звери
Земляне
Земфира
Зинчук Виктор
Зоопарк
Иван Кайф
Иванов А.
Иваси
ИЗ КИНО И МУЛЬТФИЛЬМОВ
Империя
Калинов мост
Кашин Павел
Кельми К.
КИНО
Кипелов
Конец Фильма
Контингент
Корни
Король и Шут
Коррозия металла
Крематорий
Крупнов Анатолий
Кузьмин Владимир
Куликов Е.
Кукрыниксы
Курехин Сергей
Лаэртский Александр
Ласковый май
Ленинград
Леонидов Максим
Лесоповал
Лещенко Л.
Линда
Лицей
Лоза Юрий
Любэ
Люмен
Ляпис Трубецкой
Мальчишник
Манго-манго
Мара
Маркин В.
Маршал Александр
Маша и медведи
Машина времени
Мечтать
Мистер Кредо
Митяев Олег
Многоточье
Монгол Шуудан
Моральный Кодекс
Мультfильмы
Мумий Тролль
Настя
Науменко Майк
Наутилус Помпилиус
Непара
Неприкасаемые
Несчастный случай
Никоваев И.
Никольский Константин
Ногу свело
Ноль
Носков Николай
Ночные Снайперы
Окуджава Булат
Оркрист
Осин Е.
Оскар
Отиева И.
Паперный Т.А.М.
Парк Горького (Gorky Park)
Пикник
Пилот
Пламя
Полковник и однополчане
Пугачева А.
ПЭХ
Приключения Электроников
Просто прикольные песни
Рада и Терновник
Римский-Корсаков
Розенбаум Александр
Рок-Острова
Рондо
Сансара
Саруханов
Сегодня Ночью
Секрет
Сектор газа
Сенчина Л.
СерьГа
Смысловые Галлюцинации
Сплин
Солодуха А.
Старые блатные песни
Сукачев Гарик
Сурганова и Оркестр
Сюткин Валерий
Тальков Игорь
Танцы минус
Тараканы
Тату
Технология
УмаТурман
Умка и Броневичок
Ундервудъ
Фабрика звезд
Х.З. (Хуй Забей)
Центр
ЧайФ
Черный кофе
Черный Лукич
Чиж и Ко
Чистяков Федор
Шанхай
Щербаков Михаил
Ю-Питер

Классика 22

Албениз Исаак
Албениз Матео
Бах Иоган Себостьян
Бетховен Людвиг ван
Бизе Жорж
Брамс Иоганнес
Вивальди Антонио
Гендель Георг Фридрих
Гершвин Джордж
Григ Эдвард
Дебюсси Клод
Камиль Сен-Санс
Мендельсон
Моцарт Вольфгант Амадей
Мусоргский Модест Пертрович
Норис Крис
Огинский Михал Клеофас
Паганини Никколо
Рахманинов Сергей Васильевич
Римский-Корсаков
Чайковский Пётр Ильич
Шуберт Франц
 

 

Hendrix Jimi

51'st Anniversery
Aint No Telling
All Along The Watchtower
All Along The Watchtower (2 вариант)
Beginnings
Bold As Love
Bold As Love (2 вариант)
Boy On A String
Burning Desire
Burning Of The Midnight Lamp
Changes
Come On
Crosstown Traffic
Dolly Dagger
Dolly Dagger (2 вариант)
Drifters Escape
Earth Blues
Ezy Rider
Ezy Rider (2 вариант)
Fade To Grey
Fire
Fire (2 вариант)
Firepile
Foxy Lady
Hear My Train A Comin
Hey Baby
Hey Baby (2 вариант)
Hey Joe
Highway Chile
Highway Chile (2 вариант)
Hoochie Coochie Man
Hound Dog
If 6 Was 9
In From The Storm
Izabella
Johnny B Goode
Killing Floor
Killing Floor (2 вариант)
Little Wing
Little Wing (2 вариант)
Little Wing (3 вариант)
Long Hot Summer Nights
Machine Gun
May This Be Love
Midnight Lightning
One Rainy Day Wish
Pali Gap
Purple Haze
Rainy Day Dream Away
Red House
Room Full Of Mirrors
Soul Food
Spainsh Castle Music
Star Spangled Banner
Stone Free
The Star Spangled Banner (2 вариант)
The Wind Cries Mary
Three Little Bears
Up From The Skies
Villa Nova Junction
Voodoo Child
Wait Until Tomorrow
Wind Cries Mary
You Got Me Floatin
Вверх

51'st Anniversery

e|---------------------------------------------------|
b|---------------------------------------------------|
g|-----------------------9---9-----------------------|
d|-----------------------9---9-------------7-7h9p7---|
a|--9--9-----7--777--7--7----7-h-9----------------9--|
e|--7--7-----5--555----------------------------------|
Вверх

Aint No Telling

  verse riff chorus
G|---------|---------------------------------------------------|
D|---------|---------------------------------------------------|
A|3-3---3--|--1---2-1--2--3-3---3--3-333333--------------------|
E|----35-53|13--24------------35-53----------------------------|

G|-------------------------------------------------------------|
D|-------------------------------------------------------------|
A|/4-3-3-3-/4-3-3-3-/4-333333-------1--------------------------|
E|----3-3-3----3-3-3---------2-33333-3211111111344444----------|

G|------------------------------2--2---------------------------|
D|----------------------------2-------4--2---------------------|
A|----333333--------1----------------------4-2--------234-2----|
E|-535------01233333-3211111-4-----------------2-13-4----------|

  second verse
G|--------------------------------1----------------------------|
D|-------------------------------------------------------------|
A|3-3---3---3-3---3---3-3---3---3---33-33-333--5---3-3---------|
E|----35-53-----35-53-----35-53--------------35-53-------------|

G|---------------|
D|---------------|
A|--5---3-3---5--|
E|35-53-----35-53|

  chorus                        outro
G|-----------------------------|-------------------------------|
D|-----------------------------|555----------------------------|
A|--1---2-1-2-33--5---3-3---5--|-----2-1-2-3-33-3--33-simile--3|
E|13--24--------35-53-----35-53|---24-------1-----1----------1-|
Вверх

All Along The Watchtower

Intro:
acoustic 12-string:
(B B C#m C#m C#m C#m
B B A A A A)2x

then play C#m B A B throughout

E|-------------------------------------------------------------|
B|----12--14(16)-14(16)-14(16)-14(16)~~--14(16)14-12-----------|
G|-/13----------------------------------------------11(13)-11~-|
D|-------------------------------------------------------------|
A|-------------------------------------------------------------|
E|-------------------------------------------------------------|

E|-------------------------------------------------------------|
B|-----------------------------------------------------12(14)~-|
G|-----9-11-11(13)-11-11(13)~--11(13)11--9--11-11p9------------|
D|-/11----------------------------------------------11---------|
A|-------------------------------------------------------------|
E|-------------------------------------------------------------|

sample verse fills:
  C#m           B      A    B
E|-------------------------------------------------------------|
B|-----5-------7p5--------------5/75---------------------------|
G|-----4-6p4-------4---2--------4/54--OR---2h4p2-----4h6p4-----|
D|-4h6-----------------2----4/6-------------------4/6-------6--|
A|---------------------0---------------------------------------|
E|-------------------------------------------------------------|

solo 1:
E|--9----------------------------------------------------------|
B|-12(14)~--12(14)-12p9-----------------------------12-14(16)~-|
G|----------------------11-9-11(13)~~-------9-11/13------------|
D|-------------------------------------9h11--------------------|
A|-------------------------------------------------------------|
E|-------------------------------------------------------------|

E|-----------------------------------------|
B|-14p12----14(17)~--14(17)14p12----14-12~-|
G|-------13----------------------13--------|
D|-----------------------------------------|
A|-----------------------------------------|
E|-----------------------------------------|

E|---------------9--------9-----------9------------------------|
B|-------------9---12(14)---12-9----9---12-9-------------------|
G|----9-11(13)-------------------12----------12-11-9--11(13)-9~|
D|/11-----------------------------------------------11---------|
A|-------------------------------------------------------------|
E|-------------------------------------------------------------|

Solo 2:
E|-------------------------------------------------------------|
B|--------------------------------------12(14)(14)(14)(14)12-9-|
G|---------------------9-9--9-9/11-----------------------------|
D|----9-11-11p9----/11-------------11~~------------------------|
A|-11-----------11---------------------------------------------|
E|-------------------------------------------------------------|

E|-------------------------------------------9-------12-14(16)~|
B|-----------------------------------------9---12/14-----------|
G|11-9-11(13)-11(13)~-11(13)11p9----11(13)---------------------|
D|-------------------------------11----------------------------|
A|-------------------------------------------------------------|
E|-------------------------------------------------------------|

E|-14(16)14p12-14-14(16)-14-12----12---------------------------|
B|-----------------------------14----14(16)14(16)-14(16)~------|
G|-------------------------------------------------------------|
D|-------------------------------------------------------------|
A|-------------------------------------------------------------|
E|-------------------------------------------------------------|
                                 slide&delay  octavia
E|-------------------------------------------------------------|
B|-14-14(16)-14-14(16)-14---------152--------------------------|
G|------------------------13~~-------------------------9//11-9-|
D|--------------------------------152--4//11--11//14------11~--|
A|-------------------------------------------------------------|
E|-------------------------------------------------------------|

E|-----------------------------------|
B|-11//14----------------------------|
G|----------9/11--11//13--11--9--11--|
D|-11//14----------------------------|
A|-----------------------------------|
E|-----------------------------------|

E|-12-12/14-14/16-16/19-19----------9--9---------9-------------|
B|---------------------------------9-12-9-------9--12-9--------|
G|--9--9/11-11/13-13/16-16-11(13)--------11(13)--------11(13)~-|
D|-------------------------------------------------------------|
A|-------------------------------------------------------------|
E|-------------------------------------------------------------|

E|--------9--------9-11-9------9-11-9----------9-|
B|-12(14)---12(14)--------9-12--------9-12(14)---|
G|-----------------------------------------------|
D|-----------------------------------------------|
A|-----------------------------------------------|
E|-----------------------------------------------|

E|-------9-----------------------9--------9--------------------|
B|-12(14)-----------------12(14)---12(14)----14(16)(16)(16)----|
G|---------11(13)-11-9-11--------------------------------------|
D|-------------------------------------------------------------|
A|-------------------------------------------------------------|
E|-------------------------------------------------------------|

E|-11--9-9-9-9-9------7--9p7-7-----5---------------------------|
B|--9--9-9-9-9-9------7--7-7-7-----5--/8-8-8-8-/10-10----------|
G|----------------6/8-----------/6----/9-9-9-9-/11-11----------|
D|-------------------------------------------------------------|
A|-------------------------------------------------------------|
E|-------------------------------------------------------------|

E|------9-9-11p9-9----------9p7-7----5--5----------------------|
B|------9-9----9-9-------7--7---7----5--5---x-x-x-x-x-x--------|
G|--------------------/8--8--8---8--/6-------------------------|
D|-10/11-------------------------------------------------------|
A|-------------------------------------------------------------|
E|-------------------------------------------------------------|

E|-----9--11p9--9--9-----7-9p7-7-----5-------------------------|
B|-----9---9-9--9--9-----7-7-7-7-----5--8-8-8-8/10-10/13-------|
G|--------------------/8----------/6----9-9-9-9/11-11/14-------|
D|-/11---------------------------------------------------------|
A|-------------------------------------------------------------|
E|-------------------------------------------------------------|

E|--------9-9-9-9-9-9-9--------11-11-11-11--------12-12-12-12--|
B|-12(14)---------------14(16)-------------15(17)--------------|
G|-------------------------------------------------------------|
D|-------------------------------------------------------------|
A|-------------------------------------------------------------|
E|-------------------------------------------------------------|

E|--------14-14-14-14-------16-16-16-16--------16--------------|
B|-17(19)-------------19(21)------------19(21)-----------------|
G|-------------------------------------------------------------|
D|-------------------------------------------------------------|
A|-------------------------------------------------------------|
E|-------------------------------------------------------------|

outro:
  3x
E|0-0-0-0-||-0-0---------9--9-9-9-9---9-9---------9-9-9-9-9~---|
B|0-0-0-0-||-0-0--12(14)-------------------12(14)--------------|
G|6-6-6-6-||---------------------------------------------------|
D|7-7-7-7-||---------------------------------------------------|
A|--------||---------------------------------------------------|
E|--------||---------------------------------------------------|

E|-------11-11-11-11----11-12-11-----------11--------9-9-9-9-9-|
B|14(16)-------------14----------14-14(16)----12(14)-----------|
G|-------------------------------------------------------------|
D|-------------------------------------------------------------|
A|-------------------------------------------------------------|
E|-------------------------------------------------------------|

E|9-9-9-9-9-9--------11-11-11-11-11--------12-12-12-12-12-12-12|
B|------------14(16)----------------15(17)---------------------|
G|-------------------------------------------------------------|
D|-------------------------------------------------------------|
A|-------------------------------------------------------------|
E|-------------------------------------------------------------|

E|--------14-14-14-14-14-14-------16-16-16-16-16-16-|
B|-16(18)-------------------19(21)------------------|
G|--------------------------------------------------|
D|--------------------------------------------------|
A|--------------------------------------------------|
E|--------------------------------------------------|
  16x
E|19(21)-(21)-(21)||
B|----------------||
G|----------------||
D|----------------||fade
A|----------------||
E|----------------||

C#m            B              A          B
There must be some kind a way outta here
C#m       B              A   B
said the joker to the thief
C#m              B         A   B
There's too much confusion
C#m         B      A
I can't get no relief

Business men they drink my wine plowmen dig my earth
None will level on the vine nobody of it is worth Hey!

(solo 1)

No reason to get excited the thief he kindly spoke
There are many here among us who feel that life is but a joke.
But you and I we've been through that and this is not our fate.
So let us not talk falsely now the hours gettin' late.

(solo 2)

All along the watchtower princes kept the view
While all the women came and went bare feet servants too
Outside in the cold distance a wild cat did growl
Two riders were approaching and the wind began to howl

(outro)

fade out
Вверх

All Along The Watchtower (2 вариант)

Guitar I

D#||--------------|--------------|--------------|--------------|
A#||--------------|--------------|--------------|--------------|
F#||--------------|--------------|--------------|--------------|
C#||--------------|--------------|--------------|--------------|
G#||--------------|--------------|--------------|--------------|
D#||--------------|--------------|--------------|--------------|

Intro Solo

E|------------------------|------------------------------------|
B|----------------12--14b-|--14b-14b-14b-----14r-12------------|
G|------------13----------|--------------------------13--------|
D|------------------------|------------------------------------|
A|------------------------|------------------------------------|
E|------------------------|------------------------------------|

E|-------------------------------|-----------------------------|
B|-------------------------------|-----------------------------|
G|-11--11--11----11/9-----9--11--|--11b-11--11b-----11r-9------|
D|------------------9/11---------|-------------------------11--|
A|-------------------------------|-----------------------------|
E|-------------------------------|-----------------------------|

E|--------------------------|----------------------------------|
B|--11h9----12b-------10b---|----------------------------------|
G|-------9------------------|---------11h9---------------------|
D|--------------------------|--------------9-------------------|
A|--------------------------|-----11----------9-9--7-7---------|
E|--------------------------|--9-------------------------------|

Verse

E|----------------------------|--------------------------------|
B|----------------------------|-------7h5----------------------|
G|----------------4h6h4-------|--------------------2-----------|
D|------------4/6-------4--6--|-----------6--------2-----------|
A|--------2h4-----------------|--4-----------------------------|
E|----------------------------|--------------------------------|

E|----------------------------|--------------------------------|
B|----------------------------|--------5h7h5-------------------|
G|---------2h4h2----4h6h4-----|--------------------------------|
D|--2------------6---------6--|-----6--------------------------|
A|----------------------------|--4-----------------------------|
E|----------------------------|--------------------------------|

E|------------------|----------------------|-------------------|
B|------------------|------5---------------|------------5/7/5--|
G|-----------2------|----------------4-----|--2---------4------|
D|-----2h4h2-2------|-------------4--------|--2------6---------|
A|--2-----------4h2-|--4-------2--------0--|-------------------|
E|------------------|----------------------|-------------------|

E|-----------------------|-------------------|-----------------|
B|--------5--------------|----------5--5/7/5-|-----5-----------|
G|--------6--------4--2--|--2-------4--4/6/4-|-----4-6h4-------|
D|-----6--------4-----2--|--2---4/6----------|-4h6---------6---|
A|--4--------2--------0--|--0----------------|-----------------|
E|-----------------------|-------------------|-----------------|

E|-----------------------|------------|------------------------|
B|-----------------------|------------|-----2h5h2--------------|
G|---------------6~-4~---|------------|-----------2-----4/6/4--|
D|------------2----------|------------|--------------6---------|
A|--------2h4------------|------------|------------------------|
E|-----------------------|------------|------------------------|

E|--------------------------|--9------|--9---------------------|
B|--------5-----------------|-----12--|--12b----12r-12-9---9---|
G|--------6--------4-----2--|---------|---------12r-12-----11--|
D|-----6-----6-----4--4--2--|---------|------------------------|
A|--4-----------2--------0--|---------|------------------------|
E|--------------------------|---------|------------------------|

E|---------------------|--------------------------|------------|
B|---------------------|---------12--14b--14r-12--|--14b--14b--|
G|--11r-------11h9-----|--9--13-----------14r-----|------------|
D|-----------------11--|--------------------------|------------|
A|---------------------|--------------------------|------------|
E|---------------------|--------------------------|------------|

Guitar Break

E|--------------------------|----------------------------------|
B|--14b-------14r---12--14--|--12b-12/-9---------------9-------|
G|--------------------------|-----------------9--11b-----------|
D|--------------------------|-------------11-------------------|
A|--------------------------|----------------------------------|
E|--------------------------|----------------------------------|

E|-9------9-----------9-----------------|----------------------|
B|----12b---12-9----9---12-9------------|----------------------|
G|---------------12----------12-11-9----|--11b--9h--9/--18/--0-|
D|-----------------------------------11-|----------------------|
A|--------------------------------------|----------------------|
E|--------------------------------------|----------------------|

Verse

E|------------------|----------------------|-------------------|
B|------------------|----------------------|-------5h7h5-------|
G|------------------|-----------4/-6/-4----|-------4-----4-----|
D|------------------|--------6-------------|-------------------|
A|------------------|----------------------|--7----------------|
E|------------------|----------------------|-------------------|

E|------------------------|------------------------------------|
B|------------------------|-------5h7h5------------------------|
G|---------------6--4h-0--|-------------4------4---------------|
D|------------2-----------|----6------------------4------------|
A|--------2h4-------------|------------------------------------|
E|------------------------|------------------------------------|

E|----0------------------------|---------------|---------------|
B|-------2---------------------|---------------|---------------|
G|----------------4h6h4-----4--|---------------|---------------|
D|----------4/-6--------4h6----|---------------|---------------|
A|-----------------------------|---------------|--9------7-----|
E|-----------------------------|-------------9-|------------7--|

E|---------|---------------------------|-----------------------|
B|---------|--------7h5--------5-------|-------5---------------|
G|---------|------------6------4-------|---------------4-------|
D|---------|---------------4h6----6/4--|-------6-------4-------|
A|---------|---------------------------|--4---------2-------0--|
E|---------|---------------------------|-----------------------|

E|----------------------------|--------------------------------|
B|-------------------5/7/5----|--------5----4------------------|
G|--2-------------4--4/6/4----|------------------4-------------|
D|--2------2--4/6-------------|-----6---------------2----------|
A|-----2h4--------------------|--4-----------------------------|
E|----------------------------|--------------------------------|

E|--5---------------------------|------------|-----------------|
B|--5h7h5-----------------------|---5h7h5----|-----------------|
G|---------4h-6--2-----4h6h4----|---------4--|-----4--6--4--4--|
D|------------------6--------6--|------------|--6--------------|
A|------------------------------|------------|-----------------|
E|------------------------------|------------|-----------------|

E|-------------------------------|-------------9--9-9-9-9-9-9--|
B|-------------------------------|-------------12b-------------|
G|--9-9-9--9---9/11-11/13--------|-----------------------------|
D|-------------------------11----|-----------------------------|
A|-------------------------------|-----------------------------|
E|-------------------------------|-----------------------------|

E|--9-------------------------|--------------------------------|
B|--12r--9-----9--------------|-----------------------9--------|
G|---------11-----11b-11b-----|--------11r--9-----11b----------|
D|----------------------------|---------------11---------------|
A|----------------------------|--------------------------------|
E|----------------------------|--------------------------------|

E|--9------12--14--14b------|--14r-12--14--14b-14--12-------12-|
B|-----14-------------------|--------------------------14------|
G|--------------------------|----------------------------------|

E|-----------------------|-----------------------------|-------|
B|--14b------14b-----14--|--14b-14--14b-14-------------|--15/--|
G|-----------------------|------------------13h--13/1--|--15/--|
D|-----------------------|-----------------------------|--15/--|
A|-----------------------|-----------------------------|-------|
E|-----------------------|-----------------------------|-------|

E|------------------|--------------------|---------------------|
B|--2~--------------|--------------------|---------------------|
G|--2~--------------|--------------------|--------------11~--9~|
D|--2~---------4/---|--11~---------11/---|--14~----------------|
A|------------------|--------------------|---------------------|
E|------------------|--------------------|---------------------|

E|-------------------|------------------|----------------------|
B|--14~--------11/---|--14~-------------|----------------------|
G|-------------------|------------11~---|--11/-13~--11~---9~---|
D|-------------11/---|--14~-------------|----------------------|
A|--16~--------------|------------------|----------------------|
E|-------------------|------------------|----------------------|

E|------------------|--12-12-12/-14--14-14/16--16-16/19--19-19-|
B|------------------|------------------------------------------|
G|--11/--0----------|--9--9--9/--11--11-11/13--13-13/16--16-16-|
D|------------------|------------------------------------------|

E|--19/--12---------|--9----9-----------9----------------------|
B|----------------9-|----12---12-9----9---12-9-----------------|
G|--16/--9-----11b--|--------------11b---------11b11-9----9-11-|
D|------------------|----------------------------------11------|
A|------------------|------------------------------------------|
E|------------------|------------------------------------------|

E|--------------------|--9----9-11-9------9-11-9------9-11-9---|
B|--------------12b---|----12b-------9-12--------9-12--------9-|
G|--11b---------------|----------------------------------------|
D|--------------------|----------------------------------------|

E|------9----9------9-------------------|------9-------9~------|
B|--12b---12b-----9---12-9--------------|--12b-12b-12b-12b-----|
G|-------------11b---------11b11-9h-11--|----------------------|
D|--------------------------------------|----------------------|

E|--11---11-11~-----------------|--11--9-9-9-9-9-----7--9-7-7--|
B|--14b--14b14b-----------------|--9---9-9-9-9-9-----7--7-7-7--|
G|------------------------------|-----------------8------------|
D|------------------------------|------------------------------|

E|---5---------------------------|-------11-9-9/-7-----9-7-7-7-|
B|---5-8-8-8-8/10-10-10-10-13/-0-|----9-------------7--7-7-7-7-|
G|-6---9-9-9-9/11-11-11-11-14/---|---------------8--8--8-8-8-8-|
D|-------------------------------|-11--------------------------|
A|-------------------------------|-----------------------------|
E|-------------------------------|-----------------------------|

E|---5--5----------------------|------9--11-9-9-9----7--9-7-7--|
B|---5--5--x-x-x-x-x-x-x-x-x-x-|------9--9--9-9-9----7--7-7-7--|
G|-6-------x-x-x-x-x-x-x-x-x-x-|------------------8------------|
D|-----------------x-x-x-x-x-x-|--11---------------------------|
A|-----------------------x-x-x-|-------------------------------|
E|-----------------------------|-------------------------------|

E|---5-----------------------0-|
B|---5-8-8-8-8/10-10/13/-x-x-0-|
G|-6---9-9-9-9/11-11/14/-x-----|
D|-----------------------------|
A|-----------------------------|
E|-----------------------------|

E|-9--9-9-9-9-9-9-11-11-11-11-12-12-12-12-12-------------------|
B|-12b------------14b---------15b------------------------------|
G|-------------------------------------------------------------|
D|-------------------------------------------------------------|
A|-------------------------------------------------------------|
E|-------------------------------------------------------------|

E|--12-14-14-14-14-16-16-16-16h17h16h17h16h17-----|------------|
B|-----17b---------19b----------------------------|------------|
G|------------------------------------------------|------------|

E|-----------|-------------------------|-----------------------|
B|-----------|------7h5----------4-----|------5h7h-5----5/7/5--|
G|-----------|----------4-----4-----4--|------6---------4/6/4--|
D|-----------|-------------4-----------|-------------6---------|
A|-----------|-------------------------|-----------------------|
E|-----------|-------------------------|-----------------------|

E|---------------------|--5-----------------|------------------|
B|---------------------|--5h7-7-7----5/7/5--|--7h5-------------|
G|--9-9--x-------------|------6-6----4/6/4--|------6-6---4--4--|
D|--9-9--x----11--9----|----------6---------|------x-x------4--|
A|---------9---------9-|--------------------|------------------|
E|---------------------|--------------------|------------------|

E|---------------------|------7---------|----------------------|
B|---------------------|------9---------|------0------5/7/5----|
G|---------------------|----------------|------6------4/6/4----|
D|--4-4-4-4-4----------|----------------|------7---------------|
A|---------------------|----------------|----------------------|
E|---------------------|----------------|----------------------|

E|------------------------|------5-----------------------------|
B|------7h5---------------|------5h7--------5/7/5--------------|
G|-------------4----4-----|----------4h6----4/6/4----0---------|
D|----------6----------4--|--------------6---------6-----------|
A|------------------------|------------------------------------|
E|------------------------|------------------------------------|

E|---------------------------|---------------------------x-----|
B|------7h5------------------|-------------------5/7/5---x-----|
G|------6---4h6-4-----4------|----------------4--4/6/4---------|
D|-----------------4-----4-4-|--4h2-----2--6-------------------|
A|---------------------------|------2h4------------------------|
E|---------------------------|---------------------------------|

E|------------------------|--0-0-0-0-0--0-0-0-0-0-0-0-0-0-0----|
B|------7h5---------------|--0-0-0-0-0--0-0-0-0-0-0-0-0-0-0----|
G|------6---4--------4----|--6-6-6-6-6--6-6-6-6-6-6-6-6--------|
D|----------------4-------|--7-7-7-7-7--7-7-7-7-7-7-7-7--------|
A|-------------2----------|------------------------------------|
E|------------------------|------------------------------------|

E|--9----9--9---9---9-------9--9--|--9---9---9---9---9~--------|
B|--12b--12b12b-12b-12b-----12b12b|--12b-12b-12b-12b-12b-------|
G|--------------------------------|----------------------------|

E|----11--11--11--11--------|--11--12--11------11--------------|
B|----14b-14b-14b-14b-------|--14b---------14--14b-------------|
G|--------------------------|----------------------------------|

E|----9--9--9---9---9---------|--9--9--9---9---9---9-----------|
B|----12b12b12b-12b-12b-------|--12b12b12b-12b-12b-12b---------|
G|----------------------------|--------------------------------|

E|----11-11-11-11-11-11-12-12-12-12-12-12-12~------------------|
B|----14b14b14b14b14b14b15b15b15b15b15b15b15b------------------|
G|-------------------------------------------------------------|

E|--14-14-14-14-14-14-14~-16-16-16-16-16-16-16-16--------------|
B|--17b17b17b17b17b17b17b-19b19b19b19b19b19b19b19b-------------|
G|-------------------------------------------------------------|

E|--19b19b19b19b19b19b19b19b19b19b19b19b19b19b19b19b-----------|
B|-------------------------------------------------------------|

E|--19b19b19b19b19b19b19b19b19b19b19b19b19b--------------------|
B|-------------------------------------------------------------|

E|--19b19b19b19b19b19b19b19b19b19b19b19b19b19b19b19b-----------|
B|-------------------------------------------------------------|

E|--19b19b19b19b19b19b19b19b19b19b19b19b19b--------------------|
B|-------------------------------------------------------------|

E|--19b19b19b19b19b19b19b19b19b19b19b19b19b19b19b19b-----------|
B|-------------------------------------------------------------|

E|--19b19b19b19b19b19b19b19b19b19b19b19b19b19b19b19b-----------|
B|-------------------------------------------------------------|

E|--19b19b19b19b19b19b19b19b19b19b19b19b19b19b19b19b-----------|
B|-------------------------------------------------------------|

E|--19b19b19b19b19b-19b-19b19b19b19b19b19b19b19b--------------||
B|------------------------------------------------------------||

Guitar II

D#||------------7--7--9---|--9---9---9-------7--7--5-----------|
A#||------------7--7--9---|--9---9---9-------7--7--5-----------|
F#||------------8--8--9---|--9---9---9-------8--8--6-----------|
C#||------------9--9--11--|--11--11--11------9--9--7-----------|
G#||------------9--9--11--|--11--11--11------9--9--7-----------|
D#||------------7--7--9---|--9---9---9-------7--7--5-----------|

E|--5--5--5------7--7--9---|--9---9---9--------7--7--5---------|
B|--5--5--5------7--7--9---|--9---9---9--------7--7--5---------|
G|--6--6--6------8--8--9---|--9---9---9-----9--8--8--6---------|
D|--7--7--7------9--9--11--|--11--11--11-------9--9--7---------|
A|--7--7--7------9--9--11--|--11--11--11-------9--9--7---------|
E|--5--5--5------7--7--9---|--9---9---9--------7--7--5---------|

E|-5--5--5--5-5-5-5-7--7--7/8--|--9---9---9---x-7-7--7--7--x-x-|
B|-5--5--5--5-5-5-5-7--7--7/8--|--9---9---9---x-7-7--7--7--x-x-|
G|-6--6--6--6-6-6-6-8--8--8/9--|--9---9---9---x-8-8--8--8--x-x-|
D|-7--7--7--7-7-7-7-9--9--9/10-|--11--11--11--x-9-9--9--9--x-x-|
A|-7--7--7--7-7-7-7-9--9--9/10-|--11--11--11--x-9-9--9--9--x-x-|
E|-5--5--5--5-5-5-5-7--7--7/8--|--9---9---9---x-7-7--7--7--x-x-|

E|--5--5--5---x-7--7--7--7-7-|--9---9---9---x-7-7-7-7--7--x----|
B|--5--5--5---x-7--7--7--7-7-|--9---9---9---x-7-7-7-7--7--x----|
G|--6--6--6---x-8--8--8--8-8-|--9---9---9---x-8-8-8-8--8--x----|
D|--7--7--7---x-9--9--9--9-9-|--11--11--11--x-9-9-9-9--9--x----|
A|--7--7--7---x-9--9--9--9-9-|--11--11--11--x-9-9-9-9--9--x----|
E|--5--5--5---x-7--7--7--7-7-|--9---9---9---x-7-7-7-7--7--x----|

E|-5--5--5--x-7-7-7-7--7--8---|--0~-----------|--------------0-|
B|-5--5--5--x-7-7-7-7--7--8---|--5~---4----x--|--2~----4--4--5-|
G|-6--6--6--x-8-8-8-8--8--9---|--6~---4----x--|--2~----4--4--6-|
D|-7--7--7--x-9-9-9-9--9--10--|--6~---4----x--|--2~----4--4--6-|
A|-7--7--7--x-9-9-9-9--9--10--|--4~---2----x--|--4~----2--2--4-|
E|-5--5--5--x-7-7-7-7--7--8---|---------------|----------------|

E|--0-----------------|-------------0--0-----|--0~-------------|
B|--5--------4--------|--2----------0--0--x--|--5~-------4~----|
G|--6--------4--------|--2----------4--4--x--|--6~-------4~----|
D|--6--------4--------|--2----------4--4--x--|--6~-------4~----|
A|--4--------2--------|--4----------2--2--x--|--4~-------2~----|
E|--------------------|----------------------|-----------------|

E|---------------------0--|--0----------------|----------------|
B|--2~-------x-x-4--4--5--|--5------4--4--2-2-|--2-------------|
G|--2~-------x-x-4--4--6--|--6------4--4--2-2-|--2--9--------9-|
D|--2~-------x-x-4--4--6--|--6------4--4--2-2-|--2--9--11/13-9-|
A|--4~-------x-x-2--2--4--|--4------2--2--4-4-|--4-----9/-11---|
E|------------------------|-------------------|----------------|

E|--0-----------------|---------------------0-0-|--0-----------|
B|--5--------4--------|--2--------x-x-4--4--5-5-|--5--------4--|
G|--6--------4--------|--2--------x-x-4--4--6-6-|--6--------4--|
D|--6--------4--------|--2--------x-x-4--4--6-6-|--6--------4--|
A|--4--------2--------|--4--------x-x-2--2--4-4-|--4--------2--|
E|--------------------|-------------------------|--------------|

E|----------2--2------|--0--------------|-------0-0------------|
B|--2-------4--4--x-x-|--5--------4-----|--2----2-2---4--4-4-4-|
G|--2-------4--4--x-x-|--6--------4-----|--2----2-2---4--4-4-4-|
D|--2-------4--4--x-x-|--6--------4-----|--2----2-2---4--4-4-4-|
A|--4-------2--2--x-x-|--4--------2-----|--4----0-0---2--2-2-2-|
E|--------------------|-----------------|----------------------|

E|--0-------------------|--------------------------------------|
B|--5--------4----4--2--|----2-----2-----2-x--2-2-2-2-2--------|
G|--6--------4----4--2--|----2-----2-----2-x--2-2-2-2-2--------|
D|--6--------4----4--2--|--6-2-6-6-2-6-6-2-x--2-2-2-2-2--------|
A|--4--------2----2-----|--4-4-4-4-4-4-4-4-x--4-4-4-4-4--------|
E|----------------------|--------------------------------------|

E|--0--0--0--0-0--------------|------------------------0-0-----|
B|--5--5--5--5-5-4--4--4--x-x-|--2----2--x-x-4-4-4--4--5-5-----|
G|--6--6--6--6-6-4--4--4--x-x-|--2----2--x-x-4-4-4--4--6-6-----|
D|--6--6--6--6-6-4--4--4--x-x-|--2----2--x-x-4-4-4--4--6-6-----|
A|--4--4--4--4-4-2--2--2--x-x-|--4----4--x-x-2-2-2--2--4-4-----|
E|----------------------------|--------------------------------|

E|--0----0--0-0---------------|---------------------------0----|
B|--5----5--5-5-4-4-4--4--2-2-|--2----2--x-x-4-4-4-4-4--x-5----|
G|--6----6--6-6-4-4-4--4--2-2-|--2----2--x-x-4-4-4-4-4--x-6----|
D|--6----6--6-6-4-4-4--4--2-2-|--2----2--x-x-4-4-4-4-4--x-6----|
A|--4----4--4-4-2-2-2--2------|--4----4--x-x-2-2-2-2-2--x-4----|
E|----------------------------|--------------------------------|

E|--0--0--0--------------------|---------------------------0---|
B|--5--5--5--x-x-4-4-4--4--4-4-|--2--2--2--x-x-4-4-4--4--x-5---|
G|--6--6--6--x-x-4-4-4--4--4-4-|--2--2--2--x-x-4-4-4--4--x-6---|
D|--6--6--6--x-x-4-4-4--4--4-4-|--2--2--2--x-x-4-4-4--4--x-6---|
A|--4--4--4--x-x-2-2-2--2--2-2-|--4--4--4--x-x-2-2-2--2--x-4---|
E|-----------------------------|-------------------------------|

E|-0--0--0-------------------|-------------------------|--0----|
B|-5--5--5--x-x-x--4--4--x-x-|--2--2--x-4-4--4--4-4-4--|--5--4-|
G|-6--6--6--x-x-x--4--4--x-x-|--2--2--x-4-4--4--4-4-4--|--6--4-|
D|-6--6--6--x-x-x--4--4--x-x-|--2--2--x-4-4--4--4-4-4--|--6--4-|
A|-4--4--4--x-x-x--2--2--x-x-|--4--4--x-2-2--2--2-2-2--|--4--2-|
E|---------------------------|-------------------------|-------|

E|----------------------|--0-----------------|-----------------|
B|--2----------4--4--x--|--5--------4--------|--2-----4--4--4--|
G|--2----------4--4--x--|--6--------4--------|--2-----4--4--4--|
D|--2----------4--4--x--|--6--------4--------|--2-----4--4--4--|
A|--4----------2--2--x--|--4--------2--------|--4-----2--2--2--|
E|----------------------|--------------------|-----------------|

E|--0-----------------|----------------------|--0--------------|
B|--5--------4--------|--2----------4--4--4--|--5--------4-----|
G|--6--------4--------|--2----------4--4--4--|--6--------4-----|
D|--6--------4--------|--2----------4--4--4--|--6--------4-----|
A|--4--------2--------|--4----------2--2--2--|--4--------2-----|
E|--------------------|----------------------|-----------------|

E|-----------------------|--0------------|---------------------|
B|--2----------4-4-4--x--|--5------4-----|--2-----x--4-4-4--x--|
G|--2----------4-4-4--x--|--6------4-----|--2-----x--4-4-4--x--|
D|--2----------4-4-4--x--|--6------4-----|--2-----x--4-4-4--x--|
A|--4----------2-2-2--x--|--4------2-----|--4-----x--2-2-2--x--|
E|-----------------------|---------------|---------------------|

E|--0-----------------|-----------------------|--0-------------|
B|--5--------4--------|--2----------4-4-4--x--|--5--------4----|
G|--6--------4--------|--2----------4-4-4--x--|--6--------4----|
D|--6--------4--------|--2----------4-4-4--x--|--6--------4----|
A|--4--------2--------|--4----------2-2-2--x--|--4--------2----|
E|--------------------|-----------------------|----------------|

E|-------------------0-0-|--0----------------|-----------------|
B|--2----------4--4--5-5-|--5--------4-------|--2----4--4--4-4-|
G|--2----------4--4--6-6-|--6--------4-------|--2----4--4--4-4-|
D|--2----------4--4--6-6-|--6--------4-------|--2----4--4--4-4-|
A|--4----------2--2--4-4-|--4--------2-------|--4----2--2--2-2-|
E|-----------------------|-------------------|-----------------|

E|--0----0------------------|----------------------------------|
B|--5----5--x-x---4--4--4-4-|--2--2-2-2--x-x-x-x-4--4--x-------|
G|--6----6--x-x---4--4--4-4-|--2--2-2-2--x-x-x-x-4--4--x-------|
D|--6----6--x-x---4--4--4-4-|--2--2-2-2--x-x-x-x-4--4--x-------|
A|--4----4--x-x---2--2--2-2-|--4--4-4-4--x-x-x-x-2--2--x-------|
E|--------------------------|----------------------------------|

E|--0----0-----------------|---------------------------0-------|
B|--5----5----4--4--4--x-2-|--2--2--2--x-x-4-4-4--4--x-5-------|
G|--6----6----4--4--4--x-2-|--2--2--2--x-x-4-4-4--4--x-6-------|
D|--6----6----4--4--4--x-2-|--2--2--2--x-x-4-4-4--4--x-6-------|
A|--4----4----2--2--2--x-4-|--4--4--4--x-x-2-2-2--2--x-4-------|
E|-------------------------|-----------------------------------|

E|--0--0--0--------------------|---------------------------0---|
B|--5--5--5--x-4-4-4-4--4--x-x-|--2--2--2--x-x-4-4-4--4--x-5---|
G|--6--6--6--x-4-4-4-4--4--x-x-|--2--2--2--x-x-4-4-4--4--x-6---|
D|--6--6--6--x-4-4-4-4--4--x-x-|--2--2--2--x-x-4-4-4--4--x-6---|
A|--4--4--4--x-2-2-2-2--2--x-x-|--4--4--4--x-x-2-2-2--2--x-4---|
E|-----------------------------|-------------------------------|

E|-0--0--0--0-0-------------|-------------------------|--0-----|
B|-5--5--5--5-5-4-4-4-4-x-x-|-2-2-2--2--x-x-x-4-4--4--|--5--4--|
G|-6--6--6--6-6-4-4-4-4-x-x-|-2-2-2--2--x-x-x-4-4--4--|--6--4--|
D|-6--6--6--6-6-4-4-4-4-x-x-|-2-2-2--2--x-x-x-4-4--4--|--6--4--|
A|-4--4--4--4-4-2-2-2-2-x-x-|-4-4-4--4--x-x-x-2-2--2--|--4--2--|
E|--------------------------|-------------------------|--------|

E|-------------------------|--0-----------|--------------------|
B|--2--2-2-2------4-4-4----|--5-----4-----|--2-------4-4--4----|
G|--2--2-2-2------4-4-4----|--6-----4-----|--2-------4-4--4----|
D|--2--2-2-2------4-4-4----|--6-----4-----|--2-------4-4--4----|
A|--4--4-4-4------2-2-2----|--4-----2-----|--4-------2-2--2----|
E|-------------------------|--------------|--------------------|

E|--0-----------------|------------------------|--0------------|
B|--5--------4--------|--2----2--2-2---4--4----|--5--------4---|
G|--6--------4--------|--2----2--2-2---4--4----|--6--------4---|
D|--6--------4--------|--2----2--2-2---4--4----|--6--------4---|
A|--4--------2--------|--4----4--4-4---2--2----|--4--------2---|
E|--------------------|------------------------|---------------|

E|---------------------------|--0-------|----------------------|
B|--2----2---4-4--4-4-4-4-4--|--5---4---|--2---x-x-4-4-4-4-4-x-|
G|--2----2---4-4--4-4-4-4-4--|--6---4---|--2---x-x-4-4-4-4-4-x-|
D|--2----2---4-4--4-4-4-4-4--|--6---4---|--2---x-x-4-4-4-4-4-x-|
A|--4----4---2-2--2-2-2-2-2--|--4---2---|--4---x-x-2-2-2-2-2-x-|
E|---------------------------|----------|----------------------|

E|--0-----------------|-----------------------|--0-------------|
B|--5--------4--------|--2----------4-4-4--4--|--5--------4----|
G|--6--------4--------|--2----------4-4-4--4--|--6--------4----|
D|--6--------4--------|--2----------4-4-4--4--|--6--------4----|
A|--4--------2--------|--4----------2-2-2--2--|--4--------2----|
E|--------------------|-----------------------|----------------|

E|------------------|--0---------|-----------------------------|
B|--2-----4-4-4--4--|--5---4---4-|--2-2--2-2--2-2-2--4-4-4--x--|
G|--2-----4-4-4--4--|--6---4---4-|--2-2--2-2--2-2-2--4-4-4--x--|
D|--2-----4-4-4--4--|--6---4---4-|--2-2--2-2--2-2-2--4-4-4--x--|
A|--4-----2-2-2--2--|--4---2---2-|--4-4--4-4--4-4-4--2-2-2--x--|
E|------------------|------------|-----------------------------|

E|--0--0-0-0---------------------|-----------------------------|
B|--5--5-5-5--x-4-4-4-4-4-4--x-x-|--2--2--2--2-2-4--4-4-4--x-x-|
G|--6--6-6-6--x-4-4-4-4-4-4--x-x-|--2--2--2--2-2-4--4-4-4--x-x-|
D|--6--6-6-6--x-4-4-4-4-4-4--x-x-|--2--2--2--2-2-4--4-4-4--x-x-|
A|--4--4-4-4--x-2-2-2-2-2-2--x-x-|--4--4--4--4-4-2--2-2-2--x-x-|
E|-------------------------------|-----------------------------|

E|--0--0--0--0-0--------------|--------------------------0-0---|
B|--5--5--5--5-5-4--4--4--4-4-|--2--2--2--x-4-4-4-4-4-4--5-5---|
G|--6--6--6--6-6-4--4--4--4-4-|--2--2--2--x-4-4-4-4-4-4--6-6---|
D|--6--6--6--6-6-4--4--4--4-4-|--2--2--2--x-4-4-4-4-4-4--6-6---|
A|--4--4--4--4-4-2--2--2--2-2-|--4--4--4--x-2-2-2-2-2-2--4-4---|
E|----------------------------|--------------------------------|

E|--0--0--0--0-0---------------|-------------------------------|
B|--5--5--5--5-5-4--4-4-4--2-2-|--2--2--2--2-2-4-4-4--4--x-x---|
G|--6--6--6--6-6-4--4-4-4--2-2-|--2--2--2--2-2-4-4-4--4--x-x---|
D|--6--6--6--6-6-4--4-4-4--2-2-|--2--2--2--2-2-4-4-4--4--x-x---|
A|--4--4--4--4-4-2--2-2-2------|--4--4--4--4-4-2-2-2--2--x-x---|
E|-----------------------------|-------------------------------|

E|--0--0--0-0------------------|-------------------------------|
B|--5--5--5-5--4-4--4-4-4--4-4-|--2--2--2-2---4-4-4-4-4-4-x----|
G|--6--6--6-6--4-4--4-4-4--4-4-|--2--2--2-2---4-4-4-4-4-4-x----|
D|--6--6--6-6--4-4--4-4-4--4-4-|--2--2--2-2---4-4-4-4-4-4-x----|
A|--4--4--4-4--2-2--2-2-2--2-2-|--4--4--4-4---2-2-2-2-2-2-x----|
E|-----------------------------|-------------------------------|

E|--0------------------|-----------------------|--0------------|
B|--5--------4--4------|--2----------4-4-4-----|--5-----4------|
G|--6--------4--4------|--2----------4-4-4--x--|--6-----4------|
D|--6--------4--4------|--2----------4-4-4--6--|--6-----4------|
A|--4--------2--2------|--4----------2-2-2--4--|--4-----2------|
E|---------------------|-----------------------|---------------|

E|-----------------------|--0------------|---------------------|
B|--2----------4-4-4-----|--5-----4------|--2------4-4-4-------|
G|--2----------4-4-4--x--|--6-----4------|--2------4-4-4--x----|
D|--2----------4-4-4--6--|--6-----4------|--2------4-4-4--6----|
A|--4----------2-2-2--4--|--4-----2------|--4------2-2-2--4----|
E|-----------------------|---------------|---------------------|

E|--0-----------------|-----------------------|--0-------------|
B|--5--------4--------|--2----------4-4-4-----|--5------4------|
G|--6--------4--------|--2----------4-4-4--x--|--6------4------|
D|--6--------4--------|--2----------4-4-4--6--|--6------4------|
A|--4--------2--------|--4----------2-2-2--4--|--4------2------|
E|--------------------|-----------------------|----------------|

E|-------------------------|--0-----------|--------------------|
B|--2----------x-4-4-4-----|--5------4----|--2-----4-4-4-------|
G|--2--------x-x-4-4-4--x--|--6------4----|--2-----4-4-4--x----|
D|--2--------x-x-4-4-4--6--|--6------4----|--2-----4-4-4--6----|
A|--4--------x-x-2-2-2--4--|--4------2----|--4-----2-2-2--4----|
E|-------------------------|--------------|--------------------|

E|--0-----------------|----------------------|--0--------------|
B|--5--------4--------|--2----------4-4-4----|--5-----4--------|
G|--6--------4--------|--2----------4-4-4----|--6-----4--------|
D|--6--------4--------|--2----------4-4-4----|--6-----4--------|
A|--4--------2--------|--4----------2-2-2----|--4-----2--------|
E|--------------------|----------------------|-----------------|

E|--------------------------------|----------------------------|
B|----2-----2-----2-x-4-4--4-4-4--|-5-5-5--x-4-4-4-4--4--x-2---|
G|--x-2-x-x-2-x-x-2-x-4-4--4-4-4--|-4-4-4--x-4-4-4-4--4--x-2---|
D|--6-2-6-6-2-6-6-2-x-4-4--4-4-4--|-6-6-6--x-4-4-4-4--4--x-2---|
A|--4-4-4-4-4-4-4-4-x-2-2--2-2-2--|-4-4-4--x-2-2-2-2--2--x-4---|
E|--x---x-x---x-x-----------------|----------------------------|

E|----------------------------|--------------------------------|
B|--2--2--2--x-x-2--2--2--5-5-|--5----5----5-5-5-5-5--5-5------|
G|--2--2--2--x-x-2--2--2--4-4-|--4----4----4-4-4-4-4--4-4------|
D|--2--2--2--x-x-2--2--2--6-6-|--6----6----6-6-6-6-6--6-6------|
A|--4--4--4--x-x-4--4--4--4-4-|--4----4----x-x-x-x-x--x-x------|
E|----------------------------|--------------------------------|

E|----------------------------|--------------------------------|
B|--x--2--2----x-x-x-x-x-x-x--|----5--5----5-5-5-5-5-5-5-------|
G|--x--2--2----4-4-4-4-4-4-4--|----4--4----4-4-4-4-4-4-4-------|
D|--x--2--2----6-6-6-6-6-6-6--|----6--6----6-6-6-6-6-6-6-------|
A|--x--4--4----x-x-x-x-x-x-x--|----4--4----x-x-x-x-x-x-x-------|
E|----------------------------|--------------------------------|

E|-------------------|----------------------|------------------|
B|-2--2---x-x-x-x-x--|-5--5---5-5-5-5-5-5-5-|-2-2----x-x-x-x-x-|
G|-2--2---4-4-4-4-4--|-4--4---4-4-4-4-4-4-4-|-2-2----4-4-4-4-4-|
D|-2--2---6-6-6-6-6--|-6--6---6-6-6-6-6-6-6-|-2-2----6-6-6-6-6-|
A|-4--4---x-x-x-x-x--|-4--4---x-x-x-x-x-x-x-|-4-4----x-x-x-x-x-|
E|-------------------|----------------------|------------------|

E|----------------------------|--------------------------------|
B|----5--5-5--5-5--5-5-5-5-4--|--2--2--2-2-2----x-x-x-x-x-x----|
G|----4--4-4--4-4--4-4-4-4-4--|--2--2--2-2-2----4-4-4-4-4-4----|
D|----6--6-6--6-6--6-6-6-6-4--|--2--2--2-2-2----6-6-6-6-6-6----|
A|----4--4-4--4-4--x-x-x-x-2--|--4--4--4-4-4----x-x-x-x-x-x----|
E|----------------------------|--------------------------------|

E|----------------------------|--------------------------------|
B|----5--5--5-5-5--5-5-5-5-5--|----2--2--x-x-x-x-x-x-x-x-x-----|
G|----4--4--4-4-4--4-4-4-4-4--|----2--2--x-x-4-4-4-4-4-4-4-----|
D|----6--6--6-6-6--6-6-6-6-6--|----2--2--x-x-6-6-6-6-6-6-6-----|
A|----4--4--4-4-4--x-x-x-x-x--|----4--4--x-x-x-x-x-x-x-x-x-----|
E|----------------------------|--------------------------------|

E|---------------------------|---------------------------------|
B|--5----5--5-5---x-x-x-x-x--|--2--2--2------x-x-x-x-x---------|
G|--4----4--4-4---4-4-4-4-4--|--2--2--2------4-4-4-4-4---------|
D|--6----6--6-6---6-6-6-6-6--|--2--2--2------6-6-6-6-6---------|
A|--4----4--4-4---x-x-x-x-x--|--4--4--4------x-x-x-x-x---------|
E|---------------------------|---------------------------------|

E|-----------------------------|------------------------------||
B|--5--5--5--x-5-5--5-5-5-5-5--|--2--2--2------x-x-x-x-x------||
G|--4--4--4--x-4-4--4-4-4-4-4--|--2--2--2------4-4-4-4-4------||
D|--6--6--6--x-6-6--6-6-6-6-6--|--2--2--2------6-6-6-6-6------||
A|--4--4--4--x-4-4--x-x-x-x-x--|--4--4--4------x-x-x-x-x------||
E|-----------------------------|------------------------------||
Вверх

Beginnings

Riff 1
E|-----------------------------------------------|
B|-----------------------------------------------|
G|-----------------------------------------------|
D|---------------------------------------------5-|
A|---5-7-7-5-7-7-5-7-5-------5-7-7-5-7-7-5-7-5---|
E|-7-------------------0---7---------------------|

Riff 2
E|-----------------------------|
B|---------------------------8-|
G|-------8--8-8--8--8-8--8-8-8-|
D|----8-10-10-8-10-10-8-10-8---|
A|-10--------------------------|
E|-----------------------------|

Riff 3
E|-------------------------------------------|
B|-------------------------------------------|
G|------------------------4-6-6-4-6-6-4-6-4-7|
D|--4-6-6-4-6-6-4-6-4---6--------------------|
A|5-------------------5----------------------|
E|-------------------------------------------|

Riff 4
E|-----------------------------------------------|
B|-----------------------------------------------|
G|--12--12-12-14--14-14-16--16-16-17--17-17-16---|
D|-----------------------------------------------|
A|--10--10-10-12--12-12-14--14-14-15--15-15-14---|
E|-----------------------------------------------|

Riff 3

Riff 5				    3x		 repeatedly
E|--------------------------|---------------10-8|12-12-12-12-12|
B|----7------------7-7-8-7-8|8-8-8-8-8-10-8-10-8|13-13-13-13-13|
G|----7------------7-7-8-7-8|9-9-9-9-9-10-9-----|--------------|
D|----6------------6-6-7-6-7|-------------------|--------------|
A|7-7-7----5-7-----7-7-8-7-8|-------------------|--------------|
E|0-0-0-/7-----0-0-0--------|-------------------|--------------|
	  	   /
	  improvise
	      here

Riff 6
E|--------------------|10(12)-10(12)----------10(12)-----------|
B|8-8-----8---8-9-11-9|--------------8-9-11-9--------8-8-9-11-9|
G|7-7-----7---7-8-10-8|--------------7-8-10-8----------7-8-10-8|
D|6-6-----6---6-7--9-7|--------------6-7--9-7----------6-7--9-7|
A|7-7-----7---7-8-10-8|--------------7-8-10-8----------7-8-10-8|
E|----0-0-------------|----------------------------------------|

RIFF 7
E|------------0--------------------------------0-|
B|------------0--------------------------------0-|
G|------------1--------------------------------1-| You'll have
D|-10-9-5-7-5-2-10-9-7-12-14-16-16-14-12-9-7-5-2-| to work this
A|------------2--------------------------------2-| out a bit!
E|--8-7-3-5-3-0--8-7-5-10-12-14-14-12-10-7-5-3-0-|

drum solo

at the end start improvising and soloing
petatonic scales on the 12th fret.

the song structure goes:

RIFF 1
RIFF 2
RIFF 1
RIFF 3
RIFF 4
RIFF 3
RIFF 5
RIFF 6
RIFF 7
RIFF 1
RIFF 3
start improvising and soloing
RIFF 7

have fun

Dave Schneider

O   HAND PICKED   O   TREE RIPENED   O
Вверх

Bold As Love

e|-------------------------------------------------------------|
B|-8b10-8b10b8-------------------------------------------------|
G|------------9-7-8/9-9b11-11b9---------------------6-119-6----|
D|-----------------------------9b11-11b9-7-9-7?9b11----------9-|
A|-------------------------------------------------------------|
E|-------------------------------------------------------------|

e|-------------------------------------------------------------|
B|-------------------------------------------------------------|
G|-------------------------------------------------------------|
D|-9b10b9-7------------------9b11-b9-9b11b9-7---7-7------------|
A|----------9---999-9/10-10-------------------9--9?-9/10-10-10-|
E|-------------------------------------------------------------|

e|--------------------------8-10-12-12-12b14-12b14--10---12b14-|
B|---------------7-8/10-8-10-----------------------------------|
G|-----------6h10----------------------------------------------|
D|----7-/97----------------------------------------------------|
A|-10----------------------------------------------------------|
E|-------------------------------------------------------------|

e|-12b14b12-----------------------14b16-12b14b12-12b14b12------|
B|----------10--12b14-10-12?12/14------------------------10-12-|
G|-------------------------------------------------------------|
D|-------------------------------------------------------------|
A|-------------------------------------------------------------|
E|-------------------------------------------------------------|

e|--------------------------12-14-15b17-17b15p12-14-12h14p12---|
B|-12b14b12---10--------------------------------------------12-|
G|---------11---11-11/12-12------------------------------------|
D|-------------------------------------------------------------|
A|-------------------------------------------------------------|
E|-------------------------------------------------------------|
								 Drum solo?
e|------------------------------------------------------5------|
B|-12b14---14b16---------------------------------------5-------|
G|------------------------------------------7-7-7-7-7-7-6------|
D|----------------------7---7-7-7-7-7-7-7---7-7-7-7-7-7-7------|
A|----------------555-------5-5-5-5-5-5-7---5-5-5-5-5-5-7------|
E|-------------------5------------------5---------------5------|

e|-------------------------------------------------|
A|-12b14?-12b14b12p10------------------------------|
G|-------------------13-13?13b15-13b15-13-11-11-13-|
D|-------------------------------------------------|
A|-------------------------------------------------|
E|-------------------------------------------------|

E|-------------------|
B|-12b14-12b14b12p10-|
G|-------------------|
D|-------------------|
A|-------------------|
E|-------------------|

e|-----------------------------12b13-12b13-b12p10-12--|
B|-------------12-12-12-------------------------------|
G|-13-13-13b15---------13-13-13-----------------------|
D|----------------------------------------------------|
A|----------------------------------------------------|
E|----------------------------------------------------|

E|12-12b14b12------|
B|-----------12-10-|
G|-----------------|
D|-----------------|
A|-----------------|
E|-----------------|

e|-13-13-15b17-15b17-15-------------------------15/19--17b19---|
B|----------------------12b13-15-15b17?b15p13------------------|
G|-------------------------------------------14----------------|
D|-------------------------------------------------------------|
A|-------------------------------------------------------------|
E|-------------------------------------------------------------|

e|-17b19-15h17p15-12---------------------------------|
B|-------------------15b17-15b17?b15p13?15-15-15b17--|
G|---------------------------------------------------|
D|---------------------------------------------------|
A|---------------------------------------------------|
E|---------------------------------------------------|

E|---------------|
B|15b17b15p13-13-|
G|---------------|
D|---------------|
A|---------------|
E|---------------|
								 Repeat 2X
e|-15/19--------------------------------|----------------------|
B|--------------------------------------|+---------------------|
G|--------------------------------------|-------------10-------|
D|--------------------------------------|-------11-------11----|
A|--------------------------------------|+---11----11-------11-|
E|--------------------------------------|--9-------------------|

e|--------------------------------------------------------|----|
B|-------------------------------------------------------+|----|
G|------------5-------6-------6---------------------------|----|
D|-11----6-----6---6/--8---8---8---8-----9--------10------|----|
A|------6---6-----6-------8-------8-----9---9---10----10-+|----|
E|----4-------------------------------7-------8-----------|----|
   >
e|-9X------------9-----9---------12p9--------9-----9-----------|
B|-12b14-12-12b14-12b14------9h12-----9-12b14-12b14-12b14------|
G|----------------------11b13----------------------------------|
D|-------------------------------------------------------------|
A|-------------------------------------------------------------|
E|-------------------------------------------------------------|

E|------999999----|
B|-12b14----------|
G|----------------|
D|----------------|
A|----------------|
E|----------------|

e|-9-------------------14b16-14------14b16-14---14b16-14-------|
B|-------12b14b12p9-999-----------/14--------/14---------------|
G|-------------------------------------------------------------|
D|-------------------------------------------------------------|
A|-------------------------------------------------------------|
E|-------------------------------------------------------------|

E|---14b16-14-----|
B|/14--------/14--|
G|----------------|
D|----------------|
A|----------------|
E|----------------|


e|-------------------------------------------------------------|
B|----12b14b12p9-----9-12-9------------------------------------|
G|--------------11b13------11-9-11p9---------------------------|
D|----------------------------------11-----------9X-12b14------|
A|------------------------------------11-9----/11X-------------|
E|----------------------------------------12-9-----------------|

E|----------------|
B|----------------|
G|----------------|
D|-11---9-11-9?---|
A|----------------|
E|----------------|

e|-------------------------------------------------------------|
B|-------------------------------------------------------------|
G|-------------------------------------------------------------|
D|---9-11b1311p9------9-11-14-13--13-11--11-10-----------------|
A|-11------------11-11-----------------14------11-9------11-9--|
E|--------------------------------------------------12-9-------|

e|----------9-9--9-9-------------------------------------------|
B|------9-12-------12b14?12b14b12p9-----9-12-9-----------------|
G|-11b13---------------------------11b13------11-9-11p9--------|
D|-------------------------------------------------------------|
A|-------------------------------------------------------------|
E|-------------------------------------------------------------|

E|----------------|
B|----------------|
G|----------------|
D|11--------------|
A|--11/15-15-15---|
E|----------------|
	    (triplets)
e|------------1616-161616-161616-161616----14-14-141414--------|
B|---------19b21------------------------17b19------------------|
G|-------------------------------------------------------------|
D|-------------------------------------------------------------|
A|-15X?15X-----------------------------------------------------|
E|-------------------------------------------------------------|

E|-141414-141414--|
B|----------------|
G|----------------|
D|----------------|
A|----------------|
E|----------------|
								  fade out.
e|-14/18-18-181818-181818-181818----16-16-161616-161616-161616-|
B|-------------------------------19b21-------------------------|
G|-------------------------------------------------------------|
D|-------------------------------------------------------------|
A|-------------------------------------------------------------|
E|-------------------------------------------------------------|
Вверх

Bold As Love (2 вариант)

Basic verse riffs:
A E F#m D C# D
E|---5h7----------------0--------------------------------------|
B|---5-----5----------------2----------------------------------|
G|-------4h6---1h2p1--------2h4-2-----------7---------7--------|
D|-------------------2--2---------4---7---6--7h9-7-----7h9-7---|
A|----------------------------------5---4----------7h9-------9-|
E|-5---------0------------2------------------------------------|

Chorus (guitar 2)

A E F#m
E|9-9-9-9-9-9-9-9-9-9-9-97-7-7-7-7-7-7-7-7-7-7-7/14-14-14-14-14|
B|-------------------------------------------------------------|
G|9-9-9-9-9-9-9-9-9-9-9-97-7-7-7-7-7-7-7-7-7-7-7/14-14-14-14-14|
D|-------------------------------------------------------------|
A|-------------------------------------------------------------|
E|-------------------------------------------------------------|

G G# A E7 F#m
E|--7-7-7--8-8-8-/9-9-9-9-9-9-9-9-9-8-8-8-7-7-7-7-7-7--2-------|
B|-----------------------------------------------------2-------|
G|-7-7-7--8-8-8--/9-9-9-9-9-9-9-9-9-8-8-8-7-7-7-7-7-7--2-------|
D|-------------------------------------------------------------|
A|-------------------------------------------------------------|
E|-------------------------------------------------------------|

A Bm D G G#
E|-------------------------------------------------------------|
B|-------5-----7h10p7------------------------------------------|
G|-----6h7p6----------7-----------------7---7------------------|
D|-----------7----------9-9-7h9-------7---7h9p7--------5-5---6-|
A|---7--------------------------7h9-5-----------7h9------------|
E|-5------------------------------------------------3------4---|

Solo(w/distortion):
A E F#m G A E
E|-----------------------------------------------2-------------|
B|-8(10)~8p5-----------5(7)~5------------------2---5-----------|
G|-----------7-7(9)~-0--------2/5-4p2h4p2-4(6)-------4~-4(6)p2-|
D|-------------------------------------------------------------|
A|-------------------------------------------------------------|
E|-------------------------------------------------------------|

F#m G9 A E F#m G A
E|-----------------------------------------------------5-----8-|
B|---------------------------------------------------5---/10---|
G|---------4(6)~~4-4(6)4-2------2---2--------4----/6-----------|
D|-2/4~-5~-----------------2h4~---4---4/5~-7---7---------------|
A|-------------------------------------------------------------|
E|-------------------------------------------------------------|

E F#m G6 A E7 F#m
E|-10(12)-10(12)-10(12)~-12(14)~12-10-12(14)12-----------------|
B|---------------------------------------------10~-12(14)12p10-|
G|-------------------------------------------------------------|
D|-------------------------------------------------------------|
A|-------------------------------------------------------------|
E|-------------------------------------------------------------|

G A E7 F#m
E|-------10-12(14)~-12(14)12-12-12(14)12-----------------------|
B|12~12~---------------------------------10~-12-12(14)12p10----|
G|------------------------------------------x---------------11~|
D|-------------------------------------------------------------|
A|-------------------------------------------------------------|
E|-------------------------------------------------------------|

G G# A G# E7 F#m D5
E|------12-14(16)14-12-14~-12h14p12----12----------------------|
B|10--------------------------------14----12(14)12~-/17--------|
G|---12~------------------------------------------------/12----|
D|-------------------------------------------------------x--9-7|
A|-------------------------------------------------------------|
E|-------------------------------------------------------------|

A5 D5 A5 D5
E|--------------5----------------------------------------------|
B|----8(10)~~-----5--------------------------------------------|
G|-5--8(10)~~-------7(9)-7(9)-7(9)-7-5-------------------------|
D|-------------------------------------7-5---------7~~---5-----|
A|-----------------------------------------7-5-----------------|
E|---------------------------------------------8-5-------------|

A5
E|--------------------------------|
B|--------------------------------|
G|-7(9)-7-5-----------------------|
D|----------7-5-------------------|
A|--------------7-6-5-3-5(6)5-3-0-|
E|--------------------------------|

Outro Solo(w/heavy flange):

C# G# A#m B
E|9------9-----------------------------------------------------|
B|12(14)~12(14)12p99------9------11-----11----7----7------9----|
G|-----------------11(13)-11(13)~13(15)~13(15)9(11)9(11)~11(13)|
D|-------------------------------------------------------------|
A|-------------------------------------------------------------|
E|-------------------------------------------------------------|

C# G# A#m B C#
E|9-------9---------------------------------------------11-----|
B|12(14)~-12(14)-9------9-------11------12-----12----99911(13)~|
G|---------------11(13)-11(13)~-13(15)~-14(16)-14(16)----------|
D|-------------------------------------------------------------|
A|-------------------------------------------------------------|
E|-------------------------------------------------------------|

G# A#m B C# G#
E|11(13)11p9-11-11~11(13)11p9----12(14)12(14)15(17)-15(18)15~--|
B|---------------------------11~9----------------------------14|
G|-------------------------------------------------------------|
D|-------------------------------------------------------------|
A|-------------------------------------------------------------|
E|-------------------------------------------------------------|

B C#
E|---------------------16(18)~16(18)~13-16(18)-14h16p14------16|
B|16(17)16(18)p14--------------------------------------16(18)--|
G|---------------15~-14----------------------------------------|
D|-------------------------------------------------------------|
A|-------------------------------------------------------------|
E|-------------------------------------------------------------|

G# A#m B C#
E|-----------------------------------------16(18)~------9--13p9|
B|16(18)-16(18)-16~14-16(18)16(18)16p14-14~-------x----9-9-----|
G|-------------------------------------15---------x-/10--------|
D|------------------------------------------------x------------|
A|-------------------------------------------------------------|
E|-------------------------------------------------------------|

G# A#m B
E|------8-8p4-8p4--8p4-----9---9p6---9p6---11p7---11p7---12p8--|
B|9-9--4-4---4---4-----4/6---6-----6-----7------7------8------8|
G|-------------------------------------------------------------|
D|--11---------------------------------------------------------|
A|-------------------------------------------------------------|
E|-------------------------------------------------------------|

C# G# A#m B
E|12p8--13p9-13p9-13p9-9-48p4-8p4-8p4-8p4-9p6-9p6-9p6-9p6-11p7-|
B|----89----9----9----9-94---4---4---4---6---6---6---6---7----7|
G|-------------------------------------------------------------|
D|-------------------------------------------------------------|
A|-------------------------------------------------------------|
E|-------------------------------------------------------------|

C# G#
E|11p7-12-12p8---9----------9----9---------9------12-9--------9|
B|----8--8----8/9-9-12(14)~---12-9--------9--12p9-----9-12(14)-|
G|---------------------------------11(13)----------------------|
D|-------------------------------------------------------------|
A|-------------------------------------------------------------|
E|-------------------------------------------------------------|

A#m
E|------9-------9-------9-------9-------9-------9------9-------|
B|12(14)--12(14)--12(14)--12(14)--12(14)--12(14)-12(14)-12(14)~|
G|-------------------------------------------------------------|
D|-------------------------------------------------------------|
A|-------------------------------------------------------------|
E|-------------------------------------------------------------|

B C# G#
E|9-----------9-12(14)-12(14)~9-12(14)-12(14)~-9-12(14)-12(14)~|
B|-12p9------9-----------------9----------------9--------------|
G|-----11(13)--------------------------------------------------|
D|-------------------------------------------------------------|
A|-------------------------------------------------------------|
E|-------------------------------------------------------------|

A#m B C#
E|9-----------9------------------------------------------------|
B|-12-9------9-129---------------------------------------------|
G|-----11(13)-----11(13)11-9-----------------------------------|
D|--------------------------11-9---------------9-11(13)-11-9-11|
A|------------------------------11-10-9-7-10-11----------------|
E|-------------------------------------------------------------|

G# A#m
E|---------------------------------------------|
B|---------------------------------------------|
G|---------------------------------------------|
D|-9--------9-11(13)-9-----------11-13(15)-13~-|
A|---7-9/11------------11~-11/13---------------|
E|---------------------------------------------|

B C# G#
E|------------------------------------9-------9---------------9|
B|-----------------------------------9-12(14)~--12-9--------9--|
G|--------------------------------/10-----------------11(13)---|
D|11/-------11-9~-----------11-9~------------------------------|
A|-------11-------11-10-9-8------------------------------------|
E|----13-------------------------------------------------------|

A#m B C#
E|--------------------------------------------9-9-9------------|
B|-12-9-------------------------------------9---9-9-x----------|
G|------11(13)-11-9--------------11-11(13)~---------x----------|
D|------------------11-9----9h11-------------------------------|
A|-----------------------11------------------------------------|
E|-------------------------------------------------------------|

G#
E|------16-16----16----16----16----16-16-/16-16----16----16-/4-|
B|-/18--18----18----18----18----18----18-/16----16----16-16-/4-|
G|-------------------------------------------------------------|
D|-------------------------------------------------------------|
A|-------------------------------------------------------------|
E|-------------------------------------------------------------|

A#m B
E|-/18-18--21p18---18-18-|
B|-/18-18-------18----18-|
G|-----------------------| fade out
D|-----------------------|
A|-----------------------|
E|-----------------------|

Lyrics:

A E F#m D
Anger! He smiles towering in shiny metallic purple armor.
A E
Queen Jealousy envy waits behind him,
F#m D C# D
her fiery green gown sneers at the grassy ground.
A Bm G D
Blue are the life-giving waters taken for granted,
                                       they quietly understand.
D A
Once happy turquoise armies lay opposite ready,
Bm G G#
but wonder why the fight is on.

A E F#m G
But they're all bold as love.
A E F#m G
Yes they're all bold as love
A E F#m D
Yeah! They're all bold as love.
A Bm D G G#
Just ask the Axis...(He knows ev'ry thing)*2nd time

A E F#m
My red is so confident he flashes trophies of war,
D
and ribbons of euphoria.
A E F#m D C#5 A
Orange is young, full of daring, but very unsteady
                                        for the first go round.
D A Bm
My yellow in this case is not so mellow,
                                     in fact I'm trying to say,
G D
it's frightened like me.
A
And all these emotions of mine keep holding me from
Bm G G#
giving my love to a rainbow like you,
but I'm uh...

(Chorus)
G G#
Yeah! Yeah!

Guitar Solo over (A E F#m G)8x


A G# E7 F#m

(D D D D D D A!)3x

drum break

Outro:
Solo over (C# G# A#m B C) & fade
Вверх

Boy On A String

 Rhy. Fig. 1                   Rhy. Fig. 2
G|-0--0-0-0-0---0-0-0-0-0-0-|| G|------------------------||
U|-5--5-5-5-3---3-3-2-2-2-2-|| U|-----0-------0----0---0-||
I|-0--0-0-0-0---0-0-0-0-0-0-|| I|---0-------0----0-0-0-0-||
T|-5--5-5-5-3---3-3-2-2-2-2-|| T|-2-------2------2---2---||
A|-0--0-0-0-0---0-0-0-0-0-0-|| A|------------------------||
R|-5--5-5-5-3---3-3-2-2-2-2-|| R|------------------------||
1| e. s s s e/s e s s s s s    2| e s s/e e s e. s s s s

 Rhy. Fig. 3
E|--------0--------------||   G|------------------------||
B|------------0----0---0-||   U|-----0-------0----0---0-||
G|----0----------0-0-0-0-||   I|---0-------0----0-0-0-0-||
D|---------------2---2---||   T|-2-------2------2---2---||
A|-2---------------------||   A|------------------------||
E|-----------------------||   R|------------------------||
1| e. s/e e/s e. s s s s      2| e s s/e e s e. s s s s

 Rhy. Fig 4 a                   Rhy. Fig. 5a
G|-0---0-0-0-0---0-0-0-|---|  G|-0--0-0-0-0---0-0-0-0-0-0-|-0-|
U|-5---5-5-5-3---3-3-3-|---|  U|-5--5-5-5-3---3-3-3-3-3-3-|-3-|
I|-0---0-0-0-0---0-0-0-|---|  I|-0--0-0-0-0---0-0-0-0-0-0-|-0-|
T|-5---5-5-5-3---3-3-3-|---|  T|-5--5-5-5-3---3-3-3-3-3-3-|-3-|
A|-0---0-0-0-0---0-0-0-|---|  A|-0--0-0-0-0---0-0-0-0-0-0-|-0-|
R|-5---5-5-5-3---3-3-3-|---|  R|-5--5-5-5-3---3-3-3-3-3-3-|-3-|
1| e.  s s s e/s e s q / w |  1| e. s s s e/s e s s s s s / w |
 |                     |   |   |                          |   |
 Rhy. Fig. 4b          |   |   Rhy. Fig. 5b               |   |
G|-0---------0-------0-|---|  G|--------------------------|---|
U|-5---------3-------3-|---|  U|----5---------3-----3---3-|-3-|
I|-0---------0-------0-|---|  I|----0---------0---0-0-0-0-|-0-|
T|-5---------3-------3-|---|  T|-5--------3-------3---3---|-3-|
A|-0---------0-------0-|---|  A|--------------------------|-0-|
R|-5---------3-------3-|---|  R|--------------------------|---|
2| q/e       q/e     q / w    2| e. s/e   e/s e.  s s s s / w


Chorus     But you don't really mind       Cause you're just
wasting time
   You can't feel anything,
G||--0--0-x-0-0-0-0-0-0-|-0-0-0---0-0-0---0-0-0-0-|
U||--5--5-x-5-3-2-0-0-0-|-0-0-0---0-0-0h2-0-0-0-0-|
I||*-0--0-x-0-0-0-0-0-0-|-0-0-0---0-0-0---0-0-0-0-|
   just a boy on a string.
T|-0--0-x-0-0-0-0-0-0-|-0--0-0-0-0---0-0-0-0-0-0--|
A|-5--5-x-5-3-2-0-0-0-|-2--2-2-2-0---0-0-0-0-0-0--|
R|-0--0-x-0-0-0-0-0-0-|-0--0-0-0-0---0-0-0-0-0-0-*|
Вверх

Burning Desire

E|----------------------6-----6----6-----6---------------------|
B|----------------------6-----6----6-----6---------------------|
G|--------5(7)5---------4-----4----4-----4------5(7)5--5-3~----|
D|-------------5-5-3~---5-----5----5-----5-----------5---------|
A|-15-3-5----------------------------------2-3-----------------|
E|-13-1-3-------------3---3-3---3----3-3-----------------------|

E|-6--6-6---6--------------------------------------------------|
B|-6--6-6---6--------------------------------------------------|
G|-4--4-4---4-7-7-7-7-7-7-7-7-7-6-6-6-6-5-5-4-4-3-3-3-3-3-3-3-3|
D|-5--5-5---5--------------------------------------------------|
A|------------5-5-5-5-5-5-5-5-5-4-4-4-4-3-3-2-2-1-1-1-1-1-1-1-1|
E|3-33-3-3-3---------------------------------------------------|

E|-------------------------------------------------------------|
B|-------------------------------------------------------------|
G|-4-4-4-5-5-6-6-7-7-7-7-7-7-7-7-8-8-8-8-9-9-9-9-10-10-10-10-10|
D|-------------------------------------------------------------|
A|-2-2-2-3-3-4-4-5-5-5-5-5-5-5-5-6-6-6-6-7-7-7-7-8--8--8--8--8-|
E|-------------------------------------------------------------|

E|--------------------------------------------|
B|--------------------------------11-14--14---|
G|-10-10-10-11-11-11-11--11-11-11--------11---|
D|--------------------------------------------|
A|-8--8--8--9--9--9--9------------------------|
E|--------------------------------------------|

2nd verse
E|-------------------------------------------------------------|
B|-------------------------------------------------------------|
G|------------------3-5(7)-5(7)-5(7)-5(7)-5(7)5-3--------------|
D|---5-----3---5--5-------------------------------3-5---7-6-5~-|
A|-----3-5----------------------------------------------5-4-3~-|
E|-3---------3-------------------------------------------------|

E|-------------------------------------------------------------|
B|-------------------------------------------------------------|
G|---5------3---5--5-3-5(7)-5(7)-5(7)-5(7)-5(7)5-3-------------|
D|------3-5------------------------------------------5-3(4)----|
A|-3----------3---------------------------------------------5~-|
E|-------------------------------------------------------------|

E|-------------------------------------------------------------|
B|-------------9-7-------7-5-----------------------------------|
G|---0---------9-7-------7-5-----------------------------------|
D|----3p0------9---9-----7---7--------------5-5-8-8-7-7-6-6----|
A|--------3-------------------------3-4-5-5-----------------6-6|
E|1-3-------5-7-------3-5-----5-6-7----------------------------|

E|------------------------------6p4-----------------|
B|----------------------------------6p4-------------|
G|------------7-7-7-7-7-7-7-7-----------6p42--------|
D|---5----6---7-7-7-7-7-7-7-7-----------------4-2-0-|
A|-0-3--x-4---5-5-5-5-5-5-5-5-----------------------|
E|--------------------------------------------------|

E|-------------------------------------------------------------|
B|-------6(8)-6-3-----------------6(8)6-6(8)3------------------|
G|---------------5(7)-5(7)-3~----------------5-3-3h5-5p3-3-5p3-|
D|---5-3~--------------------5-3----------------5-------5-----5|
A|------------------------------5~-----------------------------|
E|1-3----------------------------------------------------------|

E|---------------------------------------------7---6--5-3---2-2|
B|---------------------------------------------6---------------|
G|3h5-5(7)-5p3---3-5(7)5p3--3-3h5-3h5-3h5p3-/7-7-/6--5--3h4-2--|
D|-------------5----------5----------------5-------------------|
A|-------------------------------------------------------------|
E|-------------------------------------------------------------|

E|--3----5---7---10----------------10--------------------------|
B|-------------------------10---------13p10--------------------|
G|/4--/5---/7-/11---12(14)----(14)----------12p10----10(11)----|
D|------------------------------------------------12--------12-|
A|-------------------------------------------------------------|
E|-------------------------------------------------------------|

E|---------------------------------|
B|---------------------------------|
G|----5-7(9)-7-5(6)---5-7(9)-7-5---|
D|-/7---------------7------------7-|
A|---------------------------------|
E|---------------------------------|

E|-------------------------------------------------------------|
B|--------11------11-----------------9-------9-----------------|
G|-----8--10(12)-(12)10-8h10-8----8~-8(10)-(10)8-8p6---x-5-x-6-|
D|-----8-----------------------10--------------------8-x-5-x-6-|
A|-/10-------------------------------------------------x-3-x-4-|
E|-------------------------------------------------------------|
  16x    8x
E|---|-------|-------------------------------------------------|
B|---|-------|--17p15--15-17~(19)17-15-17-15-------------------|
G|---|-------|7/-----16---------------------17-17~1614-12------|
D|---|-------|7/-----------------------------------------14----|
A|5-3|5p3-3-4|5/-------------------------------------------1210|
E|---|---5---|-------------------------------------------------|

E|---------------------------------------------------|
B|--------------------------------13--13-------------|
G|-------------5-5-7-7-9-9-/1311--------10/12--12-12-|
D|----1210-----------------------10--10--------------|
A|-------------3-3-5-5-7-7-/119----------8/10--10-10-|
E|-12-108--------------------------------------------|

                                         4x
E|---------------------------------------||-3p1p0--------|
B|-----7-----5-----9-----7---------------||-------3p1p0--|
G|-----7-----5-----9-----7---------3t5~~-||--------------|
D|-7-7---5-5---9-9---7-7---5-4---5-------||--------------|
A|-5-5---3-3---7-7---5-5---3-2-5-5-------||--------------|
E|-------------------------------3-------||--------------|

E|3p1p0-3h5-3-----------------------|
B|------------5-3~------------------|
G|-----------------/4~-5-4h5p4-0-/7-|
D|----------------------------------|
A|----------------------------------|
E|----------------------------------|

E|-------------------------------------------------------------|
B|-------------------------------------------------------------|
G|4t5~-2t4~-0-/12-10~------------------------------------------|
D|-------------------12p10----12p10-------------12-------10-12-|
A|-------------------------12-------12-12-11-10----10-12-------|
E|-------------------------------------------------------------|
   4x
E|----||---------||
B|----||------13-||
G|-10-||12(14)---||
D|----||---------||
A|----||---------||
E|----||---------||

E|---2x--------------------------------------------------------|
B|-13p10----------------------------------13(15)~-13h15p13-----|
G|-------12p10--------12(14)-12-10(11)---------------------14--|
D|-------------12-10-------------------12----------------------|
A|-------------------------------------------------------------|
E|-------------------------------------------------------------|

E|---------------------------|
B|----15(17)-15-13----15-13~-|
G|-----------------14--------|
D|-15------------------------|
A|---------------------------|
E|---------------------------|

E|-------------------------------------------------------------|
B|-----7------5-----9-------12-------11-----5-----4------2-----|
G|-----7------5-----9-------12-------11-----5-----4------2-----|
D|-7-7----5-5---9-9---12-12----11-11----5-5---4-4----2-2-------|
A|-5-5----3-3---7-7---10-10-----9--9----3-3---2-2----0-0-------|
E|---------------------------------------------------------0-1-|

E|-----|
B|-----|
G|-----|
D|-----|
A|-----|
E|-2-3-|

E|-----------------1h3p1p0-------------------------------------|
B|-3---3-------------------3p1p0----------6h8p6----------------|
G|-5(7)5(7)-3-5~-3---------------4-5~--/7-------7-5-3---3-5----|
D|-----------------------------------------------------5-------|
A|-------------------------------------------------------------|
E|-------------------------------------------------------------|

E|---------15----------------|
B|------------18p15----------|
G|-17(19)----------17-15-----|
D|------------------------17-|
A|---------------------------|
E|---------------------------|
             4x
E|-/17-13-----17p13--------------------------------------------|
B|--------13--------13-13(15)-13-13-10-------10-13(15)-13(15)~-|
G|-------------------------------------12-10-------------------|
D|-------------------------------------------------------------|
A|-------------------------------------------------------------|
E|-------------------------------------------------------------|

E|-13----13-----|
B|----15----15~-|
G|--------------|
D|--------------|
A|--------------|
E|--------------|

E|-15(17)-15-15(17)--------15h17p15----------------------------|
B|------------------15-15~----------17-15----15-18~------------|
G|----------------------------------------16-------------------|
D|-------------------------------------------------------------|
A|-------------------------------------------------------------|
E|-------------------------------------------------------------|

E|-18(20)18(20)-15-18---------------18--------|
B|--------------------15--15-18(20)----18-15~-|
G|--------------------------------------------|
D|--------------------------------------------|
A|--------------------------------------------|
E|--------------------------------------------|

E|-------------------------------------------------------------|
B|-----7-----5-----9-----7------7--------------4-------------4-|
G|-----7-----5-----9-----8------7------5-------4------3------4-|
D|-7-7---5-5---9-9---9-9----7-7--------6---4-4--------4--4-4---|
A|-5-5---3-3---7-7---9-9----5-5----7-7-----2-2----4-4----2-2---|
E|-------------------7-7-----------5-5------------2-2----------|

E|-------------------------|
B|-----3-------------------|
G|-----3-------------------|
D|-1-1-----------------3~--|
A|-1-1-----------1-3-5-----|
E|-------0-1-2-3-----------|

      4x
E|-------------------------------------------|
B|-------------------------------------------|
G|------------------------------------6~~----|
D|-5p3--5p3-------------------------------8--|
A|------------13-------5-8-------5-8---------|
E|------------13--3-/7------/5-7-------------|

Bridge:
                        repeat many times
E|------------------||----------10-----9---8-||
B|----5---5---5---5-||-12-------10-----9---8-||
G|------------------||-12-------10t11-10---9-||
D|--5---5---5---5---||-12h14p12-10-----9---8-||
A|------------------||-----------------------||
E|------------------||----------10-----9---8-||

   repeat many times     with these licks scattered throughout
E|-----------8----7---6-|--------------|--------------|
B|-10--------8----7---6-|------13------|--------------|
G|-10--------8t9--8---7-|--/14----14---|--7-8-10-8-7--|
D|-10h12p10--8----7---6-|--------------|--------------|
A|----------------------|--------------|--5-6-8--6-5--|
E|-----------8----7---6-|--------------|--------------|

E|-/10-8------------------------|
B|-------10p8-------------------|
G|------------10-8-10-(11)-10-8-|
D|------------------------------|
A|------------------------------|
E|------------------------------|

E|10(12)10-8---------------------------------------------------|
B|-----------10-8----------------------------------------------|
G|----------------10(11)10~-8-10(11)-10-8~---------------------|
D|--------------------------------------------10-12(14)12-10---|
A|----------------------------------------/12----------------12|
E|-------------------------------------------------------------|

repeat verse before bridge and then follow the crescendo
with this:
    4x                4x
E||-5-5-6-7-6-5-||--/17-17-17-17-17-17-17-18-17-||
B||-5-5-6-7-6-5-||--/17-17-17-17-17-17-17-18-17-||
G||-5-5-6-7-6-5-||--/17-17-17-17-17-17-17-18-17-||
D||-4-4-5-6-5-4-||--/16-16-16-16-16-16-16-17-16-||
A||-5-5-6-7-6-5-||--/17-17-17-17-17-17-17-18-17-||
E||-------------||------------------------------||

Lyrics:

Burning desire sets my soul on fire
Burning desire sets my soul on fire
I feel my body drowning in your sea of love
But in the meantime there's nothing to dream

Between Hell and Heaven you just may see me chase my heart
 everywhere
Burning desire hotter than an electric chair

Burning desire hotter than an electric chair

Bridge:

Last night sure was sweet
it sure was good this time around
you really sent me around and around, round and round

You came on down hard on me baby
you showed me just how love could be
that's the way I like it to be
I better leave now baby
Baby I'll see you about 2 or 3, yeah
Вверх

Burning Of The Midnight Lamp

  intro/bridge
G|----------3h5------------------------------------------------|
D|--3h5---------3---1h3---3-2----------------------------------|
A|------3---------------3-----3-5-5-3-5-7---23202--------------|
E|------------------------------------------------23-----------|

  verse
G|-------------------------------------------------------------|
D|-------3--3020--------------------------------2-2-----1-2----|
A|-----23-------5-5--35-5-3h5-3-2-2-----22222222----2h3--------|
E|1-1-------------------------------1-12-----------------------|

E|-------------------------------------------------------------|
B|-2020----/5-/5-33445----23/5--55-3--------3---3034045--------|
G|-----3-3--------------33-----------55-5050-------------------|
D|--------------------------------------------1----------------|

  chorus (x3) (drop that last 5 and use this 3 on the third run
          through)
G|-------------------|----|
D|5--/5--/5--2h3445--|----|
A|-------------------|----|
E|-------------------|3---|
Вверх

Changes

  intro
G|----------------11---13-12------------------------|
D|---------------------------12---------------------|
A|9-8-----------6---------------9-8-----------6-9--|
E|-----9-8--8-9----------------------9-8--8-9-------|

   interlude (x2)
G|----------------------------------------|
D|------4---------------------------------|
A|4h6-6---6-4-2-------------4---------6---|
E|--------------4-4---4h6-6---6-4-2-0-----|

  verse riff
G|-------------------------------------|
D|-----------2h31-------------2h31h21--|
A|----2-2-2h3----------2-2-2h3---------|
E|0-0--------------0-0-----------------|
Вверх

Come On

INTRO:

eb|-7-7-7-7-7-7--7-7-7-7-7-7-|-5-5-5-5--5---------------|
Bb|-8-8-8-8-8-8--8-8-8-8-8-8-|-7-7-7-7--7--7------------|
Gb|--------------------------|--------------------------|
Db|--------------------------|----------------2---------|
Ab|--------------------------|--------------------------|
Eb|--------------------------|-------------------3(b)---|

VERSE:

eb|---|---------|
Bb|---|---------|
Gb|---|---------|
Db|-2-|-2-------|
Ab|---|---------|
Eb|---|----3(b)-|
      People talkin but they just don't know,

eb|---|---------|
Bb|---|---------|
Gb|---|---------|
Db|-2-|-2-------|
Ab|---|---------|
Eb|---|----3(b)-|
     What's in my heart and why I  love you so

eb|---|---------|
Bb|---|---------|
Gb|---|---------|
Db|-2-|-2-------|
Ab|---|---------|
Eb|---|----3(b)-|
  I love you baby like a  miner loves gold

eb|---|--------------------|
Bb|---|--------------------|
Gb|---|--------------------|
Db|-2-|--------------------|
Ab|---|-----5--------------|
Eb|---|-5h7---5----3--5--0-|
 Come on sugar let the  good times roll Hey!

CHORUS
  E7#9              A13
eb|---------------------|-----------------------------|
Bb|----8----8--8-----7--|-----------------------------|
Gb|----7----7--7--x--6--|-----6-----------------------|
Db|----6----6--6--x--5--|--------------------5--------|
Ab|---------------------|--------------5--7-----7--5--|
Eb|---------------------|---------5--7----------------|

eb|-----------|------------------------------|-----------------|
Bb|---8-8-8-8-|------------------------------|-----------------|
Gb|---7-7-7-7-|-9p7----------9p7-------------|---6-6-6---------|
Db|---6-6-6-6-|-----9p7----------9p7---------|-7-5-5-5p0--5(b)-|
Ab|-----------|---------10p7---------10(b.5)-|-----------------|
Eb|-0---------|------------------------------|-----------------|

eb|-----------------|------------------|-----------------------|
Bb|-----------------|-----8------------|-----------------------|
Gb|-----------------|-----7--7--7------|-----------------------|
Db|-7(b)-7-5-7----5-|-----6--6--6--0---|------0h1--2-----------|
Ab|------------7----|------------------|----2--------2---------|
Eb|-----------------|--0-------------3-|-4-------------3(b.5)--|

eb|----------------------|---------------------|---------------|
Bb|-----3----3--3--------|---------------------|----8----------|
Gb|-----2----2--2--------|---------------------|----7--7--7----|
Db|----------------1--0--|-2--5(b)-------------|----6--6--6----|
Ab|--2-------------------|----------5--7-------|---------------|
Eb|----------------------|----------------5(b)-|-0-----------0-|

eb|----------------------|-------------------|-----------------|
Bb|----------------------|-------------------|-----------------|
Gb|--8--8----8-----------|-------------------|-----------------|
Db|--7--7----7---2-------|-------------------|-----------------|
Ab|-------(0)------------|--2----------------|-----------------|
Eb|-----------------3(b)-|-------------------|-----------------|

                          So many people live in make believe...

VERSE 2:  Same riff as verse 1
	  So many people live in make believe
          That keep a lot a goin up their sleeve
	  but my love baby isn't the kind that fold
          come on baby let the good times roll...

eb|-----------|-------------------------|----------------------|
Bb|-----------|-------------------------|----8----------8------|
Gb|-----------|-------------------------|----7----7--7--7--6---|
Db|-----------|-------------------------|----6----6--6--6--5---|
Ab|-----------|-------5-----------------|----------------------|
Eb|-----------|--5h7-----5--7--3--5--0--|-(0)------------------|

 good times roll..             Hey!                   Hey    ba-
eb|-----------------------------------|----------------------|
Bb|-----------------------------------|------8---------------|
Gb|---6-------------------------------|------7---------------|
Db|---5----5----5----5----------------|------6--6--6--6--6---|
Ab|-----------------------7-----5-----|------------------7---|
Eb|-----------------------------------|-0----------------0---|

  by  let the good times roll
eb|-------------------------|----------------------|
Bb|-------------------------|----------------------|
Gb|-------------------------|-----6----6--6--6-----|
Db|--6--6--6----------------|-----5----5--5--5-----|
Ab|--7--7--7--7--7--7--5h7--|--0----------------0--|
Eb|-----------0-------------|----------------------|

  Wo     little    baby,                      come
eb|-----------------------|---------------------|--------------|
Bb|-----------------------|-----8----8--8--8----|--------------|
Gb|-----------------------|-----7----7--7--7----|----7-7---6---|
Db|----------5--5--5----5-|-----6----6--6--6----|-6--6-6-6-6-5-|
Ab|-0--0--0--0--0--0----0-|----------7--7--7--7-|----7-7-7-7---|
Eb|-----------------------|-0-----------------0-|--------------|

  on and let daddy thrill your soul               Hey      ba-
eb|---------------|----------------------|---------------------|
Bb|---------------|----------------------|---------------------|
Gb|----8--8--7--6-|----------------------|-------7-----7--0--7-|
Db|----7--7--6--5-|-5---------5--5-------|-------6--6--6--6--6-|
Ab|---------------|-----5--7--------7--5-|-------7--7--7--7--7-|
Eb|-7--7--7-------|---7------------------|-10--0----0----------|

        by               Let the good times roll

                    Wah on
eb|-----------------|--2--3--4--5--6--|
Bb|-----------------|--2--3--4--5--6--|
Gb|--3--4--5--6--7--|--2--3--4--5--6--|  solo for about 34 bars
Db|--4--5--6--7--8--|--1--2--3--4--5--|
Ab|--4--5--6--7--8--|--2--3--4--5--6--|
Eb|--2--3--4--5--6--|-----------------|

After the solo:

eb|----------------------|------0--0----0----|------7--0-------|
Bb|----------------------|-------------------|-8----0-(0)------|
Gb|--------------7--7----|-7----8--8----8--7-|---7--------7--6-|
Db|--------6--6--6--6--6-|-6----7--7----7--6-|---6--------6--5-|
Ab|-14-----7--7--7--7--7-|-7-----------------|-----------------|
Eb|-----0----------------|-------------------|-----------------|

eb|--------7--0-------|-0-------------------|--------0-----0---|
Bb|---8-------0--8--7-|------0-----8----0-0-|---8--0-0--8--0---|
Gb|-6---6-----------6-|---7--7--7--7--7-----|-7-7--7-7--7--7-6-|
Db|-5--(5)------------|---6--6--6-----6-----|-6--------------5-|
Ab|-------------------|---------------------|------------------|
Eb|-------------------|---------------------|------------------|

eb|------------7-0-----|-----7--6--5-------|---------7--10---0-|
Bb|---7(b.5)---0-0---8-|-0-0---------8-5---|------8--0-----8p0-|
Gb|---6------6-6---6-6-|-6---------------0-|-7-7-----7--7------|
Db|-5--------5-----6---|-5---------------0-|-6-6-----6--6------|
Ab|--------------------|-------------------|-------------------|
Eb|--------------------|-------------------|-------------------|

eb|-----0----0-----0-------|-----------------|-----------------|
Bb|---8p0--8p0-------------|----9p7--7-------|-----------------|
Gb|-------------7-----7-7/-|-8--8----8--8--6-|-----------------|
Db|-6-----------------6-6/-|-7--7----7--7--5-|---------5--7--5-|
Ab|------------------------|-----------------|------5----------|
Eb|------------------------|-----------------|-5--7------------|

eb|--------------------|--------------|----7-----10--7---------|
Bb|----8----8--8--8--8-|--------------|----0--0--0---0--7--6---|
Gb|----7----7--7--7--7-|-8----8--8--7-|-7-----7------7--6--5---|
Db|----6----6--6--6--6-|-7----7--7--6-|-6----------------------|
Ab|--------------------|--------------|------------------------|
Eb|-0------------------|--------------|------------------------|

eb|---7--6--5-------0-|-0-----------------0--0-|---------------|
Bb|-6----------8--5-0-|-0-----------8--0--0--0-|---8---0-0-8---|
Gb|-5-----------------|----7--7--7-------------|-7---7-------6-|
Db|-------------------|----6--6--6-------------|-------------5-|
Ab|-------------------|------------------------|---------------|
Eb|-------------------|------------------------|---------------|

eb|-----------------------|-0--0--------0------|-------7-----0-|
Bb|----8p5--8p5--8p5--8p5-|-0--------0-----8---|---8-----8p0---|
Gb|-6--6----6----6----6---|-6-----6----------7-|-7---7-------7-|
Db|-5---------------------|--------------------|-6-----------6-|
Ab|-----------------------|--------------------|---------------|
Eb|-----------------------|--------------------|---------------|

eb|-7---7----7----------|---------------------|----------------|
Bb|---8----8------------|----9--------9-------|----------------|
Gb|---7---------7--7--8-|-8--8--8--8--8--8--6-|----------------|
Db|---6---------6--6--7-|-7--7--7-----7--7--5-|--------7-------|
Ab|---------------------|---------------------|------5---5-7---|
Eb|---------------------|---------------------|-5--7-----------|

eb|------------------------|-----------------|-----------------|
Bb|-------8----------------|-----------------|-----------------|
Gb|-------7----7--7--7-----|-----8-----------|-----------------|
Db|-------6----6--6--6-----|-----7--------5--|-----------------|
Ab|------------------------|-----x-----------|--7--------------|
Eb|--0------------------0--|--7-----7--7-----|--0--------------|

                                        A love is nice if it's

Third Verse with same riff as verses 1 and 2:

A love is nice if it's understood
It's even nicer when you're feelin good
You got me flippin like a flag on a pole
Come on sugar let the good times roll...

eb|-----------------------|-----------------|------------------|
Bb|-----------------------|-8---------------|------------------|
Gb|-----------------------|-7----7-----7--6-|----6-------------|
Db|-----------------------|------6--6--x--5-|----5-------------|
Ab|------5----------------|---------7--7----|------------5-----|
Eb|-5h7-----5--7--3--5--0-|---------------5-|-5-----5h7-----0--|
    Roll...                        yeah        letthegoodtimes

eb|-----------------------|------------------------------------|
Bb|-----8-----------------|------------------------------------|
Gb|-----7-----7--7--------|--------7---------------------------|
Db|--------6--6--6--------|-----6--6--6--7p5-------------------|
Ab|--7-----7--7--7--7--7--|--7--7--7--7-------7p5--5p0--0------|
Eb|--0-----0--0--0--0--0--|--0--0--0--0------------------------|
  roll

eb|-----------------|------------------|-----------------------|
Bb|-----------------|------------------|-------8-----8--8--6---|
Gb|-----6---6-6---6-|-6---6---6-6-6----|-------7-----7--7--7---|
Db|-----5---5-5---5-|-5---5-5-5-5-5----|-------6-----6--6--6---|
Ab|-0-0---0---------|---0--------------|-7--7--7-----7--7--7---|
Eb|-5-5---------0---|----------------0-|-0--0-----0----------7-|
  Thrill me baby            Showpapahow good timesroll

eb|---------------------|-----------------|--------------------|
Bb|-----0---------------|-----------------|--------------------|
Gb|---------------------|-----8---8-8---6-|-6------------------|
Db|-----5---------------|-----7---7-7---5-|-5-------------5----|
Ab|-5-7---7--5----7p5---|-----------------|--------5--7--5--7-5|
Eb|-------------------7-|-7-7---7-----0---|----5h7-------------|
  mama let me thrill yoursoul                  letthegoodtimes

                   wah on             OUTRO RIFF
eb|---------------------------------|--------------12----------|
Bb|----------------8--8--8----8--8--|------12------12--12------|
Gb|----------------7--7--7----7--7--|------12----------12------|
Db|----------------6--6--6----6--6--|--14------14----------14--|
Ab|----7--7--7--7-------------------|--------------------------|
Eb|-0--0--0--0--0-------------------|--------------------------|
  roll...

    OUTRO RIFF (LOWER OCTAVE)
eb|----------0--------|
Bb|-----0----0--0-----|
Gb|-----0-------0-----|
Db|--2-----2-------2--|
Ab|-------------------|
Eb|-------------------|
Вверх

Crosstown Traffic

                                C#7#9             F#7
E|------------------------9------------------------------------|
B|------9-9-9-9-9-9-9-9-9---119-------12-9---------------------|
G|-11^^----------------------------/13------119----11-9--------|
D|-----------------------------------------------11------------|
A|-------------------------------------------------------------|
E|-------------------------------------------------------------|
{eot}

 C#7#9                              F#7
You jump in front of my car when you, you know all the time,
                                                         that a
 C#7#9                           F#7
Ninety mi-les an hour girl is the speed I drive
 Bm7                     E7b9
You tell me it's al-right, you don't mind a little pain
 Am7                       G#7b5
You say you just want me to take you for a drive

You're just like
{soc}
 C#7#9                            F#7
(Crosstown traffic) so hard to get through to you
 C#7#9                             F#7
(Crosstown traffic) I don't need to run over you
 C#7#9
(Crosstown traffic) all you do is slow me down
       Bsus4
and I'm trying to get to the other side of town
{eoc}

 C#7#9                     F#
I'm not the only soul who's accused of hit and run
 C#7#9                                F#
Tyre tracks all across your back I can (heh)
I can see you had your fun
       B7#9                    E7b9
But ah, darlin' can't you see my signals turn from green to red
 A7#9                           G#7b5
and with you I see a traffic jam straight up ahead

{c: Chorus (twice)}
Вверх

Dolly Dagger

TUNE DOWN 1/2 STEP
E|-----------------------|------------------|------------------|
B|-----------------------|------------------|------------------|
G|-----------------------|------------------|------------------|
D|-----------------------|------------------|----------------0-|
A|-------7/9---5---7-----|------------------|----------0^2-----|
E|---------------------5-|--7/9---5---7---2-|--2---1-----------|

/ = Slide
^ = Hammer

Verse 1:
Here comes Dolly Dagger
Her love?s so heavy
Gonna make you stagger
Dolly Dagger
She drinks the blood from a jagged edge
Aw, drink up baby

Verse 2:
Been riding broomsticks, since she was fifteen
Blowin? out all the other witches on the scene
She?s got a bullwhip just as long as your life
Her tongue can even scratch the soul out of the devil?s wife
Well, I seen her in action at the Player?s Choice
Turn all the love men into doughnut boys.
Hey red hot mama you better step aside
This chick is gonna turn you to a block of ice
Look Out

Verse 3:
Here comes Dolly Dagger
Her love?s so strong
Gonna make you stagger, baby
Dolly Dagger
She drinks the blood from the jagged edge.
Uh, right on, drink up baby
Hey

Verse 4:
Yeah, look at the old burnt out Superman
Tryin? to shoot his dust on the sun
Captain Karma kids
They?re dead on the run
Oh, words of love
Do the ever tough Dolly Brown?
Better get some highway an? clear outta town
Here comes Dolly Dagger
Her love?s so heavy
Gonna make you stagger
Dolly Daggger
She ain?t satisfied ?til she gets what she?s after
She drinks the blood from the jagged edge
You better watch out baby
Here comes your master
Вверх

Dolly Dagger (2 вариант)

E|-7-7-7-7----10-10-10-10------14-14-14-14---------------------|
B|-7-7-7-7----10-10-10-10/9----14-14-14-14---------------------|
G|-8-8-8-8----11-11-11-11/9----14-14-14-14---------------9-----|
D|-9-9-9-9---------------------13-13-13-13-------7---7---9-----|
A|-----------------------------14-14-14-14---7h9---9---9-------|
E|-------------------------------------------------------------|
Вверх

Drifters Escape

  main riff
G|------4-----------|
D|646--6-6--646-----|
A|-------------4464-|
E|-----------------4|

Here are some variations of that pattern

G|------4------4464-|------------------|------------------|
D|646--6-6--646----6|------------------|-----------------6|
A|------------------|------2------2242-|------2------2242-|
E|------------------|424--4-4--424----4|424--4-4--424-----|

  After about two minutes of the song,
                     it changes to these riffs and variations of
G|--------4-|----------|
D|6646--66-6|----------|
A|----------|--------2-|
E|----------|4424--44-4|
Вверх

Earth Blues

  chorus (repeat)        verse (x3)
G|----------------------|------------------------4----|
D|5-4-3-------------3---|--5-------5----5----3-5---5--|
A|------54131-3---35-535|5---5--3-5---5---5-----------|
E|--------------3-------|-----------------------------|

end of verse (possibly)
E|-------------------------|
B|--5---3-3-5--------3-53--|
G|5---5-------3344335-5--5-|
D|-------------------------|

  interlude

   (x4)                       (x4)
G|--------------------------|--------------|
D|----2--2-2-2--------------|---------2----|
A|2-4--------------3--3-3-3-|2----------4--|
E|-------------0-3----------|--3-0--3------|

Use innovations of the chorus for the solo.

  outro
   (x3)                    Add this after that last riff to end
G|------------------------------------------|--------12-3-4-5-7|
D|5-4-33333333(3)2-1------------------------|12-3-4-5----------|
A|------------------5-43-2-11111111(1)2-34-5|------------------|
E|------------------------------------------|------------------|
Вверх

Ezy Rider

INTRO:
Em7
Em
D A G Em D

 Em D      A   G   Em                   D
Ezy Ezy Rider Riding down the highway of desire. He said
  Em                        D  A  G  Em
the free wind takes him higher trying to find his heaven
      D                    Em   D A    G     Em
above, but he's dying to be loved Dying to be loved.
 D  D  Em  D  A  G  Em  D  Em
How long do  you think he's gonna
last? Can I forcast?
Вверх

Ezy Rider (2 вариант)

Intro:
4X
E|-------------------------|
B|-------------------------|
G|-4--6--7--9--------------|
D|--------------9--7--5--2-|
A|-2--4--5--7--------------|
E|--------------7--5--3--0-|

E|-----------------------------------------------|
B|-----------------------------------------------|
G|-4--6--7--4--6--7--4--6--7--12--12--12--12--12-|
D|-----------------------------------------------|
A|-2--4--5--2--4--5--2--4--5--10--10--10--10--10-|
E|-----------------------------------------------|

Verse: 4X
E|--------------------------------------------------------|
B|--------------------------------------------------------|
G|--------------------------------------------------------|
D|---------------------7--5-------------------------------|
A|----------2-4-5--5/7----------------2-4-5-4-5-4-5-4-5-4-|
E|-0-1-2-3-------------5--3--0-1-2-3----------------------|

E|-------------------------------------------|
B|-------------------------------------------|
G|-76-76-76-76-76-76-76-7--98-98-98-98-98-98-|
D|-------------------------------------------|
A|-54-54-54-54-54-54-54-5--76-76-76-76-76-76-|
E|-------------------------------------------|
third time go to outro

4X
E|-----------------------------|
B|-------------------------8-8-|
G|-------------------------7-7-|
D|--7(9)7--5h7-----7(9)7---6-6-|
A|-------7----5h7-------7--7-7-|
E|-----------------------------|

4X
E|---------------------|
B|---------------------|
G|---------------------|
D|-----------------5---|
A|---5-6-7~---5-6-7-7~-|
E|-0--------0----------|

E|-----------------------|
B|-----------------------|
G|-12-12--14-15-14-12-9--|
D|-----------------------|
A|-10-10--12-13-12-10-7--|
E|-----------------------|

4X
E|-----6------8-----10----------------------|
B|-----6------8-----10----------------------|
G|-----4------6------8---12----12--14-12----|
D|-----5------7------9---12-14-12--------14-|
A|------------------------------------------|
E|-3-3----5-5----7-7------------------------|

4X
E|-----------------|
B|-----------------|
G|-----------------|
D|----5---7(9)-5---|
A|-/7---7--------7-|
E|-----------------|

back to intro 2X

Outro:
(continue pattern of repeating the half-note slides
and octave pairs 8x each)
E|-----------------------------12-12-15-15-17-17--20-20--|
B|---------------1312--1514------------------------------|
G|-1211--1413----------------9--9--12-12-14-14--17-17----|
D|---------------109---1211------------------------------|
A|-109---1211--------------------------------------------|
E|-------------------------------------------------------|

Lyrics:

Here comes Ezy,
Ezy Ryder
Riding down the highway of desire.
He said	the free wind takes him higher
trying to find his heaven above,

but he's dying to be loved
Dying to be loved.

He's gonna be living so madly
Today is forever so he claims
He's talking about dying it's almost tragic baby
But don't you worry about today
We got freedom coming our way

How long do  you think he's gonna last? Can I forecast?

See all the lovers say,  do what you please.
gotta get the brothers together and the right to be free.
In a cloud of angel dust I think I see me a freak.
Hey, motorcycle mama you gonna marry me?

Gonna be stoned crazy
Love come in kinda easy
Stoned crazy, baby
Вверх

Fade To Grey

Intro:
Cm Fm7 Bb Gm7

Verse 1:
Cm7                  Fm7                      Bb
Oh, it's not hard to know what you're thinking
         Gm7             Cm7
When you look down on me now
     Fm7               Bb
Your trance of love is seeking
   Gm7              Cm7
To turn this world around
          Fm7               Bb
But in my state of blind confusion
   Gm7             Cm7
No god can pull me out
  Fm7              Bb
I see your love is willing
   Gm7            Cm
To turn me inside out

Chorus 1:

G                  C2    Bb6 Dm7
And then I see you there

G                  C2  Bb
The lonely tears I cry

  Dm7
I wish they'd release me

Verse 2:
Cm7                Fm7              Bb
        It's in despair that I find faith
Gm7                      Cm7
Summons the night to bow down to day
     Fm7          Bb
When ignorance is bliss
          Gm7            Cm
Won't you save me from myself

Chorus 2:

G                  C2
And then I see you there
Bb6                    Dm7
With your arms open wide and you try to embrace me
G                    C2
These lonely tears I cry
Bb6                     Dm7
They keep me in chains and I wish they'd release me
G                   C2
Cold is the night but
Bb6                        Dm7
Colder still is the heart made of stone turned from clay
G                  C2
And if you follow me
       Bb6                        Dm7
You'll see all the black, all the white, fade to grey

Interlude:
*tab*
G|-----0-1-0----0-1-0----0-1-1----0-1-1-|
D|---1--------0-------------------------|
A|---------------------3--------3-------|
*chords*
Cm   Cm/Bb   Ab

Fade to grey, yeah   (repeat 2x)

Chorus 2:
G                  C2
And then I see you there
          Bb6                    Dm7
With your arms open wide and you try to embrace me
G                    C2
These lonely tears I cry
Bb6                     Dm7
They keep me in chains and I wish they'd release me
G                   C2
Cold is the night but
Bb6                        Dm7
Colder still is the heart made of stone turned from clay
G                  C2
And if you follow me
Bb6                        Dm7
You'll see all the black, all the white, fade to grey
Вверх

Fire

Intro/Verse:

e|--------X-------------------------|---------------------12^--|
B|--------X-------------------------|---------------------12^--|
G|--13-12-X-10-12-------------------|---------------------12^--|
D|--X--X--X-X--X--12-12—(repeat 2x)-|----10-12-12-(6x)---------|
A|--11-10-X-8--10--X--X-------------|-12-------12--------------|
E|--------X-------10-10-------------|----------10--------------|

Chorus:
(You can drop the bottom note if its too hard to finger)

e|---10-10-12-10-8--------------------------|
B|---10-10-10-10-8—(6x)---------------------|
G|---11-11-11-11-9---------(repeat this 4x)-|
D|---12-12-12-12-10-------------------------|
A|------------------------------------------|
E|------------------------------------------|

Bridge/Solo:

e|--------------------10^----10^----12^----10^----|
B|------------------------8------8------10-----8--|
G|------------------------------------------------|
D|--12--10--7--10---------------------------------|
A|--12--10--7--10---------------------------------|
E|--10--8---5--8----------------------------------|

ORDER:

Intro/Verse
Chorus
Verse
Chorus
Bridge
Solo
Intro
Verse
Chorus
Chorus (Play 2 Frets higher)
Chorus
Intro
Verse x1
Вверх

Fire (2 вариант)

Intro
      N.C.
e|-------------------------------------------------------------|
B|-------------------------------------------------------------|
G|--13-12-10s12---------13-12s19--10s12------------------------|
D|---------------12-12------------------12-12-----10-12----12--|
A|--11-10--8s10---------11-10/-----8s10---------12-------------|
E|---------------10-10------------------10-10------------------|

1st verse        You don't care for me, I don't care about that
e|-------------------------------------------------------------|
B|-------------------------------------------------------------|
G|-------------------------------------------------------------|
D|-------------------------------------------------------------|
A|-------3--5--5---------3--5--5-------------------------------|
E|----5---------------5----------------------------------------|

       Ya' got a new fool, I like it like that  I have only one
e|-------------------------------------------------------------|
B|-------------------------------------------------------------|
G|-------------------------------------------------------------|
D|-------------------------------------------------------------|
A|-------3--5--5--------------------------------------3--5--5--|
E|----5--------------------------------------------5-----------|

    a burnin' desire            Let me stand next to your pyre!
e|-------------------------------------------------------------|
B|-------------------------------------------------10v---------|
G|---------------------------------------------12bh-------(12)-|
D|-------------------------------------------------------------|
A|------------------3--5--5------------------------------------|
E|---------------5---------------------------------------------|

Chorus Let me stand next to your fire! see lyrics at end file
   D(add9)   C(add9)                D           C(add9)/A
e|--10-12-10-10-10--------------------10-10-10-10-10-----------|
B|--10-10-10--8--8--------------------10-10-10--8--8-8---12-12-|
G|--11-11-11--9--9----10-12s10--------11-11-11--9--9-9---12-12s|
D|--12----12-10----------------12---12----12----10-----/12-----|
A|-----------------/12-----------------------------------------|
E|10------------------------------10---------------------------|

        D              C(add9)/A           D(add9)    C(add9)/A
e|-------------10-10-10-10-10---10------10----------10----12---|
B|-------------10-10-10-10--8---8---/12-------------10-10-10-10|
G|s10----------11-------11--9-9----9-------12-------11-11-11-11|
D|----12-------12----------10--------------------------12----12|
A|-------------------------------------------------------------|
E|-------10-10--------------------------------10-10------------|

E|-10----------|
B|--8-8--------|
G|--9-9--------|
D|-------------|
A|-------10s12-|
E|-------------|

2nd Verse
                D   N.C.
e|-------------10----------------------------------------------|
B|-------------10----------------------------------------------|
G|-10-12s10----11----------------------------------------------|
D|-10-12s10-12-12------10-12-10s12-----10-12-10s12----10-12-12-|
A|----------12-12--/12--------------12-------------12----------|
E|-------------10----------------------------------------------|

e|-------------------------------------------10v-|
B|---------------------------------------12b-----|
G|-----------------------------------------------|
D|-----10-12-10s12-------10-12-12----------------|
A|--12----------------12-------------------------|
E|-----------------------------------------------|

Chorus
    D            C(add9)
e|---10-10----10-10-10----------------------------------|
B|---10-10----10--8--8-8-8--------------------10----10--|
G|---11----11-11--9----9------10-12s10--------11-11-11--|
D|---12----12----10--------------------12-----12-12-12--|
A|------------------------/12---------------------------|
E|-10------------------------------------10-10----------|

 C(add9)
E|-----10---------------|
B|------8--8-----10-12--|
G|-11---9--9-----10-12s-|
D|-12--10-10--/12-------|
A|----------------------|
E|----------------------|

         D              C(add9)                  D
e|--------------10----------10---10-----10-12s10-----10--------|
B|--------------10-10-10-10--8---8---/12-------------10-10-10--|
G|-s10----------11----11-11--9------9-----------12---11-11-11--|
D|-----12-------12----12----10-----------------------12-12-12--|
A|-------------------------------------------------------------|
E|---------10-------------------------------------10-----------|

  C(add9)
E|-------10-|
B|-10-----8-|
G|-11-11--9-|
D|-12-12-10-|
A|----------|
E|----------|

            Bridge
    C  D                    C(add9)     A
e|-----------------------------10-------------------5----------|
B|-----------10-----------------8--------5----------5--5-------|
G|---9s11----11-----------------9--------6----------6--6-------|
D|--10s12----12--------(12)10-10--------7-------------7--------|
A|---------------------------------------7-------------7-------|
E|------------------------------8--------5---------------------|

 A5 C5
E|--------------|
B|--------------|
G|--------------|
D|--------------|
A|--7s10--------|
E|--5s8-------8-|
          (fuzz on)            T       Let ring

Guitar Solo:
 N.C. (E)
e|----12v-----12-------------------------12v-----12------------|
B|-15b----15hb--(15cb)-(15)----------15b-----15b----15--12-----|
G|--------------------------12-(12v)-----------------------14b-|

E|---------|
B|-12-15bv-|
G|---------|

e|-----12-----12-----15------15-------------12-----12----------|
B|-15b----15hb--15cb----15cb----15hb(15)-15b---15hb--(15)s12---|
G|-------------------------------------------------------------|

E|----------------|
B|-----12---------|
G|-14b---12v-(12)-|

   N.C.                 That's what I'm talking about!
e|-------------------------------------------------------------|
B|-------------------------------------------------------------|
G|-13-12-10s12------------13------12----10s12------------------|
D|-------------12-12-----------------------------12-12------10-|
A|-11-10--8s10------------11------10-----8s10-----------12-----|
E|-------------10-10-----------------------------10-10---------|
                          (fuzz off)

e|-------------------------------------------------------------|
B|-------------------------------------------------------------|
G|----------------------------------------------------12-------|
D|-12-10s12----10-12-10s12--10-12-10s12--10-12-12--10-12-10s12-|
A|----------12------------12-----------12--------12------------|
E|---------(12)------------------------------------------------|

                 (w/bar -2.5)
e|---------------------|
B|-------------------0-|
G|-------------------0-|
D|------10-12-12-----0-|
A|---12----------------|
E|---------------------|
               (fuzz on)

  Chorus
    D        C(add9)                D          C(add9) C
e|10-10-------10-10------------------10----12-10-10------------|
B|10-10-10-10--8--8------------------10-10-10-10--8-8----12-12s|
G|11-11-11-11--9--9--------------0---11-11-11-----9-9----12-12s|
D|12-12-12-12-10----10------12---0---12------------10-/12------|
A|--------------------10s14---14-------------------------------|
E|10-------------------------------10--------------------------|

        D              C                        D
e|-----------------------------------10------------------------|
B|s10------10-10-10-10--8--8-8-10s12---12s10--------10-10------|
G|s10------11-11-11-11--9--9------------------------11-11------|
D|----12---12----12----10-10-----------------12-----12-12------|
A|-------------------------------------------------------------|
E|------10---------------------------------------10------------|

 C(add9)
E|----10------------|
B|-10--8--8---------|
G|-11--9--9------10-|
D|----10-10--/12----|
A|------------------|
E|------------------|

              Guitar Solo
               E(add9)           N.C.
e|------------------------14-12-------12v-----12------12-----12|
B|---------12-------12-12-12-12---15b---------12--15b----15b---|
G|12s10-10-12-------13----13-13-0---------12v-14b--------------|
D|------10----------14-----------------------------------------|
A|-------------------------------------------------------------|
E|------------12-12--------------------------------------------|

e|-----------------10-10---------------------------------------|
B|--------------13v-----13s10---10-13s10-----------------13qb--|
G|--/11v-(11)s10-------------12b---------12hb(12)10---10-------|
D|-------------------------------------------------12----------|
A|-------------------------------------------------------------|
E|-------------------------------------------------------------|

E|----10----10v-|
B|-13b--13b-----|
G|--------------|

   (E)
e|----12-12----12-12----12----12v----12---12----12-------------|
B|-15b---15-15b---15-15b---15b----15b--15b--15hb--(15)---12----|
G|----------------------------------------------------14b------|

E|-----------|
B|---12--12v-|
G|14b----12v-|

e|---------10---------10---------------------------------------|
B|-----13hb----(13cb)----(13)s10------10-----------------------|
G|--0----------------------------12hb----(12)--10v-------------|
D|-------------------------------------------------12s10-------|
A|-------------------------------------------------------12----|
E|-------------------------------------------------------------|

E|----------10-10-10-|
B|-----10---10-10-10-|
G|-----10------------|
D|-10v----12---------|
A|-------------------|
E|-------------------|

e|-10--10------10----------------------------------------------|
B|-10--10--13b----13s10-----13s10-----------------------13-----|
G|----------------------12b-------12hb(12)-10----10-12b--------|
D|--------------------------------------------12---------------|
A|-------------------------------------------------------------|
E|-------------------------------------------------------------|

E|--------------|
B|-----13---13v-|
G|12wb---12b----|
D|--------------|
A|--------------|
E|--------------|

         Outro
e|-------------------------------------------------------------|
B|-13s12--12---------------------------------------------------|
G|-13s12--12-10-12-----------13--12s19-10s12-----------13--12--|
D|------------------12-12---------------------12-12------------|
A|-------------8-10--------X--11--10-----8s10--------X--11--10-|
E|------------------10-10--------------------10-10-------------|

                               Dsus4    D7
e|---------------------------------------10--------------------|
B|-------------------------------------10----------------------|
G|-10s12-------13-12-10-----12--11b-12------12-10qb------------|
D|-------12-12---------------12--10-----------------12-10------|
A|--8s10-------11-10--8-10--------------------------------12-11|
E|-------10-10-----------10--10--10----------------------------|

e|----------|
B|----------|
G|----------|
D|----------|
A|--10--8v--|
E|----------|

Explanation of the musical symbols :
7s9        slide from 7th fret to 9th
7         slide from 7th fret down
7/         slide from 7th fret up
7bh        bend 7th and hold till ghost note or cb
T          with thumb (E-string)
7b         bend 7th 1 full step
10v        vibrato 10th
15bv       full bend and vibrato
15cb       compound bend and release (every note picked) (full)
3qb        bend 1/4step
3wb        half bend

Lyrics

1st verse :
You don't care for me, I don't care about that.
Ya' got a new fool, I like it like that.
I have only one a burnin' desire.
Let me stand next to your pyre!

Chorus : (Background vox sing : Let me stand next to your fire!)
Let me stand baby.
Oh let me stand.
Ya' got to let me stand.
Aw shucks!
Yeah!

2nd verse :
Ya' say your mom ain't home, ya can't let me in.
Well I had you before, I don't need you again.
I have only one a burnin' desire.
Let me stand next to your fire!

1x Chorus

Bridge :
Move over Rover
And let Jimi take over.
You know what I'm talking about!
That's what I'm talking about!

Guitar solo

3rd verse :
Ya try to give me your money, you better save it babe.
Save it for a rainy day.
I have only one a burnin' desire,
Let me stand next to your fire!

1x Chorus
Guitar solo
Outro.
Вверх

Firepile

     E       A       B
e|-------|---5---|---7---|
B|-------|---5---|---7---|
G|---1---|---6---|---8---|
D|---2---|---7---|---9---|
A|---2---|---7---|---9---|
E|-------|---5---|---7---|

intro:

E A B A

E
   This is him...
A  B  A  E  A  B  A

E               A   B   A
Call him tied...
E     A      B
A     E
A     B      A
E     A      B     A

         E
Don't give away...
A
B     A
E     A
B     A

E
The sidewalk's...
A     B      A
E
A     B      A     E     A
B     A      E

e|-----|
b|-----|
g|-----|
d|-----|
a|--7--|
e|-----|

e||-------------------------------|
b||-------------------------------|
g||.------------------------------|
d||.------------------------------|
a||-------------------------------|
e||--0-3-0-3-3s5----0-0-0-3s12-12-|

e|--------------------------------|
b|--------------------------------|
g|-------------------------------.|
d|-------------------------------.|
a|---------0-2-2-2s10-12-12-10-7--|
e|-0-3-0-3------------------------|

e|-----------------------------------------------|
b|-----------------------------------------------|
g|---------------------------------------------1-|
d|-----5-------5-5-7-7-9-9-7-5s2--2s9-7-5------2-|
a|-7-7---7---7----------------------------5----2-|
e|-----------------------------------------------|

E             A
Your baby's...
B       A       E
A
B       A       E       A
B       A       E       A
B       A       E

e|-----------------------------------------------|
b|-----------------------------------------------|
g|-----------------------------------------------|
d|-----------------------------------------------|
a|-5-7----5---5-7----5---5-7-7s10-9-10-9-5-5-7---|
e|---------7-------------7-----------------------|
Вверх

Foxy Lady

Solo :

(1:44)    		  (1:46)
E|------------------------12b~~~~~-12b-12----------------------|
b|-/14------/14---------------------------10~~~----------------|
g|-----14~~-----/14------------------------------/9-/11~~~-11~-|
d|------------------16~----------------------------------------|
a|-------------------------------------------------------------|
e|-------------------------------------------------------------|
           Here we come!                       Foxy!!

            (1:50)
e|-------------------------------------------------9-12b-12b~~-|
b|----------------------------------------------12-------------|
g|--9--2~~------h9-11b~~-11b--11~-11p9----11b~~----------------|
d|---------9h11------------------------11----------------------|
a|-------------------------------------------------------------|
e|-------------------------------------------------------------|

              (1:57)
e|-12b-r12-p9--17b~~~-12~~~-12b-----9h12---9h12----9h12--------|
b|-------------------------------12------12-----12-------12b~~-|
g|-------------------------------------------------------------|
d|-------------------------------------------------------------|
a|-------------------------------------------------------------|
e|-------------------------------------------------------------|

 						 (2:04)
e|-------------------------------------------------12b~~~~~----|
b|-12b-12b-12b~~~~-12b-r12p10----12p10----12p10----------------|
g|----------------------------12-------12-------12-------------|
d|-------------------------------------------------------------|
a|-------------------------------------------------------------|
e|-------------------------------------------------------------|
						  Yeh!!
(2:05)
  F#               E		      F#	   E
e|-2---2----2---2---0--0---------------2--2--2--2--0-----------|
b|-2---2----2---2---0--0---------------2--2--2--2--0-----------|
g|-3---3----3---3---1--1---7-9-7-------3--3--3--3--1--3b4-2-3--|
d|-4---4----4---4---2--2---------9p7~--4--4--4--4--2----------4|
a|-4---4----4---4---2--2---------------4--4--4--4--2-----------|
e|-2---2----2---2---0--0---------------2--2--2--2--0-----------|
I gonna take you   Home		        I won't do you no Harm

  F#		     E		       F#
e-2---2---x-x-x-2-2--0---0------------|2-------|
b-2---2---x-x-x-2-2--0---0------------|2-------|
g-3---3---x-x-x-3-3--1---1------------|3-------|
d-4---4---x-x-x-4-4--2---2-----0-2-0--|4-------| Than the verse
a-4---4---x-x-x-4-4--2---2-0h2-------2|4-------|
e-2---2---x-x-x-2-2--0---0------------|2-------|
You got to be all Mine		        Foxy lady!
Вверх

Hear My Train A Comin

12-string acoustic tuned down 2 tones

Intro in  12
           8

C-|-9p7-----9p7-----9p7-----9p7-----9p7---9---10---10---10--10-|
G-|-----8-------8-------8-------8-------8------7----7--7b8---7-|
Eb|------------------------------------------------------------|
Bb|------------------------------------------------------------|
F-|------------------------------------------------------------|
C-|------------------------------------------------------------|

C-|-12---12---12---10---10---10--------------------------------|
G-|-----------------9-9--9----9--------------------------------|
Eb|--9----9-9--9-9--9-9-------97--7h9--7-----------------------|
Bb|----------------------------------------87-5-7-5------7-5h6-|
F-|--------------------------------------------------7--7------|
C-|------------------------------------------------------------|

C-|------------------------------------------------------------|
G-|------------------------------------------------------------|
Eb|-----------------------------------6------------------------|
Bb|---------------------------5h7-----5------------------------|
F-|-7------7---------5---7------------------------5------------|
C-|----0---0---5--7----------------5-----5--5h7------3--0---0--|

C-|-------------------------------------------------0--2--3--4-|
G-|-------------------------------------------------0----------|
Eb|--~~~------------------------------------2--2----2--2--3--4-|
Bb|-0h2p0----2---2-------------0--------0h1----1----1----------|
F-|-----------------------0--2----0--2-------------------------|
C-|------------------0--3--------------------------------------|

 Time Change to  4  (Swing 16ths)
                 4

                   Well I        wait around the train station
C-|----0-------------------------|---3--0--3p0--3p0------0-----|
G-|----0-------------------------|--------------------3--------|
Eb|----------~~~-----1-X---------|-----------------------------|
Bb|---------0h2p0----2-X-----0h2-|-----------------------------|
F-|------------------------------|-----------------------------|
C-|-0-----3-------0------3p0-----|-0-----------------------3p0-|

        waiting for that train       waitin' for the train yeah
C-|-------0---------0------------|-------0----0-----0----------|
G-|-------0--3------0------------|---0--------------0----------|
Eb|-------1---------1-/4--4--4-4-|---------2-----------4-------|
Bb|-0h2---2---------2------------|---2-----2----5p2--------0h2-|
F-|---------------2----5--5--5---|---------------------5-------|
C-|-----0------3--0--------------|-0---------------------3-----|

  to take me yeah                      from this lonesome place
C-|----3p0---0----------------------|-0----------X-------------|
G-|--------3--------------------0---|-0--3--0----X---3---------|
Eb|-------------2b3r2p0--1----------|-X----------X-----2b3-2p0-|
Bb|----------------------2----0h2---|-2----------X-------------|
F-|----------------------2----------|-2----------X-------------|
C-|-0--------------------0--3-------|-0----------X-------------|

                                         well now a whole lotta
C-|---0----0-0-0-0-0-0--------------|--------------------------|
G-|---0------3-----3-------0--------|---0-0--0------0-0-------0|
Eb|-----2/4--2---------42-0-0--~~~--|---1-1--0------1----------|
Bb|----------------------------0h2p0|----------0h2--------X-0--|
F-|---------------------------------|---------------------X----|
C-|-0-------------------------------|-0----3-------0----3-X----|

  people put me through a lotta..   my girl even call me a dis-
C-|----------------------0-----0-|-3-3-----3---3---------------|
G-|----------------------0--0--0-|-2-2---2---2--2--3---------0-|
Eb|---2---2--2--3--2--2--2--2--2-|-2-2-2-2---2-------2b3--2--0-|
Bb|-------1-----2--1-----1--1--1-|-2---------------------------|
F-|-2--------------2-----2--2--2-|-0---------------------------|
C-|------------------------------|-----------------------------|

   grace                                                   Dig
C-|---0--0---0---0--0------------|------------------2-2--------|
G-|------0-0---5-5--3------------|--0-------------0-0-0-0-0---0|
Eb|--------4-----------4/2p0-----|--1-------------2-2-2-2---2--|
Bb|--------------------------2-0-|----0----~~~-0h2------1---1--|
F-|------------------------------|--------0h2p0----------------|
C-|-0----------------------------|-0---3p0---------------------|

   A tears burnin' yeah                 tears burnin' me
C-|---3-----0---0----------------|--0--------------------------|
G-|------3--0--------------------|--0-----------0-----0----0---|
Eb|------------2b3r2-------------|--------------0-----0----0---|
Bb|---------------------------5--|----6--5--5--~~~---~~~-------|
F-|-------------------0----------|-7----7--7--5h7p5-5h7p5------|
C-|-0-----------------0--3/7-----|-0------------------------5-3|

  tears burnin' me                   way down in my heart
C-|---0-----0------------------0-|-------------X---------------|
G-|---0--0--0--0--------0------0-|---3p0--3p0--X-3-------------|
Eb|------1--1--------------------|-------------X---2b3-2b3r2p0-|
Bb|-2----2--2----------0h2-----2-|-----------------------------|
F-|------------------------------|-0---------------------------|
C-|-0--------------3--------3----|-0---------------------------|

                                        well now you know it's
C-|---0--0------0---3--3-3-2-2---|----0-0----------------------|
G-|---0--0--0--------------0--0--|----0-0----0----0--0---0-0-0-|
Eb|---------2/4-----3--3-3-2--0h1|----1-1---------1--------2-2-|
Bb|-2----------------------------|-2--2-2---0h2---2------------|
F-|------------------------------|-----------------------------|
C-|-0----------------------------|-0------3-----0------3-------|

  too bad little girl too bad          too bad we have to part
C-|--------------2--------2------|-----0-----X-----------------|
G-|---0---2------0--2-2---2------|--------0--X---3-------------|
Eb|---2----------2--2-2---2------|---2-------X-----2b4-2b3r2p0-|
Bb|---1------1-------------------|-2---------X-----------------|
F-|-2-------------------2----2---|-0---------------------------|
C-|----------------------------3-|-----------------------------|

                 have to part                       Hmmmm hmm
C-|---0-0----0--0--0-0----------0-|----------------------------|
G-|--------0----5--3--------0---0-|-----0----------------------|
Eb|-------2/4----------42--0------|---1------~~~---------------|
Bb|-2-------------------------2---|---2-----0h2p0------2-------|
F-|-------------------------------|-----------------0--0----5h7|
C-|-0-----------------------------|-0-----3-------0------5h7---|

    hmmm hmmm hmmm hmmm                hmmm hmmm hmmm hmmm hmmm
C-|---------------------------------|--------------------------|
G-|---------------------------------|---0----------------------|
Eb|-------X-------------------------|----------------------~~~-|
Bb|-------X---------------0---------|-2----2----------0h2-0h2p0|
F-|---7---0---5h7-----5-------0--0--|-0------0-0---0h2---------|
C-|---------7------7------3---0-----|-0----------3-------------|

                                                     hmmm hmmm
C-|---0-0----4-4---3---3--3/4----|--------/4--4--4--3--3-------|
G-|---0----0---0-0---------------|---------------------2--3----|
Eb|-------/4-------3------3/4----|-~~~----/4--4--4--3--3---2b(3|
Bb|------------------------------|0h2p0-2----------------------|
F-|------------------------------|-----------------------------|
C-|-0--------------------------3-|------0----------------------|

  hm hm hm hm hm hm hm hm               hm hm hm hm hm hm hm hm
C-|------------------------------|--0--------------------------|
G-|-----------3-----------------0|--0--------------------------|
Eb|3)r2-0-0-1---2b3r2-0---2b4r2--|--1--------------------------|
Bb|------2--------------2-------2|----0h2-0h2-0h2-0h2-0--------|
F-|------------------------------|----------------------2-1-0--|
C-|------------------------------|0---------------------------3|

                                             Dig
C-|-----0------------------------|---0-----0--------------0----|
G-|-----0--0---------------------|---0-0-0---0-0----------0----|
Eb|-----1----/4--4-4-4-4----~~~--|---1---1---1-----~~~---------|
Bb|-0h2--------------------0h2p0-|-------------1--0h2p0--------|
F-|----------/5----5-5-5---------|-------2--------------0------|
C-|--0-------------------3-------|-0-------------3------0---3p0|

   Gonna leave this town yeah         gotta leave this town
C-|----------0-------------------|-----------------------------|
G-|----0-----0--0----------------|-----3p0-----------0--0------|
Eb|----1--1----------1-2b3--0--2-|-2p0-----2b3-2b3-2p0--0------|
Bb|-------2--------------------2-|-2-------------------2--0----|
F-|-2-----2----------------------|-----------------------------|
C-|-0-----0-------0------------0-|-0------------------------3p0|

  gonna make a whole lotta money      gonna be big yeah
C-|----------------0----0--0-----|--------0---0---------0------|
G-|------------------------------|0-3-3-0---3-------0-0--------|
Eb|----------2p1-----2/4--4------|--4-4-1------2b(4-4-4)2-0----|
Bb|-0h2------2---------------0---|2----------------------------|
F-|-----/1/2---------------------|-----------------------------|
C-|----------------------------3-|--------------------------3p0|

   I'm gonna be big yeah               I'm gonna buy this town
C-|----------0---0--------0------|-0---0--------------0----0---|
G-|-0--0-3-3-----0----3-0------0-|-0---0--------------0-------0|
Eb|--------1---1---2b3--0--------|---1------0--~~~-----2b3----1|
Bb|-2--2----------------------0h2|---2--------0h2p0----------2-|
F-|------------------------------|------1h2--------0h2---------|
C-|-------------------------3----|0----------------------------|

   I'm gonna buy this town           and put it all in my shoe
C-|---0--------------------0--------|--------------------------|
G-|---0-0---------------0--0------0-|-X------------------------|
Eb|-----------~~~-------1-----------|-X------------------------|
Bb|----------0h2p0--------------0h2-|-X------------------------|
F-|-----------------2---------------|-0------------------------|
C-|-0------3----------0------3------|-0------------------------|

  Might even give a piece to you                 what I'm gonna
C-|----0-0---0---0--0-------------|--0-0------0--0---0---------|
G-|----0-0-0-----3--5-------------|--0-0---0--0--3-0-5---------|
Eb|--------4----------------------|------2/4-------------------|
Bb|-------------------------------|------------------------0h2-|
F-|-0-----------------------------|----------------------------|
C-|-0-----------------------------|0-------------------0--3----|

 do               what I'm gonna     do                what I'm
C-|--------------------------------|---0-0-------0----X--------|
G-|----0----------0--0-------------|---0-0---0---0--0-X--------|
Eb|----1---------------------------|------------------X--------|
Bb|----2--------------------5----2-|------------------X--5---2-|
F-|--------2------0------0-----5---|-----------0-----------5---|
C-|-0------0--3p0------------------|-0-----3-------------------|

  gonna do
C-|----0--/4-4-4-43-3-3-3-3-32-2-2--|-----0--0------0----------|
G-|----0-----3-3-32-2---2-------0-0-|-5-------------0----------|
Eb|-------/4-4-4-43-3---3---32-2-2--|-4---------3---2p1--------|
Bb|---------------------------------|-2-------------2----------|
F-|---------------------------------|-2-------------X----------|
C-|-0-------------------------------|-0-------------0----------|
Вверх

Hey Baby

  intro (first 1:05)
G|-----------------------------6-8-9-10-11-11---11-11-119------|
D|-------------6-7-8-9-6-7-8-9----------------------------11---|
A|-6-6-6-7-8-9--------------------------------9----------------|
E|-------------------------------------------------------------|

G|-----------------|
D|-119-------------|
A|-----11-119------|
E|------------11-11|

G|-9-8-7-6-----------------------------------------------------|
D|---------9-8-7-6----9--------------------------------------2-|
A|-----------------9---------2-4-2---------------------5-4-2---|
E|-----------------------0-4-------4-0-5-4-2-0-5-4-2-0---------|

G|-------------------------------|
D|-------------------------------|
A|5-4-2-----------5-------5------|
E|------5-4-2-1-0------3-------0-|

G|-------------------------------------------------------------|
D|-------------------------------------------------------------|
A|-----------------5-------5---------------------5h7--7--7-9-7-|
E|--3--34--45---5-------3-------0--3--34--45--5----------------|

G|-------------------------------|
D|-------------------------------|
A|-6-7-6-------------------------|
E|-------9-7-5--5--5--5--9--9--9-|

G|-------------------------------------------------------------|
D|--------------------------------------------------1--1-------|
A|-------------------------------------------------------------|
E|-11-9-8-9-8-6-4-2--2--2--2--6--6--6-8-6-5-6-5-3-1------------|
Вверх

Hey Baby (2 вариант)

e|----0-|---------------------|-0-0-|-------------------|----3-|
B|----0-|---------------------|-1-1-|-------------------|----0-|
G|----1-|---------------------|-0-0-|-----------------0-|----0-|
D|----2-|---------------------|-2-2-|---------0-2--3----|----0-|
A|-2--2-|-------------0--1--2-|-3-3-|-0-1-2-3-----------|-2--2-|
E|-0--0-|-0--1--2--3----------|-0-0-|-------------------|-3--3-|

e|----------|---------|-------0-|--------------------------|---|
B|----------|---------|-------0-|--------------------------|---|
G|-7--5-----|---------|-----1-1-|--------------------------|---|
D|-5--3--7--|-7--5----|-----2-2-|-3--2--0-----0------------|---|
A|-------5--|-5--3--7-|-7-5-2-2-|----------3-----3--2--0---|-3-|
E|----------|-------5-|-5-3-0-0-|------------------------3-|---|

e|---------------------|--------------------|------------------|
B|---------------------|--------------------|------------------|
G|---------------------|--------------------|------------------|
D|----------0----------|--------------------|--1-0-----1-0---3-|
A|-------2-----2-------|-1-0--------1-0-----|------3-1-----3---|
E|-1--3-----------3--1-|------3--1------3-1-|------------------|

e|----------------------|--1--|--------------------------------|
B|----------------------|--1--|--------------------------------|
G|----------------------|--2--|--------------------------------|
D|-1--0-----------------|--3--|--------------------------------|
A|-------3--1--0--------|--3--|--------------------------------|
E|----------------3--2--|--1--|--------------------------------|

e|-6--6--6--6--6-|-4--4--4--4--4-|-------------------|---------|
B|-8--8--8--8--6-|-6--6--6--6--4-|-------------------|---------|
G|-8--8--8--8--7-|-6--6--6--6--5-|-------------------|---------|
D|-8--8--8--8--8-|-6--6--6--6--6-|-----6--------7----|-----8---|
A|-6--6--6--6--8-|-4--4--4--4--6-|-------6---------7-|-------8-|
E|-6--6--6--6--6-|-4--4--4--4--4-|-4-4-----5--5------|-6-6-----|

e|--------------|----------------------------------------------|
B|--------------|----------------------------------------------|
G|--------------|----------------------------------------------|
D|--------9-----|----------------------------------------------|
A|-----------9--|----------------------------------------------|
E|--7--7--------|----------------------------------------------|

e|-6--6--6--6--6-|--4--4--4--4--4-|-----------------|----------|
B|-8--8--8--8--6-|--6--6--6--6--4-|-----------------|----------|
G|-8--8--8--8--7-|--6--6--6--6--5-|-----------------|----------|
D|-8--8--8--8--8-|--6--6--6--6--6-|-----6-------7---|-----8----|
A|-6--6--6--6--8-|--4--4--4--4--6-|-------6-------7-|--------8-|
E|-6--6--6--6--6-|--4--4--4--4--4-|-4-4-----5-5-----|-6-6------|

e|--------------|----------------------------------------------|
B|--------------|----------------------------------------------|
G|--------------|----------------------------------------------|
D|--------9-----|----------------------------------------------|
A|-----------9--|----------------------------------------------|
E|--7--7--------|----------------------------------------------|

e|--8--8--|-----------------------------|--6--6--6--6--|-------|
B|-10-10--|-----------------------------|--6--6--6--6--|-------|
G|-10-10--|-----------------------------|--7--7--7--7--|-------|
D|-10-10--|-----------------------------|--8--8--8--8--|-------|
A|--8--8--|--8-10--8--7--8--7-----------|--8--8--8--8--|-------|
E|--8--8--|-------------------10--8--6--|--6--6--6--6--|-------|

e|--5--5--|--------------------------|-------------------------|
B|--7--7--|--------------------------|-------------------------|
G|--7--7--|--------------------------|-------------------------|
D|--7--7--|--------------------------|-------------------------|
A|--5--5--|--5--7--5--4--5--4--------|-------------------------|
E|--5--5--|--------------------7--5--|-------------------------|

e|-----3--------3--|-----2--|--------------------------|--0----|
B|-----3--------3--|-----4--|--------------------------|--0----|
G|-----4--------4--|-----4--|--------------------------|--1----|
D|-----5--------5--|--4--4--|--------------------------|--2----|
A|-----5--5--5--5--|--2--2--|--2--4--2--1--2--1--------|--2----|
E|--3--3--3--3--3--|--2--2--|--------------------4--2--|--0----|

     Am             G              F             D
e|---------------|--------------|--------------|-5--5--5--5--5-|
B|--------------|--------------|--------------|-7--7--7--7--7--|
G|--------------|--------------|--------------|-7--7--7--7--7--|
D|--------7-----|--------5-----|--------3-----|-7--7--7--7--7--|
A|-----------7--|-----------5--|-----------3--|-5--5--5--5--5--|
E|--5--5--------|--3--3--------|--1--1--------|-5--5--5--5--5--|
    (Solo around this for a while....)

    Am             G              F              D
e|--------------|--------------|--------------|--5--5--5--5----|
B|--------------|--------------|--------------|--7--7--7--7----|
G|--------------|--------------|--------------|--7--7--7--7----|
D|--------7-----|--------5-----|--------3-----|--7--7--7--7----|
A|-----------7--|-----------5--|-----------3--|--5--5--5--5----|
E|--5--5--------|--3--3--------|--1--1--------|--5--5--5--5----|

    Hey Baby,
    Where do you come from?
    She grins & points to space, puts a smile on her face & says
    I come from the Land of the New Rising Sun

    Hey Baby,
    Where are you trying to go to?
    She says I'm trying to spread love around to the moon
    And lord, peace of mind to you and yours

  Am           Db           D G             F#         E
e|-----------|-4--4--4--4-|-5-10-10-10-10-|--9--9--9-|-7--7--7-|
B|-----------|-6--6--6--6-|-7-12-12-12-12-|-11-11-11-|-9--9--9-|
G|-5--5--5-5-|-6--6--6--6-|-7-12-12-12-12-|-11-11-11-|-9--9--9-|
D|-7--7--7-7-|-6--6--6--6-|-7/12-12-12-12-|-11-11-11-|-9--9--9-|
A|-7--7--7-7-|-4--4--4--4-|-5-10-10-10-10-|--9--9--9-|-7--7--7-|
E|-5--5--5-5-|-4--4--4--4-|-5-10-10-10-10-|--9--9--9-|-7--7--7-|

     May I come    along... (3 times)

   Am              Db             D
e|--------------|--4--4--4--4--|--5--5--5--5--5--5--5--5-------|
B|--------------|--6--6--6--6--|--7--7--7--7--7--7--7--7-------|
G|--5--5--5--5--|--6--6--6--6--|--7--7--7--7--7--7--7--7-------|
D|--7--7--7--7--|--6--6--6--6--|--7--7--7--7--7--7--7--7-------|
A|--7--7--7--7--|--4--4--4--4--|--5--5--5--5--5--5--5--5-------|
E|--5--5--5--5--|--4--4--4--4--|--5--5--5--5--5--5--5--5-------|

      May I come     alo- ong

    E     G     B     D             Am
e|-----|--3--|--7--|--5--|--5--5--|--5-------------------------|
B|-----|--3--|--7--|--7--|--7--7--|--5-------------------------|
G|--1--|--4--|--8--|--7--|--7--7--|--6-------------------------|
D|--2--|--5--|--9--|--7--|--7--7--|--7-------------------------|
A|--2--|--5--|--9--|--5--|--5--5--|--7-------------------------|
E|-----|--3--|--7--|--5--|--5--5--|--5-------------------------|

3rd Verse
---------

	Hey baby,
	Can I step into your world a while?
	Yes you can she said
	Come on back with me for a while
	We're gonna go across the Jupiter sun
	And see all your people one by one.

	May I come along.... (etc.)
Вверх

Hey Joe

Whole song goes like:  C G D A E  (I think so),
 and the solo goes in Em blues (I think so)

 solo:
e|----0-----------------0--------------------------------------|
B|3/5---3-0---------3/5---3-0-------------------------------0--|
G|----------2/4---0-----------2/4-4-2-0-2-0---0---0---------0--|
D|--------------2---------------------------2---2-------0-2---2|
A|--------------------------------------------------1/2--------|
E|-------------------------------------------------------------|

e|---------0-0-0-----0-0-0-------------------0-3/5-3-0-------0-|
B|-3/5-3/5-0-3-0-----0-3-0-----------------0---------------3---|
G|---------------2/4-------2/4-----2-0-2/4-------------2/4-----|
D|-----------------------------0-2-----------------------------|
A|-------------------------------------------------------------|
E|-------------------------------------------------------------|

E|-----------|
B|-----------|
G|-2/4-2-0---|
D|---------2-|
A|-----------|
E|-----------|

e|-----------------|
B|------------0----|
G|------------0----|
D|------0--2-----2-|
A|-1/2-------------|
E|-----------------|

 end riff:
e|------------------------------------------------------|
B|------------------------------------------------------|
G|------------------------------------------------------|
D|------------------------------------------------------|
A|--3--------------2--3--4--5--------------4--5--6--7---|
E|-----0--1--2--3--------------2--3--4--5---------------|
Вверх

Highway Chile

Intro:

  2X
E|-----------------------------------------|
B|-9--------8------8-------8-------6-------|
G|-11(13)~--10(12)-10(12)--10(12)--8(10)~--|
D|-----------------------------------------|
A|-----------------------------------------|
E|-----------------------------------------|

  2X
E|-----------------------------------------|
B|-13-------11-----11------11------9-------|
G|-15(17)~--13(15)-13(15)--13(15)--11(13)~-|
D|-----------------------------------------|
A|-----------------------------------------|
E|-----------------------------------------|

Verse:
  Fm
E|---------------------|
B|---1-----------------|
G|---1-----------------|
D|---3-1---1t3---------|
A|-------3-------1-2-3-|
E|-1-----------4-------|

 C#7#9
E|-0-|
B|-5-|
G|-4-|
D|-3-|
A|-4-|
E|---|

  G#
E|-4-6-4-6-4-6-4-6-4-6-4-6-4-6-4-6-|
B|-4-4-4-4-4-4-4-4-4-4-4-4-4-4-4-4-|
G|-5-5-5-5-5-5-5-5-5-5-5-5-5-5-5-5-|
D|---------------------------------|
A|---------------------------------|
E|---------------------------------|

  A#
E|-6-8-6-8-6-8-6-8-6-8-6-8-6-8-6-8-|
B|-6-6-6-6-6-6-6-6-6-6-6-6-6-6-6-6-|
G|-7-7-7-7-7-7-7-7-7-7-7-7-7-7-7-7-|
D|---------------------------------|
A|---------------------------------|
E|---------------------------------|

repeat first part of intro

second verse

repeat intro

Solo:

E|---------13------------------------------13------------------|
B|-------13--16(18)~-(18)--13-13~--------13--16(18)--13-13~----|
G|-15(17)----------------15--------15(17)----------15(17)------|
D|-------------------------------------------------------------|
A|-------------------------------------------------------------|
E|-------------------------------------------------------------|

E|---------13----------------13----------------13--------------|
B|-------13--16(18)~-------13--16(18)~-------13--16(18)~-16p13-|
G|-15(17)------------15(17)------------15(17)------------------|
D|-------------------------------------------------------------|
A|-------------------------------------------------------------|
E|-------------------------------------------------------------|

E|-------|
B|--13~--|
G|15(17)-|
D|-------|
A|-------|
E|-------|

E|---------13---------13---------13------------------13--------|
B|-------13---------13---------13--16(18)(18)~-----13----------|
G|-15(17)-----15(17)-----15(17)---------------15(17)-----------|
D|-------------------------------------------------------------|
A|-------------------------------------------------------------|
E|-------------------------------------------------------------|

E|-------13-------------|
B|-----13---16(18)(18)~-|
G|15(17)----------------|
D|----------------------|
A|----------------------|
E|----------------------|

E|---------13-------16p13------16p13-------------------13------|
B|-------13---16p13------16(18)-----16(18)(18)~------13--------|
G|-15(17)--------------------------------------15(17)----------|
D|-------------------------------------------------------------|
A|-------------------------------------------------------------|
E|-------------------------------------------------------------|

E|--------13------------|
B|------13--16(18)(18)~-|
G|15(17)----------------|
D|----------------------|
A|----------------------|
E|----------------------|

E|---------13---------13------------------13-------------------|
B|-------13---------13--16(18)(18)~-----13---16(18)(18)(18)~---|
G|-15(17)-----15(17)---------------15(17)----------------------|
D|-------------------------------------------------------------|
A|-------------------------------------------------------------|
E|-------------------------------------------------------------|

E|--------13--------13--------13--------13---------------------|
B|------13--------13--------13--------13---13-----13-----13----|
G|15(17)----15(17)----15(17)----15(17)-----15(17)-15(17)-15(17)|
D|-------------------------------------------------------------|
A|-------------------------------------------------------------|
E|-------------------------------------------------------------|

Third verse

repeat intro

Outro:

E|-----------------------------------------|
B|-13-------11-----11------11------9-------|
G|-15(17)~--13(15)-13(15)--13(15)--11(13)~-|
D|-----------------------------------------|
A|-----------------------------------------|
E|-----------------------------------------|

E|-13--------------------------------------|
B|-16(18)~--13-----11-----11-----9---------|
G|----------15(17)-13(15)-13(15)-11(13)----|
D|-----------------------------------------|
A|-----------------------------------------|
E|-----------------------------------------|

Lyrics:

Fm
Yeah! His guitar slung across his back
His dusty boots is his cadillac
Flamin' hair just a-blowin' in the wind
ain't seen a bed in so long it's a sin
C#7#9
He left home when he was seventeen
The rest of the world he was gonna see
Fm
And everybody knows the boss
a rollin' stone gathers no moss

G#
Now you'd probably a-call him a tramp
A#
But it goes a little deeper than that
Fm
He's a highway chile
Highway Chile

Fm
Some people say he had a girl back home
who messed around and did her baby wrong
They tell it kinda hurt him bad
Kinda made him feel pretty sad
I couldn't say what went through his mind
Anyway he left the world behind
Everybody knows the same old story
in love or war you can lose your glory

G#
Now you'd probably a-call him a tramp
A#
But I know it goes a little deeper than that
He's a highway chile

Walk on brother

C#7#9
His old guitar slung across his back
His dusty boots is his cadillac
Fm
Flamin' hair just a-blowin' in the wind
ain't seen a bed in so long it's a sin

G#
Now you'd probably a-call him a tramp
A#
But I know it goes a little deeper than that
He's a highway chile

Walk on brother
Don't let no one stop you
Highway Child
Вверх

Highway Chile (2 вариант)

  intro/end of second and last chorus
G|-------------------------------------------------------------|
D|-------------------------------------------------------------|
A|--08---08--/10-(9)/1010-10-8--08--/10-(9)/1010-10-8-08-------|
E|-------------------------------------------------------------|

G|----------------------------------------|
D|----------------------------------------|
A|------0678-86--068----------------/10-10|
E|03578--------8----03578-089109-9-9------|

  verse
G|-------------------------------------------------------------|
D|-------------------------------------------------------------|
A|0678-86---068------06h7p68-86--068------06h7p68-86--068------|
E|-------8-----03578-----------8----03578-----------8----------|

G|-------------------------------------------------------------|
D|-------------------------------------------------------------|
A|-----8h9h108h9h10-----/10-10------8h9h108h9h10-8-86--068-----|
E|9-9-9------------9-9-9-------9-9-9-----------------8----03578|

E|----------------------|
B|----------------------|
G|-0678-86--068-----068-|
D|--------8----0357-----|

  chorus
G|--------------------------------------------|
D|6-6-6-6-6-6-6-6-8-8-8-8-8-8-8-8-------------|
A|-4-4-4-4-4-4-4-4-6-6-6-6-6-6-6-68---08---08-|
E|--------------------------------------------|
Вверх

Hoochie Coochie Man

 verse riff  bridge           chorus
G|----1----|--44--44--44--44|------4-4----------4-4------------|
D|--1--/6~~|56--56--56--56--|-----6---86-------6---86----------|
A|24-2-----|----------------|4-48-------8-4-48-------8---------|
E|---------|----------------|--------------------------4-48----|

G|---------------------------------6----|
D|--4-4----------4-4-------/8-8-----64--|
A|-6---86-------6---86--6-6----6-6----4-|
E|-------8-4-48-------8-----------------|

the 2nd verse ends


like this (bridge) 2nd chorus
G|-----4-4-------------------------|-----1-1----------|
D|----6---86--6-64-43-32-21-1----4-|---1----4-43-32-2-|
A|-48-------8----------------456---|-24-2-------------|
E|---------------------------------|------------------|

G|-------4-4----------4-4--------------|
D|------6---86-------6---86--6-6---4-4-|
A|-4-48-------8-4-48-------8------6----|
E|------------------------------8------|

G|-------------------------6-643--------4-430----------------|
D|-----6-6---4-4----------8-----3------6-----2-6-64-43-32-21-|
A|-86-------6---8---6-610---------4-48-----------------------|
E|---8----8-------8------------------------------------------|

G|------------|
D|-1----------|
A|--234666666-|
E|------------|

    solo
G|--------------------4-4---------------------------------|
D|-------4-4---------6---86--6-64-43-32-26-64-43-32-2-----|
A|------6---86--4-48-------8-------------------------4-48-|
E|-4-48-------8-------------------------------------------|

E|--4-4----------4-4------------4----|
B|-6---86-------6---86--------4--86--|
G|-------8-4-48-------8------6-----8-|
D|----------------------4-48---------|

G|---------------------------------6-6----------4-4------|
D|-------4-4----------4-4---------8---86-------6---86--6-|
A|------6---86-------6---2346-610-------8-4-48-------8---|
E|-4-48-------8-4-48-------------------------------------|

G|--------------------|
D|-6456-456---6-6---4-|
A|---------456---234--|
E|--------------------|
Вверх

Hound Dog

  verse
G|-----------------------------------5-5-----5-5-------------|
D|---5-5-----5-5-----5-5-----5-5--------53------53---5-5-----|
A|------53------53------53------535-5-----5-5-----------53---|
E|5-5-----5-5-----5-5-----5-5---------------------5-5-----5-5|

  chorus
G|------------------------------------------|
D|---5-5------------------------------------|
A|------53/7-77-0765-55-053----------/7--75-|
E|5-5----------------------555555555-------5|

  verse variation

G|------------------------------------------------------------|
D|---------------------------3-353---3-353--------------------|
A|---3-353---3-353---3-3535-5-----5-5--------3-353---3-353/7--|
E|5-5-----5-5-----5-5---------------------5-5-----5-5---------|

G|-------------------------------|
D|-------------------------------|
A|77-0765-55-053----------/7--75-|
E|--------------555555555-------5|
Вверх

If 6 Was 9

  intro
  (x4)  verse (x2)
G|-----|--------------4/6-----------4/6-----------4/6----------|
D|-----|------------------8-6----------8-6----------8-6-----|
A|46---|--------4/6------------46------------46------------46--|
E|-----|4/6-6/9------------------------------------------------|

  chorus
G|-----6--------------------------------------|
D|---4---6------6--7h8p76-4-------4-----------|
A|/4--------6-6---6---------4-------6-4---46--|
E|----------------------------4-6-------4-----|

verse 2 riff
G|--------|
D|--------|
A|46---4--|
E|----6---|

  outro riffs
G|----------------|--------|-------|
D|--8---8---8---8-|----8---|6h88---|
A|6---6---6---6---|--6---6-|----66-|
E|----------------|6-------|-------|
Вверх

In From The Storm

  verse
G|-------------------/64--------------------------/10108-------|
D|---68------------68---6--------------------------------10108-|
A|68----68------68--------86--6---86---------------------------|
E|--------4-641-------------68--68--8-861014-01146-------------|

  verse variation
G|-------------------/64--------------------------/10108-------|
D|---68---6--------68---6------------------3-------------10108-|
A|68----68--86--68--------86--6---86---------------------------|
E|------------6-------------68--68--8-86101--01146-------------|

  chorus
G|-----------------6---------------|
D|----------------8-6--------------|
A|86------6-68--6-----6-6--6-6-8-6-|
E|--608-8--8---8-8--------8-8-8-8-8|

  solo riff
G|--------------|
D|64---4-64-----|
A|--654----6542-|
E|--------------|
Вверх

Izabella

(Uni-Vibe & Fuzz Face throughout)
Intro:
    4x
E||---------------------||-------------------||---------|
B||-10--------10-10--10-||---12--10(11)------||---------|
G||-11--------10-10--11-||---12--10(11)------||---------|
D||-12--------10-10--12-||---12--------12-10-||---3-4-5-|
A||---------------------||-------------------||-5-------|
E||----10--13-----------||-10----------------||---------|

Verse:

E|------------------------------------------------|
B|------------------------------------------------|
G|-----------3(4)---------------------------------|
D|-5p3h5p3h5------5p3h5-----5--5p3---5p3----5p3---|
A|---------------------------------5-----5------5-|
E|----------------------3-------------------------|

E|---------------------------------------------------------|
B|--------------8(9)---------------------------------------|
G|--------------8(9)---------------------------------------|
D|-10p8h10p8h10------10p8h10----10-10p8----10p8----10p8----|
A|--------------------------------------10------10------10-|
E|---------------------------8-----------------------------|

E|----------------------------------|
B|----------------------------------|
G|-10-10-10-10-10----10-10-10-10-10-|
D|----------------------------------|
A|--8--8--8--8--8-----8--8--8--8--8-|
E|----------------------------------|

E|------------------|
B|------------------|
G|------------------|
D|---2-3-4----------|
A|-3--------3-------|
E|------------0-1-2-|


Verse chords:
   G#9  C#9  F
E|--------------|
B|-11---4-------|
G|-10---3---10--|
D|--9---2-------|
A|-10---3----8--|
E|--------------|

Bridge:
E|------------------------------------------|
B|------------------------------------------|
G|------------------------------------------|
D|-------3--5p3h5p3-----------3-3p2h3p2h3p2-|
A|---2-5------------5-----2-5---------------|
E|-3--------------------3-------------------|

E|----------------------------------------------|
B|----------------------------------------------|
G|----------------------------------------------|
D|--------8-10p8h10p8-------------8-8p7h8p7h8p7-|
A|---7-10-------------10-----7-10---------------|
E|-8-----------------------8--------------------|

E|------------------------------------------|
B|------------------------------------------|
G|------------------------------------------|
D|----------15-17p15h17p15--------------15~-|
A|----14-17----------------17-----14-17-----|
E|-15--------------------------15-----------|

E|------------------------------------------------------|
B|------------------------------------------------------|
G|------------------------------------------------------|
D|----------13-15p13h15p13h15p13---------8-10p8h10p8----|
A|----12-15-------------------------7-10-------------10-|
E|-13-----------------------------8---------------------|

E|--------------------------|
B|--------6~------6------6~-|
G|----4-7-----4-7----4-7----|
D|--5-----------------------|
A|--------------------------|
E|--------------------------|

solo:
E|-----------------------------------------|
B|-8(10)-(10)8p6-8(10)-8(10)~--8(10)8------|
G|------------------------------------7----|
D|--------------------------------------8~-|
A|-----------------------------------------|
E|-----------------------------------------|

E|--------------------------------------------------|
B|---0------6-8-8(10)-8(10)~~~~~~~-8(10)8-6---------|
G|---0----7---------------------------------7-5-3~~-|
D|-5------------------------------------------------|
A|--------------------------------------------------|
E|--------------------------------------------------|

E|-------------------------------------------------------|
B|-------------------------------------------------------|
G|-3-5(7)5---3~---------3~----------------------5(7)~~~~-|
D|---------7-----0--3/5-----5p3h5p3h5~-------------------|
A|-------------------------------------5-31--------------|
E|-------------------------------------------3-----------|

E|-------------------------------------------------------------|
B|------3-6p3------------3~--7---------------------------------|
G|-5(7)-------5p3---5(7)-----8(10)~~--5(7)5p3---3h5------------|
D|----------------5---------------------------5-----5----------|
A|-------------------------------------------------------------|
E|----------------------------------------------------3~~~~~~--|

E|-----------------------------------------------|
B|-3-------------3---------------3---------------|
G|-5(7)~~~~~~~5--5(7)~~~~~~~~5---5(7)~~~~~~~~~~5-|
D|-----------------------------------------------|
A|-----------------------------------------------|
E|-----------------------------------------------|

E|------------------------3---------------3--------------------|
B|5-------------------6p3-------6p3-----3---6(8)~-6p3----------|
G|7(9)7-7p6p5-3(4)-3-5------5(7)----5(7)--------------5p3---3--|
D|----------------5---------------------------------------5---5|
A|-------------------------------------------------------------|
E|-------------------------------------------------------------|

E|-------------------3--------------6-------------|
B|-----------------3---6p3------3---8(10)8-6---6~-|
G|------------5(7)---------5(7)--------------7----|
D|-3----------------------------------------------|
A|---5---1----------------------------------------|
E|---------3--------------------------------------|

E|----------------|
B|----------------|
G|-/15~~~-17-15~--|
D|----------------|
A|----------------|
E|----------------|
  4x
E|-------------------------------------------------------------|
B|--------------15(16)--------17(18)--------18~-18p15----------|
G|--------------15(16)--------17(18)------------------17-15----|
D|17p15h17p15h17------17p15h17------17p15h17----------------17~|
A|-------------------------------------------------------------|
E|-------------------------------------------------------------|
   3x
E|------------------|
B|-------------18~~-|
G|------------------|
D|-17p15h17p15------|
A|------------------|
E|------------------|

Hey Izabella
Girl, I'm holding you in my dreams, every night
Yeah, but you know good and well baby
You know we got this war to fight
Well I'm callin' you under fire
Well I hope you're receiving me all right

Hey Izabella, Izabella
Girl, I'm fightin' this war for the children and you
Izabella, yeah, yeah, yeah, baby
Izabella
All this blood is for the world of you
Izabella, all your love
So I hope you save your love, baby
Then I know the fightin' is true

Izabella
Hey Izabella, whoa Izabella
Put on the rays of the rising sun
Whoa Izabella, here they come
Well I got back out there and fight now baby
Whoa Izabella
I got to cling to the devils on the run
Whoa Izabella, on the run baby
Whoa Izabella,
So keep those dreams comin' in strong
Soon I'll be holding you instead of this machine gun
Izabella

Hey, Izabella, Izabella
Ahh, sweet lover, Izabella
Save all my blood for you
Izabella, Izabella, Izabella, Izabella
Whoa, whoa
Вверх

Johnny B Goode

Intro:
E|-------/7-7-7-7-/7-7-7-7-10p9p7------------------------------|
B|---7-9-/7-7-7-7-/7-7-7-7--------10p9p7-----------------------|
G|/8-------------------------------------7h8---8-8-8-8-8-8-8-8-|
D|-------------------------------------------9-7-7-7-7-7-7-7-7-|
A|---------------------------------------------9-9-9-9-9-9-9-9-|
E|---------------------------------------------7-7-7-7-7-7-7-7-|
                        2x(chorus riff)
E|---------------------||---------------------------------||
B|----7-9-7------------||-7-----7--7----7--7----7--7----7-||
G|-/8-------86-4-------||-9(11)----9(11)---9(11)---9(11)--||
D|-----------------6-4-||---------------------------------||
A|---------------------||---------------------------------||
E|---------------------||---------------------------------||

riff a:
E|-7---------10-9-7---------------------------------------|
B|---10-9-7---------10-9-7-7------7-----------------------|
G|-------------------------9(11)-(11)9-7-----7(8)---------|
D|---------------------------------------9-7------9-------|
A|---------------------------------------------------9-9~-|
E|--------------------------------------------------------|

riff b:
  4x
E||-/7-7-7-7-7----------||
B||-/7-7-7-7-7-9-7(8)---||
G||------------9-7(8)---||
D||-------------------9-||
A||---------------------||
E||---------------------||

Solo:
                      slow bend     slow trill
E|----------------------------------------------------|
B|-9(11)9(11)9(11)9(11)-7-----------------------------|
G|-9(11)9(11)9(11)9(11)-9(11)~~9p7----9p7h9p7h9p7h9p7-|
D|----------------------------------------------------|
A|----------------------------------------------------|
E|----------------------------------------------------|
repeat riff a and b

E|-------------------------------7-------------10-------------|
B|-----------------------------7---10(12)~-/12----10h12p10----|
G|-9(11)(12)(11)9-7(8)---9(11)-----------------------------11-|
D|---------------------9--------------------------------------|
A|------------------------------------------------------------|
E|------------------------------------------------------------|

E|-------------------7-------------------------|
B|-10--10(12)--7-------10p7-------7------------|
G|-------------9(11)--------9(11)---9p7---7----|
D|--------------------------------------9------|
A|------------------------------------------9~-|
E|---------------------------------------------|

wah on high treble
E|-12--------------------------------------------------|
B|-15(17)~~-12-15(17)15p12----12~~------15-17-17(19)~~-|
G|-------------------------14-------/16----------------|
D|-----------------------------------------------------|
A|-----------------------------------------------------|
E|-----------------------------------------------------|

E|-------------------------------------|
B|(19)17p15----15--7-------------------|
G|----------16-----9(11)~--(11)9p7-----|
D|---------------------------------9---|
A|-----------------------------------9-|
E|-------------------------------------|

third verse

riff b

E|-10(12)10(12)10p7-----------------------------------------|
B|------------------10p7---7-------7----------------7-10p7--|
G|-----------------------9---9(11)---(11)9p7---9(11)--------|
D|-------------------------------------------9--------------|
A|----------------------------------------------------------|
E|----------------------------------------------------------|

E|-----------------------------------------------------|
B|------7---7-----7-10p7-------------------------------|
G|9(11)-----9(11)--------9p7-----------7-9(11)9p7------|
D|---------------------------9p7-----9------------9----|
A|-------------------------------9-7----------------9~-|
E|-----------------------------------------------------|

riff b
E|---------------------------------------10(12)-10~--10--------|
B|-7--------10(12)-10(12)-10(12)-10(12)~----------------10(12)-|
G|-9(11)~9-----------------------------------------------------|
D|-------------------------------------------------------------|
A|-------------------------------------------------------------|
E|-------------------------------------------------------------|

E|-10--7--------7------7--------------|
B|-------10(12)----------10(12)10p7---|
G|-----------------7h8--------------9-|
D|------------------------------------|
A|------------------------------------|
E|------------------------------------|

riff a
riff b
E|---------------------------------------------------------|
B|-----------------------10(12)10--10(12)~--10p7-----------|
G|-7(9)7(9)7(9)7(9)7(9)--------------------------9----7-9--|
D|-------------------------------------------------/9------|
A|---------------------------------------------------------|
E|---------------------------------------------------------|

E|-------------------------------------------|
B|-------------------------------------------|
G|----7h9(11)-9p7---7-----7---7---7-7---7-9~-|
D|7h9-------------9----/9---9---9-----9------|
A|-------------------------------------------|
E|-------------------------------------------|

outro(a capella):
E|-------------------------------10-12(14)-12p10---------------|
B|-10(12)~~-10p7-10(12)10p7---/12----------------12-12p10---10-|
G|--------------------------9-----------------------------11---|
D|-------------------------------------------------------------|
A|-------------------------------------------------------------|
E|-------------------------------------------------------------|

E|----------|
B|----------|
G|-119p7-9--|
D|----------|
A|----------|
E|----------|

E|--------------------------------7-----------------------|
B|------------------------------7---10p7------------------|
G|-9p7---7-----------------9(11)---------7h9p7--7---------|
D|-----9---9p7---7----------------------------9---9p7h9---|
A|-------------9---97p5--------------------------------9--|
E|-----------------------7--------------------------------|

E|---------------------|
B|---------------7-----|
G|---------------9(11)-|
D|-7-------------------|
A|--7h9p75-------------|
E|-----------7~~-------|

Lyrics:
    B
Deep down in Louisiana, close to New Orleans,
Way back up in the woods among the evergreens,
      E
There stood a log cabin made of earth and wood
      B
Where lived a country boy named Johnny B. Goode
    F#
Who never ever learned to read or write so well,
             B
But he could play the guitar just like a ringin' a bell.

CHORUS:

B
Go! Go! Go, Johnny, go! Go!
                  E
Go, Johnny, go! Go!
                 B
Go, Johnny, go! Go!
                F#             B
Go, Johnny, go! Go! Johnny B. Goode

He used to carry his guitar in a gunny sack,
Go sit beneath the tree by the railroad track.
Old engineers would see him sittin' in the shade,
Strummin' with the rhythm that the drivers made.
When people passed him by they would stop and say,
'oh, my but that little country boy could play'

CHORUS

His mother told him, 'someday you will be a man,
You will be the leader of a big ol' band.
Many people comin' from miles around
Will hear you play your music when the sun go down.
Maybe someday your name'll be in lights,
Вверх

Killing Floor

The song can be divided into 3 main riffs:

Riff one:
G|-----------------|
D|-----5-5-3-3-----|
A|-------------5-5-|
E|-3-3-------------|

Riff two:
G|-----5-5-3-3-----|
D|-------------5-5-|
A|-3-3-------------|
E|-----------------|

Riff three:
G|-----7-7-5-5-----|
D|-------------7-7-|
A|-5-5-------------|
E|-----------------|

Structure:

Riff 1 x4
Riff 2 x2
Riff 1 x2
Riff 3 x1
Riff 2 x1
Riff 1 x1

At the end throw this in:

G|---------|
D|---------|
A|-4-5-6-7-|
E|---------|
Вверх

Killing Floor (2 вариант)

 Riff 1
E|---------------------------------|
B|---------------------------------|
G|---------------------------------|
D|---------------------------------|
A|---------5-5-6-6-7-7-7-7-7-7-7-7-|
E|-5-5-8-8-----------0-0-0-0-0-0-0-|

 Riff 2
E|---------------------------|
B|-----------7-5-------------|
G|-----------7-5-------------|
D|-7-7-7-5-5-7-5-------------|
A|-7-------------7-7-5-5-----|
E|-5---------------------8-8-|

 Riff 3
E|----------------------------------------|
B|----------------12-10-------------------|
G|----------------12-10-------------------|
D|-12-12-12-10-10-12-10-------------------|
A|-12-------------------12-12-10-10-------|
E|-10-------------------------------13-13-|

 Riff 4
E|-------------------------------------------------------------|
B|-------------------------------------------------------------|
G|-9-9-9-7-7-----7-7-7-5-5-------------------------------------|
D|-9---------9-9-7---------7-7---------------------------------|
A|-7-------------5---------------------5-5-6-6-7-7-7-7-7-7-7-7-|
E|-----------------------------5-5-8-8-----------0-0-0-0-0-0-0-|

Jimi alternates between playing the lead riffs and the 12 bar
blues. 12 bar blues in A minor which goes with the riffs -
brackets show which riff this section goes with: in this case
the chords are A, D and E.

(Goes with riff 2)
E|---------------------------------|
B|---------------------------------|
G|---------------------------------|
D|---------------------------------|
A|-7-7-9-7-7-7-9-7-7-7-9-7-7-7-9-7-|
E|-5-5-5-5-5-5-5-5-5-5-5-5-5-5-5-5-|

(Goes with riff 3)
E|---------------------------------|
B|---------------------------------|
G|---------------------------------|
D|-7-7-9-7-7-7-9-7-7-7-9-7-7-7-9-7-|
A|-5-5-5-5-5-5-5-5-5-5-5-5-5-5-5-5-|
E|---------------------------------|

(Goes with riff 4)
E|-------------------------------------------------------------|
B|-------------------------------------------------------------|
G|-------------------------------------------------------------|
D|99-11-99-9-11-9-7-7-9-7-7-7-9-7------------------------------|
A|77-7--77-7-7--7-5-5-5-5-5-5-5-5-------5-5-6-6-7-7-7-7-7-7-7-7|
E|-------------------------------5-5-8-8--------0-0-0-0-0-0-0-0|

The order goes like this:

Intro : Start off with some small solo then do riff 1
(no 12 bar blues behind this riff, it's the turn around riff)

:beginning
riff 2
riff 2
riff 3
riff 2
riff 4
goto beginning
Вверх

Little Wing

E|---------12--------------------------------------3-5-3-3-----|

E|--------12----------------------------5------------3---------|
B|-----X--12--------X-----------0---5---5------0---------------|
G|-----X-------------X----X-------5--5---7-------------------5-|
D|-----X--12--------X----X--0-2--5-7---------------------------|
A|-----------0------------X-----------------23-----------------|

E|-------------------------------------------------------------|
B|----3---3------------------------------------5---------------|
G|--4-5---5--4-5--4------------------5-------5-7---------------|
D|------------------5----------------5-------------5-7--5------|
A|-----------------------------5--7----7-----------5-7--5------|
E|-----------------------5---------------------------------5-7-|

E|----------------------------------------------------9--10--9-|
B|---------8-10-8-------------------------------------7--10--7-|
G|---------7------7-------7--7--7-----7-------------------7--7-|
D|------------------9---7-7--9--7-7---7------------9-----------|
A|------------------7-7-10--------10--7------------------------|
E|---0--------------------------------------7------------------|

E|----------7--------------------------------------------------|
B|---7-10---7--------------------------------------------------|
G|------------7------6---------5--5-5--5------------5-5--5-----|
D|------------9------87-----5-7--9-7--5--5-----5---5-7--5------|
A|-----------------X----------------------8-----7--------------|
E|-------------7-6--------5---------------------------------57-|

E|---------5/7--4--5-----53------------------------------------|
B|---------3/5-----3-----51--1----1----1-----------------3-1-0-|
G|------0--0-------0-----0----0----0----0--------2----2---2----|
D|------5--5/7-----------53-------3----3--------2--2-----------|
A|-------------------------------------------0-3-------------3-|
E|-2/3----------------0---------1-----1----1-------------------|

E|-------------------------------------------------------------|
B|------------------------------7------------------------------|
G|--------------------------7---7------7---7------------7------|
D|----------7-------7-------7---9------7---7---7---7----7------|
A|---3/5-----5--------5------------------------10--7-----------|
E|-------------------------------------------------------------|
Вверх

Little Wing (2 вариант)

Intro
e|--12-----------------------------3h5-3-----------------------|
B|--12---------------------5-------3h3-3-----3--3--------------|
G|x-12---x---------0-----5-5-----0---------4-5--5-4-5-4--------|
D|x-------x--x--------5---5-7------------5--------------5------|
A|x-12---x--x--0-2---5-7------------------------------------5-7|
E|-----0-----x----------------23--------------------------5----|

e|---------------------------------------------------------9-10|
B|--------5-5---------------8-10-8-------------------------7-10|
G|-5----5-7-5-7-------------7------7--------7-7-7----7--------7|
D|-5----------7-5-7-5----------------9---7--7-9-7-7--7--9------|
A|----7---------5-7-5----------------7-7-10-------10-7---------|
E|--------------------5-7-0---------------------------7--------|

e|9------7--------------------------------------------------5/7|
B|7-7-10-7--------------------------------------------------3/5|
G|7--------7------6-------5--5-5--5-------5-5--5---------0--0--|
D|---------9------87---5-7--9-7--5--5-5--5-7--5---------5--5/7-|
A|---------------x-------------------8-7-----------------------|
E|-----------7-6-----5---------------------------57-2/3--------|

e|5-53---------------------------------------------------------|
B|3-51-1---1---1-------1-----1-31-----------------7------------|
G|0-0---0---0---0-------0---0---2----------------7--7--7--7----|
D|--53---3-3-3-3--3-------------------7----7----7--9--7--7--7--|
A|------------------0-3---3-------3/5--5-5--5-5--------------10|
E|-------------------------------------------------------------|

e|--------|--Drums--|
B|--------|---------|
G|----7---|---------|
D|--7-7---|---------|
A|--7-----|---------|
E|--------|---------|

e|-12----------------------------------------------------------|
B|-12----------------------------------------------------------|
G|-12--------------0h2p0--------------------------------------7|
D|------------------2-------2------------------------5--7--5--7|
A|------------------2-------------------5h7--------------------|
E|------0---------------------0-0-0-0--------5h7--3------------|
    Well she's walkin                       through the clouds

e|-------------------------------------------------------------|
B|--------------------------------------------------8h-10p-8--8|
G|--7--7--7-----------------------------------------7----------|
D|--9--7--7------------9--7--7------7---7----------------------|
A|--------10-----------7--7--10--7--10--7----------------------|
E|------------7----------------------------0-------------------|
              with a circus mind           that's running wild

e|----------------7--9--7--------------------------------------|
B|-8--------------7--------10--7--7----------------------------|
G|---7----------------------------7--7h9p7----------7h-9p-7----|
D|-----9-----------------------------------9--8--8--8--------7-|
A|-------------------------------------------------------------|
E|---------7---------------------------------------------------|
              butterflies and zebras           and moonbeams

e|------------------------------------3----3-3-----------------|
B|----------------------------------1-0----3-3-----------------|
G|5--5--5-----------------------------0-0--------5-4-----------|
D|9--7--5-----5-5-5-5-5-5---------------------------5----------|
A|------------8-7-8-7-8-8--------------------------------------|
E|-------------------------3---------------------------3-------|
    and, uh fairy tales       that's all she ever think's about

e|---------------------------------------------|
B|---------------------------------------------|
G|-----------------------------------------7---|
D|---------(10)----------------------------7---|
A|---------------------12---9------------------|
E|------/8------/10---(10)-(10)-10--10-10------|
          riding with the wind

e|--------------0--------0-------------------------------------|
B|--------------0h2p0----12h14p12--------0---------------------|
G|--------------------------------14-12--9---------------------|
D|----------2-------------------------------12-9---------------|
A|----------2--------------------------------------------------|
E|---/12---0-------------------------------------------------3-|
  When I'm sad                                 She comes to me

e|-------------------------------------------------------------|
B|-------------------------------------------------------------|
G|-7/97/97/97--------------------------------------------------|
D|-7/97/97/97--------------------------------------------------|
A|---------------------------------------------5--7--5---------|
E|------------------12--5-------------5-5--7-----------3--5--0-|
                        With a thousand smiles  She gives to me

e|--------------------------------------------------------9--10|
B|------------8h-10p-8------------------------------------7--10|
G|------------7-------------------------------------------7--7-|
D|-------------------------------------------------------------|
A|---------------------------------12--12h-14--14--------------|
E|----------------------12--12--0-------------------7----------|
    free                                      It's alright, she

e|-9--7--------------------------------------------------------|
B|-7--7------------------5h-7p-5--5----------------------------|
G|-7--7------------------4-------------------------------------|
D|----------9---------9--------------7--9--7--7---5-5-5-5-5-5-8|
A|------------9----9-----------------7--7--7--10--7-8-7-8-7-8-7|
E|--------------7----------------------------------------------|
  says it's alright                               Take anything

e|--------------5/7--53--3-------------------------------------|
B|--------------3/5--51--1-------------------------------------|
G|------2/4-----0----0----0------------------------------------|
D|--------------5/7--53--3---------------------------12-12-12--|
A|------------------------------------10--10----------12-12-12-|
E|-3---------3-------------------3/8----------8--/10--10-10-10-|
   you want from me          anything                  anything


                            Whammy Bar
e|---------------------------12-------------|
B|---------------------------12-------------|
G|---------------------------12-------------|
D|12-12--12--12-12--12-12-------------------|
A|12-12--12--12-12--12-10-------------------|
E|10-10--10--10-10--10-10-------------------|

  Solo
e|-------------------------------------------------------------|
B|---15b(17)-15b(17)-15-12-12-15--12----b(17)15----------------|
G|------------------------------------------------12---14b(16)-|
D|-------------------------------------------------------------|
A|-------------------------------------------------------------|
E|13-----------------------------------------------------------|
                                            Fly  on little wing
e|-------------------------------------------------------------|
B|---14--------------------------------------------------------|
G|-b(16)--14b(16)-14-14b(16)14--12--14-14b(16)14b(16)-b(16)14p-|
D|-------------------------------------------------------------|
A|-------------------------------------------------------------|
E|-------------------------------------------------------------|

e|-------------------------------------------------------------|
B|-------------------------------------------10/12-------------|
G|12----12-14b(16)-12-14----12-14-12/14-12/14-----10/12-14b(16)|
D|---14------------------14------------------------------------|
A|-------------------------------------------------------------|
E|-------------------------------------------------------------|

e|------------------------------------------------15--15-------|
B|12h13p12-13-12-13-12--15b(17)-b(17)15-12-------15--15--------|
G|--------------------12------------------14b(16)-------14b(16)|
D|-------------------------------------------------------------|
A|-------------------------------------------------------------|
E|-------------------------------------------------------------|

e|-15------13---------13---------------------------------------|
B|-15---------13------13--13-----------------------------------|
G|-----12---------12-------------------------------------------|
D|----------------------------12h14p12------12h14p12-----------|
A|----------------------------12--------15--12-------15--15/17-|
E|-------------------------------------------------------------|
                        Whammy bar
e|------------------------------------12----------12-----------|
B|------------------------------------12--15b(17)-----15b(17)--|
G|------------------------------------12-----------------------|
D|12--14h-16p-14--12--14--14--12--12---------------------------|
A|12--12--12--12--12--12--12--12--12---------------------------|
E|-------------------------------------------------------------|
  (with reverb or wah wah or something)                   Yeah,

e|-------------------------15-15---------15---------15---------|
B|15-----------------------15-15---------15---------15---------|
G|---14b(16)-14-12-14b(16)-------14b(16)----14b(16)----14b(16)-|
D|-------------------------------------------------------------|
A|-------------------------------------------------------------|
E|-------------------------------------------------------------|
  yeah, yeah, yeah          ... little wing wing

e|15-----------------------------------------------------------|
B|15-----------------------------------------------------------|
G|----b(16)14--12--14------12--14--14b(16)--12--14--12---------|
D|----------------------14-------------------------------14----|
A|-------------------------------------------------------------|
E|-------------------------------------------------------------|
Вверх

Little Wing (3 вариант)

                                 Verse
Intro                         F#    C#6    G#m
E|-0---0----0----0----0--0--|-2-----6------4-------------------|
B|-7---5----7---12---14--5--|-2-----6--4-7-4-------------------|
G|-4---2----4----9---11--2--|-3-----6------4-------------4---4-|
D|-6---4----6---11---13--4--|-4-----6------6--6--4-------4-6-4-|
A|-6---4----6---11---13--4--|-4-----4------6-------6-5-4-------|
E|-0---0----0----0----0--0--|-2------------4-------------------|

            B  E                  C#  B   C#   B D F#
E|----------2--0---4---4---6---6------------||-----------------|
B|----------4--0------------------6---4---6-||-4-7-7-----------|
G|----------4--1-4---4---6---6----6---4---6-||-4-7-6-----------|
D|----------4--2------------------6---4---6-||-4-7-4-4-6-4-----|
A|-6-5-4--2-2---------------------4---4---4-||-2-5-4-------6-4-|
E|-------------0----------------------------||-----------------|

                             Chorus
   G#      A#      B  Bsus E F#m7 C  A  D  D# E
E|-4-------6-------7--7-|--0---0-------------------------------|
B|-4-7-4---6-9-6---7--7-|--0---5--5--2--7--8--9----------------|
G|-4-------6-------8--9-|--1---2--5--2--7--8--9----------------|
D|-6-----6-8-----8-9--9-|--2---4--5--2--7--8--9----------------|
A|-6-------8-------9--9-|--2---4--3--0--5--6--7-----7-9-11-9-7-|
E|-4-------6-------7--7-|--0---0----------------7-9------------|

Lyrics:

F#      C#6                              G#m
Angel came down from heaven yesterday
B                                   E
Stayed with me just long enough to rescue me....
F#         C#6                  G#m
And she told me a story yesterday
B                        E
About the sweet love between the moon and the deep blue sea
B                           D              F#
The she spread her wings high over me....she said
G#m               A#m
I'll come back again to see you tomorrow
B     Bsus
      And I said

Chorus:

E                       F#m7/E
Fly on my sweet angel
C    A    D        D#  E
Fly on through the sky
E                       F#m7/E
Fly on my sweet angel
C             A              D   D#      E
Tomorrow I'm 'gonna be by your side

Sure enough to this woman came home to me
Silver wings silhouetted against a child's sunrise
And my angel she said unto me
today is the day for you to rise
Take my hand come you're gonna be my man
and she took me high over yonder
(Chorus)

Well, I don't know how the tab is going to look, since I only
wrote it in Windows Notepad. But if you line up the chords
and bars vertically, all the licks should fall into place.
This song was originally played through a Leslie speaker,
but sounds fine through a phaser or flanger.

-----

I've only tabbed the intro yet. The rest will follow later.
The whole song is played with the guitar tuned down a half step.
A Leslie is used to get the 'spacy sound'. This effect can be
emulated with a chorus pedal at a medium slow rate.

Eb|0--0-------0------------0----|0---------------0-------------|
Bb|7-----7----7----7-------7s5--|5---5--------5--5--5----------|
Gb|4--------4---4--4------------|2---2--------2--2--2s4--------|
Db|6--------6---6--------6------|4------4--4-----4--4----------|
Ab|6-----------------6----------|4------4--4-------------------|
Eb|0-------------------0--------|0---------0-------------------|

Eb|0-----0--0----0---0---0------|0------------------------0----|
Bb|7-----7--7----12--12--14--14-|5---------------------5--5----|
Gb|4-----4--4----9---9---11--11-|2------2--------------2--2----|
Db|6--6-----6----11--11--13--13-|4--4---------4--------4-----4-|
Ab|--------------11--11---------|4---------4-----4-----------4-|
Eb|-----------------------------|0------------------0----------|
Вверх

Long Hot Summer Nights

INTRO:
E|--------------------------------------------|
B|--------------------------------------------|
G|---------------------3----------5-5-------3-|
D|----------2b-2b------2----------4-4-------2-|
A|--------2-----------------------------------|
E|--0-2-4----------0-2-----0-4-4-4------0-2---|

E|-----------------------------------------------------|
B|-----------------------------------------------------|
G|--------------------3----------5-5------6-4----------|
D|---------2b-2b------2----------4-4----------6-5-4--2-|
A|-------2---------------------------------------------|
E|-0-2-4----------0-2-----0-4-4-4----------------------|

Then the chords start of with:
C#9   F#  G#  F#  C#9  D#9  G#  F#
C#9   F#  G#  G  F#
E   B   A   F#  B5  C#5

Вверх

Machine Gun

 First section:
E|-------------------------------------------------------------|
B|-------------------------------------------------------------|
G|-------------------------------------------------------------|
D|-x-x-x-x-x-x-x-x-x------------------------x-x-x-x-x-x-x-x-x--|
A|-x-x-x-x-x-x-x-x-x-12b-12b-12-10----------x-x-x-x-x-x-x-x-x--|
E|-x-x-x-x-x-x-x-x-x---------------12/10-12-x-x-x-x-x-x-x-x-x--|

E|--------------|
B|--------------|
G|--------------|
D|--------------|
A|-12b-12-10----|
E|-----------10-|

 Second Section:
E|-0-----------------------------------------------------------|
B|-0-----------------------------------------------------------|
G|-----------------------------------12b-----------------------|
D|-14---14---------12/14-12----12/14-------14-----14-----------|
A|---------0-12/14----------14-----------------------12/14-----|
E|----0---------------------0-----------------0-0--------------|

E|----------------------|
B|----------------------|
G|-------------------12-|
D|-12/14-12-------14-12-|
A|----------14-12-------|
E|----------------------|
 Third Section:
E|-------------------------------------------------------------|
B|-------------------------------------------------------------|
G|---7-9-----------------7-9-----------------------------------|
D|---------------------------------------5---------------------|
A|---------5b-7--------7-----0-------5-----7-------------------|
E|-0-----0---------0-x---------3/5/7---7-----------------------|
Вверх

May This Be Love

1st Verse
E                              F#m7(add4)/E
Waterfall nothing can harm me at all.
             A(add2)                      E
My worries seem so very small with my waterfall.

2nd Verse
E                F#m7(add4)/E
I can see my rainbow calling me.
           A(add2)                   E
Through the misty breeze of my waterfall.

Bridge
D                                  G#   A   A#
Some people say day-dreaming's for  all the huh!
B                     E5
Lazy minded fools with nuthin' all to do.
D        A          A(add9) G# G
So let then laugh, laugh at me.
F#
(Spoken) So just as ling as I have you
D                     A
(Sung) to see me through
                          B
I have nuthin to lose 'long as I have you.

        3rd Verse
E(add9)                            F#m7(add4)/E
Waterfall, dont ever change your ways,
            A(add2)
fall with me for a million days,
           E     Esus4    E
oh my waterfall.

Solo
Вверх

Midnight Lightning

D#||------------|----------------------------------------------|
A#||------------|----------------------------------------------|
F#||------------|--4-4-4-4----------4--------------------------|
C#||------------|--x-x-x-x----------x--------------------------|
G#||------------|--5-5-5-5-5-5-5--5-5--7p5h7p5h7p5h7p5h7p5h7p5-|
D#||------------|----------------------------------------------|

D#|---------------------------------|--------------------------|
A#|---------------------------------|--------------------------|
F#|---------------------------------|---------4-4-4-4-4-----19-|
C#|---------------------------------|---------x-x-x-x-x-----x--|
G#|---5h7---------5p-0--------------|-5-5-5-5-5-5-5-5-5/-7~-x--|
D#|-0-----3-3b5-0------5b-5-5-3b3p0-|--------------------------|

D#|-----------------------------|------------------------------|
A#|-----------------------------|------------------------------|
F#|-----------------------------|--4-4-4-4-4--4-4--4-4/-9-9/16-|
C#|-------------------5b--------|--x-x-x-x-x--x-x--x-x---------|
G#|----------------7----7~------|--5-5-5-5-5--5-5--5-5---------|
D#|-0--0--3-3b5--0----------17--|------------------------------|

D#|-----------------------------|-------------0-0-------0----3-|
A#|-----------------------------|-------------0-0-------3--5---|
F#|-----------------------------|-4--4-4--4-2---2--2-4---------|
C#|----------------0------------|-x--x-x--x-x---x--x-x---------|
G#|-----------0---------------2-|-5--5-5--5-4---4--4-5---------|
D#|-0-0-0-0-3b---0---5b-5-3-3b0-|------------------------------|

D#|-3/17--------------------------|-----------------5r-5-------|
A#|-------------------------------|----------------------5p3p0-|
F#|-------------------------------|-4-4-4---4-4-4-4------------|
C#|-------------------------------|-x---x---x-x-x-x------------|
G#|-----------------5p0-----------|-5---5-5-5-5-5-5------------|
D#|-----0-0-3b3-5-0-----5b-5-3b-0-|----------------------------|

D#|------------------------------|-----------------------------|
A#|------------------------------|-----------------------------|
F#|------------------------------|-4-4-4-4-4-4-4---------------|
C#|------------------------------|-x-x-x-x-x-x-x--9/1095-------|
G#|-2-2-----------5p-0-5b-5-3--2-|-5-5-5-5-5-5-5-----------7-5-|
D#|-0-0-0-3b-5--0------5b-5-3--0-|-----------------------------|

D#|-------------------------------|---------------5r---3-------|
A#|-------------------------------|----------------------5p3p0-|
F#|-------------------------------|-4-4-4-4-4-4-4--------------|
C#|-------------------------------|-x-x-x-x-x-x-x--------------|
G#|----2----------5p0-------------|-5-5-5-5-5-5-5--------------|
D#|-0--0--3p0-5p0-----5b-5-3--3b0-|----------------------------|

D#|-------------------------------|----------------------------|
A#|-------------------------------|------------------------3---|
F#|-------------------------------|--4-4-4--4-4--4-4--4-4--2b--|
C#|-------------------------------|--x-x-x--x-x--x-x--x-x------|
G#|--2--2-2--------5p0-------2----|--5-5-5--5-5--5-5--5-5------|
D#|--0--0-0-3b-5-0-----5r-3--0-0--|----------------------------|

D#|-------------------------------|----------------------------|
A#|-3-----------------------------|----------------------------|
F#|-2r2p0-------------------------|-4-4-4-4-4-4-4-4-4-4-2r2p0--|
C#|-------------------------------|-x-x-x-x-x-x-x-x-x-x-------2|
G#|-------2--------5p-0----------0|-5-5-5-5-5-5-5-5-5-5--------|
D#|-------0-3b-5-0------5b-5-5-3b0|----------------------------|

D#|-------------------------------|----0-0-0-0-0-0-0-0-5b-3-5/-|
A#|---0---------------------------|----0-0-0-0-0-0-0-x-5b-3-5/-|
F#|---1---------------------------|-4--4-4-4-4-4-4-4-4---------|
C#|---2---------------------------|-x----x-x-x-x-x-x-5---------|
G#|-2--------------5p0------------|-5----5-5-5-5-5-5-5---------|
D#|-0---0-3b-0-5-0-----5b-5-5-3-0-|----------------------------|

D#|------------------------------|-----------------------------|
A#|------------------------------|----------------------3-3--3~|
F#|------------------------------|--4-4-4-4-4-4-4-4-2-2b--2b-2~|
C#|--2-2-------------------------|--x-x-x-x-x-x-x-x------------|
G#|--2-2-3-3b----5p-0------5/7~-7|5-5-5-5-5-5-5-5-5------------|
D#|0-0-0-3-3b5-0------5b-0-------|-----------------------------|

D#|-------------------------------|--------------------3-------|
A#|3------------------------------|---------------3-5~---5p3p0-|
F#|2r2p0--------------------------|-4-4-4-4-4-4-4--------------|
C#|------------------------------0|-x-x-x-x-x-x-x--------------|
G#|------2-3-3b----5p-0----------0|--5-5-5-5-5-5-5-------------|
D#|------0-3-3b5-0------5b-5-3-0--|----------------------------|

D#|-----------------------------|-------------------0---3-5r-0-|
A#|---0-------------------------|-------------------3-5---5r-0-|
F#|---1-------------------------|-4-4-4-4-4-4-4-4-4------------|
C#|---2-------------------------|-x-x-x-x-x-x-x-x-x------------|
G#|-2--------------5------------|-5-5-5-5-5-5-5-5-5------------|
D#|-0----3-3b3h5-0-5-5-5b-5-3-0-|------------------------------|

D#|-------------------------------|----------------------------|
A#|---0---------------------------|--------------------------0-|
F#|---1---------------------------|--------------------------0-|
C#|---2---------------------------|---------5b-----------------|
G#|-2-------------5p-0------------|-5-7-7-----7~--5p0----------|
D#|-0---0-3-3b5-0------5b-5-3-3b0-|-------0-----------x-0-14---|

D#|----------------------------|---------------0--0----3-------|
A#|-----0----------------------|---------------0--3h-5---5p3p0-|
F#|----------------------------|-4-4-4-4-4-4-4-4---------------|
C#|----------------------------|-x-x-x-x-x-x-x-x---------------|
G#|--------------5p-0----------|-5-5-5-5-5-5-5-5---------------|
D#|-0-0---3b-5-0------5b-5-3-0-|-------------------------------|

D#|-----------------------------|---------------------3b-------|
A#|---0-------------------------|-----------------3h5----5p3p0-|
F#|---1-------------------------|-4-4-4-4-4-4-4-4--------------|
C#|-----2-----------------------|-x-x-x-x-x-x-x-x--------------|
G#|---------------5-5h7-5h7-5---|-5-5-5-5-5-5-5-5--------------|
D#|-0-----3-3b5-0-------------7-|------------------------------|

D#|-----0-----------0---------|
A#|-----0-----------0---------|
F#|-----1-----------1-------1-|
C#|-----2-----2-----------2---|
G#|--2-----3b-2--2-----3b-----|
D#|--0-----3b----0-----3b-----|

D#|-------------------------0---0-|-0---0---0---0-0-0-0--------|
A#|-----3-3---2-------------------|---------------------3b-0---|
F#|-----3-3---2-------------0h1-0-|-0--------------------------|
C#|-3---3-------3----5------------|---2-0h2-0h2-0-2-2-2-0--0h2-|
G#|-1-1-----0---3--4----0---------|----------------------------|
D#|-----------------------0-------|----------------------------|

D#|------------------------------------|0-0---0-0---0-0-0---0--|
A#|------3-3-2-2-----------------------|-----------------------|
F#|------3-3-2-2-----------------------|-----------------------|
C#|0h3-3-3-----2-----2-4/6-2----------2|2-0h2-2-0h2-2-2-0h2-2--|
G#|0h1------0---0-2h4-------4p2--------|----------------------0|
D#|-----------------------------4p0-3--|-----------------------|

D#|-----------------------------|---0-----0---16--10--8--5-3---|
A#|-----3-3---2-----------------|---0-----0---x---x---x--5-3---|
F#|-----3-3---2-2---------------|-------------16--10--8--5-3---|
C#|---3---------2------2-2-2----|------------------------------|
G#|-1-------0------0-4p0-0-0----|------------------------------|
D#|--------------------------4r-|-0---3p0---0----------------3-|

D#|------------------------------|---0---------12-0-0-0--------|
A#|-----3-----2-2----------------|-----0-------12-0-0-0--------|
F#|-----3-----2-2----------------|-----------1------1-1--------|
C#|-3-3-3-3-2-2-------2----------|-2---------2-------------2-2-|
G#|-1-1---1---------2------------|-------------------------2-2-|
D#|--------------5b----7-75-3--0-|------3b0------0-----3-0-----|

D#|--------------------0-0---3-------|----0--------------------|
A#|--------------------3-------5p3p0-|-0--0--------------------|
F#|-4-4-4-4-4-4-4-4-4----------------|-1---------------------1-|
C#|-x-x-x-x-x-x-x-x-x----------------|-2---------2--2--------2-|
G#|-5-5-5-5-5-5-5-5-5----------------|-2-----------------------|
D#|----------------------------------|-0-----3-0-------0--3----|

D#|-------------------0-0---0-------|---0-----0----0-----------|
A#|-------------------3-------5p3p0-|---0-----0----0-----------|
F#|-4-4-4-4-2--2-2-4----------------|--------------1-------1---|
C#|-x-x-x-x-x--x-x-x----------------|-----------2----------0h2-|
G#|-5-5-5-5-4--4-4-5----------------|-----------2--------------|
D#|---------------------------------|-0---3-0---0----0-3p0-----|

D#|--------------5r-3-----|-0--------------|-0----------------0|
A#|------------------5p3p0|-0--------------|-0----------------0|
F#|-4-4-4-4-4-4-4---------|----------------|---1-4-4-4-2---2-4-|
C#|-x-x-x-x-x-x-x---------|-----0h2--x--0h2|---2-x-x-x-x-0-0-x-|
G#|-5-5-5-5-5-5-5---------|--3-2---2-------|-----5-5-5-4-4---5-|
D#|-----------------------|0-3------0-3b---|0------------------|

D#|-0-0-------------0----------|-------------------------------|
A#|-0-0-------------0-3--------|-------------------------------|
F#|-x-----------------2b-2p0---|-------------------------------|
C#|-x---------2--------------2-|-----------5h6-----------------|
G#|----------------------------|----5h7-----------5--7---------|
D#|-----0-3-0----0-------------|-0------0------0-------3b-5--0-|

D#|---------------------------------|--------------------------|
A#|---------------------------------|--------------------------|
F#|---------------------------------|--------------------------|
C#|-------------5h6-----------------|--------5h6---------------|
G#|-5h7--5h7-----------5h7p5-5------|-5h7----------5-7---------|
D#|-0--------0------0----------53p0-|-----0------0-----5--7-3b-|

D#|--------------------------------||
A#|--------------------------------||
F#|--------------------------------||
C#|------------5h6-----------------||
G#|-----5h7-----------5--7---------||
D#|--0------0------0-------5--7-3--||
Вверх

One Rainy Day Wish

E|------7/12----9p7--7h9---7----------------------|
B|-----------------------------9h12p9----7h9p7----|
G|------------------------------------------------|
D|------------------------------------------------|
A|------------------------------------------------|
E|------------------------------------------------|

E|------------------------------------------------|
B|--------------------12--------------------------|
G|----96p4---4h6-----9----4h6p4h6p4---------------|
D|--------------------11---------------7h9p7h9p7--|
A|--------------------11--------------------------|
E|------------------------------------------------|

E|------------------------------------------------|
B|------------------------------------------------|
G|------------------------------------------------|
D|--6h7p6h7p6h7-----6h7--7p6---7------------------|
A|------------------------------------------------|
E|------------------------------------------------|

E|---------------------0--------------------------|
B|-------12-12---------12---------12-12-----------|
G|------9-----9--------9---------9-----9----------|
D|----11-------11------11------11-------11--------|
A|--11-----------11----11----11-----------11------|
E|------------------------------------------------|

E|------------------------------------------------|
B|------------------------------------------------|
G|---6/9------------------------------------------|
D|---6/9----------9/11---9-9----9--7--------------|
A|---------11p9---9/11---9-11---9--7--------------|
E|------------------------------------------------|

E|----12----9p7--7h9----7-9-7---------------------|
B|-----------------------------97---5----5/7--5---|
G|-------------------------------------6----------|
D|------------------------------------------------|
A|------------------------------------------------|
E|------------------------------------------------|

E|------------------------------------------------|
B|------------------------------------------------|
G|------------------------------------------9/11--|
D|----7h9p7----7-----------7----------------9/11--|
A|----7h9p7--7h9---------7----7---------7---9/11--|
E|-----------------7--9----------7---9------------|

                           Bend down 1/2  w/ bar
E|------------------------------------------------|
B|------------------------------------------------|
G|------------------------------------------------|
D|--9--------7h9----------------6-----------------|
A|--9h11p9---------7--------7---7-----------------|
E|---------------------7h9------------------------|

E                               Aadd9
Gold and rose the color of the dream I had
                  E			    A
not too long ago. A misty blue and the lilac
       E		   C#m
too a never  to grow old  a there you were under
     Asus2		   E		      C#m7
the tree of song   sleeping so peacefully
E                A                 C#m7
In your hand a flower played , a waiting
                  C#
there for me.
                G#    B      F#            C#
I have never laid eyes on you not like before
   G#          B   F#7          C#         G#
this timeless day.  A but you walked and ya once
   B          F#7           C#   G#        B
smiled my name and you stole my heart away
     F#7             C#                  G#   B
Ah, stole my heart away little girl, yeah  ______alright!

C#   G#   B  F#7  (chords during solo)
Solo (I will post this in complete w/ solo)
E                               Aadd9          E             C#m
Gold and rose the color of the dream I had,____not too long ago
E               A           E5            C#m
Misty blue and lilac too a never grow to old
   E5                              A
A gold and rose the color of the dream I had.
E               C#m        E5                D5            A
Misty blue and lilac too. Gold and rose the color of the
                                                    dream I had

C, C#m
is the chord pattern from here on.    As I
said I eventually will post all the litlle riffs he plays
while he's singing and include the solo.

The time signature changes in this song from 3/4 to 4/4
Вверх

Pali Gap

bassline:
||--------------------------||
||-------------0------------||
||-------0-2-2---2--0h2-0---||
||-0--3-------------------3-||


guitar (w/univibe)

    2x
E|/17--/17--/17--/17||------19---------|
B|/17--/17--/17--/17||------19gliss.---|
G|------------------||------19---------|
D|------------------||-----------------|
A|------------------||-----------------|
E|------------------||-----------------|

E|------------------7-----------------------|
B|----------------7---10p7------------------|
G|---9(11)---9(11)---------9(11)-9-7(8)-----|
D|-9------------------------------------9~--|
A|------------------------------------------|
E|------------------------------------------|

E|--------------------------------------------7----------|
B|-------------------------------------------------------|
G|----------7-9(11)---7~-------7-9(11)-9(11)~---(11)9p7--|
D|------7-9---------9----------------------------------9-|
A|---/9--------------------------------------------------|
E|-------------------------------------------------------|

E|---------------------------------------------|
B|-----------------7-10(12)-10p7---------------|
G|----7----7-9(11)---------------9--7(8)-------|
D|-/9----9-------------------------------9/12--|
A|---------------------------------------------|
E|---------------------------------------------|

E|------7-------7-------7------------------------|
B|-7h10----7h10----7h10----7h10------------------|
G|------------------------------9(11)9p7---9(11)-|
D|---------------------------------------9-------|
A|-----------------------------------------------|
E|-----------------------------------------------|

E|--------7-10-10(12)-10-7------------------------|
B|---7-10------------------10-7-------------------|
G|-9----------------------------9(10)-7-----------|
D|--------------------------------------9-7-------|
A|------------------------------------------9-8-7-|
E|------------------------------------------------|

E|-12(14)(14)(14)(14)(14)(14)12(14)12p1012(14)12p10-|
B|--------------------------------------------------|
G|--------------------------------------------------|
D|--------------------------------------------------|
A|--------------------------------------------------|
E|--------------------------------------------------|

E|-12/14-14-14-14-14-/17-17-17-17-17-17-/19-19-19-19-19-19-|
B|---------------------------------------------------------|
G|---------------------------------------------------------|
D|---------------------------------------------------------|
A|---------------------------------------------------------|
E|---------------------------------------------------------|

E|-17h19p17--------------------------------------------|
B|----------19-17-15-12-10(12)-7-----------------------|
G|-------------------------------9-7-------7-9-9(11)-9-|
D|-----------------------------------9---9-------------|
A|-----------------------------------------------------|
E|-----------------------------------------------------|

E|-------------------------------------------------------------|
B|----------------------------7-10(12)~-10p7-------------------|
G|---------------------7-9(11)---------------9p7-9(11)-9(11)-9~|
D|7h9-7-------------7h9----------------------------------------|
A|-----9-8-7--7~-10~-------------------------------------------|
E|-------------------------------------------------------------|

E|--------------------------------------------------------|
B|-10(12)-10(12)-10(12)-10(12)-10(12)~-10~-12(14)-10p7----|
G|-----------------------------------------------------9~-|
D|--------------------------------------------------------|
A|--------------------------------------------------------|
E|--------------------------------------------------------|

E|--------------------------------------------------------|
B|-10(12)-10(12)-10(12)-10(12)-10(12)~-10-12(14)-7-10p7---|
G|-----------------------------------------------------9~-|
D|--------------------------------------------------------|
A|--------------------------------------------------------|
E|--------------------------------------------------------|

E|-12(14)(14)(14)12p10-------------------------------7----|
B|---------------------12-12(14)~-12-10-7--------7-10-10--|
G|----------------------------------------9~---9----------|
D|--------------------------------------------------------|
A|--------------------------------------------------------|
E|--------------------------------------------------------|

E|-10(12)10-10(12)10-7------------------------------------|
B|--------------------10(12)-10------------------10-10~---|
G|------------------------------9p7------9-10-11----------|
D|----------------------------------9-12------------------|
A|--------------------------------------------------------|
E|--------------------------------------------------------|

E|--17-------17------17------------------17------17----17------|
B|-17(19)--(19)17--17(19)--15-17-15-----17(19)-(19)17-17(19)---|
G|----------------------------------16-------------------------|
D|-------------------------------------------------------------|
A|-------------------------------------------------------------|
E|-------------------------------------------------------------|

E|----------------------------------17----------17-------------|
B|-17p15----15-17-17(19)-17(19)~--17(19)--17(19)---17(19)17----|
G|-------16----------------------------------------------------|
D|-------------------------------------------------------------|
A|-------------------------------------------------------------|
E|-------------------------------------------------------------|

E|-------------------------------------------------------------|
B|15-17(19)-(20)17----15-17(19)----15-(19)17-15----15-17(19)17~|
G|-----------------16-----------16--------------16-------------|
D|-------------------------------------------------------------|
A|-------------------------------------------------------------|
E|-------------------------------------------------------------|

E|-------------------------------------------------------------|
B|------15-17(19)-(19)~-17p15---15-17(19)-17-17-17-17-17-17-17-|
G|16-16----------------------16--------------------------------|
D|-------------------------------------------------------------|
A|-------------------------------------------------------------|
E|-------------------------------------------------------------|

E|-------------------------------------------------------------|
B|17-17(19)17p15-15-15-15-15-15-15(16)-15-15-12-12-12-12-12-12-|
G|-------------------------------------------------------------|
D|-------------------------------------------------------------|
A|-------------------------------------------------------------|
E|-------------------------------------------------------------|

E|-------------------------------------------------------------|
B|-10-10-10-10-10~-10--10-10-10-7------------------------------|
G|--------------------------------9-9-9-9--7-7-7-7-6-6-6-6-----|
D|-------------------------------------------------------------|
A|-------------------------------------------------------------|
E|-------------------------------------------------------------|

E|-------------------------------------------------------------|
B|-------------9(10)-(10)-(10)------------9(10)9-7-9-----------|
G|-------------9(10)-(10)-(10)7---------7-9(10)9-7-9-7---------|
D|7-7-9~-7-9-9------------------9---7-/9--------------9~-7p5---|
A|-9------------------------------/9-------------------------7-|
E|-------------------------------------------------------------|

E|---------------------------------------------------|
B|-15-15-1514-14-14/17-17-1714-14-14/15-15-17-17-17--|
G|---------------------------------------------------|
D|-12-12-1211-11-11/14-14-1411-11-11/12-12-14-14-14--|
A|---------------------------------------------------|
E|---------------------------------------------------|

E|-/17-17-17-17-17-17-17--/13--/17-----19\-----------|
B|---------------------------------------19\-gliss.--|
G|-/14-14-14-14-14-14-14--/10--/14-----19\-----------|
D|---------------------------------------------------|
A|---------------------------------------------------|
E|---------------------------------------------------|

E|-------------------------------------------------------------|
B|-7---------7-----------10(12)~--(12)10-7-----7-----7---------|
G|-9(11)-9-7-9(11)-9(11)-------------------9-7-9(11)-9(11)-----|
D|-------------------------------------------------------------|
A|-------------------------------------------------------------|
E|-------------------------------------------------------------|

E|-------------------------------------------------------------|
B|-10-----10-----14-----14-----14-----14-----17-14-----14------|
G|-12(14)-12(14)-16(18)-16(18)-16(18)-16(18)----16(18)-16(18)--|
D|-------------------------------------------------------------|
A|-------------------------------------------------------------|
E|-------------------------------------------------------------|

E|----------------------------------------------------7--------|
B|-12-----12-----10------7--------------10----10(12)-10(12)----|
G|-14(16)-14(16)-12(14)--9(11)-7-12(14)-12(14)-----------------|
D|-------------------------------------------------------------|
A|-------------------------------------------------------------|
E|-------------------------------------------------------------|
                         12x
E|---------14-13-12----||-12h14p12----||-/19-/17--|
B|-10(12)-----------15-||----------15-||----------|
G|---------------------||-------------||----------|
D|---------------------||-------------||----------|
A|---------------------||-------------||----------|
E|---------------------||-------------||----------|

E|-----------------------------------7-------7---------------|
B|-10(12)-7-------------------------7-------7-10p7-----------|
G|----------9p7---7(8)---------9(11)---9(11)------9(11)9p7---|
D|--------------9------9----7h9----------------------------9-|
A|-----------------------7h9---------------------------------|
E|-----------------------------------------------------------|
                                         4x
E|-12-12-12-12-12-12-12-12-12-12-12-12||12p10--||------------|
B|------------------------------------||-----12||/12-12-12-12|
G|------------------------------------||-------||------------|
D|------------------------------------||-------||------------|
A|------------------------------------||-------||------------|
E|------------------------------------||-------||------------|
    4x
E|---------||---10-12-12p10----10----10-------------10-------|
B|-12p10---||--10-----------12----12-------12-12-10----12-10-|
G|-------11||-11------------------------11-------------------|
D|---------||------------------------------------------------|
A|---------||------------------------------------------------|
E|---------||------------------------------------------------|

    4x                         4x
E|------7||-----------||-------7------||-----------------------|
B|-----7-||-----7-10p7||------7-10(12)||-----------------------|
G|9(11)--||9(11)------||-9(11)--------||-9-7-------------------|
D|-------||-----------||--------------||-----9-7---------------|
A|-------||-----------||--------------||---------7-9-9-7-5-----|
E|-------||-----------||--------------||-------------------7-7-|

E|-----------------------------------------------------------|
B|-7-----------------------7-6-7--9-7-------------9(10)------|
G|-7-----------------------7-6-7--9-7--9(11)9p7---9(10)-7----|
D|---9--7-------5-5-5-5-7-----------------------9---------9--|
A|--------9-8-7----------------------------------------------|
E|-----------------------------------------------------------|

E|---------------------------------3---2--|
B|-9(10)-9(10)-9(10)---------------3---3--|
G|-9(10)-9(10)-9(10)-7-----------4-----4--|
D|---------------------9-7-----5----------|
A|-------------------------9-7------------|
E|----------------------------------------|

Outro Chords(w/bar):
E|-7~~~---10~~~~---14~~~~-|
B|-7~~~---10~~~~---14~~~~-|
G|-7~~~---10~~~~---14~~~~-|
D|-6~~~----9~~~~---12~~~~-|
A|-7~~~---10~~~~---14~~~~-|
E|------------------------|

Outro:
E|-----------------------------------------------------------|
B|------------7-10-/14-1410-10-/14-147-7/10-105-5/10-10-5-5--|
G|-----7h9---------------------------------------------------|
D|-7h9-------------------------------------------------------|
A|-----------------------------------------------------------|
E|-----------------------------------------------------------|

E|-----------------------------------------------|
B|---/10-103-3-/105/12-10h12p10-7------7-10(12)~-|
G|--------------------------------9(11)----------|
D|-----------------------------------------------|
A|-----------------------------------------------|
E|-----------------------------------------------|
   3x
E|-/19-19-19-19-19-17-14-------------|
B|-----------------------17p15-17----|
G|--------------------------------16-|
D|-----------------------------------|
A|-----------------------------------|
E|-----------------------------------|

E|------------------------------------------------|
B|---------7-10-10(12)-10(12)10-7-----------------|
G|-----7-9------------------------9-7-------------|
D|-7h9--------------------------------9-7---------|
A|----------------------------------------9-7-5---|
E|----------------------------------------------7-|

E|--------------------------------------------------|
B|-------------------------------10--12p10----------|
G|-------------------------7h9/11-----------119-7---|
D|-----7h9-7h9~-------7h9-------------------------9-|
A|-7h9------------7h9-------------------------------|
E|--------------------------------------------------|

E|-10p7-10p7----------------------------------------------|
B|-----------7-10(12)-10p7-10p7------------7--------------|
G|------------------------------9(11)-9(11)-(11)9p7---7---|
D|--------------------------------------------------9-----|
A|--------------------------------------------------------|
E|--------------------------------------------------------|

E|-10p7-10p7-10p7-10p7-10p7-10p7-10p7-10p7-10p7-|
B|----------------------------------------------|
G|----------------------------------------------|
D|----------------------------------------------|
A|----------------------------------------------|
E|----------------------------------------------|

E|-12-12-12-14-14-14-14-12(14)-10-7----------------|
B|----------------------------------10-7-----------|
G|---------------------------------------9-7---7---|
D|-------------------------------------------9---9-|
A|-------------------------------------------------|
E|-------------------------------------------------|

  dive with bar
E|--------------------10----10-------------------------------|
B|-0-/////0--10(12)--10(12)-----------------7----------------|
G|-----------------------------9(11)9p7----9(11)-(11)9p7-----|
D|--------------------------------------9-----------------9--|
A|-----------------------------------------------------------|
E|-----------------------------------------------------------|

E|--------------------------------------------------------|
B|------7--------------7---------------7------------------|
G|-9(11)-(11)9p7--9(11)-(11)9p7---9(11)-(11)9p7-----------|
D|--------------9--------------9----------------9---------|
A|--------------------------------------------------------|
E|--------------------------------------------------------|

E|------------------------------10~~~-|
B|-7-----7-----7-----7----------10~~~-|
G|-9(11)-9(11)-9(11)-9(11)9p7---10~~~-|
D|---------------------------9--------|
A|------------------------------------|
E|------------------------------------|
Вверх

Purple Haze

E|-----------------|-----|--------------------|----------------|
B|-----------------|-----|--------8b----------|----------------|
G|-----------------|-----|-----7--------------|----------------|
D|------8--------8-|--%--|-/9--------7-----(7)|--5-------------|
A|-----------------|-----|--------------------|-----5-----5/7--|
E|-6--------6------|-----|--------------------|--------0-------|

E|-----------|----------------|------------------|-------------|
B|------8b---|----------------|------------------|-------------|
G|----7------|----------------|------------------|-------------|
D|-/9------7-|-(7)/5----------|------5--7--7B--5-|-5-----------|
A|-----------|--------5---5/7-|-5/7--------------|----0---3--0-|
E|-----------|----------0-----|------------------|------0------|

E|-----------------------|-----------------------|----------|--|
B|-----------------------|-----------------------|----------|--|
G|-----------------------|--------------7---7--9-|-0--------|--|
D|------5--7B----5h7-(7)-|-5-------/9------------|----------|--|
A|-5/7-------------------|-----5-----------------|----------|--|
E|-----------------------|-----------------------|-------15-|--|

  E7#9                           G           A
E|-----------------------------|-------------------------------|
B|--------8---8-------8---8--8-|-3--3--3-----5--5--5--7-p-5--5-|
G|--------7---7-------7---7--7-|-4--4--4-----6--6--6--6------6-|
D|--------6---6-------6---6--6-|-5--5--5-----7--7--7--7------7-|
A|--------7---7-------7---7--7-|-------------------------------|
E|-0---------------------------|-3--3--3--3--5--5-----5------5-|

  E7#9                            G              A
E|------------------------------|------------------------------|
B|------8--8------8--8--8--8----|-------3--------5--5--7-p-5-5-|
G|------7--7------7--7--7--7----|-------4--------6--6--6-----6-|
D|------6--6------6--6--6--6----|-------5--------7--7--7-----7-|
A|------7--7------7--7--7--7--7-|------------------------------|
E|-0----------------------------|-3--3--3--3--5--5-----5-----5-|

  E7#9                G      A                  E7#9
E|------------------|-----3--------------------|---------------|
B|----8--8--8-8-8---|-3---3---5--5--5--7-p-5-5-|---8-8-8-8-8-8-|
G|----7--7--7-7-7---|-4---4---6--6--6--6-----6-|---7-7-7-7-7-7-|
D|----6--6--6-6-6---|-5---5---7--7--7--7-----7-|---6-6-6-6-6-6-|
A|----7--7--7-7-7-7-|--------------------------|---7-7-7-7-7-7-|
E|-0----------------|-3-3---3-5--5-----5-----5-|-0-------------|
  Pur-ple Haze all in my brain, lately things        just don't

   G          A                  E7#9
E|------------------------------|------------------------------|
B|------3-----5--5--5--7-p-5--5-|--------8------8------8--8--8-|
G|------4-----6--6--6--6------6-|--------7------7------7--7--7-|
D|------5-----7--7--7--7------7-|--------6------6------6--6--6-|
A|------------------------------|--------7------7------7--7--7-|
E|-3--3-3--3--5--5-----5------5-|-0----------------------------|
     seem  the same.        Act - in'    funny,         but  I

   G                  A                       E5
E|-----------------------------------------|-----|-------------|
B|-3----3----3--------5---5---5---7-p-5--5-|-----|-------------|
G|-4----4----4--------6---6---6---6------6-|-----|-9/11--9---7-|
D|-5----5----5--------7---7---7---7------7-|-----|-------------|
A|-----------------------------------------|-----|-7/9---7---5-|
E|-3----3----3----3---5---5-------5------5-|--0--|-------------|
    don't know why,      s'cuse me;____  while I kiss  the sky.

                   E7#9                    G                 A
E|-----------------|-------------------------|-----------------|
B|------8b------8b-|----8----8----8-8-8-8----|-----3---5-5-5-5-|
G|----7-------7----|----7----7----7-7-7-7----|-----4---6-6-6-6-|
D|-/9------/9------|----6----6----6-6-6-6----|-----5---7-7-7-7-|
A|-----------------|----7----7----7-7-7-7----|-----------------|
E|-----------------|-0---------------------0-|-3-3-3-3-5-5---5-|
    Pur - ple Haze_ all a - round,_

  E7#9                 G        A         E7#9
E|-------------------|-------------------|---------------------|
B|--8----------------|----3-----5-5-7-5-5|--8-8----------------|
G|--7----------------|----4-----6-6-6-6-6|--7-7----------------|
D|--6----------------|----5-----7-7-7-7-7|--6-6-----5----------|
A|--7-----5h7-5------|-------------------|--7-7---5---7-5------|
E|0---5h7-------7-6-5|3-3-3-3-5-5---5----|0-----7---------7-6-5|
  don't know if I'm com - in' up or down. Am I hap-py or

   G                     A                       E5
E|----------------------------------------------|---|----------|
B|--------------3---------5----5---5---7-p-5--5-|---|----------|
G|--------------4---------6----6---6---6------6-|---|-9/11-9-7-|
D|--------------5---------7----7---7---7------7-|---|----------|
A|----------------------------------------------|---|-7/9--7-5-|
E|--3------3----3----3----5----5-------5------5-|-0-|----------|
  in mis-er-y? What-ev-er it is that girl put a spell on me.

              A                    B
E|------------------|-------------------|-------15--------15-12|
B|-----8bb------8(0)|------12B-------12B|----------------------|
G|---7--------7-----|----9---------9----|----12--------12------|
D|/9-------/9-------|/11-------/11------|/14-------/14---------|
A|------------------|-------------------|----------------------|
E|------------------|-------------------|----------------------|
                                            Help me! Help me!

Guitar solo (w/Octavia)
  D                    E7#9
E|-------------------|-----------------------------------------|
B|---15---1515-15-15-|-----------------------------------------|
G|14B--14b--14B14B14B|16-16h-18-18-h-18-p-16-1614-14h16p14-1413|
D|-------------------|-----------------------------------------|
A|-------------------|-----------------------------------------|
E|-------------------|-----------------------------------------|
  Oh, no, no!

    F#5        D5                     E7#9
E|-----------------------------------|-------------------------|
B|-------------X---------------------|-------------------------|
G|-13/14--14B--X------12--14--12-----|-12--11/1211--11---------|
D|----------------14--------------14-|------------------14--12-|
A|-----------------------------------|-------------------------|
E|-----------------------------------|-------------------------|

   F#5         D5            E7#9
E|-------------------------|-----------------------------------|
B|-------------------------|-----------------------------------|
G|-------------------------|-----------------------------------|
D|-12-14-12-11-12-----14-16|-(16)-14h16p1412-12/14-14-14/16-12-|
A|---------------14/16-----|-----------------------------------|
E|-------------------------|-----------------------------------|

   F#5             D5          E7#9
E|----------------------------|-------14-12h14p12--12----------|
B|-------------------17-------|------------------15---14h15p14-|
G|----------------------------|-11-12--------------------------|
D|-16-12-16-12-16-12----12-14-|--------------------------------|
A|----------------------------|--------------------------------|
E|----------------------------|--------------------------------|

  F#5                            E5
E|----------------------------||-------------------|-----------|
B|-14-12B-12h14h12-----15-----||--------8b---------|-----------|
G|-----------------14B----14B-||-----7-------------|-----------|
D|----------------------------||-/9---------7--(7)-|/5---------|
A|----------------------------||-------------------|---5---5/7-|
E|----------------------------||-------------------|-----0-----|
  Oh, ah!

E|----------------|---------------------|----------------------|
B|----------8b----|---------------------|----------------------|
G|------7---------|---------------------|----------------------|
D|-/9-----------7-|-(7)/5---------------|-----5h7-7b--7B--5----|
A|----------------|--------5-----5/7----|-/7-----------------7-|
E|----------------|-----------0-------0-|----------------------|
   Oo, ah! Oo,

E|----------------------|-----------------|-------------------||
B|----------------------|--------8b-------|-------------------||
G|-------------------(0)|-----7-----------|-----------------X-||
D|-5h7--7-7B--7p5-------|-/9--------7-(7)-|/5---------------X-||
A|----------------------|-----------------|----5-----5/7----X-||
E|-----------------3----|-----------------|-------0-------0---||
  ah! Oo, ah! Yeah!

  E7#9              G           A             E7#9
E|----------------|--------------------------|-----------------|
B|----8-8-8-8-8-X-|---3-3-3-3-/-5--5-5-7-5---|---8-8-8-8-8-8---|
G|----7-7-7-7-7-X-|---4-4-4-4-/-6--6---6---6-|---7-7-7-7-7-7---|
D|----6-6-6-6-6---|---5-5-5-5-/-7--7---------|---6-6-6-6-6-6---|
A|----7-7-7-7-7---|--------------------------|---7-7-7-7-7-7---|
E|-0--------------|-3-3-3-3-3-/-5--5---------|-0-------------0-|
  Pur-ple Haze_ all in my eyes, uh, don't know if it's

   G            A                    E7#9
E|--------------------------------|----------------------------|
B|----3--3--3-/-5-5--7--7-p-5---0-|-----8--8---8---8---8-------|
G|----4--4--4-/-6-6--6--6-----6---|-----7--7---7---7---7-------|
D|----5--5--5-/-------------------|-----6--6---6---6---6--6----|
A|--------------------------------|-----7--7---7---7---7-----7-|
E|-3--3--3--3-/-5-----------------|--0-------------------------|
  day  or night.  You   got   me   blow  -  in',

    G                     A                          E5
E|------------------------------------------------|------------|
B|--3---3----3------------5------87----------5----|------------|
G|--4---4----4------------6------6----------------|------------|
D|--5---5----5------------7------7----------------|------------|
A|------------------------------------------------|------------|
E|--3---3----3------------5-----------------------|---0--------|
   blow-in' my  mind, is it to - mor - row, or just the

E|-------------------|-----------------------------------------|
B|-------------------|-----------8bb----------------8bb----(8)-|
G|-9/11----9------7--|------7------------------7---------------|
D|-------------------|-/9----------------/9--------------------|
A|-7/9-----7------5--|-----------------------------------------|
E|-------------------|-----------------------------------------|
       end    of   time?

  A(sus2)          B               D                 D#
E|--------------|---------------|------------------------------|
B|--------------|---------------|------12-14-15-14-12h14p12----|
G|-----------12-|-(12)-----9-12-|-(12)----------------------14-|
D|-------12-----|------/11------|------------------------------|
A|--/14---------|---------------|------------------------------|
E|--------------|---------------|------------------------------|
  Gtr.I

E|----0--0--0--------|----0--0--------0-|----------------------|
B|----0--0--0--------|----0--0--0--0--0-|-----------7--7--8--8-|
G|-2--2--2--2----2/4-|----4--4--4--4--4-|-7---7--7--7--7--8--8-|
D|-2-----2--2----2---|------------------|-7---7--7--7--7--8--8-|
A|-0-------------0/2-|----2--2--2--2--2-|-5---5--5--5--5--6--6-|
E|-0-----------------|-0--------0--0----|-0---0--0-------------|
  Gtr.II
  Oo,__ help me, ahh, yeah,_____

   E7#9                 F#5          D5
E|--------------------|-----------------------------|
B|----15B-15-15-15-15-|-15-15-15-15-15-15-15-15-15B-|
G|-12-----------------|-----------------------------|
D|--------------------|-----------------------------|
A|--------------------|-----------------------------|
E|--------------------|-----------------------------|

 E7#9
E|----------------------------|
B|-15-15-15-15-15-15-15-15-15-|
G|----------------------------|
D|----------------------------|
A|----------------------------|
E|----------------------------|

  Gtr.I                                         (pick randomly)
E|--------------------|-----------------------------|----------|
B|----8--8------------|-----------------------------|----------|
G|----7--7------------|-------0-----0--7-7--6---6---|-----\----|
D|----6--6--9--9--9h11|----------0--0---------------|----2-\-0-|
A|----7--7--7--7------|----------------5-5--4---4---|----------|
E|-0--------0--0------|-----------------------------|----------|
  Gtr.II      Pur-ple  Haze,_  Yeah. Oh, no,_ no, oh,

   F#5          D5              E7#9
E|----------------------------|--------------------------------|
B|-15-15-15-15-15-15-15-15-15-|-15-15-15-15-15-15-15-15-15-----|
G|----------------------------|--------------------------------|
D|----------------------------|--------------------------------|
A|----------------------------|--------------------------------|
E|----------------------------|--------------------------------|

  F#5                   D5
E|-----------------------------------------|
B|--15--15--15--15--15---15---15---15---15-|
G|-----------------------------------------|
D|-----------------------------------------|
A|-----------------------------------------|
E|-----------------------------------------|

  Gtr.I
E|------|-------|--------|
B|------|-------|--------|
G|--\---|--\\---|---\\---|
D|--2\--|--2\\--|--2-\\--|
A|------|-------|--------|
E|------|-------|--------|
  Gtr.II  help me. tell me  ba - by, tell  me!
          I can't go on like this... Pur-ple Haze...

  E7#9
E|------------------------------------|
B|-15-15-15-15-15-15B-15^(20)-15^(18)-|
G|------------------------------------|
D|------------------------------------|
A|------------------------------------|
E|------------------------------------|

 F#5                       D5
E|------------------------------------------------|
B|-15B-15^(18)---15---15--15--15--15B-15^(18)-15B-|
G|------------------------------------------------|
D|------------------------------------------------|
A|------------------------------------------------|
E|------------------------------------------------|
    you're  mak-in'  me         blow   my   mind... ma-ma...
                           Pur  -  ple    Haze...

     E7#9                         F#5                        D5
E|----------------------------|--------------------------------|
B|-15B-15-15-15-15-15-15-15-15|15-15-15-15-15-15-15-15-15-15-15|
G|----------------------------|--------------------------------|
D|----------------------------|--------------------------------|
A|----------------------------|--------------------------------|
E|----------------------------|--------------------------------|
     no, no... no... no,___  Pur  -  ple   Haze...

  E7#9                          F#5                 D5
E|---------------------------|---------------------------------|
B|15^(18)-15B-15-15-15-15-15-|-15-15-15-15-15-15-15-15-15-15-15|
G|---------------------------|---------------------------------|
D|---------------------------|---------------------------------|
A|---------------------------|---------------------------------|
E|---------------------------|---------------------------------|
  it's pain - ful, ba - by...  Pur - ple  Haze...

  E7#9                           F#5                       D5
E|---------------------------|---------------------------------|
B|15-15-15-15-15-15-15-15-15-|-15-15-15-15-15-15-15-15-15-15-15|
G|---------------------------|---------------------------------|
D|---------------------------|---------------------------------|
A|---------------------------|---------------------------------|
E|---------------------------|---------------------------------|
  Pur  -  ple  Haze... fade out
Вверх

Rainy Day Dream Away

Intro:  [solo in D pentatonic]

D9
Hey man, take a look out the window and see what's happening
Hey man, it's raining
It's rainin' outside man
Aw, don't worry about that
Everything's gonna be everything
We'll get into somethin' real nice you know
Sit back and groove on a rainy day
Yeah
Yeah I see what you mean brother, lay back and groove.

 Little linking phrase:  [Time - 2:09]

E|-----------------------|
B|-----------------------|
G|-----------------------|
D|--0----3---4--5--------|
A|-----------------------|
E|-----------------3-----|

G7         D9
Rainy day, dream away
A7      C9          G7
Let the sun take a holiday
G7                D9
lowers bathe and see the children play
A7           C7          G7
Lay back and groove on a rainy day.
       F9                                                    F9
Well I can see a bunch of wet creatures, look at them on the run
  G9                                                   G9 F#9
The carnival traffic noise it sings the tune splashing up and
                                                     F9 F#9
Even the ducks can groove rain bathing in the park side pool
        G9
And I'm leanin' out my window sill digging everything


Transition part:  [Play the riffs in between using=20
                    G blues scale and plenty of Wah!]

             And you too.

  Bb7  A7  G7     Bb7  A7  G7
E|---------------------------|
B|---------------------------|
G|---------------------------|
D|-6---5---3-------6---5---3-|
A|-5---4---2-------5---4---2-|
E|-6---5---3-------6---5---3-|

      Bb7  A7  G7  Bb7  A7  G7 C#9   D9
E|------------------------------4----5-|
B|------------------------------4----5-|
G|------------------------------4----5-|
D|-6---5---3--------6---5---3---3----4-|
A|-5---4---2--------5---4---2---4----5-|
E|-6---5---3--------6---5---3----------|

 Ending: [Once again, solo in D pentatonic]

D9
Rainy day, rain all day
Ain't no use in gettin' uptight
Just let it groove its own way
Let it drain your worries away yeah
Lay back and groove on a rainy day hey
Lay back and dream on a rainy day
Вверх

Red House

  intro
G|------------------|3-3---3-36-53-3---3-36-810-1012-1213-1312-|
D|------------------|---3-5---------3-5------------------------|
A|------------------|------------------------------------------|
E|6-6-6-6-6-6-6-6-6-|------------------------------------------|

G|-----3-3---3-36-810-1012-1210-1012-1210-1210--1210---|
D|--3-1---3-5---------------------------------12-------|
A|-----------------------------------------------------|
E|-1---------------------------------------------------|

E|-1210-1012-1210-1012-10--------|
B|--------------------------3-1--|
G|-------------------------------|
D|-----------------------1-1---1-|

  verse (will work for all verses)
G|-10-1012-1213-1312-103-3---3-36-510-1012-1210-1012-1210-|
D|------------------------3-5-----------------------------|
A|--------------------------------------------------------|
E|--------------------------------------------------------|

G|--36-53-3---3-36-810-1012-1210-1012-1210-1012-1210-1012-|
D|---------3-5--------------------------------------------|
A|--------------------------------------------------------|
E|--------------------------------------------------------|

G|---------------------3-5--|
D|--------------------------|
A|--------------------------|
E|-1012-1213-1312-103-3---3-|

G|-10--------------3---3-36-510-1012-1210--|
D|------3-3---3-31--3-5--------------------|
A|-----------------------------------------|
E|---1-1---1-1-----------------------------|

G|-1012-1210-1210--1210---|
D|---------------12-------|
A|------------------------|
E|------------------------|

  solo (much like the verse)
G|10-1012-1213-1312-103-3---3-365410-1012-1213-1312-1210--|
D|-----------------------3-5------------------------------|
A|--------------------------------------------------------|
E|--------------------------------------------------------|

G|-1012-1213-1312-103-3---3-|
D|---------------------3-5--|
A|--------------------------|
E|--------------------------|

G|-36543-3---3-36-810-1012-1210-1012-1210-1012-1210-1012-|
D|--------3-5--------------------------------------------|
A|-------------------------------------------------------|
E|-------------------------------------------------------|

G|-10--------------3---3-365410-1012-1210-1012-1210-1210--1210-|
D|------3-3---3-31--3-5-------------------1012-1210-1210--1210-|
A|------------------------------------------------------12-----|
E|---1-1---1-1-------------------------------------------------|
Вверх

Room Full Of Mirrors

        Am
Are you thrilled with a room full of mirrors,
All I could see was me,
Then I take my spirit and smash my mirrors,
            F              G              Am
And now the whole world is here for me to see,
          F               G             Am
I say the whole world is here for me to see,
         F                G      Am
Now I'm searching for my love to be.....etc etc.
Вверх

Soul Food

  main riff            for intro, play main riff x4 then this
G|-------------------------|--------------------------------|
D|----------------2h3p2----|----------------7777777777553322|
A|5-5-3---3-5-5--------3---|--------------------------------|
E|------5-------5--------5-|5555555555555555----------------|

  play at about 1:23
G|----------------------------------------------------------|
D|----------------------------------------------------------|
A|---3-33-----3-33-3----3-33-3----3-3-----------------------|
E|3h5------3h5-------3h5-------3h5---53105555555555555555---|

E|------------------|
B|-7777777777553322-|
G|------------------|
D|------------------|
Вверх

Spainsh Castle Music

Intro:

e|------|-----------------------------------|
B|------|-----------------------------------|
G|------|--9-9-----9-9-----9-9-----9-0------|
D|--11--|--9-9-11--9-9-11--9-9-11--9---11---|
A|--11--|------11------11------11------11---|
E|------|-----------------------------------|

    C#m7                           C#m7
e|-----------------------0------|-----------------------0------|
B|-----------------------0------|-----------------------0------|
G|-----------------------4------|--2--------------------4------|
D|--2---------------------------|-------------2----------------|
A|----2----4~~-2--4---4--4------|---------4~~----4---4~--------|
E|------0-----------------------|----0-0-----------------------|

    C#m7                           C#m7
e|-----------------------0------|-----------------------0------|
B|-----------------------0------|-----------------------0------|
G|-----------------------4------|-----------------------4------|
D|--2----------2----------------|--2---------------------------|
A|----2----4~~----4p2-4--4------|----2----4~~-2--4---4---------|
E|------0-----------------------|------0-----------------------|

Verse:

    B5/F#                          Bb5/F         Asus4
e|------------------------------|------------------------------|
B|------------------------------|------------------------------|
G|--4-4-4--4--------------------|--3-3-3--3--------------------|
D|--4-4-4--4--------------------|--3-3-3--3------7-7-7--7------|
A|--2-2-2--2--------------------|--1-1-1--1------5-5-5--5------|
E|--2-2-2--2--------------------|--1-1-1--1------5-5-5--5------|

    G#5                            C#5/G#
e|------------------------------|------------------------------|
B|------------------------------|------------------------------|
G|------------------------------|--6-6-6--6--------------------|
D|--6-6-6--6--------------------|--6-6-6--6--------------------|
A|--6-6-6--6--------------------|--4-4-4--4--------------------|
E|--4-4-4--4--------------------|--4-4-4--4--------------------|

    B5/F#                          Bb5/F         Asus4
e|------------------------------|------------------------------|
B|------------------------------|------------------------------|
G|--4-4-4--4--------------------|--3-3-3--3--------------------|
D|--4-4-4--4--------------------|--3-3-3--3------7-7-7--7------|
A|--2-2-2--2--------------------|--1-1-1--1------5-5-5--5------|
E|--2-2-2--2--------------------|--1-1-1--1------5-5-5--5------|

    G#5                            C#5/G#
e|------------------------------|------------------------------|
B|------------------------------|------------------------------|
G|------------------------------|--6-6-6--6--------------------|
D|------------------------------|--6-6-6--6--------------------|
A|--6-6-4-----------------------|--4-4-4--4--------------------|
E|--4-4-5--6--------------------|--4-4-4--4----------------17--|

Chorus:

    A5            F#m7             A5            F#m7
e|-----------------------0------|-----------------------0------|
B|--5--------------------0------|-----------------------0------|
G|--2----------2----------------|--2----------2----------------|
D|--2------4~~----4---4---------|----2----4~~----4---4---------|
A|--0---------------------------|------0-----------------------|
E|------------------------------|------------------------------|

    C#m7                           C#m7
e|------------------------------|------------------------------|
B|------------------------------|---------------------------4--|
G|------------------------------|---------------------------4--|
D|--2----------2------------2---|--2----------2---------6------|
A|----2----4~~----4---4--2h4-4--|----2----4~~----4---4--4------|
E|------0-----------------------|------0-----------------------|

   G#                    E
e|---------------------|---------------------------------------|
B|-6b7~~r6-6-4-6-4---4-|-11b12r11b12r11b12r11b12r11-9b---------|
G|-6b7~~r6-6-4-6-4---4-|-11b12r11b12r11b12r11b12r11-9b---------|
D|-6b7~~r6-----6-4-6---|-------------------------------11-9----|
A|---------------------|------------------------------------10-|
E|---------------------|---------------------------------------|

    C#m7                           C#m7
e|-----------------------0------|-----------------------0------|
B|-----------------------0------|-----------------------0------|
G|-----------------------4------|-----------------------4------|
D|--2----------2----------------|--2----------2----------------|
A|----2----4~~----4---4---------|---------4~~----4---4---------|
E|------0-----------------------|----0-0-----------------------|
Вверх

Star Spangled Banner

E|----------------------|---------------------|
B|----------------------|---15-13-------------|
G|-----------------15~~-|---------15----------|
D|--15-12----12-15------|------------12-14-15~|
A|--------13------------|---------------------|
E|----------------------|---------------------|

E|--------------------|
B|--------15-13-------|
G|--------------15-14~|
D|-15-15--------------|
A|--------------------|
E|--------------------|

E|---------------------------------|------------------|
B|---------------------------------|-15-13------------|
G|-12-14-15-15----------------15~--|-------15---------|
D|------------15-12----12-15-------|---------12-14-15~|
A|------------------13-------------|------------------|
E|---------------------------------|------------------|

E|------------------|
B|---------15-13----|
G|---------------15-|
D|-15-15------------|
A|------------------|
E|------------------|

E|--------------------------------------------|
B|-----------------------------------16-18-18~|
G|-14-12-14-15-15-----------15-15-15----------|
D|----------------15-12-----------------------|
A|----------------------13--------------------|
E|--------------------------------------------|

E|---------------------|
B|---16-15-13-15-16-16~|
G|---------------------|
D|---------------------|
A|---------------------|
E|---------------------|

E|-------------------|-----------------|-------------------|
B|-16-15-13-15-16-16~|-16-15-13--------|-------------------|
G|-------------------|-----------15-14~|-12-14-15----------|
D|-------------------|-----------------|----------12-14-15~|
A|-------------------|-----------------|-------------------|
E|-------------------|-----------------|-------------------|

E|-------------|
B|-------------|
G|----15-15-15-|
D|-15----------|
A|-------------|
E|-------------|

E|------------------------------------------------------------|
B|-------------13-16-15-13-------------------13-15-16-18~~~~~-|
G|-14-12-12-12-------------15-15-14-------15------------------|
D|----------------------------------15-15---------------------|
A|------------------------------------------------------------|
E|------------------------------------------------------------|

E|-------------------------||
B|----13-15-16-13----------||
G|-15-------------15~~~~~~-||
D|-------------------------||
A|-------------------------||
E|-------------------------||
Вверх

Stone Free

E|--------------------------|----------------------------------|
B|--------------------------|----------------------------------|
G|--------------------------|----------------------------------|
D|-----12^v-----------------|--------------------5-------------|
A|--------------------------|-----5---5-7--5--7-----7-5--7-5-7-|
E|-12^------12v-12v-12v--12/|-0-0---7--------------------------|

Verse
E|----------------------------------------|
B|-8-8------------------------------------|
G|-7-7------------------------------------|
D|-6-6---------------------5--------------|
A|-7-7----5----5---7--5--7---7--5--7--5--7|
E|----------7-----------------------------|

E|----------------------------------------|
B|-8-8------------------------------------|
G|-7-7------------------------------------|
D|-6-6---------------5--------------------|
A|-7-7-5---5-7--5--7---7--5--7--5--7------|
E|-------7--------------------------------|

E|----------------------------------------|
B|-8-8------------------------------------|
G|-7-7------------------------------------|
D|-6-6---------------------5--------------|
A|-7-7----5----5---7--5--7---7--5--7--5--7|
E|----------7-----------------------------|

E|----------------------------------------|
B|-8-8------------------------------------|
G|-7-7------------------------------------|
D|-6-6---------------5--------------------|
A|-7-7-5---5-7--5--7---7--5--7--5--7------|
E|-------7--------------------------------|

E|----------------------------------------|
B|-8-8------------------------------------|
G|-7-7------------------------------------|
D|-6-6---------------------5--------------|
A|-7-7----5----5---7--5--7---7--5--7--5--7|
E|----------7-----------------------------|

E|----------------------------------------|
B|-8-8------------------------------------|
G|-6-6-----------------5--7--7b 7br 5-----|
D|-7-7--5-----5--7-7-7--------------------|
A|---------7------------------------------|
E|----------------------------------------|

E|----------------------------------------|
B|-8-8------------------------------------|
G|-7-7------------------------------------|
D|-6-6---------------------5--------------|
A|-7-7----5----5---7--5--7---7--5--7--5--7|
E|----------7-----------------------------|

E|----------------------------------------|
B|-8-8------------------------------------|
G|-7-7------------------------------------|
D|-6-6---------------5--------------------|
A|-7-7-5---5-7--5--7---7--5--7--5--7------|
E|-------7--------------------------------|

E|------------------|--------------------|--------------------|
B|------------------|--------------------|--------------------|
G|---------7-5-7b-5-|---------7--5--7b-5-|------- 7--5--7b--5-|
D|-7--X-X--7-5------|-7--x-x--7--5-------|-7--X-X-7--5--------|
A|-7--X-X-----------|-7--x-x-------------|-7--X-X-------------|
E|-5--X-X-----------|-5--x-x-------------|-5--X-X-------------|

E|-8-8-8-8-8-8-8-8-|
B|-8-8-8-8-8-8-8-8-|
G|-6-6-6-6-6-6-6-6-|
D|-7-7-7-7-7-7-7-7-|
A|-----------------|
E|-----------------|

                      Chorus
E|------------------|------------------------------------------|
B|------------------|------------------------------------------|
G|-----5-7-7b-7br-5-|--7-7-----------------7-7-----------------|
D|-7-7--------------|--7-7-----------------7-7-----------------|
A|------------------|--5-5--3--5--3--5--3--5-5--3--5--3--5--3--|
E|------------------|------------------------------------------|

E|---------------------------------------------|---------------|
B|---------------------------------------------|---------------|
G|-7-7-----------------------------------------|-7-7-----------|
D|-7-7--------------------10----------10-------|-7-7-----------|
A|-5-5--3--5--3--5--3-/12----12p10-/12---12-p10|-5-5-3-5-3-5-3-|
E|---------------------------------------------|---------------|

E|--------------------|-------10-8--- 7---7-5- 7-5--7-5--------|
B|--------------------|--------8-8----7---5-5--5-5--5-5--------|
G|--7-7---------------|--5-5---9-9----5---6-6--6-6--6-6--------|
D|--7-7---------------|--5-5-----------------------------------|
A|--5-5--3--5--3--5--3|--3-3-----------------------------------|
E|--------------------|----------------------------------------|

E|---------10--8-----------------------------------------------|
B|----------8--8-----------------------------------------------|
G|---5-5----9--9-----------------------------------------------|
D|---5-5----------------7--------------------------------------|
A|---3-3----------------7--------------------------------------|
E|----------------------5--------------------------------------|
Repeat

Outro
E|-----------------------|
B|-----------------------|
G|-10--------------------|
D|-10--------------------|
A|--9----7-9---7-9---7-9-|
E|-----9-----9-----9-----|

VERSE: 1

Every day in the week I'm in the pit of the city
If I stay too long The people try to pull me down
They talk about me like a dog Talk about the clothes I wear
But they don't realize They're the one's who's square
Hey That's why you can't hold me down
I don't want to be down I got to move on

CHORUS:
Stone Free To do what I please
Stone Free To ride the breeze
Stone Free I can dare
I got to Got to Got to get away Right now Yeah

VERSE:2

Alright Listen to this Baby
Women here Women there Try to keep me in a plastic cage
But they don't realize It's so easy to break
Oh But I sometimes I just
I just feel my heart kinda running hot
That's when I got to move Before I get caught
Hey That's why Listen to me Baby You can't hold me down
I don't wanna be tied down I got to be free Oh I said

CHORUS:

Yeah Turn me loose Baby

SOLO

Yeah said Stone Free To ride the breeze
Stone Free To do what I please
Stone Free I can't stay
Stone Free Got to Got to Got to get away
Stone Free I'm Stone Free Right now
Stone Free Don't try to hold me back
Вверх

The Star Spangled Banner (2 вариант)

                 sl                        hp  sl
e|------------0|2/4-2--0--------|----4--2-020----|----0-0------|
b|0--------0---|----------------|-------------2/4|2-4-----0----|
g|--1----1-----|----------1-3-4~|4-4-------------|----------1--|
d|----2--------|----------------|----------------|------------2|
a|-------------|----------------|----------------|-------------|
e|-------------|----------------|----------------|-------------|
             sl   trl      trl                         trl trl
e|--------0|2/4-24242424-020202020|-----------|----------------|
b|0------0-|----------------------|-----------|----------------|
g|--1---1--|----------------------|1-1/3/1/3/4|6-6-8^-6868-4646|
d|----2----|----------------------|-----------|----------------|
a|---------|----------------------|-----------|----------------|
e|---------|----------------------|-----------|----------------|

             hp sl
e|-----------------|-----0-0-------|
b|-0-0-7^~-7-575/4-|-2-4-----0-----|
g|-----------------|-----------1---|
d|-----------------|-------------2-|
a|-----------------|---------------|
e|-----------------|---------------|

                                               hpp
e|---------------12^|-5-4-2-4-5-5------|-5-4--2420--0----|
b|-9-9-9-10-12-12---|------------------|------------4^-4~|
g|------------------|------------3--3-2|-----------------|
d|------------------|-------------2--2-|-----------------|
a|------------------|------------------|-----------------|
e|------------------|------------------|-----------------|

e|--------------16|-----16------16-----16~|-----0-0-0|
b|-------17---17--|---17------17-----17~--|-0-0-----4|
g|-16-16----16----|-16------16-----16~----|----------|
d|----------------|-----------------------|----------|
a|----------------|-----------------------|----------|
e|----------------|-----------------------|----------|

   turbo-picking
e|-----------------------22222222-44444444-55545-444|
b|-22222222-44444444-5555---------------------------|
g|--------------------------------------------------|
d|--------------------------------------------------|
a|--------------------------------------------------|
e|--------------------------------------------------|

    hpp               sl  sl                  p       SL
e|-2420~-----|---------------7/-|-0-2-4-454/2~0~|-4-4/9/11-|
b|-----4^~-4~|-0-0-5-5/7-7/9----|---------------|-4-4/9/11-|
g|-----------|------------------|---------------|-5-5/10/12|
d|-----------|------------------|---------------|-6-6/11/13|
a|-----------|------------------|---------------|----------|
e|-----------|------------------|---------------|----------|

e|-0~--|
b|-0~--|
g|-----|
d|-----|
a|-----|
e|-----|
Вверх

The Wind Cries Mary

Intro:

  Eb5 E5 F5   Eb/G  E/G#  F/A     Eb5 E5 F5
E|----------|-------------------|----------|
B|----------|-------------------|----------|
G|-8--9-10--|----8----9------10-|-8--9-10--|
D|-8--9-10--|----8----9------10-|-8--9-10--|
A|-6--7--8--|-8h10--9h11--10h12-|-6--7--8--|
E|-6--7--8--|-------------------|-6--7--8--|

   Eb/G  E/G#   F/A
E|-----------------------------------------|
B|-----------------------------------------|
G|----8----9------10-----------------------|
D|----8----9------10----------10-12-10-----|
A|-8h10--9h11--10h12----10h12----------12--|
E|--------------------13-------------------|

1.verse:

   C(add9)      Bb            F
E|--------------------6-----|--------------------------|
B|-------8------------6-----|--------------1-----1-----|
G|-------9------------7-----|-2-0h2------0h2p0-0h2-----|
D|------10------------8-----|-3---3----3---3-----3-----|
A|--------------------------|--------------------------|
E|-8------------6-----------|--------1-----------------|

  C          Bb/D
E|--------------------------------|
B|-----5--------------------------|
G|-----5-------------3------------|
D|-----5--------3--3---3h5--3-----|
A|-3------3---3h5-----------------|
E|--------------------------------|

   F                           C          Bb
E|------------------1---1----|-------------------------|
B|----------------1h3--1-----|----1--------------x-----|
G|------0--------------------|-0-----0--------3--x-----|
D|------3--------------------|-2-----2--------3--x-----|
A|-------------3-------------|-3-------2--1------------|
E|-1--------1----------------|-------------------------|
  F
E|--------------------------------|
B|---------1--------------1-------|
G|---------2--------------2---2---|
D|------3--3------------3-3---3---|
A|--------------3-----------------|
E|-1----------1--1---1------1-----|

 Footprints      dressed in   red.                And the
   G               Bb                Eb5 E5 F5
E|---------------------------------|----------------------|
B|-----3-3-5p3---3---6-6-6-8-6-x-x-|----------------------|
G|-4-4-4-4-4-----4---7-7-7-7-7-x-x-|-8--9-10--------------|
D|-5-5-5-5-5---5-----8-8-8-8-8-x-x-|-8--9-10--------------|
A|---------------------------------|-6--7--8--------------|
E|----------------/6---------------|-6--7--8--------------|

  wind           whispers
  G                           Bb
E|-------------------------------|
B|-3--3-3-5-3--------6---6-8p6-6-|
G|-4--4-4-4-4---4-/7-----7-7---7-|
D|-5--5-5-5-5-5---/8-----8-8---8-|
A|-------------------------------|
E|-3--------------/6---6---------|

  Mary........
  Eb5 E5 F5         Eb/G  E/G#  F/A
E|-----------------|-------------------------------------------|
B|-----------------|-------------------------------------------|
G|-8--9-10------x--|----8-----9-----10------------------10-----|
D|-8--9-10------x--|----8-----9-----10---10----10-10-12-10-----|
A|-6--7--8------x--|-8h10--9h11--10h12------10h12----------12--|
E|-6--7--8---------|-------------------------------------------|

2.verse

   C              Bb/D
E|-------------------------------|
B|--------5----------------------|
G|--------5-----5--------3-3-----|
D|--------5-------3(3)-----3-----|
A|-3--------------3h5---------5--|
E|-------------------------------|

   F                                C           Bb/D
E|---------------------1----------|----------------------------|
B|------1--------1-----1----------|------5---------------------|
G|----0h2p0----0h2p0-0h2----------|------5----5-------3---3----|
D|------3-----3--3----------------|----5----5---3(3)--3-3----3-|
A|------------3-------------------|-3-------3---3h5--------3h5-|
E|-1--------1-----------------3/--|----------------------------|

  F
E|------------------------------|
B|----------1------1---1--------|
G|----2-2-0h2----0h2-0h2--------|
D|----3-3---3------3---3--------|
A|--------------3---------------|
E|-1----------1-------------1/--|

   C  Cb(add9) Bb(add9)          F
E|------9--------8-------------|---------------------------|
B|-8----7--------6-----6-6-----|----1---1------------------|
G|-9----8--------7-----7-7-----|-2--2---2--------2-2-2---2-|
D|10----9--------8-----8-8-----|-3------3--------3-3-3---3-|
A|-----------------------------|-3---------3-3-3---3---3---|
E|-8---------------------------|-1----1------1-1---1---1---|

  G                 Bb
E|-----------------------------------|
B|/3--3-3-3-3-5p3--3--------6-8p6--6-|
G|/4--4-4-4-4-4(4)-4--------7-7(7)-7-|
D|/5--5-5-5-5-5(5)-5-/8-8-8-8-8(8)-8-|
A|-----------------------------------|
E|/3-------------3---/6-6-6----------|

  Eb5 E5 F5        G          Bb
E|---------------|----------------------------|
B|---------------|--------3--------6-8p6------|
G|-8--9-10-------|--------4---/7-7---7(7)-----|
D|-8--9-10-------|-5------5---/8-8---8(8)-8-x-|
A|-6--7--8-------|----------------------------|
E|-6--7--8-------|-3---4----3-/6--------------|

 Eb5 E5 F5     Eb/G  E/G#  F/A
E|------------|--------------------|
B|------------|--------------------|
G|-8--9-10----|----8-----9-----10--|
D|-8--9-10----|----8-----9-----10--|
A|-6--7--8----|-8h10--9h11--10h12--|
E|-6--7--8----|--------------------|

 Guitar Solo:

 Lead guitar
   F/A                         Eb/G
E|-----------13----------------8--8-----8--|
B|--------13h15----------------8-10-8---8--|
G|------------------------------------10---|
D|-----------------------------------------|
A|-----------------------------------------|
E|-----------------------------------------|

   N.C.(Bb)     (Ab)
E|----8-8-----------------------------|
B|-8h10p8-----------------------------|
G|--------10----10-12-10h12~~-(12)p10-|
D|----------/12-----------------------|
A|------------------------------------|
E|------------------------------------|

Rhy guitar
E|-----------------------------------------|
B|-----------------------------------------|
G|/10-10-10--10-10-------108---8-----------|
D|/10-----------------10-108---8-----x--8--|
A|/12--------------12----1210-10-----x-10--|
E|-----------------------------------------|

E|------------------------------------|
B|------------------------------------|
G|------------------------------------|
D|------------------------------------|
A|------------8------------------8----|
E|-6--6--8h10------4--4-4---8h10---10-|
                   p.m.            pm....

   F5                          Eb/G
E|-----------13----------------8--8-----8--|
B|--------13h15----------------8-10-8---8--|
G|------------------------------------10---|
D|-----------------------------------------|
A|-----------------------------------------|
E|-----------------------------------------|

   N.C.(Bb)     (Ab)
E|------------------------------------|
B|------------------------------------|
G|-----10h12-10~~--10h12----------10--|
D|-/12------------------10h12~~~~-----|
A|------------------------------------|
E|------------------------------------|

Rhy guitar
E|-----------------------------------------|
B|-----------------------------------------|
G|---10-10--10-10-10-10---8---8-----8------|
D|---10-10--10-10-10-10---8---8-----8------|
A|-8--8--8---8--8--8--8-8h10-10----10-8----|
E|--------------------------------------10-|

E|------------------------------------|
B|------------------------------------|
G|------------------------------------|
D|------------------------------------|
A|------------8------------------8----|
E|-6--6--8h10------4--4-4---8h10---10-|
                   p.m.            pm....

    F5                          Eb/G
E|-----------13----------------8--8-----8--|
B|--------13h15----------------8-10-8---8--|
G|------------------------------------10---|
D|-----------------------------------------|
A|-----------------------------------------|
E|-----------------------------------------|

    N.C.(Bb)     (Ab)
E|-------------------------------|
B|-------------------------------|
G|-----10h12---------------------|
D|-/12-------10h12~~~~~~~~~~-----|
A|-------------------------------|
E|-------------------------------|

Rhy guitar
|-----------------------------------------|
|-----------------------------------------|
|---10-10--10-10-10-10---8---8-----8------|
|---10-10--10-10-10-10---8---8-----8------|
|-8--8--8---8--8--8--8-8h10-10----10-8----|
|--------------------------------------10-|

E|-------------------------------|
B|-------------------------------|
G|-------------------------------|
D|-------------------------------|
A|-------------8--------------6--|
E|-6--6---8h10-----4---4/8-------|
   p.m.            pm....

   G
E|----15--15--10-10-10-------10----10--|
B|-15h17------10-12-10----10h12-10h12--|
G|---------------------12--------------|
D|-------------------------------------|
A|-------------------------------------|
E|-------------------------------------|
   Bb
E|----8---6(6)-6(6)-----------------|
B|----6---6h8--6(6)-----------------|
G|----7---7(7)-7h8---8-8-8p7--------|
D|----------------------------------|
A|----------------------------------|
E|----------------------------------|

rhy.gui
E|----------------------5--5----------|
B|-3---3-5p3--3--3---3--3--3-------x--|
G|-4---4-4(4)-4--4---4--4--4-------x--|
D|-5---5-5(5)-5--5---5--5--5-------x--|
A|------------------------------------|
E|-3----------3--3---3--------3--3----|

E|----8-6---------------------------|
B|----6-6-6------6---6---8---6------|
G|-7--7-7-7------7---7---7---7------|
D|-8--8-8-8------8---8---8---8------|
A|----------------------------------|
E|-6------6------6---6---6-----6--9-|

   Db
E|-----------------------9----------------|
B|--12fb----11p9-------9------------------|
G|---------------11fb------11fb-9~~~~~~---|
D|----------------------------------------|
A|----------------------------------------|
E|----------------------------------------|

  F5
E|----13--13------------------------|
B|-13h15--13---13-13-13----13----13-|
G|-------------12-14-12----12-14-12-|
D|----------------------15----------|
A|----------------------------------|
E|----------------------------------|

rhy.gui
E|-----------------------------------------|
B|-----------------------------------------|
G|-----------10---------10--10-10-10-------|
D|-----------11---------11--11-11-11-------|
A|-----------------------------------------|
E|-9-----9---9-----9----9---9--9--9-9--9---|

E|----------------------------------|
B|----------------------------------|
G|-10------------------10-----------|
D|-10------10-----10---10-----------|
A|-8-----8----8---8----8----8-------|
E|----------------------------8-----|

E|-----------------------------------------|
B|-----------------------------------------|
G|-------10----10--------------------------|
D|-10-12----12-10--------------------------|
A|-----------------13--12~~~~~~------------|
E|------------------------------/153h5-----|

rhy. gui
E|-----------------------------------------|
B|-----------------------------------------|
G|----------------10-10-10-10-10-10-10-10--|
D|-10--10--10-----10-10-10-10-10-10-10-10--|
A|-8---8---8---8--8--8--8--8--8--8--8--8---|
E|-----------------------------------------|

3. Verse

   C           Bb/D
E|------------------------------|
B|------5-----------------------|
G|------5-----------------------|
D|-5----5---5--3-3--3--3-3------|
A|-3----3---3--3h5---------3h5--|
E|------------------------------|

   F                              C              Bb/D
E|------------------------------|------------------------------|
B|--------1---------------------|------------------------------|
G|------0h2---------------------|--------5--5--5-----3---------|
D|--------3---------------------|--------5--5--5-3-3-----3-----|
A|------------3-----------------|-3------3-------3h5-------3h5-|
E|-1------------3h5-3h5----3p1--|------------------------------|

  F
E|----------------------------|
B|-----1-----1---1---1----1---|
G|-----2-----2-0h2-0h2--2-----|
D|-----3-----3---3---3------3-|
A|----------------------------|
E|-1------1-------------------|

   C                 Bb
E|-------8-10--8--------6-6-6-6-----|
B|-----8-8--8--8-----6--6-6-6-6-----|
G|-----9----9--9--9--7------7-7-----|
D|----10---10-10-10--8--------------|
A|----------------------------------|
E|/8-----------------6-----------x--|

 F                             G             Bb
E|-----------------------------|-------------------------------|
B|-----1--1-------1--1--1----1-|-3--5--3--3--3/6-6-6-6-6-6-6---|
G|-----2--2-------2--2--2----2-|-4--4--4--4--4/7-7-7-7-7-7-7-7-|
D|-----3--3-------3--3--3----3-|-5--5--5--5--5/8-8-8-8-8-8-8-8-|
A|-----------3--3--------------|-------------------------------|
E|-1---------1--1----------1---|-3-----------------------------|

  Eb5 E5 F5                    G          Bb
E|---------------------------|----------------------------|
B|---------------------------|--------3--------6-8p6------|
G|-8--9-10-------------------|--------4---/7-7---7(7)-----|
D|-8--9-10----------x--------|-5------5---/8-8---8(8)-8-x-|
A|-6--7--8----------x--------|----------------------------|
E|-6--7--8----------x--------|-3---4----3-/6--------------|

 Eb5 E5 F5     Eb/G  E/G#  F/A
E|------------|-------------------------|
B|------------|-------------------------|
G|-8--9-10----|----8--------------------|
D|-8--9-10----|----8-----9-----10-------|
A|-6--7--8----|-8h10--9h11--10h12--12---|
E|-6--7--8----|-----------------------7-|

4. verse

   C                Bb/D
E|--------------------------------|
B|--------------------------------|
G|--------5------5-----3--3-3-----|
D|--------5---5----3-3-3----3-3-3-|
A|-3--3---3---3----3h5------5-3h5-|
E|--------------------------------|

 F                              C             Bb/D
E|------------------------------|----------------------------|
B|--------1----------------1----|--------5--5----------------|
G|------0h2-------2-2----0h2----|---5-5--5--5-----3-3--------|
D|--------3----3--3-3---3--3----|-5-5-5--5--5-----3---3-3-3--|
A|-------------3----------------|-3---3-------3h5-------3h5--|
E|-1--1------1--------1-------1-|----------------------------|

   F
E|------------------------------------|
B|-----1----1(1)-1--1----------1------|
G|-----2--0h2p0--2--2--------0h2------|
D|----------3(3)-3--3----3-----3------|
A|---------------3-----------------3--|
E|-1-------------1----1-----1---------|

  C               Bb           F
E|----------------------------|--------------------------|
B|----------------------------|-----1----1---------1-----|
G|----5-------5-------3-------|-----2----2---------2-----|
D|------5-5-5------3--3-------|-----3----3---------3-----|
A|-3----3---3---2--1--1-------|----------3---------------|
E|----------------------------|-1------1---1---1---------|

   G               Bb                Eb5 E5 F5
E|---------------------------------|----------------------|
B|-3---3-3-5p3---3---6-6-6-8-6-x-x-|----------------------|
G|-4-4-4-4-4-----4---7-7-7-7-7-x-x-|-8--9-10--------------|
D|-5-5-5-5-5---5-----8-8-8-8-8-x-x-|-8--9-10-------x------|
A|---------------------------------|-6--7--8-------x------|
E|-3--------------/6---------------|-6--7--8-------x------|

 G               Bb
E|-------------------------------|
B|-3--3-3-5-3--------6---6-8p6-6-|
G|-4--4-4-4-4---4-/7-----7-7---7-|
D|-5--5-5-5-5-5---/8-----8-8---8-|
A|-------------------------------|
E|-3--------------/6---6---------|

   Eb5 E5 F5                  Eb/G  E/G#  F/A
E|--------------------------|----------------------------|
B|--------------------------|----------------------------|
G|-8--9-10------x-----------|----8-----9-----10---x------|
D|-8--9-10------x-----------|----8-----9-----10---x------|
A|-6--7--8------x-----------|-8h10--9h11--10h12---x------|
E|-6--7--8------------------|----------------------------|

outro:
   Eb5 E5  F5          Eb/G E/G# F/A
E|-8/108-------------|---------------------------------|
B|-8/108-10h11--10---|---------------------------------|
G|---------10-----10-|---------------------------------|
D|---------10h12--10-|--------------10h12-10-----------|
A|-------------------|----------------------12-10-8----|
E|-------------------|------------------------------10-|

 Eb5 E5  F5
E|--------------------------|
B|--------------------------|
G|--------------------------|
D|--------------------------|
A|----------------8-10-8----|
E|-6--7--8---8h10--------10-|

rhy.gui
E|--------------|-----------------------------|----------------|
B|--------------|-----------------------------|----------------|
G|-8--9-10------|----8-----9-----10-----------|-8--9-10--------|
D|-8--9-10---x--|----8-----9-----10-----------|-8--9-10----x---|
A|-6--7--8---x--|-8h10--9h11--10h12-------12--|-6--7--8----x---|
E|-6--7--8---x--|-----------------------------|-6--7--8----x---|

  Eb/G  E/G#  F/A                    Eb5 E5  F5
E|-----------------------8--8-------|-8/108--------------|-----|
B|--------------------8h10--8-------|-8/108-10h11--10----|-----|
G|-----------------------------10p8-|---------10-----10--|-----|
D|----------------------------------|---------10h12--10--|-----|
A|-8h10--9h11--10h12----------------|--------------------|-----|
E|----------------------------------|--------------------|-----|

E|--------------------------------|------------------------|---|
B|--------------------------------|------------------------|---|
G|----8-----9-----10--------------|-8--9-10----------------|-x-|
D|----8-----9-----10--------------|-8--9-10----------------|-x-|
A|-8h10--9h11--10h12~~~~~~~~~~~*--|-6--7--8----------------|-x-|
E|--------------------------------|-6--7--8----------------|---|
* with whammy bar
Вверх

Three Little Bears

e|-0~~~---5565---3~~---3310----|
B|--------------------------6--|
G|-----------------------------|
D|-----------------------------|
A|-----------------------------|
E|-----------------------------|

e|-0~~~---5565---3~~---3310----|
B|--------------------------7--|
G|-----------------------------|
D|-----------------------------|
A|-----------------------------|
E|-----------------------------|

e|-0~~~---5565---3~~---3310----|
B|-0~~~---5565---3~~---3310--4-|
G|---------------------------4-|
D|-----------------------------|
A|-----------------------------|
E|-----------------------------|
Вверх

Up From The Skies

B9  F#7
 I just want to talk to you.
B9  F#7
I won't uh, do you no harm,
B9         F#7
 I just want to know about

B9  F#7
your different lives,

B9  F#7
on this here people farm.
B9 C9             F#7
 I heard some of you got your families,
B9 C9             F#7
living in cages tall & cold,
B9 C9             F#7
 And some just stay there and dust away,
B9 C9             F#7
past the age of old.

B9      C9            F#7
is this true?
B9      C9            F#7
Please let me talk to you.

C#9      D9              G#7
I just wanna know about,
C#9      D9              G#7
the rooms behind your minds,
C#9      D9              G#7
Do I see a vacuum there,
C#9      D9              G#7
or am I going blind?
C#9      D9              G#7
Or is it just remains from vibrations
C#9      D9              G#7
and echoes long ago,
C#9      D9              G#7
Things like 'Love the World'
C#9      D9              G#7
and 'Let your fancy flow',

B9      C9            F#7
Is this true?
B9      C9            F#7
Please let me talk to you.
B9      C9            F#7
Let me talk to you.

C5  C#5
I have lived here before,
C5  B5
the days of ice,
C5  C#5
And of course this is why
C5  B5
I'm so concerned,
C9  C#9
And I come back to find
C9  B9
the stars misplaced
C9  C#9
and the smell of a world
C9  B9
that has burned.

(Solo)
The smell of a world that has burned.
Well, maybee, maybe it's just a change of
climate.
C#7     E7#9
I can dig it, I can dig it baby, I just want to see.
B9             F#7
So where do I purchase my ticket,
B9             F#7
I would just like to have a ringside seat,
B9             F#7
I want to know about the new Mother Earth,
B9             F#7
I want to hear and see everything,
B9             F#7
I want to hear and see everything,
B9             F#7
I want to hear and see everything.
Aw, shucks,
If my daddy could see me now.

Generally speaking Jimi rocks his pedal at a constant pace,
like you would if you were tapping your foot with the music.
The actual rhythm ebbs and flows and changes in a real jazzy
way, so you'll need to listen the track. The chord change
from B9 to C9 (and likewise from C#9 to D9) in particular
changes in form and timing and is sometimes even omitted.
So basically as with all tunes by improvisationally inspired
artists best just to do your own thing!

Solo

E|-------------------------------------------------------------|
B|-------------------------------------------------------------|
G|--------------------------------------4----------------------|
D|----2---4----2------------------------4----2---4------2--4-2-|
A|-4------------------0--2--4-----2------------------4---------|
E|-------------------------------------------------------------|

E|-------------------------------------------------------------|
B|-------------------------5-----7b-7b-7b-7b-7b-7b-7----x------|
G|----------------------6--------------------------------------|
D|----------0-----4 s 6----------------------------------------|
A|--2---4------------------------------------------------------|
E|-------------------------------------------------------------|

E|-------------------------------------------------------------|
B|------------------------------------------4------------------|
G|-----------------------------------6------4------------------|
D|---x----x---x------------2-h-4-s-6----6-------6-s-4----2-----|
A|---x----x---x----2----4--------------------------------------|
E|-------------------------------------------------------------|

E|-------------------------------------------------------------|
B|-------------------------------------------------------------|
G|-----------------------------------2------2-2-4-x------------|
D|--------------4---2----------4-----2------2-2-4-x------------|
A|--2---4--------------4-p-2-------------4---------------------|
E|-------------------------------------------------------------|
Вверх

Villa Nova Junction

down tune 1/2 step

This song is an instumental tune in A
E|--------------------------------|----------------------------|
B|--------------------------------|----------------------------|
G|-7---7---5---7----8-7/975---7---|----------------------------|
D|--------------------------------|---7---7---7---7---7---7--7-|
A|---------3---5----5-5/753---5---|----------------------------|
E|-5---5--------------------------|---5---5---5---5---5---5--5-|

E|----------------------------------|-----------------------5--|
B|---------------------8/10-10/8----|--------------------------|
G|------------5---7-----------------|--7-------X---X--X--X-----|
D|----7---7------------5/-7--7/5----|----------X---X--X--X-----|
A|------------3---5-----------------|--5---5---X---X--X--X-----|
E|----5---5-------------------------|--------------------------|
                          HP
E|---------------------|-5--8--5-------------------------------|
B|---------------------|-6-------------------------------------|
G|--------------5------|---------------5-----------------5-H-7-|
D|---------------------|------------7--7------------5--7-------|
A|--5---8---5-------5--|------------5-------5--5-H-7-----------|
E|---------------------|---------------------------------------|

E|-------------------7-h-5-------|-------5---------------------|
B|-------------------5-----------|-----5-----------------------|
G|-------------------------------|----------5-H-7--------------|
D|---5---7---7---------------7---|-----7-----------5--7--5-----|
A|-------------------------------|---------------------------7-|
E|---------------------------5---|-----------------------------|

E|-------------------------------------------------------------|
B|-------------------------------------------------------------|
G|---x----------10---9---8-------5-----------------------------|
D|---x---------------------------3-----------------------------|
A|---x---8---8---8---7---6----5---------5---5---5---5----------|
E|-------------------------------------------------------8^----|

E|-------------------------------------------------------------|
B|-----------HP------------------------------------------------|
G|---------5-7--5----------------------------5-----------------|
D|---7---------------5H7-----5H7--------5----------------------|
A|-------------------------------------------------------------|
E|-5----------------------------------------------5------------|
Вверх

Voodoo Child

e|------------------------------------------------X-X-X-|
B|------------------------------------------------X-X-X-|
G|------------------------------------------------X-X-X-|
D|--14p12-----12---------------------14p12-----14-X-X-X-|
A|-------h14-------10--10-12p10-----------h14-----X-X-X-|
E|-----------------------------h12----------------X-X-X-|

Then after playing that 3 times, play this once.
e|------------------------------------------------|
B|------------------------------------------------|
G|------------------------------------------------|
D|--14p12-----12---------------------14p12-----12-|
A|-------h14-------10--10-12p10-----------h14-----|
E|-----------------------------h12----------------|

    Bend^   Release Bend
e|-------------------|
B|-------------------|
G|--14----14p12------|
D|---------------14--|
A|-------------------|
E|-------------------|
     He plays this again between chords sometimes too.

     After you play that, you go into a simple E minor
     strumming pattern with mini solos inbetween.

e|-------------|
B|-------------|
G|-------------|
D|--2--2-2--2--|
A|--2--2-2--2--|
E|--0--0-3--0--|

     And just repeat that and solo inbetween.  A few things
     he does are:

e|-----------------------|
B|--3p0h3p0h3p0h3p0h3p0--|
G|-----------------------|
D|-----------------------|
A|-----------------------|
E|-----------------------|

e|--------------------------|
B|--------------------------|
G|--------------------------|
D|--------------------------|
A|--15--17--15--17--15--12--|
E|--------------------------|

    Bend^   Release Bend
e|-------------------|
B|-------------------|
G|--14----14p12------|
D|---------------14--|
A|-------------------|
E|-------------------|

     For the rest, solo in the following scales:

e|--------------------------------------0--2--3--|
B|--------------------------------0--3-----------|
G|-----------------------0--2--3-----------------|
D|-----------------0--2--------------------------|
A|--------0--1--2--------------------------------|
E|--0--3-----------------------------------------|

e|-------------------------------10-12--|
B|-------------------------10-12--------|
G|--------------------9-12--------------|
D|--------------9-12--------------------|
A|--------10-12-------------------------|
E|--10-12-------------------------------|

e|--------------------------------------12-14-15--|
B|--------------------------------12-15-----------|
G|-----------------------12-14-15-----------------|
D|-----------------12-14--------------------------|
A|--------12-13-14--------------------------------|
E|--12-15-----------------------------------------|

e|--------------------------------15-17--|
B|--------------------------15-17--------|
G|--------------------14-16--------------|
D|--------------14-17--------------------|
A|--------14-17--------------------------|
E|--15-17--------------------------------|

e|--------------------------------17-19--|
B|--------------------------17-20--------|
G|--------------------16-19--------------|
D|--------------17-19--------------------|
A|--------17-19--------------------------|
E|--17-19--------------------------------|

     That's pretty much it, here's the lyrcis.

Well I stand up next to a mountain,
Chop it down with the edge of my hand.
Well I stand up next to a mountaion,
Chop it down with the edge of my hand.
Well I pick up all the pieces, make an island,
Might even raise a little sand, yea.

'Cause I'm a Voodoo Child...
Lord knows I'm a Voodoo Child baby!!

(SOLO)

I'm sorry I had to waste your time,
I swear, I'll give it right back to ya' one of these days.
I said I'm sorry I had to waste up all your sweet time,
I swear I'll give it right back to ya' one of these days!!
I don't need you no more in this world,
I'll meet you in the next one, now don't be late.
I said I don't 'a need you no more in this world,
I'll meet you in the next one, so don't be late,
Don't be late!!
'Cause I'm a Voodoo Child...
Lord knows I'm a Voodoo Child baby!!

Voodoo Child baby,
I'll take you to th next one, after,
Just to let you know.
Вверх

Wait Until Tomorrow

Intro:

E|-------------------------------------|
B|-9h10---9h10p9-----------------------|
G|-9------9---------------------9------|
D|-9h11---9h11p9----------------9------|
A|-----------------11-11---9h11--------|
E|---------------------------------0-0-|

E|-------------------------------------|
B|-7h8---7h8p7-------------------------|
G|-7-----7----------------7------------|
D|-7h9---7h9p7------------7------------|
A|--------------9-9---7h9--------------|
E|---------------------------0-0-------|

E|-------------------------------------|
B|-9h10---9h10p9-----------------------|
G|-9------9---------------------9------|
D|-9h11---9h11p9----------------9------|
A|-----------------11-11---9h11--------|
E|---------------------------------0-0-|

E|-------------------------------------|
B|-7h8---7h8p7-------------------------|
G|-7-----7----------------7------------|
D|-7h9---7h9p7------------7------------|
A|--------------9-9---7h9--------------|
E|---------------------------0-0-------|
Verse:

There are a lot of little variations played on a basic
progression of A and E.

Here's the outline of what he plays.

E|----5--------5--5-----------------10--9--7---------|
B|----5-----x--5--5------------7----7---7--7--10--7--|
G|----6-----x--6--6------------7----7---7--7--7---7--|
D|----7-----x------------------7----7---7--7--7---7--|
A|-0------0----------0-------------------------------|
E|-------------------------0-------------------------|

Start with this, then use your imagination !

Link to the chorus:

E|-------------------------------------------------------------|
B|-------------10-----------10-----------10-------10-------10--|
G|-----9-------9------------9-------9--------9--------9--------|
D|-----11p9h11------11p9h11-----11--9h11-----9h11-----9h11-----|
A|-0-----------------------------------------------------------|
E|-------------------------------------------------------------|

E|--------------------|
B|-------10-------10--|
G|--9--------9--------|
D|--9h11-----9h11-----|
A|--------------------|
E|--------------------|

Chorus:

Again, there are a lot of different bits played here - but the
basic feel follows a progression of :

E                        G A
Think I'd better wait...
E                        G A
E                        G A
Вверх

Wind Cries Mary

Gtr I (E A D G B E) - 'Jimi clean electric'
Gtr II (E A D G B E) - 'Jimi dist electric'

Intro
  Q=70
 4/4
  Gtr I
   E Q   E  +H       a  E a  Q   a  E  +H
E|-----------------|--------------------------|
B|-----------------|--------------------------|
G|-8-9--10-(10)----|----8----9-----10-(10)----|
D|-8-9--10-(10)----|----8----9-----10-(10)----|
A|-6-7---8--(8)----|-8h10-9h11--10h12-(12)----|
E|-6-7---8--(8)----|--------------------------|
                                        |3-|
   E Q   E  +Q  Q   a  E a  Q   a  E  +E  S  a  S  S  S  S  E
E|----------------|-------------------------------------------||
B|----------------|-------------------------------------------||
G|----------------|----8----9-----10-(10)---------------------||
D|-8-9--10-(10)---|----8----9-----10-(10)---------10-12-10----||
A|-6-7---8--(8)---|-8h10-9h11--10h12-(12)-8-10s12----------12-||
E|-6-7---8--(8)---|-------------------------------------------||

 Verse 1
  Q=78
                             |3-|                          |3|
  Q  e E Q e E  E.S a E E S a E E a E  E  Q e S S a E E S a E E
E|---8-----6--|--------------------------|---------------------|
B|---8-----6--|---------------1-----1-(1)|--5------------------|
G|---9-----7--|---2-0h2-----0h2(0)0h2-(2)|--5-----------3------|
D|--10-----8--|---3---3---3---3-----3-(3)|--5-------3-3---3h5-3|
A|------------|------------------------x-|3---x-3-3h5----------|
E|8----7-6----|--------(1)-------------x-|---------------------|

   Q  E S S a E Q  a S S   E E E E E. S E E
E|------------1-1--------|------------------|
B|----------1h3-1------1-|---1----------x---|
G|----0------------0h2---|-0---0------3-x---|
D|----3------------------|-2---2------3-x---|
A|--------3--------------|-3-----2-1--------|
E|-1----1----------------|------------------|

  E E a E E S E E S a E E S
E|---------------------------|
B|-------1-------------1-----|
G|---2-0h2-----------0h2---2-|
D|---3---3---------3---3---3-|
A|-----------3---------------|
E|-1-------1---1-1-------1---|

   S S S S S S S S  S S S S S S S S
E|----------------------------------|
B|-----3-3-5p3---3----6-6-6-8-6-x-x-|
G|-4-4-4-4-4-----4----7-7-7-7-7-x-x-|
D|-5-5-5-5-5---5------8-8-8-8-8-x-x-|
A|----------------------------------|
E|-----------------/6---------------|

   E Q   E  +Q.   E   E S S S S S S S S S S S S S S
E|------------------|-------0-----------------------|
B|------------------|-3-3-3-0-3-------6---6-8p6-6-x-|
G|-8-9--10-(10)-----|-4-4-4-0-4---4-7-----7-7---7-x-|
D|-8-9--10-(10)-----|-5-5-5---5-5---8-----8-6---8-x-|
A|-6-7---8--(8)-----|-3-------------7---------------|
E|-6-7---8--(8)-----|-5-------------6---6-----------|

                                           |-3-|     |3-|  |3-|
   E E E E  +Q  E E a  E a  Q  a  E  +E   S  a  E  S  E  S  E
E|-----------------|------------------------------------------||
B|-----------------|------------------------------------------||
G|-8-9--10-(10)-x--|---8----9----10-(10)----------------10----||
D|-8-9--10-(10)-x--|---8----9----10-(10)-10----10-10-12-10----||
A|-6-7---8--(8)-x--|8h10-9h11-10h12-(12)----10h12----------12-||
E|-6-7---8--(8)----|------------------------------------------||

 Verse 2
       |3|        |3-|
   Q  E E S S  S  +E  S E E
E|---------------------------|
B|----5----------------------|
G|----5---5-----------3-3----|
D|----5-----3-(3)-(3)---3----|
A|-3----3---3h=5--(5)-----5--|
E|---------------------------|

             |3|                     |3|
   Q  a T S. E S a E a Q  E    E E e E S S  E  S S S a E
E|---------------------1-----|---------------------------|
B|------1----------1---1-----|-----5---------------------|
G|----0h2p0------0h2-0h2-----|-----5---5-------3---3-----|
D|------3------3---3---------|---5---5---3-(3)-3-3-----3-|
A|-------------3-------------|-3-----3---3h=5--------3h5-|
E|-1---------1------------3/-|---------------------------|

             |3|   |3|      |3-|
   E S S a E E S a E S a E +E  S E
E|------------------------------------|
B|---------1-------1-----1-(1)--------|
G|-----2-0h2-----0h2p0-0h2-(2)-2------|
D|---3-----3-------3-----3-(3)-3------|
A|-------------3----------------------|
E|-1---------1-------------------1/---|

                |3|                     |3| |3| |3|
    E. S E e Q  E S E   E  E  S S S S E E S E S E S
E|--8------9-8--8-----|-----------------------------|
B|--8--8---7-6--6-6-6-|---(1)---1-------------------|
G|--9--9---8-7--7-7-7-|-2-(2)---2-----------2-2---2-|
D|-10------9-8--8-8-8-|-3-------3---3-----3-3-3---3-|
A|--x-----------------|-3---------3-3-3-3---3---3---|
E|--8-----------------|-1-----1-------1-1---1---1---|

    S S S S S S S S  S S S S S S S S
E|------------------------------------|
B|-/3-3-3-3-5-3---3--------6-8p6-6-x--|
G|-/4-4-4-4-4-----4--------7-7---7-x--|
D|-/5-5-5-5-5-----5-/8-8-8-8-6---8-x--|
A|-/3----------------x-x-x------------|
E|-/3-----------3---/6-6-6------------|

   E Q   E  +Q   Q    E. S a E. S  E S S S S S S
E|------------------|----------------------------|
B|------------------|------5p3---------6-8p6-----|
G|-8-9--10-(10)-----|--------4----/7-7---7-----0-|
D|-8-9--10-(10)-----|-5------5----/8-8---8---8---|
A|-6-7---8--(8)-----|-x------------x-------------|
E|-6-7---8--(8)-----|-3--3------3-/6-------------|

   E Q   E  +H       a  E a  Q   a  E  +H
E|-----------------|--------------------------||
B|-----------------|--------------------------||
G|-8-9--10-(10)----|----8----9-----10-(10)----||
D|-8-9--10-(10)----|----8----9-----10-(10)----||
A|-6-7---8--(8)----|-8h10-9h11--10h12-(12)----||
E|-6-7---8--(8)----|--------------------------||

  Guitar Solo
   Gtr II
     Q        a  E      E        E  S  S   S   S    E
E|--------------13------------------------------------|
B|-----------13h15----------------13-13-----------13--|
G|---------------------------------12-14--12-------12-|
D|--------------------------------------------15------|
A|----------------------------------------------------|
E|----------------------------------------------------|

  Gtr I
                                          |--3--|
    E  S  S     S   S  S  S  a  E  E     +E     S  E
E|----------------------------------------------------|
B|----------------------------------------------------|
G|-/10-10-10----10--10-------10s=8--8-----(8)---------|
D|-/10--------------------10-10s=8--8-----(8)----x--8-|
A|-/12-----------------12----12s10-10----(10)----x-10-|
E|----------------------------------------------------|

   a  S  S  E  E  S  S  a  Q  +S   S E Q a  E E E  S  S  S S  E
E|------------------------------------|----13------------------|
B|---13-------------------------------|-13h15----13-13------13-|
G|12h14p12----------------------------|-----------12-14-12---12|
D|---------15----15-17-15h17-(17)p15--|-------------------15---|
A|------------17----------------------|------------------------|
E|------------------------------------|------------------------|

      PM---|                 PM--|
  E E a  E E E S S S   S S  S E  S  S  S  S  S  S a  E  E  E  E
E|---------------------------|---------------------------------|
B|---------------------------|---------------------------------|
G|---------------------------|--10-10-10-10-10-10----8--8--8---|
D|---------------------------|--10-10-10-10-10-10----8--8--8---|
A|---------8-------------8---|8--8--8--8--8--8--8-8h10-10-10---|
E|6-6-8s10---4-4-4-8s=10---10|-------------------------------10|

     E  S  S    Q       a  E  a  Q         E
E|----------------------------------------------|
B|----------------------------------------------|
G|----------------------------------------------|
D|-----15h17---15------15h17--------------15----|
A|-/17-----------------------15h17--------------|
E|----------------------------------------------|

     PM---|                PM------|
     E  S  S a  S S  E     E     S S S  S  S  S
E|----------------------------------------------|
B|----------------------------------------------|
G|----------------------------------------------|
D|----------------------------------------------|
A|----------------8------------------------8----|
E|--/6--6--6-8s10---10-----4-----4-4-8s10----10-|

   Q  a  E  E E    S  S  S  S  E     E  S  S  S  E.    +Q   Q
E|------13----------------------|------------------------------|
B|---13h15------13-13-------13--|------------------------------|
G|---------------12-14-12----12-|------------------------------|
D|------------------------15----|-----15h17--------------------|
A|------------------------------|-/17-------15-17----(17)------|
E|------------------------------|------------------------------|

  E S  S  S  S  S  S S  S  S  S  S  S  E  E E S S S S E S S E E
E|--------------------------------------|----------------------|
B|--------------------------------------|----------------------|
G|-10-10-10-10----10-------8--8--8--8--8|----------------------|
D|-10-10-10-10-10-10-------8--8--8--8--8|----------------------|
A|8-------8--8-------8h10-10-10-10-10-10|---------8-x---------6|
E|--------------------------------------|/6-6-8-10----4-4-4S8--|

   E  a  E     S  S   S  S  S  S  a  E    a  Q
E|------15----15-------------------------------------|
B|---15h17-----------15-15-15-------15------15-------|
G|-------------------14-16-14----14h16---14h16-------|
D|----------------------------17---------------------|
A|---------------------------------------------------|
E|---------------------------------------------------|

         |3-|                        |3|
   E     E  S  S  S   E     E        E S     S S S S
E|-------------------------------------5-----5-------|
B|-3-----3--3--5p=3---3-----3--------3-3-----3-----x-|
G|-4-----4--4--4-(4)--4-----4--------4-4-----4-----x-|
D|-5----(5)-5--5-(5)--5-----5--------5-5-----5-----x-|
A|-3------------------3-----3--------3---------------|
E|-3------------------3-----3--------3---------x-3---|

  E a S S E S S S S E a E E    S  E  S   S  S  S S  S  S    Q E
E|------6---6-6-------------|--------(12)---------9------------|
B|----6-6-8-6-6-------------|--12b14------9----9---------------|
G|--6h7-7---7-7h8-8-8-8p7---|---------------11------11b13-9----|
D|--------------------------|----------------------------------|
A|--------------------------|----------------------------------|
E|--------------------------|----------------------------------|

                             |3|
  E S S E E E E   S S E S    E       E   e S S  S  S  S  S E E
E|----6-------------------|------------------------------------|
B|--6-6-6-6-6-6---6-6-----|------------------------------------|
G|7-7-7-7-7-7-7---7-7-----|-------------10-----10-10-10-10-----|
D|8-8-8-8-8-8-8---8-8-----|-------------11-----11-11-11-11-----|
A|7-----8-8-8-8---8-------|-------------11------x--x--x--x-----|
E|6-----6-6-6-6---6---6S8-|-/9-------9---9-9-9--9--9--9--9-9-9-|

    E  a  E  E  E  S  S  S  S  S  S  E
E|-------13-13---------------------------|
B|----13h15-13----13-13-13----13----13---|
G|----------------12-14-12----12-14-12---|
D|-------------------------15------------|
A|---------------------------------------|
E|---------------------------------------|

   Q        E  E  E     E     E     S S
E|---------------------------------------|
B|---------------------------------------|
G|-10-------------------------------10---|
D|-10-------10-10-------10----------10---|
A|--8--------8--8--8-----8-----8-----8---|
E|-------------------------------------8-|

Verse 3
    S  S  S  S  e  E  Q            E     a  E
E|-----------------------------------------------||
B|-----------------------------------------------||
G|-------10----10--------------------------------||
D|-10h12----12-10--------------------------------||
A|----------------13-12--------------------------||
E|-------------------------------/15----3h=5-----||

   E  E  E  E  S  S  S  S  S  S  S  S    Q E S S S S E S S S S
E|------------------------------------||-----------------------|
B|------------------------------------||---5-------------------|
G|---10-10-10-10-10-10-10-10-10-10-10-||---5-------------------|
D|---10-10----10-10-10-10-10-10-10-10-||-5-5-5-------3-3-3-----|
A|-8--8--8-----8--8--8--8--8--8--8--8-||-3-3---3-3h5-------3h5-|
E|------------------------------------||-----------------------|

  F
Gtr I
          |3|          |3-|
   Q  a E E S a E a E +E  S E
E|----------------------------|
B|------1---------------------|
G|----0h2---------------------|
D|------3---------------------|
A|----------3-----------------|
E|-1----------3h5-3h5-(5)-3s1-|

        |3|         |3|
   Q  E E S S  S  E E S a E    Q  E S S a E a E S S E
E|---------------------------|------------------------|
B|---------------------------|----1---1---1---1---1---|
G|----5-5-5-------3-3--------|----2---2-0h2-0h2-2-----|
D|----5-5-5-3-(3)-----3------|----3---3---3---3-------|
A|-3--3-----3--5--------3h5--|----------------------3-|
E|---------------------------|-1----1-----------------|

    E  S S  S  S  E E S S S S E
E|-------8-10--8------6-6-6-6---|
B|-----8-8--8--9----6-6-6-6-6---|
G|-----9----9--9--9-7-----7-7---|
D|----10---10-10-10-8-----------|
A|------------------x---------x-|
E|-/8---------------6-----------|

   Q  E S S E S S +S  S S S   Q  S S S S  S S S S S S E
E|--------------------------|---------------------------|
B|----1---1-----1-(1)-1---2-|-3--5-3-3-3-/6-6-6-6-8-6---|
G|----2---2---2-2-(2)-2---3-|-3--3-3-3-3-/7-7-7-7-7-7-7-|
D|----3---3---3-3-(3)-3---4-|-5--5-5-5-5-/8-8-8-8-8-8-8-|
A|----------3---------------|-x-------------------------|
E|-1--------1-----------1---|-3-------------------------|

   E E E  E  +Q   E E   E S S S S S S E S S S S E
E|--------------------|---------------------------|
B|--------------------|---3-3-5-3---------6-8-6---|
G|----------------x---|---4-4-4-4---4---7-7-7-7---|
D|-8-9---10-(10)--x---|-5-5-5-5-5-5-5---8-8-8-8---|
A|-6-7----8--(8)--x---|-3---------x---------------|
E|-6-7----8--(8)------|-3---------3---6---------6-|

   E Q   E  +H       a  E a  Q   a  E  +Q    e  e
E|-----------------|------------------------------||
B|-----------------|------------------------------||
G|-8-9--10-(10)----|----8-------------------------||
D|-8-9--10-(10)----|----8----9-----10-(10)--------||
A|-6-7---8--(8)----|-8h10-9h11--10h12-(12)--12----||
E|-6-7---8--(8)----|----------------------------7-||

  Chorus
         |3|       |3| |3|
   E E E E S S  S  E S E S  E
E|------------------------------|
B|------------------------------|
G|-----5---5-------3-3----------|
D|-----5-5---3-(3)-3---3-3-(3)--|
A|-3-3-3-----3h=5--------3h=5---|
E|------------------------------|

           |3| |3| |3-|                            |3|
   E E a E E S E S E  S  a E E   E E E S S S S S S E S  E
E|-----------------------------|----------------------------|
B|-------1-----------------1---|-------5-5------------------|
G|-----0h2-------2-------0h2---|---5-5-5-5-----3-3----------|
D|-------3---3---3---(3)---3---|-5-5-5-5-5-----3---3-3-(3)--|
A|-----------3-----------------|-3---------3s5-------3--5---|
E|-1-1-----1---1---1---------1-|----------------------------|

 |3-|             |3|           |3| |3| |3|                 |3|
  E +E S a S  S S S E S E a E E E S E S E S E Q E E Q E E S EEQ
E|-----------------------------|------------------|------------|
B|-----1---1-(1)1-1---------1--|------------------|---1---1---1|
G|-----2-0h2p=0-2-2-------0h2--|--5-------5-----3-|---2---2---2|
D|-----3---3-(3)3-3---3-----3--|----5-5-5-----3-3-|---3---3---3|
A|--------------3-------------3|3---3---3---2-1-1-|-------3----|
E|1-(1)---------1---1---1------|------------------|-1---1---11-|

   S S S S S  S  S S E S S S S E
E|-------------------------------|
B|-3-3-3-3-5p=3----3-6-6-6-8-6---|
G|-4-4-4-4-4-(4)---4-7-7-7-7-7---|
D|-5-5-5-5-5-(5)-5-5-8-8-8-8-8-8-|
A|-x---x---------x---x-----x---x-|
E|-3---3---------3---6-----6---6-|

   E E E  E  +Q   E E   E S S S S S S S S S S S S E
E|--------------------|------------------------------|
B|--------------------|---3-3-5-3-3-3-6-6---6-6-6----|
G|-8-9---10-(10)--x---|---4-4-4-4-4-4-7-7---7-7-7----|
D|-8-9---10-(10)--x---|-5-5-5-5-5-5-5-8-8-8-8-8-8----|
A|-6-7----8--(8)--x---|-x---------x---x---x----------|
E|-6-7----8--(8)------|-3---------3---6---6----------|

   E E E  E  +Q   E E   a  E a  Q   a  E  +Q   E E
E|--------------------|----------------------------|
B|--------------------|----------------------------|
G|-8-9---10-(10)--x---|----8----9-----10-(10)--x---|
D|-8-9---10-(10)--x---|----8----9-----10-(10)--x---|
A|-6-7----8--(8)--x---|-8h10-9h11--10h12-(12)--x---|
E|-6-7----8--(8)------|----------------------------|

Outro - Solo
Gtr II
   a  E E  a  E  E  +Q   Q        H    E   a  S  S  S   S S  S
E|-8s10s8--------------------|---------------------------------|
B|-8s10s8-10h11-10-(10)------|---------------------------------|
G|-----------10-10-(10)------|---------------------------------|
D|--------10h12-10-(10)------|------------10h12-10-------------|
A|---------------------------|---------------------12--10-8----|
E|---------------------------|------------------------------10-|

Gtr I
      E E     E  E  +Q   E E   a  E a  Q   a  E  +Q        Q
E|---------------------------|--------------------------------|
B|---------------------------|--------------------------------|
G|----8-9-------10-(10)--x---|----8----9-----10-(10)----------|
D|----8-9-------10-(10)--x---|----8----9-----10-(10)----------|
A|----6-7--------8--(8)--x---|-8h10-9h11--10h12-(12)------12--|
E|----6-7--------8--(8)------|--------------------------------|

   E Q    E  +E  S  S S  S S  S
E|-------------------------------|
B|-------------------------------|
G|-------------------------------|
D|-------------------------------|
A|--------------------8-10-8-----|
E|-6-7----8--(8)-8h10--------10--|

   E E E  E  +Q       E    E
E|-------------------------------|
B|-------------------------------|
G|-8-9---10-(10)------x----------|
D|-8-9---10-(10)------x----------|
A|-6-7----8--(8)------x----------|
E|-6-7----8--(8)-----------------|

   a  E a  Q  a  E  E  a  E S  S E   a  E e  a  E  E  +H    W
E|------------------------8-8------|-8h10-8---------------|---*|
B|---------------------8h10-8------|-8h10-8-10h11-10-(10)-|---*|
G|----------------------------10p8-|-----------10-10-(10)-|---*|
D|---------------------------------|--------10h12-10-(10)-|---*|
A|-8h10-9h11-10h12-12--------------|----------------------|---*|
E|---------------------------------|----------------------|---*|

   a  E a  Q   a  E  +Q   Q        E Q      E  +H     E E Q H
E|----------------------------|--------------------|----------*|
B|----------------------------|--------------------|----------*|
G|----8----9-----10-(10)------|----8-9-----10-(10)-|-!x-------*|
D|----8----9-----10-(10)------|----8-9-----10-(10)-|-!x-------*|
A|-8h10-9h11--10h12-(12)------|----6-7------8--(8)-|-!x-------*|
E|----------------------------|----6-7------8--(8)-|----------*|
Вверх

You Got Me Floatin

  verse riff   chorus riff            2nd verse riff
G|------------|----------------------|------------|
D|------------|----------------------|------------|
A|-2-44--2----|-2-44----2-44----2----|-2-44--2----|
E|3-----3--44-|3-----023-----023--44-|3-----3--22-|
Вверх
English songs 109

ABBA
AC-DC
Adams Bryan
Adriano Celentano
Aerosmith
A-Ha
Animals
Antonio Banderos
Apocalyptica
Armstrong Louis
Billy's Band
Bjork
Blink 182
Blondie
Blur
Bob Dylan
Boney M
Bon Jovi
Bowie David
Brainstorm
Braxton Toni
Butch
Celine Dion
Chris De Burgh
Chris Isaak
Chuck Berry
Clapton Eric
Cohen Leonard
Cranberries
Deep Purple
Depeche Mode
Dire Straits
Donovan Jason
Eagles
Electric Light Orchestra
Elton John
Elvis Presley
Era
Europe
Evanescence
Garbage
Gary Moore
Glen Wiston
Gorillaz
Green Day
Guano Apes
Guns N Roses
Hendrix Jimi
Iggy Pop
Iron Maiden
Joe Dassin
Kansas
King Crimson
Kiss
Led Zeppelin
Leonard Cohen
Limp Bizkit
Linkin Park
Louis Amstrong
Madonna
Marilyn Manson
Marley Bob
Metallica
Moby
Morricone Ennio
Muse
Nazareth
Nelly Furtado
Nick Cave
Nirvana
No Doubt
Oasis
Offspring
Ottawan
Outkast
Ozzy Osbourne
Pain
Para Bellum
Pink Floyd
Placebo
P.O.D.
Queen
RadioHead
Rainbow
Rammstein
Rea Chris
Red Hot Chili Peppers
Ritchie Blackmore
Rolling Stones
Roxette
Rufus Wainwright
Santana
Sarah Brightman
Scorpions
Sex Pistols
Simon & Garfunkel
Shocking Blue
Soul Asylumx
Status Quo
Sting
System of a down
Sum 41
The Beatles
The Doors
Tito & Tarantula
U2
UB 40
Uriah Heep
Van Halen

Українські пісні 109

Boom Box
Escape
Flit
Kapela Drewutnia
Lama
LЮK
Mad Heads (XL)
Motor' rolla
NEON
Ot Vinta
The Вйо
Абздольц
Аероплан
Акорд
Ані Лорак
Бандурна розмова
Білик Ірина
Борщ
Брати Гадюкіни
Вася Club
Вій
Воплі Відоплясова
Гайдамаки
Гончар Олесь
Гринжоли
Гроно
Гуляйгород
Дарка і Славко
Дивні
Друга Ріка
Другий подих
Дударик
Експампей
Євтушенко Андрій
Жарівка (Дяк Олесь)
Журбовіз
Зібров Павло
Зінкевич Василь
Злотник Олександр
Івасюк Володимир
Калєкція
Карна
Карпа Ірена
Клямка
Козловський Віталій
Кому вниз
Крихітка Цахес
Курінь
Лесик-Band
Лорд Юрія
Львівські музики
Мандри
Менестрелі
Мері
Мертвий Півень
Міпеніум
Монте Крісто
Морозов Віктор
Нахтіґаль
Не журись!
Неборак Віктор
НеДІля
НЕМО
Нічлава блюз
Океан Ельзи
ПереBANDя
Перкалаба
Петрович
Піккардійська Терція
Піпа Олександр
Плач Єремїі
Пономарьов Олександр
Пророк
Росава
Ротару Софія
Руслана
Рутенія
С.К.А.Й.
САД
Самі свої
Серцевий Напад
Скрябін
Смерічка
Сокира Перука
Соколи
Таліта Кум
Тартак
Тінь сонця
Ткач Михайло
ТНМК
Тостер
Тріо Мареничів
Фарбований лис
Фестиваль Снів
Хвилю тримай
Цісик Квітка
Черемош
Черемшина
Четвертий кут
Чорний вересень
Чорні черешні
Шевченко Тарас
Щастя
Юркеш
Юрченко Юрко
Юрчишин Ярослав
Явір
Яка існуЄ
Яремчук Назарій

   
 sait@i.ua



Рейтинг@Mail.ru