accordS-land.ru Аккорды и табулатуры к гитаре.
Главная | Песенник | Аккорды | Учебник
Руссике песни 180
5nizza
7Б
9-й Район
Animal ДжаZ
Billy's Band
Butch
Para Bellum
TequilaJazzz
Worms
Zdob Si Zdub
Автоматические удовлетворители
Агата Кристи
Агузарова Жанна
Агутин Леонид
Адо
Аквариум
Алиса
Алсу
Амирамов Е.
Антонов Ю.
Арефьева Ольга
Ария
АукцЫон
Барыкин
Башаков Михаил
Башлачев Александр
БекХан
Бернес М.
Би - 2
Бони неМ
Борзов Найк
Боярский Михаил
Браво
Братья Грим
Ва-Банкъ
Вертинский Александр
Визбор Юрий
Високосный год
Воскресенье
Восьмая Марта
Высоцкий В.С.
Високосный год
Газманов О.
Галич Александр
Герман А.
Городницкий Александр
Глызин А.
Градский Александр
Гражданская Оборона
Гребещенков
Данко
ДДТ
Дидюля
Диоды
Дискотека Авария
Дягилева Янка
Ёлка
Жуки
Заблудовский Андрей
Запрещенные Барабанщики
Звери
Земляне
Земфира
Зинчук Виктор
Зоопарк
Иван Кайф
Иванов А.
Иваси
ИЗ КИНО И МУЛЬТФИЛЬМОВ
Империя
Калинов мост
Кашин Павел
Кельми К.
КИНО
Кипелов
Конец Фильма
Контингент
Корни
Король и Шут
Коррозия металла
Крематорий
Крупнов Анатолий
Кузьмин Владимир
Куликов Е.
Кукрыниксы
Курехин Сергей
Лаэртский Александр
Ласковый май
Ленинград
Леонидов Максим
Лесоповал
Лещенко Л.
Линда
Лицей
Лоза Юрий
Любэ
Люмен
Ляпис Трубецкой
Мальчишник
Манго-манго
Мара
Маркин В.
Маршал Александр
Маша и медведи
Машина времени
Мечтать
Мистер Кредо
Митяев Олег
Многоточье
Монгол Шуудан
Моральный Кодекс
Мультfильмы
Мумий Тролль
Настя
Науменко Майк
Наутилус Помпилиус
Непара
Неприкасаемые
Несчастный случай
Никоваев И.
Никольский Константин
Ногу свело
Ноль
Носков Николай
Ночные Снайперы
Окуджава Булат
Оркрист
Осин Е.
Оскар
Отиева И.
Паперный Т.А.М.
Парк Горького (Gorky Park)
Пикник
Пилот
Пламя
Полковник и однополчане
Пугачева А.
ПЭХ
Приключения Электроников
Просто прикольные песни
Рада и Терновник
Римский-Корсаков
Розенбаум Александр
Рок-Острова
Рондо
Сансара
Саруханов
Сегодня Ночью
Секрет
Сектор газа
Сенчина Л.
СерьГа
Смысловые Галлюцинации
Сплин
Солодуха А.
Старые блатные песни
Сукачев Гарик
Сурганова и Оркестр
Сюткин Валерий
Тальков Игорь
Танцы минус
Тараканы
Тату
Технология
УмаТурман
Умка и Броневичок
Ундервудъ
Фабрика звезд
Х.З. (Хуй Забей)
Центр
ЧайФ
Черный кофе
Черный Лукич
Чиж и Ко
Чистяков Федор
Шанхай
Щербаков Михаил
Ю-Питер

Классика 22

Албениз Исаак
Албениз Матео
Бах Иоган Себостьян
Бетховен Людвиг ван
Бизе Жорж
Брамс Иоганнес
Вивальди Антонио
Гендель Георг Фридрих
Гершвин Джордж
Григ Эдвард
Дебюсси Клод
Камиль Сен-Санс
Мендельсон
Моцарт Вольфгант Амадей
Мусоргский Модест Пертрович
Норис Крис
Огинский Михал Клеофас
Паганини Никколо
Рахманинов Сергей Васильевич
Римский-Корсаков
Чайковский Пётр Ильич
Шуберт Франц
 

 

Kiss

Beth
Comin Home
Comin Home (2 вариант)
Domino
Every Time I Look At You
Forever
God Of Thunder
Got To Choose
Hotter Than Hell
I Was Made For Lovin You
Love Gun
Rock & Roll All Nite
Strutter
Sure Know Something
Вверх

Beth

INTRO:

E|-3--------3--------3-1-0---------------------------------1---|
B|-------1----1------------3-1-0-----1---1-----0---1---3-------|
G|----0----------0-----------------2---2---2-----0---0---0---0-|
D|-------------------------------3-----------3-----------------|
A|-3-----------------------------------------------------------|
E|-------------------------------------------------------------|

E|-3--------3------3--1--0--------------------------------3-|
B|-------1----1-------------3--1--0--------1-----1--------3-|
G|----0---------0-----------------------2-----2-----2-----0-|
D|-----------------------------------3-----------------3--0-|
A|-3------------------------------------------------------2-|
E|--------------------------------------------------------3-|

VERS:

C                  Dm          Cmaj7                 Am      G
Beth, I rear you callin? but I can?t come home right now,
F                   G              C                    E     E
Me and the boys are playin? and we just can?t find the sound.
Am                G            F                  Em
Just a few more hours and I?ll be right home to you.
Dm                 F     G     Am
Think I hear them callin?.  Oh Beth, what can I do?
F          G     C
Beth, what can I do?

C                   Dm              Cmaj7               Am   G
You say you feel so empty, that our house just ain?t a home
F                    G               C              E
I?m always somewhere else and you?re always there alone
Am                G            F                  Em
Just a few more hours and I?ll be right home to you.
Dm                 F     G     Am
Think I hear them callin?.  Oh Beth, what can I do?
F          G     C
Beth, what can I do?

C                    Dm           Cmaj7               Am     G
Beth, I know you?re lonely, and I hope you?ll be all right,
      F
cause me and the boys will be playin? all nighte.

SOLO:

E|------------------------------------8-10^-10^-10^-8-8-9-10-8-|
B|-----------5-------8---8-10^-8-8h10--------------------------|
G|---5---5-7^5-7-5-9---9---------------------------------------|
D|-7---5-------------------------------------------------------|
A|-------------------------------------------------------------|
E|-------------------------------------------------------------|

E|-9-10-8-9-10-|
B|-------------|
G|-------------|
D|-------------|
A|-------------|
E|-------------|

E|-10^-10^--8h10--p8-----8-------------------------------------|
B|--------------------10---8--8h10p8------------------8--8-10^-|
G|------------------------------------9-8-7-5-7^-5-7-9--9------|
D|-------------------------------------------------------------|
A|-------------------------------------------------------------|
E|-------------------------------------------------------------|

E|-8--9--10--8--9--10----10^--10-----8h10p8-----8-|
B|-------------------------------------------10---|
G|------------------------------------------------|
D|------------------------------------------------|
A|------------------------------------------------|
E|------------------------------------------------|
Вверх

Comin Home

Intro:

   G                 C        C" D
E|-3-3-3-3-3-3-3-3-|-0--0--0--3--2--2--2--2--2-|
B|-3-3-3-3-3-3-3-3-|-1--1--1--1--3--3--3--3--3-|
G|-0-0-0-0-0-0-0-0-|-0--0--0--0--2--2--2--2--2-|
D|-0-0-0-0-0-0-0-0-|-2--2--2--2----------------|
A|-2-2-2-2-2-2-2-2-|-3--3--3--3----------------|
E|-3-3-3-3-3-3-3-3-|---------------------------|

CHORUS TAB:
      G
E|--------3-------3---|-----3---------3---|
B|-o----3---3---3---3-|---3---3-----3---3-|
G|--------------------|-------------------|
D|-o------------------|-----------0-------|
A|--------------------|-------------------|
E|----3-------2-------|-0-----------------|

   C         C"  D
E|-----------3---2-|-2-2-2-2-2-2-3-|
B|-1-1-1-1---1---3-|-3-3-3-3-3-3-3-|
G|---------------2-|-2-2-2-2-2-2-2-|
D|-2-2-2-2---2-----|---------------|
A|-3-3-3-3---3-----|---------------|
E|-----------------|---------------|
                      I?m comin? home to you

                          - I?m comin? home baby

E|-------5---------5---|-------5---------5---|
B|-o---5---5-----5---5-|-----5---5-----5---5-|
G|---------------------|---------------------|
D|-o-------------------|---------------------|
A|---------------------|---------------------|
E|---5---------4-------|--2----------0-------|

E|---------------------|------------------------|
B|------------10-------|----------------------o-|
G|-7---7-7-7--9------9-|-(9)--9-9-9-9-9-9-9-----|
D|-7---7-7-7--7------9-|-(9)--9-9-9-9-9-9-9---o-|
A|-5---5-5-5---------7-|-(7)--7-7-7-7-7-7-7-----|
E|---------------------|------------------------|

            G
It?s been a month or two since I?ve been sleeping with you.
           C         C"   D
I?m comin? home again.
             G
I?ve been to east and west but baby I like best the road
                  C"  D
that leads to you.
   C                                 D
Oh girl, it seems the whole wide world... Seems to say.
                G
Hotels they all look the same, just seem to drive me insane,
            C        C"   D
but I can?t get away.
              G
Until I recieve a call that tells me that will be all
        C            C"   D
and the I hop a plane.
        C                         D
It?s true, I?m not sure if you knew.... I?m comin? home to you.
   C                                 D
Oh girl, it seems the whole wide world... Seems to say.
                G
Hotels they all look the same, just seem to drive me insane,
            C       C"   D
but I can?t get away.
              G
Until I recieve a call that tells me that will be all
         C            C"    D
and then I hop a plane.
        C                         D
It?s true, I?m not sure if you knew.... I?m comin? home to you.

CHORDS USED IN COMIN? HOME:

   G    C    D    C"
E|-3--|-0--|-2--|-3--|
B|-3--|-1--|-3--|-1--|
G|-0--|-0--|-2--|-0--|
D|-0--|-2--|-0--|-2--|
A|-2--|-3--|-0--|-3--|
E|-3--|----|----|----|
Вверх

Comin Home (2 вариант)

Вст. F# B C#
Куп. F# B C#
Пр. E B E B E B C#

It been a month or two seems I was sleepin` with you
Seems I was sleepin` with you
I comin` home again
I got the east and west But baby I like best
But baby I like best
The rose is seems to you

It`s true I`m not you if you knew
I comin` home to you
Вверх

Domino

intro

E|-------------------------------------------|
B|-5--5-----3--3-----5b----------5b----------|
G|-2--2--2--2--2--2--2----2--2--5----2--0--2-|
D|-------------------------------------------|
A|-------------------------------------------|
E|-------------------------------------------|

rhythm/chorus

E|-----------------------------------|
B|----------3------------------------|
G|----------2------------------------|
D|----------0------------------------|
A|--3b-0------3b--0--0-0--3b-0-------|
E|--------------------------------3b-|

E|---------------------------------|
B|---------3-----------------------|
G|-2-------2-----------------------|
D|-2---2---0-----------------------|
A|-0---0------3b-0-0-0-------------|
E|------------------------0-2-3-5v-|

verses

E|-----------------------------------|
B|-----------------------------------|
G|--------------------------2------2-|
D|--------------------------2------2-|
A|-0-(12 times)--3b--0------0------0-|
E|------------------------------3----|

E|--------------------------|
B|--------------------------|
G|--------------------------|
D|--------------------------|
A|-0-(12 X)-----------------|
E|--------------0--2--3--5v-|

 prechorus

E|-3--3--3--2--------------------|
B|-3--3--3--3--------------------|
G|-0--0--0--2----2-------------2-|
D|-0--0--0--0----2-------------2-|
A|-2--2--2-------0--3p0--------0-|
E|-3--3--3---------------3-------|

E|-3--2---0-|
B|-3--3---0-|
G|-0--2---1-|
D|-0--0---2-|
A|-2------2-|
E|-3------0-|

E|--------------------------------------------|
B|--------------------------------------------|
G|-9------7--------4--------2-------3-------3-|
D|-9------7--------4--------2-------0-------2-|
A|-7------5--------2--------0-------0-------0-|
E|-0-0-0----0-0-------0-0------0-0----0-0-----|

Lirics:

Intro

Now let me tell you my story,
I got a man-sized predicament
And it?s a big one, goes like this, yeah"

My my, ow, yeah!

Verse

Never had confession, never had a home
Never had no worry, until I met Domino
Ain?t the virgin Mary, love her I confess
Got my hesitations,
cause she kisses like the kiss of death

Prechorus

Loves lots of money, back?s against the wall
Calls me "Sugar Daddy",
she knows she?s got me by the balls
They call her Domino - "so fine"

Verse

Got a reputation, haven?t got a hope
It?s a sticky situation,
if she ain?t old enough to vote
Loves to play with fire, loves to hurt so good
Loves to keep me burnin?,
?cause she?s a bad habit, bad habit
Bad habit that?s good, good, good

They call her Domino, Domino, Domino

(Instrumental break)
"Every damn time I walk through that door,
it?s the same damn thing
That bitch bends over, and I forget my name - ow!"
Loves lots of money, back?s against the wall
Calls me "Sugar Daddy",
he knows she?s got me by the balls - ow!
Loves to play with fire, love her I confess
Got no hesitations, cause she?s a bad habit,
bad habit, she?s a bad habit!
"Yeah"
Вверх

Every Time I Look At You

INTRO:

   G            Am     C   D     G            Am     C   D
E|-3--3--3--3---0--0---0---3-----3--3--3--3---0--0---0---3-|
B|-3--3--3--3---1--1---1---2-----3--3--3--3---1--1---1---2-|
G|-0--0--0--0---2--0---0---3-----0--0--0--0---2--0---0---3-|
D|-0--0--0--0---2--2---3---0-----0--0--0--0---2--2---3---0-|
A|-2--2--2--2---0--0---3---0-----2--2--2--2---0--0---3---0-|
E|-3--3--3--3---0--0---0---x-----3--3--3--3---0--0---0---x-|

Vers1:
G
Tryin? to say I?m sorry, didn?t mean to break your heart.
F                                       C
And find you waitin? up by the light of day.
G                                     D
There?s alot I wanna tell you, but I don?t know where to start.
F                                           C
And I don?t know what I?d do if you walked away.
     Am                  D    Am             C           D
Ohh, baby I tried to make it, I just got lost along the way.

Chrous:
                 G     Am    C  D
But every time I look at you.....
                          G     Am
No matter what I?m goin? thru?
      C        D
It?s easy to see.
                 Em            D              G
And every time I hold you, the things I never told you
        C            D
Seem to come easily.

?Cause your everything to me.

 G-C-G-C

Verse 2:
G
I never really wanted, to let you get inside my heart.
F                                      C
I wanted to believe this would soon be ending.
G                                   D
I thought it wouldn?t matter, if it all just came apart.
F                            C
But now I realize I was just pretending.
    Am            D         Am          C                D
Ohh baby I know I hurt you, but you can still believe in me.

Chrous:
                   G     Am    C D
Cause every time I look at you.....
                        G    Am
No matter what I?m goin? thru?
      C        D
It?s easy to see.
                 Em            D              G
And every time I hold you, the things I never told you
        C            D
Seem to come easily.

?Cause your everything to me.
D#                              A#
It?s gonna take a little time to show you,
                       F        C
Just what you mean to me oh yeah
D#                         A#
It seems the more I get to know you,
                    F    C
The more I need to make you see....
      D
You?re everything I need yeah.

Solo:G-C-G-C-G-C-G-C

Am                D         Am          C                D
Ohh baby I know I hurt you, but you can still believe in me.
                   G    Am     C
Cause every time I look at you.....
 D                     G
No matter what I?m goin? thru?
      C        D
It?s easy to see.
                 Em            D              G
And every time I hold you, the things I never told you
        C            D
Seem to come easily.
                             G-Am-C-D
?Cause your everything to me.
                      G-Am-C-D
Your everything to me.
                      G-C-D-G
Your everything to me.
Вверх

Forever

Гитара спущена на пол-тона

Вступление: 2 раза


Eb|---------------------------------0-----3--2--3--2-|
Bb|-----3--------3--------3-------3---0--------------|
Gb|---2---2--------0------------2--------------------|
Db|-0----------0--------------0-----------2--------0-|
Ab|----------3----------2----------------------------|
Eb|-------------------3------------------------------|

Eb|-----0------0-|
Bb|-------3----1-|
Gb|---2--------0-|
Db|------------2-|
Ab|------------3-|
Eb|--------------|


1Куплет:

 так же как вступление[тоже два раза]
 а потом вот енто:
Eb|----------------------------0-----------0---|
Bb|------1----------3--------3------3----3---0-|
Gb|----0---0------0---0----0--------2--2-------|
Db|--2---------------------2--------0----------|
Ab|--0----------2----------3-------------------|
Eb|--------------------------------------------|

Eb|-----------------0-------------------0---|
Bb|------1--------3---3-------3-------3---3-|
Gb|----0--------0-----------0-------2-------|
Db|--2--------------------2-------0---------|
Ab|--0--------2-----------3-----------------|
Eb|-----------------------------------------|


Припев:

   G  D  Em          C                   Am          D      G  D
Forever This time I know and there?s no doubt in my mind Forever

G         D             Em           C            D  C
Until my life is thru, girl I?ll be lovin? you Forever

во время припева вторая гитара играет так:

Eb|--10-------10-10--------10-10--------10--8-7-------|
Bb|-----7--8---------7--8---------7--8----------10--8-|
Gb|---------------------------------------------------|
Db|---------------------------------------------------|
Ab|---------------------------------------------------|
Eb|---------------------------------------------------|


Eb|------------3-----2-----0---|
Bb|--7--5-5--------3-----3-----|
Gb|--------------0-----0-----0-|
Db|----------------------------|
Ab|----------------------------|
Eb|----------------------------|


 Соло:

Eb|-----------10----10----10--10--10--8--7h^8p^7-----|
Bb|-----------------------------------------------10-|
Gb|---------7-----7----------------------------------|
Db|--------------------------------------------------|
Ab|--------------------------------------------------|
Eb|----0---------------------------------------------|

Eb|--------------------------------------------------|
Bb|---8-7-5----5-7-7/8--5-7-7/8-5--------------------|
Gb|---------7----------------------------------------|
Db|--------------------------------5----4-5---4------|
Ab|-----------------------------------------7---5-73-|
Eb|--------------------------------------------------|

Eb|--------------------------------------------7-----|
Bb|--------------7-8-10--8-7--7h^8p^7---7-8-10----10-|
Gb|-5*----7*--------------------------9--------------|
Db|-5*----7*-----------------------------------------|
Ab|--------------------------------------------------|
Eb|--------------------------------------------------|

Eb|--------------------------------------------------|
Bb|--8--7h^8p^7--5--7--------------------------------|
Gb|--------------------7/97-----7--------------------|
Db|--------------------------------------------------|
Ab|---------------------------------97p^5---7--------|
Eb|--------------------------------------------------|

Eb|--------12-14-15--14-12-14-15-14----|
Bb|-----12--------------------------12-|
Gb|--12--------------------------------|
Db|------------------------------------|
Ab|------------------------------------|
Eb|------------------------------------|

Eb|------19------------17------------15-----------14-|
Bb|------20------------19------------17-----------15-|
Gb|-16--------16---14-------14---11-------11--11-----|
Db|-17--------17---16-------16---14-------14--12-----|
Ab|--------------------------------------------------|
Eb|--------------------------------------------------|

I gotta tell you what I?m feelin? inside,
I could lie to myself, but it?s true
There?s no denying when I look in your eyes,
girl I?m out of my head over you
I lived so long believin? all love is blind
But everything about you is tellin? me this time

It?s forever, this time I know and there?s no doubt in my mind
Forever, until my life is thru, girl I?ll be lovin? you forever

I hear the echo of a promise I made
When you?re strong you can stand on your own
But those words grow distant as I look at your face
No, I don?t wanna go it alone
I never thought I?d lay my heart on the line
But everything about you is tellin? me this time

I see my future when I look in your eyes
It took your love to make my heart come alive
Cos I lived my life believin? all love is blind
But everything about you is tellin? me this time
Вверх

God Of Thunder

Rhythm Fig. 1

Eb|-------------------------------------------|
Bb|-------------------------------------------|
Gb|-------------------------------------------|
Db|----------------------------------------5~-|
Ab|---------7-----5--7~--------7-----5--7-----|
Eb|---0-0------7---------0-0------7-----------|

   end. 1
Eb|------------------------------------------------|
Bb|------------------------------------------------|
Gb|------------------------------------------------|
Db|---------------------5~-----5--7--7b^-r7--5--7~-|
Ab|---------7-----5--7~------7---------------------|
Eb|---0-0------7-----------------------------------|

   end. 2
Eb|------------------------------------------------|
Bb|------------------------------------------------|
Gb|---------------------5~-----5--7--7b^-r7--5--7~-|
Db|---------------------5~-----5--7--7b^-r7--5--7~-|
Ab|---------7-----5--7~------7---------------------|
Eb|---0-0------7-----------------------------------|

   end. 3
Eb|----------------------------------------------------|
Bb|----------------------------------------------------|
Gb|----------------------------------------------------|
Db|----------------------------------------------------|
Ab|---------7-----5--7~--------7-----5h^7-7-7-5h^7-7-7-|
Eb|---0-0------7---------0-0------7--------------------|

   end. 4
Eb|----------------------------------------------------|
Bb|----------------------------------------------------|
Gb|------------------------------------------------9-9-|
Db|---------------------5~-----5--7--7b^-r7--5--7~-9-9-|
Ab|---------7-----5--7~------7---------------------7-7-|
Eb|---0-0------7-----------------------------------0-0-|

Rhythm Fig. 2

Eb|-------------------------------------------------|
Bb|-------------------------------------------------|
Gb|--5-5---------7-7---9-----5----9----2-2-2-2-2--4-|
Db|--5-5---5-5---7-7---9-----5----9----2-2-2-2-2--4-|
Ab|--3-3---5-5---5-5---7-----3----7----0-0-0-0-0--2-|
Eb|--------3-3---------0----------------------------|

Eb|----------------------------------------------------|
Bb|----------------------------------------------------|
Gb|--5-5---------7-7--9-----5-4-5-4-5-----7-7-7-7-7-7-7|
Db|--5-5---5-5---7-7--9-----5-4-5-4-5--5--7-7-7-7-7-7-7|
Ab|--3-3---5-5---5-5--7-----3-2-3-2-3--5--5-5-5-5-5-5-5|
Eb|--------3-3--------0----------------3---------------|

Solo

Eb|---------------------------------------------------|
Bb|---------------------------------------------------|
Gb|----------------------4b~~----7b--7b--7b-r7--------|
Db|-----8~----9~--------------------------------9-----|
Ab|-----------------------------------------------10~-|
Eb|-----6~----7~--------------------------------------|

Eb|---------------------------------------------------|
Bb|-15b--15b--15b-r15--12--15-15b~--15p^12------------|
Gb|-----------------------------------------14p^12/11~|
Db|---------------------------------------------------|
Ab|---------------------------------------------------|
Eb|---------------------------------------------------|

Eb|---------------------------------------------|
Bb|------12-15p^12-----12-----12------12-15p^12-|
Gb|--14b------------14b----14b----14b-----------|
Db|---------------------------------------------|
Ab|---------------------------------------------|
Eb|---------------------------------------------|

Eb|----------------------------------------15b-15-|
Bb|------12------12------12-15p^12-----12---------|
Gb|--14b----14b------14b-----------14b------------|
Db|-----------------------------------------------|
Ab|-----------------------------------------------|
Eb|-----------------------------------------------|

Eb|-12h^15p^12--------------|
Bb|-------------15-15b-15b~-|
Gb|-------------------------|
Db|-------------------------|
Ab|-------------------------|
Eb|-------------------------|

GOD OF THUNDER - Paul Stanley

[Rhythm Fig. 1 w/end.1] w/ [Rhythm Fig. 1 w/end.2] (2x)
[Rhythm Fig. 1 w/end.3]

[Rhythm Fig. 1 w/end.1] w/ [Rhythm Fig. 1 w/end.2]
[Rhythm Fig. 1 w/end.3]
You?ve got something about you
You?ve got something I need
Daughter of Aphrodite
Hear my words and take heed

[Rhythm Fig. 1 w/end.1] w/ [Rhythm Fig. 1 w/end.2]
[Rhythm Fig. 1 w/end.3]
I was born on Olympus
To my father a son
I was raised by the demons
Trained to reign as the one

{rhythm Fig. 2]
God of thunder and rock and roll
The spell you?re under
Will slowly rob you of your virgin soul

[Rhythm Fig. 1 w/end.1]

[Rhythm Fig. 1 w/end.1] w/ [Rhythm Fig. 1 w/end.2]
[Rhythm Fig. 1 w/end.3]
I?m the lord of the wastelands
A modern day man of steel
I gather darkness to please me
And I command you to kneel
Before the

{Rhythm Fig. 2]
God of thunder and rock and roll
The spell you?re under
Will slowly rob you of your virgin soul

[Solo] w/ [Rhythm Fig. 1 w/end.1](4x)

[Rhythm Fig. 1 w/end.1] w/ [Rhythm Fig. 1 w/end.2]
[Rhythm Fig. 1 w/end.3]
I am the lord of the wastelands
A modern day man of steel
I gather darkness to please me
And I command thee to kneel
Before the

[Rhythm Fig. 2]
God of thunder and rock and roll
The spell you?re under
Will slowly rob you of your virgin soul

[Rhythm Fig. 1 w/end.1] (2x)
[Rhythm Fig. 1 w/end.4]
Вверх

Got To Choose

Tune down 1/2 step

Intro

E|---------------------------------------|
B|---------------------------------------|
G|-9--5--7-------------7--7---9--9--5--7-|
D|-9--5--7-------------7--7---9--9--5--7-|
A|-7--3--5--5-5-5-5-5--5--7 --7--7--3--5-|
E|---------------------------------------|

E|-----------------|
B|-----------------|
G|------------7--7-|
D|------------7--7-|
A|-5-5-5-5-5--5----|
E|-----------------|

fill on intro

E|-----------|
B|--15----15-|
G|--17b--17b-|
D|-----------|
A|-----------|
E|-----------|

main riff/verse

E|----------------------------------|
B|----------------------------------|
G|-7--7--2--4--5--------------------|
D|-7--7--2--4--5--5--5--5----5-5--5-|
A|-5--5--0--2--3--5--5--5----5-5--5-|
E|----------------3--3--3----3-3--3-|

chorus

E|------------------------------|
B|------------------------------|
G|-3--3--------------------5--5-|
D|-3--3--------------------5--5-|
A|-1--1--0h2h3p2p0---------3--3-|
E|------------------------------|

E|------------------------|
B|------------------------|
G|-------------------5--5-|
D|-------------------5--5-|
A|-0h2h3p2p0---------3--3-|
E|------------------------|

E|---------------------|
B|---------------------|
G|-------------------7-|
D|-------------------7-|
A|-0h2h3p2p0---------5-|
E|---------------------|

E|----------------------|
B|----------------------|
G|----------------------|
D|----------------------|
A|-0h4h5p4p0--0h2h3p2p0-|
E|----------------------|

outro

E|--------------------------|
B|--------------------------|
G|-7--7--2--4--5----2--4--5-|
D|-7--7--2--4--5----2--4--5-|
A|-5--5--0--2--3----0--2--3-|
E|--------------------------|

E|-------------------------------|
B|-------------------------------|
G|-2--4--5---5--5--5--5--5--5--7-|
D|-2--4--5---5--5--5--5--5--5--7-|
A|-0--2--3---3--3--3--3--3--3--5-|
E|-------------------------------|

Lirics:

Baby, you know I heard the neighbors say
Baby, you might be leavin? me today
Oh yeah, mmm, someone?s come along and shared your time
Don?t care, no I don?t, no
But you can?t be his and still be mine, so

Chorus:

Ooh, got to choose who?s your baby
Ooh, got to choose

Sometimes, oh sometimes, I know you need a change of pace
Oh yeah, but I ain?t gonna run no race
Baby, you?ve got to tell me yes or no
Alright, alright, come on and tell me
Tell me if you?re gonna go, come on

Ooh, got to choose who?s your baby
Ooh, got to choose who?s your baby

Ooh, got to choose who?s your baby
Ooh, got to choose, got to choose

Who?s your baby, who?s your baby
Who?s your baby, who?s your baby
Вверх

Hotter Than Hell

Beginning (Riff 1)

E|---------|------------------------|---------------------|
B|-o-------|-3--3-------------------|---------------------|
G|----2--2-|-2--2-----------2h5p2p0-|-2--2----------------|
D|-o--2--2-|-0--0-------2h5---------|-2--2-----5h7--7-7-7-|
A|----0--0-|------------------------|-0--0----------------|
E|---------|------------------------|---------------------|

E|-------3------------------|
B|-3--3--3----------------o-|
G|-2--2--0-------2h5p2p0----|
D|-0--0--0---2h5----------o-|
A|--------------------------|
E|--------------------------|

Verse

E|------|------|------|------|
B|------|-3--3-|------|-3--3-|
G|-2--2-|-2--2-|-2--2-|-2--2-|
D|-2--2-|-0--0-|-2--2-|-0--0-|
A|-0--0-|------|-0--0-|------|
E|------|------|------|------|
  She looked hotter all dressed
  good, she than in satins
  looked ... hell... and lace . . .

E|---------------|-----------------|----|
B|---------------|--3--3-----------|----|
G|----2--2-------|--2--2-----------|--2-|
D|----2--2-------|--0--0-----------|--2-|
A|----0--0-------|-----------------|--0-|
E|---------------|-----------------|----|
  I looked at much too I had to get
  her and it was... clear... on the case . . .

E|--------3---------------|
B|--3--3--3---------------|
G|--2--2--0-------2h5p2p0-|
D|--0--0--0---2h5---------|
A|------------------------|
E|------------------------|

E|---------------|---------------|-------|
B|---------------|--3--3---------|-------|
G|----2--2-------|--2--2---------|--2--2-|
D|----2--2-------|--0--0---------|--2--2-|
A|----0--0-------|---------------|--0--0-|
E|---------------|---------------|-------|
  I said Lady take ya home? There?s just
  can I -- so much we could do...

E|--------3------------------|
B|--3--3--3------------------|
G|--2--2--0-------2h5p2p0----|
D|--0--0--0---2h5------------|
A|---------------------------|
E|---------------------------|

E|---------------------|--3--3-------3--3-|
B|---------------------|--3--3-------3--3-|
G|-2--2------2--2------|--0--0-------0--0-|
D|-2--2------2--2------|--0--0-------0--0-|
A|-0--0------0--0------|--2--2-------2--2-|
E|---------------------|--3--3-------3--3-|
  I?ll take ya all        whole wide world . . .
     around the . . .

E|-----------------3--------|------|
B|--3--3--3--3--3--3--------|------|
G|--2--2--2--2--2--0-----2--|--(2)-|
D|--0--0--0--0--0--0-----2--|--(2)-|
A|-----------------2-----0--|--(0)-|
E|-----------------3--------|------|
   She blah blah blah -?-?-?- there . . .
        (Never could figure these out, sorry  :)

Chorus

E|--------------------------|------------------------|
B|--14----14----14----14----|---12----12----12----12-|
G|--14----14----14----14----|---12----12----12----12-|
D|--14----14----14----14----|---12----12----12----12-|
A|--------------------------|------------------------|
E|--------------------------|------------------------|
         Hot, hot,              Hotter than hell,

E|-------------------------|------------------------|
B|--7----7----12----12-----|---14----14----14----14-|
G|--7----7----12----12-----|---14----14----14----14-|
D|--7----7----12----12-----|---14----14----14----14-|
A|-------------------------|------------------------|
E|-------------------------|------------------------|
   Ya know she?s gonna
      leave ya well done . . . . (undone?)

E|--------------------------|------------------------|
B|--14----14----14----14----|---12----12----12----12-|
G|--14----14----14----14----|---12----12----12----12-|
D|--14----14----14----14----|---12----12----12----12-|
A|--------------------------|------------------------|
E|--------------------------|------------------------|
         Hot, hot,              Hotter than hell,

E|----------3----|-------------|------------3-|
B|---3------3----|-------------|----3-------3-|
G|---2------0----|--2----------|----2-------0-|
D|---0------0----|--2----------|----0-------0-|
A|----------2----|--0----------|------------2-|
E|----------3----|-------------|------------3-|
  Burn ya like
  the midday - sun -

This is rythm during solo
E|------|------------------------|---------------------|
B|------|-3--3-------------------|---------------------|
G|-2--2-|-2--2-----------2h5p2p0-|-2--2----------------|
D|-2--2-|-0--0-------2h5---------|-2--2-----5h7--7-7-7-|
A|-0--0-|------------------------|-0--0----------------|
E|------|------------------------|---------------------|

E|--------3-----------------|
B|--3--3--3-----------------|
G|--2--2--0-------2h5p2p0---|
D|--0--0--0---2h5-----------|
A|--------------------------|
E|--------------------------|

Verse 2

E|--------------------|---------------|-------|
B|--------------------|--3--3---------|-------|
G|----2--2------------|--2--2---------|--2--2-|
D|----2--2------------|--0--0---------|--2--2-|
A|----0--0------------|---------------|--0--0-|
E|--------------------|---------------|-------|
  I asked her why Make up her She said you
  she couldn?t mind... don?t understand...

E|--------3---------------|
B|--3--3--3---------------|
G|--2--2--0-------2h5p2p0-|
D|--0--0--0---2h5---------|
A|------------------------|
E|------------------------|

E|----------------|-3--3-------3--3-|
B|----------------|-3--3-------3--3-|
G|-2--2------2--2-|-0--0-------0--0-|
D|-2--2------2--2-|-0--0-------0--0-|
A|-0--0------0--0-|-2--2-------2--2-|
E|----------------|-3--3-------3--3-|
  I?d love to go thing you should know...
  but there?s one

E|----------------3-------|-----|
B|-3--3--3--3--3--3-------|-----|
G|-2--2--2--2--2--0-----2-|-(2)-|
D|-0--0--0--0--0--0-----2-|-(2)-|
A|----------------2-----0-|-(0)-|
E|----------------3-------|-----|
  She -?-?-?- me all the way there

Do two choruses, then to the...
Guitar solo:

E|-----------------------------|--------------------------|
B|-o---------------------------|--------------------------|
G|-----------------------------|--------------------------|
D|-o--12--14--14--12--14----14-|-12--11--9--11-----12--12-|
A|----10--12--12--10--12----12-|-10---9--7---9-----10--10-|
E|-----------------------------|--------------------------|

E|--------------------------|-------------------------|
B|--------------------------|-----------------------o-|
G|--------------------------|-------------------------|
D|-12--14--14--12--14----14-|-12--11--9--/12--------o-|
A|-10--12--12--10--12----12-|-10---9--7--/10----------|
E|--------------------------|-------------------------|

I am sorry I don`t know solo`s.If you know it please mail me.
Вверх

I Was Made For Lovin You

Intro

E|-------------------------------------------------|
B|-------------------------------------------------|
G|---------------------------------14-12--14-14-12-|
D|---------------------------------14-14--14-14-14-|
A|-------------------------------------------------|
E|-0-0-0-0-0-0-0-0-0-0-0-0-0-0-0-0-----------------|
   dm.............................

E|---------------|
B|---------------|
G|--7-5---9-9--7-|
D|--7-7---9-9--7-|
A|--------7-7--5-|
E|---------------|

E|-----------------------------------|
B|-----------------------------------|
G|--14-12--14-14-12-----7-5---9-9--7-|
D|--14-14--14-14-14-----7-7---9-9--7-|
A|----------------------------7-7--5-|
E|-----------------------------------|

E|--------------------------------------|
B|---8---------12-----------4-----------|
G|---9---------12-----------4---------4-|
D|---9---------12-----------4---------2-|
A|---7---------10-----------2---------2-|
E|---0--------------------------------0-|

E|----------------------------------------------------|
B|---8---------12-----------4-------------------------|
G|---9---------12-----------4----6-----6----6----6----|
D|---9---------12-----------4------7-----7----7----7--|
A|---7---------10-----------2---0----0-----0----0----0|
E|---0------------------------------------------------|

E|-----|
B|-----|
G|-----|
D|-----|
A|-----|
E|-/12-|

E|--5--7---10-------------------5--7---10-----------|
B|--5--5---7---7--7---9----7----5--5---7---7--7---9-|
G|--5--5---7---7--7---9----7----5--5---7---7--7---9-|
D|--7------7---7--7---9----7----7------7---7--7---9-|
A|--------------------------------------------------|
E|--------------------------------------------------|

E|------5--7------------------------------------------|
B|-7----5--5------------------------------------------|
G|-7----5--5---7-7-7-7-7/-x---2--4-4-4-4-4-4-4-4-4-4-4|
D|-7----7------7-7-7-7-7/-x---2--4-4-4-4-4-4-4-4-4-4-4|
A|-------------5-5-5-5-5/-x---0--2-2-2-2-2-2-2-2-2-2-2|
E|----------------------------------------------------|

E|-----------------|
B|-----------------|
G|-4-4-------------|
D|-4-4-------------|
A|-2-2--------x-7/-|
E|-----------------|

E|----------------------------------------------------|
B|----------------------------------------------------|
G|----------------------------------------------------|
D|----------------------------------------------------|
A|----------------------------------------------------|
E|--------0-0-0-0-0-0-0-0-0-0-0-0-0-0-0-0--5-5-5-5-5-5|
          <----------------2x----------->

E|----------------------------------------------------|
B|----------------------------------------------------|
G|----------------------------------------------------|
D|----------------------------------------------------|
A|----------------------------------------------------|
E|-5-5-5-5-5-5-5-5-5-5-0-0-0-0-0-0-0--2-2-2-2-3-3-3-3-|

E|---------|
B|---------|
G|---------|
D|---------|
A|---------|
E|-3-5-5-5-|

E|----------------------------------------------------|
B|----------------------------------------------------|
G|----------------------------------------------------|
D|----------------------------------------------------|
A|----------------------------------------------------|
E|--------0-0-0-0-0-0-0-0-0-0-0-0-0-0-0-0--5-5-5-5-5-5|
          <----------------2x----------->

E|----------------------------------------------------|
B|----------------------------------------------------|
G|----------------------------------------------------|
D|------------------------------------4-4-4-4-5-5-5-5-|
A|----------------------------------------------------|
E|-5-5-5-5-5-5-5-5-5-5-0-0-0-0-0-0-0------------------|

E|---------|
B|---------|
G|---------|
D|-5-7-7-7-|
A|---------|
E|---------|

E|----------------------------------------------------|
B|----------------------------------------------------|
G|----------------------------------------------------|
D|--------2-2-2-2-2-2-2-2-2-2-2-2-2-2-2-2--7-7-7-7-7-7|
A|----------------------------------------------------|
E|----------------------------------------------------|
          <----------------2x----------->

E|----------------------------------------------------|
B|----------------------------------------------------|
G|----------------------------------------------------|
D|-7-7-7-7-7-7-7-7-7-7-2-2-2-2-2-2-2--4-4-4-4-5-5-5-5-|
A|----------------------------------------------------|
E|----------------------------------------------------|

E|---------|
B|---------|
G|---------|
D|-5-7-7-7-|
A|---------|
E|---------|

E|----------------------------|
B|----------------------------|
G|----------------------------|
D|--9p^7----------------------|
A|-------9---7p^5-----5h^7~~~-|
E|-----------------7----------|


E|--------------------------------------------------|
B|-15b-r15p^12--------------------------------------|
G|--------------14b-r14p^12---x14-12h^14p^12--------|
D|-------------------------------------------14--12-|
A|--------------------------------------------------|
E|--------------------------------------------------|

E|--------|
B|--------|
G|--------|
D|-12h^14-|
A|--------|
E|--------|

Solo

E|----------------------------------------------------|
B|----------12----------------------------------------|
G|------12--12--14*b--14-12-------------12h^14p^12----|
D|--/14-12-------------------14p^12h^14------------14-|
A|----------------------------------------------------|
E|----------------------------------------------------|

E|-------------------------------------------------|
B|-----------------------15b-15b~-12h^15p^12----12-|
G|-12--12h^14p^12----12----------------------14----|
D|----------------14-------------------------------|
A|-------------------------------------------------|
E|-------------------------------------------------|

E|----------------------------------------|
B|------------------------15--------------|
G|--12h^14p^12----12--14b----r14p^12------|
D|-------------14--------------------14~~-|
A|----------------------------------------|
E|----------------------------------------|

I WAS MADE FOR LOVIN? YOU - Paul Stanley, Desmond Child,
Vini Poncia

Mmm.. Yeah...

Do, do, do, do, do, do, do, do, do
Do, do, do, do, do, do, do
Do, do, do, do, do, do, do, do, do
Do, do, do, do, do, do, do


Tonight I wanna give it all to you
In the darkness
There?s so much I wanna do
And tonight I wanna lay it at your feet
?Cause girl, I was made for you
And girl, you were made for me

I was made for lovin? you baby
You were made for lovin? me
And I can?t get enough of you baby
Can you get enough of me

Tonight I wanna see it in your eyes
Feel the magic
There?s something that drives me wild
And tonight we?re gonna make it all come true
?Cause girl, you were made for me
And girl I was made for you

I was made for lovin? you baby
You were made for lovin? me
And I can?t get enough of you baby
Can you get enough of me

I was made for lovin? you baby
You were made for lovin? me
And I can give it all to you baby
Can you give it all to me

Oh, can?t get enough, oh, oh
I can?t get enough, oh, oh
I can?t get enough

[Rhythm Fig. 4] w/[Rhythm Fig. 4a]
[Rhythm Fig. 4] w/[Rhythm Fig. 4b]

Yeah, ha

Do, do, do, do, do, do, do, do, do
Do, do, do, do, do, do, do
Do, do, do, do, do, do, do, do, do
Do, do, do, do, do, do, do

I was made for lovin? you baby
You were made for lovin? me
And I can?t get enough of you baby
Can you get enough of me

Oh, I was made, you were made
I can?t get enough
No, I can?t get enough

I was made for lovin? you baby
You were made for lovin? me
And I can?t get enough of you baby
Can you get enough of me

I was made for lovin? you baby
You were made for lovin? me
And I can give it all to you baby
Вверх

Love Gun

tune down 1/2 step

intro
E|-----------------------------------------------|
B|-----------------------------------------------|
G|-9-9-9-9------9-9-9-9------9-9-9-9-9-9-9-9-9-9-|
D|-9-9-9-9------9-9-9-9------9-9-9-9-9-9-9-9-9-9-|
A|-7-7-7-7------7-7-7-7------7-7-7-7-7-7-7-7-7-7-|
E|-----------------------------------------------|

main riff & chorus
E|--------------------------------------------------------|
B|--------------------------------------------------------|
G|-9----12-14-12-7-5----12-7-9----12-14-12-7-5-----12-7-9-|
D|-9----12-14-12-7-5----12-7-9----12-14-12-7-5-----12-7-9-|
A|-7----10-12-10-5-3----10-5-7----10-12-10-5-3-----10-5-7-|
E|--------------------------------------------------------|

verse

E|----------------------------------|
B|----------------------------------|
G|---12-7-9-------12----5----7----9-|
D|---12-7-9-------12-5--5----7----9-|
A|---10-5-7-------10-5--3----5----7-|
E|-------------------3--------------|

E|---7-----------------------------------|
B|---8-----------------------------------|
G|---9-------12-7-9-----12---5----7----9-|
D|---9-------12-7-9-----12-5-5----7----9-|
A|---7-------10-5-7-----10-5-3----5----7-|
E|-------------------------3-------------|

E|-------------------------------------|
B|-------------------------------------|
G|--2-----7-----9------2------7------9-|
D|--2-----7-----9------2------7------9-|
A|--0-----5-----7------0------5------7-|
E|-------------------------------------|

Lirics:

I really love you baby
I love what you?ve got
Let?s get together, we can
Get hot
No more tomorrow, baby
Time is today
Girl, I can make you feel
Okay

No place for hidin? baby
No place to run
You pull the trigger of my
Love gun, (love gun), love gun
Love gun, (love gun), love gun

You can?t forget me baby
Don?t try to lie
You?ll never leave me, mama
So don?t try
I?ll be a gambler, baby
Lay down the bet
We get together, mama
You?ll sweat

No place for hidin? baby
No place to run
You pull the trigger of my
Love gun, (love gun), love gun
Love gun, (love gun), love gun
Love gun, love gun

Love gun, (love gun), love gun
Love gun, (love gun)
Love gun, (love gun), love gun
Love gun, (love gun), love gun
Love gun, (love gun)
Love gun, (love gun)
Love gun, (love gun)
Love gun, (love)
Вверх

Rock & Roll All Nite

Intro: Cadd9 - walk-down bass line - G - walk-down - D
(listen to the CD...you?ll understand!)

D                 A
You show us ev?ry thing you?ve got
D                           A
You keep on dancin? and the room gets hot
G            A                     Cadd9
You drive us wild, we?ll drive you crazy

[all verses like the previous verse]

F                          G
Hey you keep on shouting...hey you keep on shouting

Chorus:

D       D7              A    G
I wanna rock & roll all nite...?n? party every day
D       D7              A    G            (intro crds)
I wanna rock & roll all nite...?n? arty every day

Intro

E|-10---10---------10--------------|
B|-10---10---------10--------------|
G|-10---10---------10--------------|
D|-12---12---12---12---12---12---7-|
A|-10---10---12---10---12---12---7-|
E|-10---10---10---10---10---10---5-|

E|-------------------------------------------|
B|-------------------------------------------|
G|-----------------------------------------2-|
D|----9---9---11---9---11---9---------2------|
A|----7---7---7-----7----7----7---0----0-----|
E|-------------------------------------------|

verses
E|--------------------------------------|
B|--------------------------------------|
G|------------------------------------2-|
D|--9---9---11--9---11---9-------2------|
A|--7---7---7----7---7----7---0---0-----|
E|--------------------------------------|

E|-------------------------------------|
B|-------------------------------------|
G|-----------------------------------7-|
D|---9---9---11---9---11--------7------|
A|---7---7---7----7----7----0---5------|
E|-------------------------------------|

E|-10---10---------10--------------|
B|-10---10---------10--------------|
G|-10---10---------10--------------|
D|-12---12---12---12---12---12---7-|
A|-10---10---12---10---12---12---7-|
E|-10---10---10---10---10---10---5-|

right before chorus

E|-10---10---------10----------|
B|-10---10---------10----------|
G|-10---10---------10----------|
D|-12---12---12---12---12---12-|
A|-10---10---12---10---12---12-|
E|-10---10---10---10---10---10-|

E|------------------------------------|
B|------------------------------------|
G|-10--10---10--10---10----10----10---|
D|-10--10---10--10---10----10----10---|
A|-8----8----8----8-----8-----8-----8-|
E|------------------------------------|

E|--------------------------------------|
B|--------------------------------------|
G|-12---12---12---12---12---12----------|
D|-12---12---12---12---12---12----slide-|
A|--10---10---10---10---10---10---------|
E|--------------------------------------|


chorus
E|---------------------------------------|
B|---------------------------------------|
G|--2------------------------------------|
D|--2--------------7---7---9---7---9---7-|
A|--0--------------5---5---5---5---5---5-|
E|---------------------------------------|

E|--------------------------------------------|
B|--------------------------------------------|
G|--------------------------------------------|
D|-------9---9---11--9---11--9--------2 times-|
A|--0---7---7---7----7---7----7---------------|
E|--------------------------------------------|

E|----|
B|----|
G|--2-|
D|--2-|
A|--0-|
E|----|
Вверх

Strutter

Bbm       F#        C#       G#
Bbm       F#        C#      C#sus4

Bb       F#        C#  C#sus4
I know a thing or two about her
Bb       F#        C#       G#
I know she?ll only make you cry
Bb       F#        C#  C#sus4
She?ll let you walk the street beside her
Bb       F#        C#       G#
But when she wants she?ll pass you by

Bbm                   F#
Everybody says she?s lookin?good
Bbm                   F#
And the lady knows it?s understood
Ab5|Bb5    Ab5|Bb5   Db5|Eb5  Db5|Bb5  Ab5|F5
Strutter!
Ab5|Bb5    Ab5|Bb5   Db5|Eb5  F#5|H5 Db5|Ab5

She wears her satins like a lady
She gets her way just like a child
You take her home and she says "maybe, baby"
She takes you down and drives you wild

Chorus
Solo

I know a thing or two about her
I know she?ll only make you cry
She?ll let you walk the street beside her
But when she wants she pass you by

Chorus

tune down 1/2 step
(note: for the intro, there are two guitars playing 2 different
parts. To start off, I play the simple riff, then I play the
second part. I?ll transcibe how I play it.)

intro

E|---------------------------------------|
B|---------------------------------------|
G|----------------12---------------------|
D|-9---9---9----12---12---7---7---7---9--|
A|-9---9---9----10---12---7---7---7---9--|
E|-7---7---7----------10---5---5---5---7-|

E|---------------------|
B|---------------------|
G|-12------------------|
D|-12---12---12---12---|
A|-10---12---12---12---|
E|--------10---10---10-|

verse (play the whole thing twice)

E|--------------------------------------------|
B|--------------------------------------------|
G|--------------------------------------------|
D|-9------------------------------------7---9-|
A|-9--------5---5---7---5---5---5---5---5-----|
E|-7---0---3---3---3---3---3---3--------------|

E|-------------------------------------|
B|---------------8---8---8---8---8---7-|
G|---------------7---7---7---7---7---7-|
D|-7---7---7---9---9---9---9---9---7---|
A|-5---5---5---------------------------|
E|-------------------------------------|

E|--------------------------------------------|
B|--------------------------------------------|
G|--------------------------------------------|
D|-9------------------------------------7---9-|
A|-9--------5---5---7---5---5---5---5---5-----|
E|-7---0---3---3---3---3---3---3--------------|

E|-----------------------------------|
B|-----------------------------------|
G|-----------------------------------|
D|-7---7---7----2---2--4---2---4---2-|
A|-5---5---5----0---0--0---0---0---0-|
E|-----------------------------------|

chorus

E|-------------------------------|
B|-------------------------------|
G|-4---4---4---------------------|
D|-4---4---4---------5---5---5---|
A|-2---2---2---------5---5---5---|
E|---------------------3---3---3-|

E|----------------------------|
B|----------------------------|
G|-4---4---4------------------|
D|-4---4---4------5---5---5---|
A|-2---2---2------5---5---5---|
E|------------------3---3---3-|

E|--------------------------------------------------|
B|--------------------------------------------------|
G|--------------------------------------------------|
D|-----4-----4-------------4----4------------4----4-|
A|-0--2-----2--------0----2----2------0----2----2---|
E|--------------------------------------------------|

E|---------------------------------------------|
B|---------------------------------------------|
G|---------------4---4------7----9-------------|
D|-------0------2---2------7----9--------------|
A|-2------------------------5----7---0---------|
E|-------------------------------------------2-|

E|--------------------------------------------------|
B|--------------------------------------------------|
G|--------------------------------------------------|
D|-----4-----4-------------4----4------------4----4-|
A|-0--2-----2--------0----2----2------0----2----2---|
E|--------------------------------------------------|

E|----------------------------------------------------|
B|-------------------------------3------3-------------|
G|---------------4---4----------0------2---2----------|
D|-------0------2---2----------0------0---2-----9-----|
A|-2-----------------------------------------0-----9--|
E|--------------------------3-----------------------7-|

outro

E|-----------------------------------|
B|--------3---------3----------------|
G|--------0---------2-----2----------|
D|--------0---------0-----2--------9-|
A|------------------------0--------9-|
E|-3-------------------------------7-|
Вверх

Sure Know Something

intro:

x is a pause
   Em                         Am
A|-x-7-5---5-7-|-x--7-5----|-x-----------|
E|-------7-----|--------3-5|---5-3-0-3-5-|

  Am             Bm           Am
D|-------------|------------|-x-7-5-----|
A|-x-----------|-x-5-7-5----|-------7-5-|
E|---5-3-0-5-7-|---------7-5|-----------|

   Em
A|-x-7---------5-|
E|-----3-5-3-7---|

guitar:
Em|Em|Am|Am|Bm|Am|

em
B|-8------8---|
G|---7------7-|
D|-----9------|

Verse:
Em
I've been up and down
Em
I've been all around
Am
I was mystified
Am
almost terrified
Bm                     Am
But late at night I still hear you
        Em7
call my name

I've been on my own
I've been all alone
I was hypnotized
I felt paralyzed
But late at night I still want you
Just the same
Em

Chorus:
CC D
   I've been a gambler but I'm nobodies fool
C
And I sure know something (sure know something)
D
You showed me things they never told me at school
C
And I sure know something (sure know something)
D
No-one can make me feel the way that you do
C                          D
And I sure know something, a-haa

I was seventeen,
you were just a dream
I was mesmerized
I felt scared inside
you broke my heart
and I still can
feel the pain

I've been carried out
I've had fear and doubt
Up in stormy night
never satisfied
'cause late at night I still need you
just the same

Chorus

Solo (verse chords)

(verse chords)
Aaaa, aaa ,aaa
Aaa, aaa, aaa
Aaa, aa, aa
Aa-a-aa.

I've been carried out
I've had fear and doubt
I've been starry eyed
never satisfied
'cause late at night I still need you
just the same

Chorus
Вверх
English songs 109

ABBA
AC-DC
Adams Bryan
Adriano Celentano
Aerosmith
A-Ha
Animals
Antonio Banderos
Apocalyptica
Armstrong Louis
Billy's Band
Bjork
Blink 182
Blondie
Blur
Bob Dylan
Boney M
Bon Jovi
Bowie David
Brainstorm
Braxton Toni
Butch
Celine Dion
Chris De Burgh
Chris Isaak
Chuck Berry
Clapton Eric
Cohen Leonard
Cranberries
Deep Purple
Depeche Mode
Dire Straits
Donovan Jason
Eagles
Electric Light Orchestra
Elton John
Elvis Presley
Era
Europe
Evanescence
Garbage
Gary Moore
Glen Wiston
Gorillaz
Green Day
Guano Apes
Guns N Roses
Hendrix Jimi
Iggy Pop
Iron Maiden
Joe Dassin
Kansas
King Crimson
Kiss
Led Zeppelin
Leonard Cohen
Limp Bizkit
Linkin Park
Louis Amstrong
Madonna
Marilyn Manson
Marley Bob
Metallica
Moby
Morricone Ennio
Muse
Nazareth
Nelly Furtado
Nick Cave
Nirvana
No Doubt
Oasis
Offspring
Ottawan
Outkast
Ozzy Osbourne
Pain
Para Bellum
Pink Floyd
Placebo
P.O.D.
Queen
RadioHead
Rainbow
Rammstein
Rea Chris
Red Hot Chili Peppers
Ritchie Blackmore
Rolling Stones
Roxette
Rufus Wainwright
Santana
Sarah Brightman
Scorpions
Sex Pistols
Simon & Garfunkel
Shocking Blue
Soul Asylumx
Status Quo
Sting
System of a down
Sum 41
The Beatles
The Doors
Tito & Tarantula
U2
UB 40
Uriah Heep
Van Halen

Українські пісні 109

Boom Box
Escape
Flit
Kapela Drewutnia
Lama
LЮK
Mad Heads (XL)
Motor' rolla
NEON
Ot Vinta
The Вйо
Абздольц
Аероплан
Акорд
Ані Лорак
Бандурна розмова
Білик Ірина
Борщ
Брати Гадюкіни
Вася Club
Вій
Воплі Відоплясова
Гайдамаки
Гончар Олесь
Гринжоли
Гроно
Гуляйгород
Дарка і Славко
Дивні
Друга Ріка
Другий подих
Дударик
Експампей
Євтушенко Андрій
Жарівка (Дяк Олесь)
Журбовіз
Зібров Павло
Зінкевич Василь
Злотник Олександр
Івасюк Володимир
Калєкція
Карна
Карпа Ірена
Клямка
Козловський Віталій
Кому вниз
Крихітка Цахес
Курінь
Лесик-Band
Лорд Юрія
Львівські музики
Мандри
Менестрелі
Мері
Мертвий Півень
Міпеніум
Монте Крісто
Морозов Віктор
Нахтіґаль
Не журись!
Неборак Віктор
НеДІля
НЕМО
Нічлава блюз
Океан Ельзи
ПереBANDя
Перкалаба
Петрович
Піккардійська Терція
Піпа Олександр
Плач Єремїі
Пономарьов Олександр
Пророк
Росава
Ротару Софія
Руслана
Рутенія
С.К.А.Й.
САД
Самі свої
Серцевий Напад
Скрябін
Смерічка
Сокира Перука
Соколи
Таліта Кум
Тартак
Тінь сонця
Ткач Михайло
ТНМК
Тостер
Тріо Мареничів
Фарбований лис
Фестиваль Снів
Хвилю тримай
Цісик Квітка
Черемош
Черемшина
Четвертий кут
Чорний вересень
Чорні черешні
Шевченко Тарас
Щастя
Юркеш
Юрченко Юрко
Юрчишин Ярослав
Явір
Яка існуЄ
Яремчук Назарій

   
 sait@i.ua



Рейтинг@Mail.ru