accordS-land.ru Аккорды и табулатуры к гитаре.
Главная | Песенник | Аккорды | Учебник
Руссике песни 180
5nizza
7Б
9-й Район
Animal ДжаZ
Billy's Band
Butch
Para Bellum
TequilaJazzz
Worms
Zdob Si Zdub
Автоматические удовлетворители
Агата Кристи
Агузарова Жанна
Агутин Леонид
Адо
Аквариум
Алиса
Алсу
Амирамов Е.
Антонов Ю.
Арефьева Ольга
Ария
АукцЫон
Барыкин
Башаков Михаил
Башлачев Александр
БекХан
Бернес М.
Би - 2
Бони неМ
Борзов Найк
Боярский Михаил
Браво
Братья Грим
Ва-Банкъ
Вертинский Александр
Визбор Юрий
Високосный год
Воскресенье
Восьмая Марта
Высоцкий В.С.
Високосный год
Газманов О.
Галич Александр
Герман А.
Городницкий Александр
Глызин А.
Градский Александр
Гражданская Оборона
Гребещенков
Данко
ДДТ
Дидюля
Диоды
Дискотека Авария
Дягилева Янка
Ёлка
Жуки
Заблудовский Андрей
Запрещенные Барабанщики
Звери
Земляне
Земфира
Зинчук Виктор
Зоопарк
Иван Кайф
Иванов А.
Иваси
ИЗ КИНО И МУЛЬТФИЛЬМОВ
Империя
Калинов мост
Кашин Павел
Кельми К.
КИНО
Кипелов
Конец Фильма
Контингент
Корни
Король и Шут
Коррозия металла
Крематорий
Крупнов Анатолий
Кузьмин Владимир
Куликов Е.
Кукрыниксы
Курехин Сергей
Лаэртский Александр
Ласковый май
Ленинград
Леонидов Максим
Лесоповал
Лещенко Л.
Линда
Лицей
Лоза Юрий
Любэ
Люмен
Ляпис Трубецкой
Мальчишник
Манго-манго
Мара
Маркин В.
Маршал Александр
Маша и медведи
Машина времени
Мечтать
Мистер Кредо
Митяев Олег
Многоточье
Монгол Шуудан
Моральный Кодекс
Мультfильмы
Мумий Тролль
Настя
Науменко Майк
Наутилус Помпилиус
Непара
Неприкасаемые
Несчастный случай
Никоваев И.
Никольский Константин
Ногу свело
Ноль
Носков Николай
Ночные Снайперы
Окуджава Булат
Оркрист
Осин Е.
Оскар
Отиева И.
Паперный Т.А.М.
Парк Горького (Gorky Park)
Пикник
Пилот
Пламя
Полковник и однополчане
Пугачева А.
ПЭХ
Приключения Электроников
Просто прикольные песни
Рада и Терновник
Римский-Корсаков
Розенбаум Александр
Рок-Острова
Рондо
Сансара
Саруханов
Сегодня Ночью
Секрет
Сектор газа
Сенчина Л.
СерьГа
Смысловые Галлюцинации
Сплин
Солодуха А.
Старые блатные песни
Сукачев Гарик
Сурганова и Оркестр
Сюткин Валерий
Тальков Игорь
Танцы минус
Тараканы
Тату
Технология
УмаТурман
Умка и Броневичок
Ундервудъ
Фабрика звезд
Х.З. (Хуй Забей)
Центр
ЧайФ
Черный кофе
Черный Лукич
Чиж и Ко
Чистяков Федор
Шанхай
Щербаков Михаил
Ю-Питер

Классика 22

Албениз Исаак
Албениз Матео
Бах Иоган Себостьян
Бетховен Людвиг ван
Бизе Жорж
Брамс Иоганнес
Вивальди Антонио
Гендель Георг Фридрих
Гершвин Джордж
Григ Эдвард
Дебюсси Клод
Камиль Сен-Санс
Мендельсон
Моцарт Вольфгант Амадей
Мусоргский Модест Пертрович
Норис Крис
Огинский Михал Клеофас
Паганини Никколо
Рахманинов Сергей Васильевич
Римский-Корсаков
Чайковский Пётр Ильич
Шуберт Франц
 

 

Led Zeppelin

Achilles Last Stand Remasters
All My Love
Babe I`m Gonna Leave You
Babe I`m Gonna Leave You (2 вариант)
Babe I`m Gonna Leave You Remasters
Battle Of Evermore
Battle Of Evermore (2 вариант)
Black Country Woman
Black Dog
Black Dog (2 вариант)
Black Mountain` Side
Boogie With Stu
Bring It On Home
Bring It On Home (2 вариант)
Bron-Yr-Aur
Bron Yr Aur Stomp
Carouselambra
Celebration Day Remasters
Communication Breakdown
Communication Breakdown (2 вариант)
Custard Pie
Dancing Days
Dancing Days (2 вариант)
Dazed And Confused
Dazed And Confused (2 вариант)
Dyer Maker
Fool In The Rain
Fool In The Rain (2 вариант)
For Your Life
Four Sticks
Four Sticks (2 вариант)
Four Sticks For 3 Guitars
Friends
Gallows Pole
Going To California
Going To California (2 вариант)
Good Times Bad Times
Heartbreaker
Heartbreaker (2 вариант)
Hey Hey What Can I Do
Hot Dog
Hots On For Nowhere
Houses Of The Holy
Houses Of The Holy (2 вариант)
How Many More Times
How Many More Times (2 вариант)
How Many More Times (3 вариант)
I`m Gonna Crawl
I`m Gonna Crawl
I`m Gonna Crawl (2 вариант)
Immigrant Song
In My Time Of Dying
In My Time Of Dying (2 вариант)
In The Light
Jennings Farm Blues
Kashmir
Kashmir (2 вариант)
Living Loving Maid
Living Loving Maid (2 вариант)
Misty Mountain` Hop
Misty Mountain` Hop (2 вариант)
Moby Dick
Moby Dick
Most High
Nobodys Fault But Mine
No Quarter
Out On The Tiles
Out On The Tiles (2 вариант)
Over The Hills And Far Away
Over The Hills And Far Away (2 вариант)
Rain Song Intro
Ramble On
Rock N Roll
Royal Orleans
Sick Again
Since Ive Been Loving You
Stairways to heaven
Tangerine
Tea For One
Ten Years Gone
Thank You
That`s The Way
The Battle Of Evermore
The Crunge
The Girl I Love She Got Long Black Wavy Hair
The Lemon Song
The Ocean
The Rain Song
The Rover
The Song Remains The Same
The Song Remains The Same (2 вариант)
Trampled Underfoot
Travelling Riverside Blues
Travelling Riverside Blues (2 вариант)
Walters Walk
Wanton Song
What Is And What Should Never Be
When The Levee Breaks
White Summer
Whole Lotta Love
Whole Lotta Love (2 вариант)
Yallah
Вверх

Achilles Last Stand Remasters

[Intro] Let bottom note ring throughout, and open G
(when it is played)

   Em9                         F#m(add b6)
e|-------------2p0----------|--------------2p0---------|
B|----------3------3p0------|-----------3-------3p0----|
G|-0------0-------------0---|--0------2--------------0-|
D|------4-------------------|-------4------------------|
A|----2---------------------|-----4--------------------|
E|-0------------------------|--2-----------------------|

[Intro2]
    F#m7(add 4)
e|----------------0--|
B|------------0--(0)-|
G|--0------2---------|
D|-------4-----------|
A|-------------------|
E|--2----------------|

[Riff 1]
    F#m/E     Em                                 D6/E
e|----9.-------7----7~-----------------------------7~-|
B|---10.-------8----8~-----------------------------7~-|
G|---11.-------9----9~-----------------------------7~-|
D|------------------------7-7--7-7-8-9--7-7--------7~-|
A|------------------------------------------7-7-------|
E|----------------------------------------------0-----|

[Riff 2a]
                              D/E
e|---------9------7~----------------5~-|
B|--------10------8~-----------7----7~-|
G|--------11------9~-----------7----7~-|
D|-----------------------------7-------|
A|-------------------------------------|
E|---0~--------------------0~----------|

[Riff 2b]
                                   D/E
e|---------9------7~----------------7~-|
B|--------10------8~-----------7----7~-|
G|--------11------9~-----------7----7~-|
D|-----------------------------7-------|
A|-------------------------------------|
E|---0~--------------------0~----------|

[Riff 3]
    E                                       F5
e|---------------------------------------|---------|-------|
B|--9---7--8--9--------------------------|---------|-------|
G|--9---7--8--9---7-8-9-9--7-8-9--7-9----|--10~----|--10~~-|
D|--9---7--8--9---7-8-9-9--7-8-9--7-9----|--10~----|--10~~-|
A|---------------------------------------|---------|-------|
E|---------------------------------------|---------|-------|

[Ascending octave progression 1]
   Em
e|----------------------------------------|
B|----------------------------------------|
G|----------------------------------------|
D|--4s5----5s7---7s9-----10-----10s12-----|
A|------7------9-----10------12--------14-|
E|----------------------------------------|

[Ascending octave progression 2]
   C(add9 #11)
e|----------------------------------------------|
B|----------------------------------------------|
G|--7s9-----11----12-----12s14-----14s16--------|
D|------10-----12----14---------16--------17s12-|
A|----------------------------------------------|
E|----------------------------------------------|

[Ascending octave progression 3]
   Em
e|-------------------------------------|
B|-------------------------------------|
G|-2s4----5----5s7---7s9-----9s11------|
D|-----5----7------9-----10-------12s9-|
A|-------------------------------------|
E|-------------------------------------|

[Ascending octave progression 4]
    C(add9 #11)                            F#m/E     Em
e|-------------------------------------------------------------|
B|--7s8----10----10s12------13------15-------17s19---17--17~~~-|
G|------9-----11---------12------14-----16---------------------|
D|-------------------------------------------------------------|
A|-------------------------------------------------------------|
E|-------------------------------------------------------------|

[Riff 4a] - the notes in ()`s can be played, if you are skilled
enough
                       rake
e|---(9.)---(7)-(7~)----`12--9-------------------|
B|--(10.)---(8)-(8~)---`10-----10--10b12--10--8~-|
G|--(11.)---(9)-(9~)---11------------------------|
D|-----------------------------------------------|
A|-----------------------------------------------|
E|-----------------------------------------------|

[Riff 4b] - the notes in ()`s can be played, if you are skilled
enough
                             rake
e|--------------------(7~)----`10---7----------------|
B|--------------------(7~)---`7-------8--8s10--7-----|
G|--------------------(7~)---7--------------------7~-|
D|--(7)-(7)-----------(7~)---------------------------|
A|----------(7)-(7)----------------------------------|
E|-----------------(0)-------------------------------|

[Riff 4c]
                       rake
e|---(9.)---(7)-(7~)----`12--9-----9b10---9--7~-|
B|--(10.)---(8)-(8~)---`10-----10---------------|
G|--(11.)---(9)-(9~)---11-----------------------|
D|----------------------------------------------|
A|----------------------------------------------|
E|----------------------------------------------|

[Riff 4d]
                           rake
e|--------------------(7~)--`10--7----7s9-------|-------------|
B|--------------------(7~)-`7------8------10----|-------------|
G|--------------------(7~)-7-----------------11-|-9b11r9---9~-|
D|-(7)-(7)------------(7~)----------------------|-------------|
A|---------(7)-(7)------------------------------|-------------|
E|----------------(0)---------------------------|-------------|

[Riff 5a]

e|------------------------------------------|
B|---------8--------7--5---7b8--------------|
G|--11-------9--------------------7b9r7-----|
D|----11-------9-9------------------------9-|
A|------------------------------------------|
E|------------------------------------------|

[Riff 5b]

e|----------------------------------------------|
B|--8-8--------7--------------------------------|
G|------9-9-------7------9--7----9b11--7b9------|
D|----------9-------7-7-----------------------7-|
A|----------------------------------------------|
E|----------------------------------------------|

[Riff 5c]

e|-9---9--------7----------------------------------------|
B|-------10---------8-------10------10b12----8b10r8------|
G|----------11--------9-9-------9----------------------9-|
D|-------------------------------------------------------|
A|-------------------------------------------------------|
E|-------------------------------------------------------|

[Riff 5d]

e|--7-7--------5-5---------------------------------|
B|------8-8--------7-------8--7--8b10---8b10-------|
G|----------9--------7-7------------------------11-|
D|-------------------------------------------------|
A|-------------------------------------------------|
E|-------------------------------------------------|

[Riff 6a]                     [Riff 6b]

e|--------------------|----------------------|-----------------|
B|--8-8--------8b10r8-|-7-7--------7b8r7-----|-----------------|
G|------9-9-----------|-----7-7--------------|---9b11---9--9---|
D|----------9---------|---------7------------|-----------------|
A|--------------------|----------------------|-----------------|
E|--------------------|----------------------|-----------------|

[Riff 7a]
    Em
e|-------0------0------0-----0-----------|
B|-----0------0------0-----0-------------|
G|--------------------------------0------|
D|--2------4------5------7------5----4p2-|
A|---------------------------------------|
E|---------------------------------------|

[Riff 7b]
    C(add9 #11)
e|----------2p0-------2p0----------|
B|-------3------3----------3-------|
G|-----0----------------------0--0-|
D|---------------------------------|
A|--3--------------3---------------|
E|---------------------------------|

[Riff 7c]                          [Riff 7d]
   C(add9 #11)
e|--------------0------2p0-----0-|---------2p0-----------0-----|
B|------3----------3--------3----|-------3-----3-----------3---|
G|----0---0--0-------------------|-----0---------------0-----0-|
D|-------------------------------|---2-----------4-2-4---------|
A|-3-----------------------------|-3---------------------------|
E|-------------------------------|-----------------------------|

[Riff 8]
   Em                                      D
e|-7-7-7-7--7-7-7-7--7-7-7-7--7-7-7-7---7----|
B|-8-8-8-7--8-8-8-7--8-8-8-7--8-8-8-7---8--7-|
G|-9-9-9-9--9-9-9-9--9-9-9-9--9-9-9-9---9--7-|
D|-----------------------------------------7-|
A|-------------------------------------------|
E|-------------------------------------------|
   C
e|-8-8-8-7--8-8-8-7--8-8-8-7--8-8-8-7---8----|
B|-8-8-8-7--8-8-8-7--8-8-8-7--8-8-8-7---8--7-|
G|-9-9-9-7--9-9-9-7--9-9-9-7--9-9-9-7---9--7-|
D|-----------------------------------------7-|
A|-------------------------------------------|
E|-------------------------------------------|

[Riff 9]

e|-----------------------------------------|
B|--5s7--5--5~~----7s8--7--5---3---5-------|
G|------------------------------------5~~~-|
D|-----------------------------------------|
A|-----------------------------------------|
E|-----------------------------------------|

[Riff 10]
              Repeat 4x
e|---------|--9s12--12~--|---12ss15~~-|
B|---------|-10s12--12~--|---12ss17~~-|
G|-5sssss9-|-------------|------------|
D|---------|-------------|------------|
A|---------|-------------|------------|
E|---------|-------------|------------|

[Riff 11a]                      [Riff 11b]
    E                           E
e|----------------------------|--------------------------|
B|--------------8~---7--8--x--|------------7-------------|
G|--------------9~---7--9--x--|------------7-------------|
D|--------7-9-----------------|-------7-9--7---9-9-7-7---|
A|--7-9-9---------------------|-7-9-9------------------9-|
E|----------------------------|--------------------------|

[Riff 12]
    Em                           C(add9 #11)
e|--0-(0)~-----------------------0-(0)~--------------0---------|
B|--0-(0)~-----------------------3-(3)~-----------------3--3p0-|
G|--0--0-------------------------0-(0)~------0--(0)------------|
D|--2-(2)--4~-5~--7~-5~---4p2----x-------2~--------------------|
A|--2-(2)------------------------3-(3)~----------3-------------|
E|--0-(0)~-----------------------------------------------------|

[Riff 13] - the section where the guitars are randomly brought
to the
                foreground - cleaned up a bit
e|-------------------------------------------------------------|
B|-13--12---15b17~~---------------------------------12--13--12-|
G|-----------------------12b14r12~~~----14b16r14~--------------|
D|-------------------------------------------------------------|
A|-------------------------------------------------------------|
E|-------------------------------------------------------------|

e|-------------15b17----15------------------------------------|
B|-15b17~-------------------15b17~--------12b13----12---------|
G|-----------------------------------------------------14--12-|
D|------------------------------------------------------------|
A|------------------------------------------------------------|
E|------------------------------------------------------------|

e|-----------------------------------15b17~-15-12------12-----|
B|------------12--13b15----13.--12-----------------15------15-|
G|--14b16~----------------------------------------------------|
D|------------------------------------------------------------|
A|------------------------------------------------------------|
E|------------------------------------------------------------|

e|--------------------------------------------15b17r15-12-12~-|
B|-12--15~----12b15r12~~--10----------------------------------|
G|---------------------------12----12-14-12~~-----------------|
D|------------------------------14----------------------------|
A|------------------------------------------------------------|
E|------------------------------------------------------------|

Song progression:

Fade into [Intro] x3

[Intro] x1, replace last half with [Intro2]

[Riff 1] x4

[Riff 2a] x2 /w lyrics:

It was an April morning when the told us we should go,
And as I turned to you, you smiled at me, how could we say no?

[Riff 2b] x2 /w lyrics:

Woah the fun to have to live the dreams we always had.
Woah the songs to sing when we at last return again.

[Riff 1] x2

[Riff 2b] x1 /w lyrics:

Swept New York a glancing kiss to those who claim they know,

[Riff 2a] x2 /w lyrics:

Below the streets that steam and hiss, the devil`s in his hold.
Oh to sail away to sandy lands and holidays.

[Riff 2b] x1 /w lyrics:

Oh to touch the dream, hides inside and`s never seen yeah.

[Riff 3] x2, second time do 10th fret slide down

[Ascending octave progression 1] x1
[Ascending octave progression 2] x1
[Ascending octave progression 3] x1
[Ascending octave progression 4] x1

[final two notes over [Riff 1] x2]

[Riff 2a] x1 /w lyrics:

Into the sun the South and on, at last the birds had flown,

[Riff 2b] x1 /w lyrics:

As shackles of commitment fell in pieces on the ground.

[Riff 2a] x1 /w lyrics:

Oh to ride the wind, to tread the air above the din,

[Riff 2b] x1 /w lyrics:

Oh to laugh aloud, with dancing eyes we court the crowd, yeah.

[Riff 4a] x1
[Riff 4b] x1
[Riff 4c] x1
[Riff 4d] x1

[final two notes over [Riff 2a] x1 /w lyrics]:

To seek the man whose pointing hand, the giant step unfolds,

[Riff 2b] x1 /w lyrics:

To guide us from the curling path that turns our face to stone.

[Riff 2a] x1 /w lyrics:

And if one bell should ring in celebration for a King,

[Riff 2b] x1 /w lyrics:

So fast the heart should beat as proud`s the head with heavy
feet, yeah.

[Riff 3] x4 (at the end of the first time, sing "Ooh......")

[Guitar Solo]

e|---------7-------------------------------------------------5-|
B|-------------7--5--5~~--8b10r8--------------5--5~-------8----|
G|------7---------------------------7b9r7-----5--5~----5-(5)---|
D|-7s9----------------------------------------5--5~------------|
A|-------------------------------------------------------------|
E|-------------------------------------------------------------|

e|--3h5p3----3~--------3------3h5p3-------3-----5~-----------7-|
B|--------5---------------------------5------5-(5)~------------|
G|--------4--4~-----4----4------------5------5-(5)~-------7----|
D|----------------------------------------------------7s9------|
A|-------------------------------------------------------------|
E|-------------------------------------------------------------|

e|-----------------------------------------10b12r10-----12.-14.|
B|--7--5--5~----7-8-10--8h10p8--7--8--7--8----------12.--------|
G|-------------------------------------------------------------|
D|-------------------------------------------------------------|
A|-------------------------------------------------------------|
E|-------------------------------------------------------------|

e|---14b15r14p12--14b15r14p12---12--14--14b15r14p12---15b17r15-|
B|-------------------------------------------------------------|
G|-------------------------------------------------------------|
D|-------------------------------------------------------------|
A|-------------------------------------------------------------|
E|-------------------------------------------------------------|

e|-------------------------------------------------------------|
B|--13--13~~----12--13----12-----------------------------------|
G|---------------------14------12------------------12--14------|
D|---------------------------------14--14~~~----14-------------|
A|-------------------------------------------------------------|
E|-------------------------------------------------------------|

e|-------------------------------------------------------------|
B|----------------------------------------12-13-15p13p12-13p12-|
G|--14b16r14b16r14p12---------------12-14----------------------|
D|----------------------14--14~~-14----------------------------|
A|-------------------------------------------------------------|
E|-------------------------------------------------------------|

e|-----------------------------------------12-14-15.-15p14p12--|
B|----12-----12h13p12----12------12-13-15----------------------|
G|-14----14-----------14---------------------------------------|
D|-------------------------------------------------------------|
A|-------------------------------------------------------------|
E|-------------------------------------------------------------|

e|-14~~~~p12-----12-------12-----------------------------------|
B|------------15----15p12-13--12----12-------------------------|
G|-------------------------------14----14-12----14----12h14p12-|
D|-------------------------------------------14----14----------|
A|-------------------------------------------------------------|
E|-------------------------------------------------------------|

e|-----------------------------------15------15------17b19-----|
B|--------------------------------15----17.-----17-------------|
G|----------12--------------14s16------------------------------|
D|--14--14-----------------------------------------------------|
A|-------------------------------------------------------------|
E|-------------------------------------------------------------|

e|-x--17.--x----12--12~~~~---15b17r15~--15p14p12h14~-12h14p12~-|
B|-------------------------------------------------------------|
G|-------------------------------------------------------------|
D|-------------------------------------------------------------|
A|-------------------------------------------------------------|
E|-------------------------------------------------------------|

e|-12h14p12-------------------------------------------------12-|
B|-----------15b17-----15-13----13--12-12-12~~~~------12-15----|
G|---------------------------14--------------------12----------|
D|-------------------------------------------------------------|
A|-------------------------------------------------------------|
E|-------------------------------------------------------------|

e|-14--15p14p12--14~---12-14-15-17-19-20b22~~~----20.--19.--17-|
B|-------------------------------------------------------------|
G|-------------------------------------------------------------|
D|-------------------------------------------------------------|
A|-------------------------------------------------------------|
E|-------------------------------------------------------------|

e|-19~~~--x------17b18-----17--15--17--17b19~------17b19----17-|
B|------------0.-----------------------------------------------|
G|----------------------0.----------------------0--------------|
D|-------------------------------------------------------------|
A|-------------------------------------------------------------|
E|-------------------------------------------------------------|

e|-15---17b19--17--15---14~~~~~--14h15p14p12--14~~---12--14-15-|
B|-------------------------------------------------------------|
G|-------------------------------------------------------------|
D|-------------------------------------------------------------|
A|-------------------------------------------------------------|
E|-------------------------------------------------------------|

e|-17p15~~--15--15~~----12--15s14~-----------------------------|
B|---------------------------------------13s12~----------------|
G|-----------------------------------14------------14--12.-----|
D|----------------------------------------------------------14-|
A|-------------------------------------------------------------|
E|-------------------------------------------------------------|

e|-----------------------------------------------|
B|--------------------------------------------12-|
G|--12-----12~~--------12~~~~--------------12----|
D|-----14----------------------------12h14-------|
A|-----------------------------------------------|
E|-----------------------------------------------|

[Ascending octave progression 1] x1
[Ascending octave progression 2] x1

then:

e|-17b19r17----15~---------------------------------------------|
B|------------------17~--15.-----------------------------------|
G|----------------------------16--14---14b16r14----12----------|
D|-----------------------------------------------------14--12.-|
A|-------------------------------------------------------------|
E|-------------------------------------------------------------|

e|---------------------------------|
B|--------------17b19----17--17~~~-|
G|---------------------------------|
D|--9----12------------------------|
A|----10---------------------------|
E|---------------------------------|

(last part of solo:  17b19    17  17~~~ over lyrics):

                                  [last half of Riff 2a]
Days fly by and you and I bathed in eternal summer`s glow

[Riff 2a] x2 /w lyrics:

As far away and distant, our mutual child did grow.
Woah the sweet refrain soothes the soul and calms the pain,

[Riff 2b] x2 /w lyrics:

       Oh Albion remain sleeping now to rise again.

[Riff 5a] x1
[Riff 5b] x1
[Riff 5c] x1
[Riff 5d] x1

[Riff 6a] x2 /w lyrics:

Wondering and wanderings,

[Riff 6b] x2 /w lyrics:

one place to rest the search,

[Riff 6a] x2 /w lyrics:

Where the mighty arms of Atlas

[Riff 6b] x2 /w lyrics:

hold the heavens from the earth.

[Riff 6a] x2
[Riff 6b] x2

[Riff 6a] x2 /w lyrics:

Oh the mighty arms of Atlas

[Riff 6b] x2 /w lyrics:

hold the heavens from the earth,

last half of [Riff 6b] x1 /w lyrics:

from the earth......

last half of [Riff 7a] x1 (from 7)

[Riff 7b] x1

[Riff 7a] x1

[Riff 7c] x1

[Riff 7a] x1 /w lyrics:

I`m gonna reign, gonna reign, gonna reign,

[Riff 7d] x1 /w lyrics:

gonna reign,

[Riff 7a] x1 /w lyrics:

I`m gonna reign, gonna reign, gonna reign, gonna

[Riff 7c] x1 /w lyrics:

reign.

[Riff 8] x1

[Ascending octave progression 1] x1
[Ascending octave progression 2] x1

[Riff 9] x2

[Riff 10] x1

[Riff 11a] x2 (beginning of each one sing "Aah..." along /w
guitar)
[Riff 11b] x2

[Riff 11a] x2
[Riff 11b] x2

[Riff 11a] x2
[Riff 11b] x2

[Riff 11a] x2
[Riff 11b] x2

[Riff 11a] x2
[Riff 11b] x2

[Riff 12] x2  (first "Aahhh..." then "Oohhh...." /w guitar)

"Aah..." (stops before next one)
[Ascending octave progression 1] x1

[Ascending octave progression 2] x1

"oh..." (stops before next one)
[Ascending octave progression 3] x1

[Ascending octave progression 4] x1

[Riff 13] x1

[last part played over [Riff 1] x1]

[Riff 1] x1 /w lyrics:

Where the mighty arms of Atlas hold the heavens of the earth.

[Riff 11a] x2 (sing "Oh.." x5 with increased force and pitch)
[Riff 11b] x2

[Riff 11a] x2
[Riff 11b] x2 (sing "Aah" at start of each line /w guitar)

[Riff 11a] x2
[Riff 11b] x2

[Riff 11a] x2
[Riff 11b] x2

[Riff 1] x2 (sing "Ooohhh... first time only)

[Intro] reversed, at least 2 times, then begin fadeout
Вверх

All My Love

[Intro]
       Am       G       Dm         Am        G       D
      *        *        *          *        *        *
e|--0-0-0-0--3-3-3-3--1-1-1~--|--0-0-0-0--3-3-3-3--2-2-2~-|
B|--1-1-1-1--3-3-3-3--3-3-3~--|--1-1-1-1--3-3-3-3--3-3-3~-|
G|--2-2-2-2--0-0-0-0--2-2-2~--|--2-2-2-2--0-0-0-0--2-2-2~-|
D|--2-2-2-2--0-0-0-0--0-0-0~--|--2-2-2-2--0-0-0-0--0-0-0~-|
A|--0-0-0-0--2-2-2-2----------|--0-0-0-0--2-2-2-2---------|
E|-----------3-3-3-3----------|-----------3-3-3-3---------|

* = Page does a quick sweep of the same chord (or some such
move)

[Riff 1]
       C        Em/B      Am   Am/G     G      F     G7
e|--0-0-0-0~--0-0-0-0~--0-0-0~--0~----3-3-3~--1-1--|--1-|
B|--1-1-1-1~--0-0-0-0~--1-1-1~--1~----3-3-3~--1-1--|--0-|
G|--0-0-0-0~--0-0-0-0~--2-2-2~--2~----0-0-0~--2-2--|--0-|
D|--2-2-2-2~--2-2-2-2~--2-2-2~--2~----0-0-0~--3-3--|--0-|
A|--3-3-3-3~--2-2-2-2~--0-0-0~--x-----2-2-2~--3-3--|--x-|
E|------------------------------3~----3-3-3~--1-1--|--3-|

[Riff 2] - Slower

    G    F    G6  Dm   C/G   G7   Am/G   G
e|--3----1----0----1----0-----1----0-----3-|
B|--3----1----0----3----1-----0----1-----3-|
G|--0----2----0----2----0-----0----2-----0-|
D|--0----3----2----0----2-----0----2-----0-|
A|--2----3----x---------x-----x----x-----2-|
E|--3----1----3---------3-----3----3-----3-|

[Riff 3]

   A  A7      D       F#m       Bm     Bm/A    A  A/G   G    A7
e|-0--0--|-2-2-2-2~-2-2-2-2~--2-2-2-2--2-2-2---0~--0~--3-3---0-|
B|-2--2--|-3-3-3-3~-2-2-2-2~--3-3-3-3--3-3-3---2~--2~--3-3---2-|
G|-2--0--|-2-2-2-2~-2-2-2-2~--4-4-4-4--4-4-4---2~--2~--0-0---0-|
D|-2--2--|-0-0-0-0~-4-4-4-4~--4-4-4-4--4-4-4---2~--2~--0-0---2-|
A|-0--0--|----------4-4-4-4~--2-2-2-2--0-0-0---0~--x---2-2---0-|
E|-------|----------2-2-2-2~-----------------------3~--3-3-----|

[Fill 1]                 [Fill 2]
e|---------------------|----5---5--7p5----------|
B|--6b7r6~----6b7r6~---|------5--------6s3--6---|
G|---------------------|-7b9------------------7-|
D|---------------------|------------------------|
A|---------------------|------------------------|
E|---------------------|------------------------|

[Fill 3]
e|-------------------------------------------------------|-----|
B|-15b17---15b17~~-13-15--15b17~~--15--13--15---13h15p13-|-6-8-|
G|-------------------------------------------------------|-----|
D|-------------------------------------------------------|-----|
A|-------------------------------------------------------|-----|
E|-------------------------------------------------------|-----|

e|-------------------|-----------------------------------------|
B|-8b10-8b10-8-6h8p6-|-15b17~--15--13--15--15b17~--15-13h15p13-|
G|-------------------|-----------------------------------------|
D|-------------------|-----------------------------------------|
A|-------------------|-----------------------------------------|
E|-------------------|-----------------------------------------|

e|------------------------|---------------------|
B|-13h15p13~~--13h15p13.--|--6-8--8b10--8b10~~~-|
G|------------------------|---------------------|
D|------------------------|---------------------|
A|------------------------|---------------------|
E|------------------------|---------------------|

[Fill 4]                      [Fill 5]
e|----5---5-7p5-----7p5-----|---------------------|
B|------5-------6p5-----6p5-|-------5b7r5---5b7r5-|
G|7b9-----------------------|----7----------------|
D|--------------------------|--7------------------|
A|--------------------------|---------------------|
E|--------------------------|---------------------|

[Fill 6]
                        hold bend
e|-------------------------------------------------------------|
B|-15b17~--15-13-15-15b17~17~~-15-13h15p13-13h15p13~-13h15p13~-|
G|-------------------------------------------------------------|
D|-------------------------------------------------------------|
A|-------------------------------------------------------------|
E|-------------------------------------------------------------|

e|----------------------|--------------------------------------|
B|-6--8--8b10---8b10~~~-|-15b17~--15--13-15--15b17~---15-13-15-|
G|----------------------|--------------------------------------|
D|----------------------|--------------------------------------|
A|----------------------|--------------------------------------|
E|----------------------|--------------------------------------|

e|---------------------------------------------|
B|--13h15p13~--13h15p13~----6--8--8b10---8b10~-|
G|---------------------------------------------|
D|---------------------------------------------|
A|---------------------------------------------|
E|---------------------------------------------|

[Fill 7]                       [Fill 8]
e|----------------------------|--------------------------------|
B|----------------------------|-10b12r10~----------------------|
G|---------5---5--7-7b9--7-5~-|-------------7p5-----7p5-----5~-|
D|-5---5-7---7----------------|-----------------7~------7~-----|
A|---7------------------------|--------------------------------|
E|----------------------------|--------------------------------|

[Fill 9]
  G       F        G6         Dm        C/G     G7   Am/G     G
e|-------------------------------------------------------------|
B|-8b10r8--6b8r6----10b12r10----8b10r8----6b8r6--/5------------|
G|----------------------------------------------------7b9r7----|
D|--------------------------------------------------5-------5~-|
A|-------------------------------------------------------------|
E|-------------------------------------------------------------|

[Fill 10]                        [Fill 11]
e|----------------5-------------|----------5-------------------|
B|------------------8p5--8b10r8-|--------5---8p5--8b10r8-------|
G|-----5---5-7b9----------------|--7b9---------------------7-5-|
D|-5h7---7----------------------|------------------------------|
A|------------------------------|------------------------------|
E|------------------------------|------------------------------|

[Fill 12]
        G      F     G6        Dm      C/G      G7   Am/G      G
e|-------------------------------------------------------------|
B|6b8r6--8b10r8-6b8r6--10b12r10--8b10r8---6b8r6--/5------------|
G|----------------------------------------------------7b9r7----|
D|--------------------------------------------------5-------5~-|
A|-------------------------------------------------------------|
E|-------------------------------------------------------------|

[Fill 13]
e|--------------------------|
B|-5------------------------|
G|---7-7----7b9--7b9--7b9~~-|
D|-------7------------------|
A|--------------------------|
E|--------------------------|

Progression:

[Intro] x2

[Intro] x4 w/ lyrics:

Should I fall out of love, my fire in the night, [Fill 1]
To chase a feather in the wind. [Fill 2]
Within the glow that weaves a cloak of delight, [Fill 1]
There moves a thread that has no end. [Fill 2]
For many hours and days that pass ever soon, [Fill 1]
The tides have caused the flame to dim. [Fill 2]
At last the arm is straight, the hand to the loom, [Fill 1]
Is this the end or just begin? [Fill 2]

[Riff 1] x2 w/ chorus:

[Strum chords along with chord changes]:

(Also play [Fill 3] x1)

 C             Em/B             Am      Am/G  G           F  G7
All of my love, all of my love, all of my love to you now.

 C             Em/B                Am            G           F
All of my love, all of my love, oh all of my love to you now.

[Intro] x2 w/ lyrics:

The cup is raised the toast is made yet again, [Fill 1]
One voice is clear above the din. [Fill 4]
Proud Arian, one word my will to sustain, [Fill 1]
For me the cloth once more to spin, oh. [Fill 5]

[Riff 1] x2 w/ chorus:

[Strum chords along with chord changes]:

(Also play [Fill 6] x1)

 C             Em/B             Am      Am/G  G           F  G7
All of my love, all of my love, all of my love to you now.

 C             Em/B                Am            G             F
All of my love, all of my love, oh all of my love to you child.

Next section:

Bb Bb Bb  F F F  Bb Bb Bb  F F F  Bb Bb Bb  F   C  C [Fill 7]
Bb Bb Bb  F F F  Bb Bb Bb  F F F  Bb Bb Bb  F   C  C [Fill 8]
Bb Bb Bb  F F F  Bb Bb Bb  F F F  Bb Bb Bb  F  Dm Dm Dm   C

[Riff 2] x1 w/ [Fill 9] over chord changes

Trumpet synth solo over [Intro] x2

String synth and gtr over [Intro] x2

Repeat four times: 3rd time with [Fill 1], 4th time with
[Fill 4]

e|-------------------------------------------------------------|
B|-----12-13-15b17--15b17---15-15~---13-12---------------------|
G|o-14-------------------------------------14~-12-10-12-/14~~-o|
D|o-----------------------------------------------------------o|
A|-------------------------------------------------------------|
E|-------------------------------------------------------------|

Then:

Bb Bb Bb  F F F  Bb Bb Bb  F F F  Bb Bb Bb  F   C  C [Fill 10]
Bb Bb Bb  F F F  Bb Bb Bb  F F F  Bb Bb Bb  F   C  C [Fill 11]
Bb Bb Bb  F F F  Bb Bb Bb  F F F  Bb Bb Bb  F  Dm Dm Dm   C

[Riff 2] x1 w/ [Fill 12] over chord changes

[Intro] x2 w/ lyrics:

Yours is the cloth, mine is the hand that sews time, [Fill 1]
His is the voice that lies within. [Fill 4]
Ours is the fire all the warmth we can find, [Fill 1]
He is a feather in the wind, oh. [Fill 13]

[Riff 1] x2 w/ chorus:

[Strum chords along with chord changes]:

(Also play [Fill 6] sim.)

 C             Em/B             Am      Am/G  G           F  G7
All of my love, all of my love, all of my love to you now.

 C             Em/B                Am            G           F
All of my love, all of my love, oh all of my love to you now.

[Riff 3] until fadeout as follows:

(Also play [Fill 3] and [Fill 6] sim., but since the key changes
one whole step up to D, play all notes 2 frets higher, I`d tab
it here but it`s so easy to figure out once you know the basic
pattern)

A A7  D           F#m           Bm        Bm/A      A A/G G  A7
All of my love, all of my love, all of my..love.......love...
Вверх

Babe I`m Gonna Leave You

E|------3------0------3------0---------------------------------|
B|-----------------------------------3-------1-------1-------0-|
G|-----2------2------0------0------2-------2-------2-------1---|
D|---2------2------2------2------0-------0-------3-------2-----|
A|-0------0----------------------------------------------------|
E|---------------3------3------2-------2-------1-------0-------|

repeat this a bunch of times, then do the following twice:
E|---------------------------------|
B|-------3-------1-------3-------0-|
G|-----2-------2-------1-------1---|
D|---3-------3-------2-------2-----|
A|---------------------------------|
E|-1-------1-------0-------0-------|

Do the first lick again, except the first high G (i.e. 3rd fret
1st string) drops to an E (open 1st string), and the first
middle D (3rd fret 2nd string) drops to a C (1st fret 2nd
string). The chords in the next section (you know the rhythm):

E|-0----0----0-|
B|-1----8----6-|
G|-2----9----7-|
D|-2----7----7-|
A|-0----0----0-|
E|-------------|

Then back into the first section, and into the second part,
then the next part 4 times:

E|---------------------------------|
B|-------5-------8-------8-------6-|
G|-----4-------9-------7-------7---|
D|---2-------9-------7-------7-----|
A|-0-------0-------0-------0-------|
E|---------------------------------|

Then the cool hard strumming part (this is really an electric
and an acoustic part: I`ll just give the chords for the
acoustic part)

E|-0-0-0-0-0-0-3-3-3-0-3-3-2-2-2-0-2-2-1-1-1-1-0-0-0-0-|
B|-1-1-1-0-1-1-1-1-1-0-1-1-1-1-1-0-1-1-1-1-1-1-0-0-0-0-|
G|-2-2-2-0-2-2-0-0-0-0-0-0-2-2-2-0-2-2-2-2-2-2-1-1-1-1-|
D|-2-2-2---2-2-2-2-2---2-2-0-0-0---0-0-3-3-3-3-2-2-2-2-|
A|-0-0-0---0-0-------------------------3-3-3-3-2-2-2-2-|
E|-------------3-3-3---3-3-2-2-2---2-2-1-1-1-1-2-2-2-2-|

Do this a few times, then there`s a little thing where you just
use the last two chords I wrote (the F and the E): I`m sure you
can figure it out.

Well, that`s most of it.  I`ve left out some parts: the ending,
all of the solos, and some variations on the main arpeggios,
but that should give you most of it.
Вверх

Babe I`m Gonna Leave You (2 вариант)

  verse 1 main riff
G|2--22--2--0--00--0--------------------|
D|--------------------4--44--4--3--32-2-|
A|--------------------------------------|
E|--------------------------------------|

  "leave you when the summer time  leave you when the summer.."
G|2-22-2-0-00-0--------------------------------------------|
D|--------------4-44-4-3-32-2-3-33-3-2-22-2-3-33-3-2-22--2-|
A|---------------------------------------------------------|
E|---------------------------------------------------------|

"leave you when the summer comes along"
G|2-2222-----------2-2222-----------2-2222-----------|
D|-------0-0000000--------0-0000000--------0-0000000-|
A|---------------------------------------------------|
E|---------------------------------------------------|

E|-2-2222----------|
B|--------0-0000000|
G|-----------------|
D|-----------------|

the second verse is the original riff played a bit faster.

  heavy part riff
G|22222-2-00000-0-----------------|
D|----------------44444-4-33332-2-|
A|--------------------------------|
E|--------------------------------|
Вверх

Babe I`m Gonna Leave You Remasters

Intro:
  Am      Am        Am7sus4 C         D       Am6       F       E
E-------0---------|-----------------|-----------------|-----------------
B-----1---------1-|-------3-------1-|-------3-------1-|-------1-------0-
G---2---------2---|-----0-------0---|-----2-------2---|-----2-------1---
D---2-------2-----|---2-------2-----|---0-------0-----|---3-------2-----
A-0-------0-------|-----------------|-----------------|-----------------
E-----------------|-3-------3-------|-2-------2-------|-1-------0-------

  Am7     Am        Am7     C         D       Am6       F       E
E-------3-------0-|-------3-------0-|-----------------|-----------------
B-----1-------1---|-----1-------1---|-------3-------1-|-------1-------0-
G---2-------2-----|---0-------0-----|-----2-------2---|-----2-------1---
D-----------------|-----------------|---0-------0-----|---3-------2-----
A-0-------0-------|-----------------|-----------------|-----------------
E-----------------|-3-------3-------|-2-------2-------|-1-------0-------

First Verse:
  Am7     Am        Am7sus4 C         D       Am6       F       E
E-------3-------0-|-----------------|-----------------|-----------------
B-----1-------1---|-------3-------1-|-------3-------1-|-------1-------0-
G---2-------2-----|-----0-------0---|-----2-------2---|-----2-------1---
D-----------------|---2-------2-----|---0-------0-----|---3-------2-----
A-0-------0-------|-----------------|-----------------|-----------------
E-----------------|-3-------3-------|-2-------2-------|-1-------0-------

These four bars are repeated several times. Then there four bars that
go like this:

I`ll leave you when the summertime......

 Bes maj7 F         E7      E
E-----------------|-----------------|------------
B-------3-------1-|-------3-------0-|------------
G-----2-------2---|-----1-------1---|--2x--------
D---3-------3-----|---2-------2-----|------------
A-----------------|-----------------|------------
E-1-------1-------|-0-------0-------|------------

When things get heavier after these nice chords, play:

  Am              Am7  Am#5
E-0----------------3-|-0-----------|---------------------------
B-1----------------1-|-6-----------|---------------------------
G-2--several times-2-|-5-----------|-repeat several times------
D-2----------------2-|-7-----------|---------------------------
A-0----------------0-|-0-----------|---------------------------
E--------------------|-------------|---------------------------

When finally the drums and the dirty guitar come in the chords are:

Am (V) | G(III) | D(II) |  F(I) E
Вверх

Battle Of Evermore

Am       Am G   Am      Am C      Am       Am  G     Am Am C
Queen of Light, took her bow, and then she turned to go

Am        Am G     Am         Am C       Am        Am  G Am Am C
Prince of Peace, embraced the gloom, and walked the night alone

   D     D     D     D     D     D     D     D
Oh,........(sorry, don`t remember this verse)

(continues Am Am G Am Am C etc. until:)

Am         D                Am                 D
I hear the horse`s thunder, down in the valley below

G7              C                  G7              C
waiting for the angels of Babylon, waiting for the eastern glow

and so forth...

It`s probably a good idea to listen to the song to get the
rhythm down correctly.
Вверх

Battle Of Evermore (2 вариант)

 | 1 e & a 2 e & a 3 e & a 4 e & a | 1 e & a 2 e & a 3 e & a 4 e & a |
 =====================================================================
E|---------0---0-----------0---0---|---------0---0-----------0---0---|
A|-----3---3---3-------3---3---3---|-----3---3---3-------3---3---3---|
D|-7---------------7---------------|-7---------------7---------------|
G|---------------------------------|---------------------------------|

  >   >
| 1 e & a 2 e & a 3 e & a 4 e & a | 1 e & a 2 e & a 3 e & a 4 e & a |
=====================================================================
|---------0---0-----------0---0---|---------0---0-----------0---0---|
|.--------3---3-------3---3---3---|-----3---3---3-------3---3---3---|
|.----7-----------7---------------|-7---------------7---------------|
|-9---9---------------------------|(9)------------------------------|

  >   >
| 1 e & a 2 e & a 3 e & a 4 e & a | 1 e & a 2 e & a 3 e & a 4 e & a |
=====================================================================
|---------0---0-----------0---0---|---------0---0-----------0---0---|
|---------3---3-------3---3---3---|-----3---3---3-------3---3---3---|
|-----7-----------7---------------|-7---------------7---------------|
|-8---8---------------------------|(8)------------------------------|

  >   >
| 1 e & a 2 e & a 3 e & a 4 e & a | 1 e & a 2 e & a 3 e & a 4 e & a |
=====================================================================
|---------0---0-----------0---0---|---------0---0-----------0---0---|
|---------3---3-------3---3---3---|-----3---3---3-------3---3---3---|
|-----7-----------7---------------|-7---------------7---------------|
|-7---7---------------------------|(7)------------------------------|

  >   >
| 1 e & a 2 e & a 3 e & a 4 e & a | 1 e & a 2 e & a 3 e & a 4 e & a |
=====================================================================
|---------0---0-----------0---0---|---------0---0-----------0---0---|
|---------3---3-------3---3---3---|-----3---3---3-------3---3---3--.|
|-----7-----------7---------------|-7---------------7--------------.|
|-8---8---------------------------|(8)------------------------------|

		Reapeat last 8 measures once

| 1 e & a 2 e & a 3 e & a 4 e & a | 1 e & a 2 e & a 3 e & a 4 e & a |
=====================================================================
|-0---0---0---0-------0---0-------|-0---0---0---0---0---0---0-------|
|-3---3---3---3-------0---2-------|-3---3---3---3---3---0---2-------|
|-2---2---2---2-------0---0-------|-2---2---2---2---2---0---0-------|
|---------------------------------|---------------------------------|


| 1 e & a 2 e & a 3 e & a 4 e & a | 1 e & a 2 e & a 3 e & a 4 e & a |
=====================================================================
|-0---0---0---0---0-------0-------|-0---0---0---0---0---0---0-------|
|-3---3---3---3---3-------2-------|-3---3---3---3---3---0---2-------|
|-2---2---2---2---2-------0-------|-2---2---2---2---2---0---0-------|
|---------------------------------|---------------------------------|

Riff A:

| 1 e & a 2 e & a 3 e & a 4 e & a | 1 e & a 2 e & a 3 e & a 4 e & a |
=====================================================================
|-2---2---0---2---2---0---3---3---|-2---2---0---2---2---0---0---0---|
|.0---0---0---0---0---0---2---0---|-0---0---0---0---0---0---3---0--.|
|.--------------------------------|-------------------------2------.|
|---------------------------------|---------------------------------|

			Repeat Riff A 3 more times

Riff B:

| 1 e & a 2 e & a 3 e & a 4 e & a | 1 e & a 2 e & a 3 e & a 4 e & a |
=====================================================================
|---------5--(5)--R-------5--(5)--|-R---3---2---0---2---3---2---0---|
|---------0--(0)--R-------0--(0)--|-R-------0---------------0-------|
|---------4--(4)--R-------4--(4)--|-R-------0---------------0-------|
|---------------------------------|---------------------------------|


| 1 e & a 2 e & a 3 e & a 4 e & a | 1 e & a 2 e & a 3 e & a 4 e & a |
=====================================================================
|---------5--(5)--R-------5--(5)--|-R---3---2---0-----------0-------|
|---------0--(0)--R-------0--(0)--|-R-------0-------3---2-------0---|
|---------4--(4)--R-------4--(4)--|-R-------0-----------------------|
|---------------------------------|---------------------------------|
							end of Riff B

Variation on Riff A

| 1 e & a 2 e & a 3 e & a 4 e & a | 1 e & a 2 e & a 3 e & a 4 e & a |
=====================================================================
|-2---2---0---2---2---0---3---3---|-2---2---0---2---2---0---0---0---|
|.0---0---0---0---0---0---2---2---|-0---0---0---0---0---0---3---3--.|
|.--------------------------------|-------------------------2---2--.|
|---------------------------------|---------------------------------|
	   	       Repeat above riff once

		          Play Riff B once

			  Play Riff A twice

| 1 e & a 2 e & a 3 e & a 4 e & a | 1 e & a 2 e & a 3 e & a 4 e & a |
=====================================================================
|---------5--(5)--R-------5--(5)--|-R---3---2---0---3---2---0-------|
|---------0--(0)--R-------0--(0)--|-R---0---0---0---0---0---0-------|
|---------4--(4)--R-------4--(4)--|-R-------------------------------|
|---------------------------------|---------------------------------|


| 1 e & a 2 e & a 3 e & a 4 e & a | 1 e & a 2 e & a 3 e & a 4 e & a |
=====================================================================
|-----0-------0---2---0-------0---|(0)--5---3---2---0---0---0---0---|
|-------2/3-------3-------3-------|-----------------3---3---3---0---|
|-------3/4---------------4-------|---------------------------------|
|---------------------------------|---------------------------------|

			  Play Riff A twice

Riff C
| 1 e & a 2 e & a 3 e & a 4 e & a | 1 e & a 2 e & a 3 e & a 4 e & a |
=====================================================================
|-0---0---0---0---0---0---0---0---|-5---5---5---5--(5)--5---5-------|
|-3---3---3---3---3---3---3---3---|-0---0---0---0--(0)--0---0-------|
|-5---5---5---5---5---5---5---5---|-4---4---4---4--(4)--4---4-------|
|---------------------------------|---------------------------------|


| 1 e & a 2 e & a 3 e & a 4 e & a | 1 e & a 2 e & a 3 e & a 4 e & a |
=====================================================================
|-0---0---0---0--(0)--0---0---0---|-0---5---5---5--(5)--5---5---0---|
|-3---3---3---3--(3)--3---3---3---|-3---0---0---0--(0)--0---0---3---|
|-5---5---5---5--(5)--5---5---5---|-5---4---4---4--(4)--4---4---5---|
|---------------------------------|---------------------------------|


| 1 e & a 2 e & a 3 e & a 4 e & a | 1 e & a 2 e & a 3 e & a 4 e & a |
=====================================================================
|-0---3--(3)--3--(3)--3---3---3---|-3---0---0---0--(0)--0---0---0---|
|-3---2--(2)--2--(2)--2---2---2---|-2---3---3---3--(3)--3---3---3---|
|-5---3--(3)--3--(3)--3---3---3---|-3---2---2---2--(2)--2---2---2---|
|---------------------------------|---------------------------------|


| 1 e & a 2 e & a 3 e & a 4 e & a | 1 e & a 2 e & a 3 e & a 4 e & a |
=====================================================================
|-3---3---3---3---3---3---3---3---|-3---0---0---0--(0)--0---0---0---|
|-2---2---2---2---2---2---2---2---|-2---3---3---3--(3)--3---3---3---|
|-3---3---3---3---3---3---3---3---|-3---2---2---2--(2)--2---2---2---|
|---------------------------------|---------------------------------|
						end of Riff C

			play Riff A twice

| 1 e & a 2 e & a 3 e & a 4 e & a | 1 e & a 2 e & a 3 e & a 4 e & a |
=====================================================================
|---------5--(5)--R-------5---R---|-5---3---2---0---2---3---3---5---|
|---------0--(0)--R-------0---R---|-0---------------0---------------|
|---------4--(4)--R-------4---R---|---------------------------------|
|---------------------------------|---------------------------------|


| 1 e & a 2 e & a 3 e & a 4 e & a | 1 e & a 2 e & a 3 e & a 4 e & a |
=====================================================================
|---------5--(5)--R-------5--(5)--|-R---3---2---0-------0-----------|
|---------0--(0)--R-------0--(0)--|-R---------------3-------3---0---|
|---------4--(4)--R-------4--(4)--|-R-------------------------------|
|---------------------------------|---------------------------------|

			play Riff A twice

| 1 e & a 2 e & a 3 e & a 4 e & a | 1 e & a 2 e & a 3 e & a 4 e & a |
=====================================================================
|---------5--(5)--R-------5--(5)--|-R---3---2---0-------0-----------|
|---------0--(0)--R-------0--(0)--|-R---------------3-------0-------|
|---------4--(4)--R-------4--(4)--|-R-------------------------------|
|---------------------------------|---------------------------------|


| 1 e & a 2 e & a 3 e & a 4 e & a | 1 e & a 2 e & a 3 e & a 4 e & a |
=====================================================================
|---------5--(5)--R---5---5--(5)--|-R---3---2---0-------0-----------|
|---------0--(0)--R---0---0--(0)--|-R-------------2/3-------0-------|
|---------4--(4)--R---4---4--(4)--|-R---------------------------5---|
|---------------------------------|---------------------------------|

			play Riff A twice

| 1 e & a 2 e & a 3 e & a 4 e & a | 1 e & a 2 e & a 3 e & a 4 e & a |
=====================================================================
|---------5--(5)--R---5---5---R---|-5---3---2---0---------------5---|
|---------0--(0)--R---0---0---R---|-----------------3---2---0-------|
|---------4--(4)--R---4---4---R---|---------------------------------|
|---------------------------------|---------------------------------|


| 1 e & a 2 e & a 3 e & a 4 e & a | 1 e & a 2 e & a 3 e & a 4 e & a |
=====================================================================
|-5---3---3---2---2---0-------0---|-0-------2-1/2---0-------5---5---|
|-------------------------3-------|---2/3---------------3-----------|
|---------------------------------|---------------------------------|
|---------------------------------|---------------------------------|

			play Riff A twice

			play Riff C once

			play Riff A 4 times

| 1 e & a 2 e & a 3 e & a 4 e & a | 1 e & a 2 e & a 3 e & a 4 e & a |
=====================================================================
|---------5--(5)--R-------5--(5)--|-R---3---2---0---2---3---5---5---|
|---------0--(0)--R-------0--(0)--|-R-------------------------------|
|---------4--(4)--R-------4--(4)--|-R-------------------------------|
|---------------------------------|---------------------------------|


| 1 e & a 2 e & a 3 e & a 4 e & a | 1 e & a 2 e & a 3 e & a 4 e & a |
=====================================================================
|---------5--(5)--R-------5--(5)--|-R---3---2---0-------0---0---0---|
|---------0--(0)--R-------0--(0)--|-R---------------3-------3---3---|
|---------4--(4)--R-------4--(4)--|-R-------------------------------|
|---------------------------------|---------------------------------|

			play Riff A twice

| 1 e & a 2 e & a 3 e & a 4 e & a | 1 e & a 2 e & a 3 e & a 4 e & a |
=====================================================================
|---------5--(5)--R-------5--(5)--|-R---3---2---0-------0---0-------|
|---------0--(0)--R-------0--(0)--|-R---------------3-------3-------|
|---------4--(4)--R-------4  (4)--|-R-------------------------------|
|---------------------------------|---------------------------------|


| 1 e & a 2 e & a 3 e & a 4 e & a | 1 e & a 2 e & a 3 e & a 4 e & a |
=====================================================================
|---------5--(5)--R---5---5--(5)--|-R---3---2---0-------0-----------|
|---------0--(0)--R---0---0--(0)--|-R---------------3-------3---0---|
|---------4--(4)--R---4---4--(4)--|-R-------------------------------|
|---------------------------------|---------------------------------|

			play Riff A twice

| 1 e & a 2 e & a 3 e & a 4 e & a | 1 e & a 2 e & a 3 e & a 4 e & a |
=====================================================================
|---------5--(5)--R---5---5---R---|-5---3---2---0---------------5---|
|---------0--(0)--R---0---0---R---|-----------------3---2---0-------|
|---------4--(4)--R---4---4---R---|---------------------------------|
|---------------------------------|---------------------------------|


| 1 e & a 2 e & a 3 e & a 4 e & a | 1 e & a 2 e & a 3 e & a 4 e & a |
=====================================================================
|-5---3---3---2---2---0---0-------|---------2---0---------------5---|
|-----------------------------3---|-2---0-----------3---2---0-------|
|---------------------------------|---------------------------------|
|---------------------------------|---------------------------------|

			play Riff A twice

			play Riff C once

| 1 e & a 2 e & a 3 e & a 4 e & a | 1 e & a 2 e & a 3 e & a 4 e & a |
=====================================================================
|---------0---0-----------0---0---|---------0---0-----------0---0---|
|-----3---3---3-------3---3---3---|-----3---3---3-------3---3---3---|
|-7---------------7---------------|-7---------------7---------------|
|---------------------------------|---------------------------------|


| 1 e & a 2 e & a 3 e & a 4 e & a | 1 e & a 2 e & a 3 e & a 4 e & a |
=====================================================================
|---------0---0-----------0---0---|---------0---0-----------0---0---|
|-----3---3---3-------3---3---3---|-----3---3---3-------3---3---3---|
|-7---------------7---------------|-7---------------7---------------|
|-9-------------------------------|(9)------------------------------|


| 1 e & a 2 e & a 3 e & a 4 e & a | 1 e & a 2 e & a 3 e & a 4 e & a |
=====================================================================
|---------0---0-----------0---0---|---------0---0-----------0---0---|
|-----3---3---3-------3---3---3---|-----3---3---3-------3---3---3---|
|-7---------------7---------------|-7---------------7---------------|
|-7-------------------------------|(7)------------------------------|


| 1 e & a 2 e & a 3 e & a 4 e & a | 1 e & a 2 e & a 3 e & a 4 e & a |
=====================================================================
|---------0---0-----------0---0---|---------0---0-----------0---0---|
|-----3---3---3-------3---3---3---|-----3---3---3-------3---3---3---|
|-7---------------7---------------|-7---------------7---------------|
|-8-------------------------------|(8)------------------------------|


| 1 e & a 2 e & a 3 e & a 4 e & a | 1 e & a 2 e & a 3 e & a 4 e & a |
=====================================================================
|---------0---0-----------0---0---|---------0---0-----------0---0---|
|-----3---3---3-------3---3---3---|-----3---3---3-------3---3---3---|
|-7---------------7---------------|-7---------------7---------------|
|-9-------------------------------|(9)------------------------------|


| 1 e & a 2 e & a 3 e & a 4 e & a | 1 e & a 2 e & a 3 e & a 4 e & a |
=====================================================================
|---------0---0-----------0---0---|---------0---0-----------0---0---|
|-----3---3---3-------3---3---3---|-----3---3---3-------3---3---3---|
|-7---------------7---------------|-7---------------7---------------|
|-8-------------------------------|(8)------------------------------|


| 1 e & a 2 e & a 3 e & a 4 e & a | 1 e & a 2 e & a 3 e & a 4 e & a |
=====================================================================
|---------0---0-----------0---0---|---------0---0-----------0---0---|
|-----3---3---3-------3---3---3---|-----3---3---3-------3---3---3---|
|-7---------------7---------------|-7---------------7---------------|
|-7-------------------------------|(7)------------------------------|


| 1 e & a 2 e & a 3 e & a 4 e & a | 1 e & a 2 e & a 3 e & a 4 e & a |
=====================================================================
|---------0---0-----------0---0---|---------0---0-----------0---0---|
|-----3---3---3-------3---3---3---|-----3---3---3-------3---3---3---|
|-7---------------7---------------|-7---------------7---------------|
|-8-------------------------------|(8)------------------------------|


| 1 e & a 2 e & a 3 e & a 4 e & a | 1 e & a 2 e & a 3 e & a 4 e & a |
=====================================================================
|---------0---0---0---0---0---0---|-0---0---0---0---0---0---0---0---|
|---------2---2---2---2---2---2---|-2---5---5---5---5---3---3---2---|
|---------------------------------|---------------------------------|
|---------------------------------|---------------------------------|


| 1 e & a 2 e & a 3 e & a 4 e & a | 1 e & a 2 e & a 3 e & a 4 e & a |
=====================================================================
|-0---0---0---0---0---0---0---0---|-0---0---0---0---0---0---0---0---|
|-2---2---2---2---2---5---5---3---|-3---2---2---X---X---2---2---5---|
|---------------------------------|-------------5---5---------------|
|---------------------------------|-------------0---0---------------|


| 1 e & a 2 e & a 3 e & a 4 e & a | 1 e & a 2 e & a 3 e & a 4 e & a |
=====================================================================
|-0---0---0---0---0---0---0---0---|-0---0---0---0---0---0---0---0---|
|-5---3---3---2---2---X---X---5---|-5---3---3---2---2---X---X---5---|
|---------------------5---5-------|---------------------5---5-------|
|---------------------0---0-------|---------------------0---0-------|


| 1 e & a 2 e & a 3 e & a 4 e & a | 1 e & a 2 e & a 3 e & a 4 e & a |
=====================================================================
|-0---0---0---0---0---0---0---0---|-0---0---0---5---2---0-------0---|
|-5---3---3---2---2---X---X---2---|-2---3---2---0---0---0---3-------|
|---------------------5---5-------|---------------------------------|
|---------------------0---0-------|---------------------------------|

Riff D:
| 1 e & a 2 e & a 3 e & a 4 e & a | 1 e & a 2 e & a 3 e & a 4 e & a |
=====================================================================
|-2---2---0---2---2---0---3---3---|-2---2---0---2---2---0---0---0---|
|.0---0---0---0---0---0---2---0---|-0---0---0---0---0---0---3---0--.|
|.0-----------------------0-------|-0-----------------------0------.|
|-0-----------------------0-------|-0-----------------------0-------|

			Repeat Riff D once

| 1 e & a 2 e & a 3 e & a 4 e & a | 1 e & a 2 e & a 3 e & a 4 e & a |
=====================================================================
|-R---5---5---5---5---5---5---5---|-5---3---2---0-------0-------5---|
|-R---0---0---0---0---0---0---0---|-----------------3-------2-------|
|-R---4---4---4---4---4---4---4---|---------------------------------|
|---------------------------------|---------------------------------|


| 1 e & a 2 e & a 3 e & a 4 e & a | 1 e & a 2 e & a 3 e & a 4 e & a |
=====================================================================
|-3---2---0-----------0---2---0---|-----0---2---5--(5)--0-------0---|
|-------------3---3---------------|-3-----------------------3-------|
|---------------------------------|---------------------------------|
|---------------------------------|---------------------------------|

			play Riff D twice

| 1 e & a 2 e & a 3 e & a 4 e & a | 1 e & a 2 e & a 3 e & a 4 e & a |
=====================================================================
|-R---5---5---5---5--(5)--5---5---|-5---3---2---0--(0)--5---3---2---|
|-R---0---0---0---0--(0)--0---0---|-0-------------------------------|
|-R---4---4---4---4--(4)--4---4---|---------------------------------|
|---------------------------------|---------------------------------|


| 1 e & a 2 e & a 3 e & a 4 e & a | 1 e & a 2 e & a 3 e & a 4 e & a |
=====================================================================
|---------2---0-------2---0-------|-5-----------2--(2)----------0---|
|-3---------------3-----------3---|-0-----------0--(0)--3--(3)------|
|---------------------------------|-4-------------------2--(2)------|
|---------------------------------|---------------------------------|

			play Riff D twice

| 1 e & a 2 e & a 3 e & a 4 e & a | 1 e & a 2 e & a 3 e & a 4 e & a |
=====================================================================
|-----2---R---2--(2)--3---R---3---|(3)--2---R---2--(2)--------------|
|-----3---R---3--(3)--2---R---2---|(2)--0---R---0--(0)--3---R---3---|
|---------------------------------|---------------------2---R---2---|
|---------------------------------|---------------------------------|


| 1 e & a 2 e & a 3 e & a 4 e & a | 1 e & a 2 e & a 3 e & a 4 e & a |
=====================================================================
|-----2---R---2--(2)--3---R---3---|(3)--2---R---2--(2)--------------|
|(3)--3---R---3--(3)--2---R---2---|(2)--0---R---0--(0)--3---R---3---|
|(2)------------------------------|---------------------2---R---2---|
|---------------------------------|---------------------------------|


| 1 e & a 2 e & a 3 e & a 4 e & a | 1 e & a 2 e & a 3 e & a 4 e & a |
=====================================================================
|-2---2-------2---3---3-------2---|-2---2---------------0-------2---|
|.0---0-------0---2---2-------0---|-0---0-------3--(3)--3-------0--.|
|.--------------------------------|-------------2--(2)--2----------.|
|---------------------------------|---------------------------------|

			repeat 3 times

| 1 e & a 2 e & a 3 e & a 4 e & a | 1 e & a 2 e & a 3 e & a 4 e & a |
=====================================================================
|-----0-0-2---2-------0-0-3---3---|-----0-0-2---2-------------------|
|.----0-0-0---0-------0-0-2---2---|-----0-0-0---0-------3--(3)--3--.|
|.--------------------------------|---------------------2--(2)--2--.|
|---------------------------------|---------------------------------|

			repeat 3 times

| 1 e & a 2 e & a 3 e & a 4 e & a | 1 e & a 2 e & a 3 e & a 4 e & a |
=====================================================================
|-----2--(2)--2---2---2---0---0---|-----5-------0---0---0--(0)--0---|
|-----0--(0)--0---0---0---3---3---|-----0-------3---2---0--(0)--0---|
|-------------------------2---2---|---------------------------------|
|---------------------------------|---------------------------------|


| 1 e & a 2 e & a 3 e & a 4 e & a | 1 e & a 2 e & a 3 e & a 4 e & a |
=====================================================================
|-----0---0---0-------------------|-2---2---R---2---R---2---R---0---|
|-----3---2---0-------------------|-0---0---R---0---R---0---R---0---|
|---------------------------------|---------------------------------|
|---------------------------------|---------------------------------|


| 1 e & a 2 e & a 3 e & a 4 e & a | 1 e & a
============================================
|(0)--3---R---0--(0)--5---R---0---|(0)--5---
|(0)--2---R---0--(0)--0---R---0---|(0)--0---  Fade completely
|-------------0--(0)--4---R---0---|(0)--4---
|---------------------------------|---------
Вверх

Black Country Woman

D|-3--2--1--0--0--0--3--2--1--0--0-------|
G|-3--2--1--0--0--0--3--2--1--0--0-------|
D|-0--0--0--0--0--0--0--0--0--0--0-------|
G|-0--0--0--0--0--0--0--0--0--0--0-------|
B|----------------------------------3--0-|
D|---------------------------------------|

Middle part (play different rhythms and variations with the
following chords, switching back to the above beginning chords
at appropriate times):

D|-8--7--5-----10--9--7-|
G|-8--7--5-----10--9--7-|
D|-5--5--5------7--7--7-|
G|-5--5--5------7--7--7-|
B|-5--5--5------7--7--7-|
D|----------------------|

Ending:

D|-0--0--0--0--0--2--0--3-|
G|-0--0--0--0--0--2--0--3-|
D|-0--0--0--0--0--0--0--0-|
G|-0--0--0--0--0--0--0--0-|
B|-3--2--1--0--0----------|
D|-0--0--0--0--0----------|

I`m doing this from memory so correct any mistakes I may have
made. Hope this helps,
Вверх

Black Dog mp3

Triple Tracked Elec plays main riffs:

E|-------------------------------------------------------------|
B|-------------------------------------------------------------|
G|-----------5^6----7-9--5h7p5------5^6------------------------|
D|---5-6-7-------7--------------7-7------7--5-7-7----------2-2-|
A|-7-------7--------------------------------------5--73-5-0-0--|
E|-------------------------------------------------------------|

E|-------------------------------------------------------------|
B|-------------------------------------------------------------|
G|-------------------------------------------------------------|
D|-----------5^6-------------5^6-------------5^6---------------|
A|---5-6-7-------7---5-6-7-------7---5-6-7-------7----5-6-7-5*-|
E|-7-------7-------7-------7-------7-------7--------7----------|
*Back to first riff

During the "Oh YEah...oh yeah!" part:

E|-------------------------------------------------------------|
B|-------------------------------------------------------------|
G|----2-4^6^4p2-4-2-------2-4^6^4p2-4-2-----------2-4^6^4p2----|
D|--2-------------------2-------------------2-5-2-----------4-2|
A|3-0---------------3^4-0---------------3^4-0-3-0--------------|
E|-------------------------------------------------------------|

E|-------------------------------------------------------------|
B|-------------------------------------------------------------|
G|--------2-4^6^4p2--4-2--------2-4^6^4p2-4-2----------------2-|
D|-----2----------------------2-------------------2--5--2----2-|
A|-3^4-0------------------3^4-0---------------3^4-0--3--0------|
E|---------------------------------------------------------3^5-|

On the last verse, the main riff is doubled with this:

E|-------------------------------------------------------------|
B|---0-1-2---4^5-2-7-9-5h7p5-2-2-4^5-2--0-2-2------------------|
G|-2-0-1-2-2-5^6-2-7-9-5h7p5-2-2-5^6-2--0-2-2--0-2-2-------2-2-|
D|-2-------2-----------------------------------0-2-2--2/4--2-2-|
A|----------------------------------------------------3/5--0-0-|
E|-------------------------------------------------------------|

This is during the "Hey Baby, Pretty Babay" part and backs the
solo:

E|----------------------------------------3---2-|
B|----------------------------------------3---3-|
G|-----2----2------2--5--2------2----2----0---2-|
D|-----2----2------2--5--2------2----2----0---0-|
A|-----0----0------0--3--0------0----0----------|
E|-2^3----2----3^4----------2^3----2------------|

The second time in the song that part is doubled with this:

E|--------------------------------------------------------3--2-|
B|--------------------------------------------------------3--3-|
G|-6--4------6---4---6--4--6--6/-9--6-------6--4---6--4---0--2-|
D|-7--5------7---5---7--5--7--7/10--7-------7--5---7--5---0--0-|
A|-------------------------------------------------------------|
E|-------------------------------------------------------------|

Heres the solo to Black Dog:

E|---------------------------------------5--------------------5|
B|-------------------------------------------------------------|
G|-----------------------------2---2-4/6-------------2--2-4/6--|
D|-------------------------2-4---4---------------2-4--4--------|
A|-----0-2^3-0-----0-0-2/4-----------------0-2-4---------------|
E|20h2---------2-0-0-------------------------------------------|

E|--------------------5---------------------------------------5|
B|--------------------------3----------------------------------|
G|----------2---2-4/6---5^7---5-4-2---2h4-----------2---2-4/6--|
D|------2-4---4---------------------4-----------2-4---4--------|
A|0-2-4-----------------------------------0-2-4----------------|
E|-------------------------------------------------------------|

E|---------------------5----------------------5--------------------|
B|---------------------------------------------------3-------------|
G|-----------2---2-4/6--------------2---2-4/6----5^7---5-4-2---2h4-|
D|-------2-4---4----------------2-4---4----------------------4-----|
A|-0-2-4------------------0-2/4------------------------------------|
E|-----------------------------------------------------------------|

E|-------5---5-7^9-7-5---5--------8-10--10^11-10^12--(10)^12^10p8--10-10^12^10-|
B|-------5-7-----------5---5-8/10----------------------------------------------|
G|-2-4/6-----------------------------------------------------------------------|
D|-----------------------------------------------------------------------------|
A|-----------------------------------------------------------------------------|
E|-----------------------------------------------------------------------------|

E|-8--10^12--8-----8-------10^12-10-8-10^12^10-------15-----------------------|
B|-------------10-------10------------------------15^17--(15)^17^15p13--15^17-|
G|----------------------------------------------0-----------------------------|
D|----------------------------------------------------------------------------|
A|----------------------------------------------------------------------------|
E|----------------------------------------------------------------------------|

E|------------------------------17------------17-----------20---------20-----|
B|-15-13---15^17--13-----------------------17-----20^21^22----(20)^22^20--17-|
G|-------0----------------19^21------19^21-----------------------------------|
D|-------------------12------------------------------------------------------|
A|---------------------------------------------------------------------------|
E|---------------------------------------------------------------------------|

E|--------17--------------------------------------------------20----------------|
B|-----------20-17-20^22---(20)^22^20--17-----20--------20^22-----(20)^22^20-17-|
G|-19^21-----------------------------------19^21^19^21--------------------------|
D|------------------------------------------------------------------------------|
A|------------------------------------------------------------------------------|
E|------------------------------------------------------------------------------|

E|--------------------------------------5------------5------------5-----|
B|------------------------------------5---8p5------5---8p5------5---8p5-|
G|-19^21--19--17-----19-17^18---5/7^9----------7^9----------7^9---------|
D|----------------19----------------------------------------------------|
A|----------------------------------------------------------------------|
E|----------------------------------------------------------------------|

E|-------5------------5------------5--------------------------------------|
B|-----5---8p5------5---8p5------5---8p5-8p5---5--------------------------|
G|-7^9----------7^9----------7^9-------------7---7-5---7-5-5^6--------5---|
D|---------------------------------------------------7----------7-5-7---7-|
A|------------------------------------------------------------------------|
E|------------------------------------------------------------------------|

E|-----------------------------------------------------------------|
B|---------------------------------8-------------------------------|
G|-5-7^9---5-5^6-5^6-7-7^9-7-5---5---7^9-7-5---5/7-------5-------5-|
D|-------7---------------------7-------------7-----5-6-7---5-6-7---|
A|-----------------------------------------------------------------|
E|-----------------------------------------------------------------|

E|---------------------------------------------------------------------------5-|
B|-----------------------------------------------------------------------------|
G|-------5/7--------5-------5/7-------5----------------------------2---2-4/6---|
D|-5-6-7------5-6-7---5-6-7-----5-6-7---5-6-7------------------2-4---4---------|
A|--------------------------------------------7-5-3-4------3h4-----------------|
E|----------------------------------------------------53-----------------------|

E|---------------------5------------------------------------------|
B|----------------------------------------------------------------|
G|-----------2---2-4/6---7-----------2---2-4/6-0------------------|
D|-------2-4---4-----------------2-4---4-------------4-0----------|
A|-0-3h4-------------------0-2/4-----------------3h4-----3-4-0----|
E|-------------------------------------------------------------32-|

E|---------------------5-5------8-8-10^12-10-10^12-10-10^12-10-8-10-10^12-|
B|-------------------------8/10---8---------------------------------------|
G|-----------2---2-4/6----------------------------------------------------|
D|-------2-4---4----------------------------------------------------------|
A|-0-2/4------------------------------------------------------------------|
E|------------------------------------------------------------------------|

E|-8--8^9----8----------------------------------15----------------|
B|--------10---10-13^17^13-10-13^17^13-10----------15^17-15-13----|
G|----------------------------------------14-14----------------14-|
D|----------------------------------------------------------------|
A|----------------------------------------------------------------|
E|----------------------------------------------------------------|
				FADE OUT
E|--------------------------15--------|
B|-13h15--13----13h15---13------15^17-|
G|-----------14-----------------------|
D|------------------------------------|
A|------------------------------------|
E|------------------------------------|
Вверх

Black Dog (2 вариант) mp3

  verse riff
G|-012-5-2-7h95h6h752-5-2--2-----------|
D|2---2-------------------2---0-0------|
A|---------------------------3-3-0-0---|
E|-------------------------------------|

  interlude
G|---------------------------------012-5-2-7h95h6h752-5-2--2-|
D|-012-5-2---02-5-2--012-5-2---02-2---2-------------------2--|
A|2---2----23--2----2---2----23--2---------------------------|
E|-----------------------------------------------------------|

E|----------|
B|--0-0-----|
G|-3-3-0-0--|
D|----------|

  chorus "Oh yeah oh yeah"
G|---------------------------------------------|
D|----------------------------------------/7---|
A|----------------3-------------------3--------|
E|5-2120-5-2120-5---5-5-2120-5-2120-5---5------|

  "hey baby, oh baby,
   pretty baby..." riff         end
G|-----------------------------|----|
D|-----------------------------|----|
A|-----------3----------/7-/5--|0---|
E|53-5-2--535-5--53-5-2--------|----|
Вверх

Black Mountain` Side

  D|-0----0----------------------|
  A|--------------2--------------|
4 G|-0-h2--p0--------------0-----|    repeat 4X
- D|-----------4-----------------|
4 A|--------------2--------------|
  D|--------------------3-----0--|

D|-0----0-----------------0-----|-------|-0----0----------------0-----|
A|---------------2--------------|-------|-----0--------2--------------|
G|-0-h2---p0--------------------|---%---|-0-h2--p0-----------0--------|
D|------------4-----------------|-------|-----------4-----------------|
A|---------------2--------------|-------|--------------2--------------|
D|---------------------3-----0--|-------|--------------------3-----0--|

D|-0----0----------------0----|----0--2/4------/4----|-----4-----5--4--2---|
A|--------------2-------------|----------------------|-/5-----------0------|
G|-0-h2--p0-------------------|----------------------|-----------0---------|
D|-----------4----------------|----------------------|--0------------------|
A|--------------2-------------|----0--4/5------/5----|---------------------|
D|--------------------3-----0-|-0-----------0------0-|--------0----------0-|

  D|-0--h2p0-------   |--------------0-   |--------------0--------------|
  A|---------------   |---------0------   |------3----------3-------3---|
2 G|-0--h2p0------- 5 |---------------- 4 |------0-0--------0---0---0---|
- D|----------4--4- - |--0------------- - |------2----------2---0---2---|
4 A|--------------- 8 |---------------- 4 |-2/3-------3-------3---3---3-|
  D|---------------   |-----0----------   |-----------------------------|

  D|------------   |-0----0---------------------|-0----0---------------0----|
  A|----2---2---   |--------------2--------0----|--------------2-------0----|
2 G|----0---0--- 4 |-0-h2--p0-------------------|-0-h2--p0------------------|
- D|----0---0--- - |-----------4----------------|---------------------------|
4 A|--2---2----- 4 |----------0---2-------------|-----------0--2------------|
  D|----------0-   |--------------------3-----0-|-------------------3-----0-|

D|-0----0------------------|------------------|----------0--------|
A|-----0-------------------|------------------|----------0----/12-|
G|-0-h2--p0-----4--2-4--/7-|-----/7--2-4-2-4-|(4)--4-4-----------|
D|-----------4--0-------/7-|-----/7--0-2-0-5-|(5)--4-5-----------|
A|-----------0-----0-2-----|------------------|-------------------|
D|--------------5--------0-|----0-0-------0---|(0)-------0---0-0--|

D|----------0------0----   |--------------||
A|----------------------   |--------------||
G|-4--4--2--4-----/4---- 2 |--------------||
D|-5--5--4--5-----/5---- - |-4p2p0-0-2----||
A|---------------------- 4 |--------------||
D|-0--0---------0-----0-   |------------0-||

  D|-0----0---------------------|-0----0----------------0----|
  A|--------------2--------0----|--------------2--------0----|
4 G|-0-h2--p0-------------------|-0-h2--p0-------------------|
- D|-----------4----------------|-0---------4----------------|
4 A|--------------2-------------|-----------0--2-------------|
  D|--------------------3-----0-|--------------------3-----0-|

D|-0----0----------------0----|-0----0----------------0----|
A|--------------2-------------|--------------2-------------|
G|-0-h2--p0-------------------|-0-h2--p0-----------0-------|
D|-----------4----------------|-----------4----------------|
A|--------------2-------------|--------------2-------------|
D|--------------------3-----0-|--------------------3-----0-|

D|----0--2--/4-----/4----|-----4-----5-----4--2----   |-0----0---------|
A|-----------------------|-/5--------------0-------   |----------------|
G|-----------------------|-----------0------------- 2 |-0-h2--p0-------|
D|-----------------------|--0---------------------- - |-----------4--2-|
A|----0--4--/5-----/5----|------------------------- 4 |----------------|
D|-0-------------0-----0-|--------0--------------0-   |----------------|

  D|-------------0-   |-------------------------   |------------------|
  A|--------0------   |----3---3----3---3-------   |----2-----2-------|
5 G|--------------- 4 |----0---0-0--0---0-----0- 5 |----0-----0-------|
- D|-0------------- - |----2---2----0---2------- - |------------------|
8 A|--------------- 4 |2/3---3----3---3----3---- 8 |-2-----2-----2----|
  D|----0----------   |-------------------------   |----------------0-|

  D|-0----0----------------0----|-0----0----------------0-----|
  A|--------------2--------0----|--------------2--------0-----|
4 G|-0-h2--p0-------------------|-0-h2--p0--------------------|
- D|-----------4----------------|-----------4-----------------|
4 A|--------------2-------------|--------------2--------------|
  D|--------------------3-----0-|--------------------3-----0--|

D|-0----0--------------------|----------------------|
A|---------------------------|----------------------|
G|-0-h2--p0-----4---2--4--/7-|(7)---/7--2--2--2--4-|
D|-----------4--0------0--/7-|(7)---/7--0--4--0--5-|
A|-----------0---------------|----------------------|
D|--------------5----------0-|(0)-0--0--0-----0-----|

D|-----------0---------------|-------0--------------0-|
A|-----------0-------2-------|-2-----0----------------|
G|(4)--4--4-------------0----|----------------------0-|
D|(5)--4--5----------0-----0-|-------------0--2--4----|
A|-------------------2-------|-2----------------------|
D|(0)--------0----0----------|----3-----0-------------|

D|(0)-------0-------------------|------------------------0----|
A|----0-------------------------|------------2-----------0----|
G|(0)-------0----2p0------------|------------0--0-------------|
D|-------4------------2p0-----0-|(0)--0------0----------------|
A|-------------------------3-/5-|(5)-----5--2-----2----------|
D|------------------------------|---------------------3-----0-|

D|-0----0----------------0----|-------|-0----0----------------0---|
A|--------------2-------------|-------|--------------2------------|
G|-0-h2--p0-------------------|---%---|-0-h2--p0------------------|
D|-----------4----------------|-------|-----------4---------------|
A|--------------2-------------|-------|-----------0--2------------|
D|--------------------3-----0-|-------|--------------------3------|

guitar solo:

D|-3p1p0-------------------/5--3-|-3p1p0--------------------------------|
A|--------3p1p0------------------|--------3p1p0-------------------------|
G|---------------//----//--------|---------------//----//--3p2p0--------|
D|-------------------------------|--------------------------------3p1p0-|
A|-------------------------------|--------------------------------------|
D|-------------------------------|--------------------------------------|
                                                                end of solo:
D|------------------------------------------|------------------------------|
A|------------------------------------------|------------------------------|
G|------------------------------------------|------------------------------|
D|-0-----0--0-----0--0-----0--0-----0--0----|-0-----------0-----0--0--0----|
A|---/5-------/5-------/5-------/5-------/5-|---/5--0-/5-----2-----------3-|
D|------------------------------------------|------------------------------|

D|-----0--2-/4--------/4----|----4-----5h7p5--4--2----   |-0---------------|
A|--------------------------|/5---------------0-------   |-----------------|
G|--------------------------|------------------------- 2 |-0----h2p0-------|
D|-----0--0-----------------|----------0-------------- - |------------4----|
A|----------/5--------/5----|/5----------------------- 4 |---------------2-|
D|-0------------0--0------0-|-------0---------------0-   |(0)--------------|

  D|-------------0-   |----------------------   |---------------|
  A|--------0----0-   |------3---3---3---3---   |---2---2-------|
5 G|--------------- 4 |------0---0---0---0--- 5 |---0---0-------|
- D|-0------------- - |------2---2---2---2--- - |---0---0-------|
8 A|--------------- 4 |-0/3----3---3---3---3- 8 |-2---2---------|
  D|----0----------   |----------------------   |----------0--0-|

  D|-0----0----------------0----|-------|-0----0--------------------|
  A|--------------2--------0----|-------|---------------------------|
4 G|-0-h2--p0-------------------|---%---|-0-h2--p0-----4----2--4-/7-|
- D|-----------4----------------|-------|-----------4--0-------0-/7-|
4 A|--------------2-------------|-------|-----------0---------------|
  D|--------------------3-----0-|-------|--------------5----------0-|

D|---------------------|----------0--------------|-------0--------------0-|
A|---------------------|----------0------2-------|-2-----0----------------|
G|(7)---/7----2-2-2-4-|(4)-4--4------------0----|----------------------0-|
D|(7)---/7----0-4-0-5-|(5)-4--5---------0-----0-|-------------0--2--4----|
A|---------------------|-----------------2-------|-2----------------------|
D|(0)-0--0-----0---0---|(0)-------0---0----------|----3-----0-------------|

D|(0)------0-----------------|----------------------------|
A|---0-----------------------|----------------------------|
G|(0)------0---2p0-----------|--------------0-------------|
D|------------------2p0----0-|(0)--0-----0-----0--0--0----|
A|------0----------------3/5-|(5)-----5--5----------------|
D|---------------------------|--------------------------0-|

D|-0----0----------------0----|-------|-0----0----------------0----|
A|--------------2-------------|-------|--------------2-------------|
G|-0-h2--p0-------------------|---%---|-0-h2--p0-------------------|
D|-----------4----------------|-------|-----------4----------------|
A|--------------2-------------|-------|--------------2-------------|
D|--------------------3-----0-|-------|--------------------3-----0-|

D|-0----0----------------0----|-0----0----------------0----|
A|-0------------2-------------|-0------------2-------------|
G|-0-h2--p0-------------------|-0-h2--p0-----------0-------|
D|-----------4----------------|-----------4----------------|
A|--------------2-------------|--------------2-----------0-|
D|--------------------3-----0-|--------------------3-----0-|
Вверх

Boogie With Stu

E|-------------------------------------------------|
B|-------------------------------------------------|
G|-------------------------------------------------|
D|-2-2-4-4-2-2-4-2-2-4-2--2-2-4-2--2-2-4-4-2-2-4-2-|
A|-0-0-0-0-0-0-0-0-0-0-0--0-0-0-0--0-0-0-0-0-0-0-0-|
E|-------------------------------------------------|

E|-------------------------------------------------|
B|-------------------------------------------------|
G|-----------------2-2-4-4-2-2-4-2--2-4-2--2-2-4-2-|
D|-2-4-2--2-2-4-2--0-0-0-0-0-0-0-0--0-0-0--0-0-0-0-|
A|-0-0-0--0-0-0-0----------------------------------|
E|-------------------------------------------------|

E|-------------------------------------------------|
B|-------------------------------------------------|
G|-2-2-4-4-2-2-4-2--2-4-2--2-2-4-2-----------------|
D|-0-0-0-0-0-0-0-0--0-0-0--0-0-0-0-2-2-4-4-2-2-4-2-|
A|---------------------------------0-0-0-0-0-0-0-0-|
E|-------------------------------------------------|

E|-------------------------------------------------|
B|-------------------------------------------------|
G|-------------------------------------------------|
D|-2-4-2--2-2-4-2----------------------------------|
A|-0-0-0--0-0-0-0--2-2-4-4-2-2-4-2--2---2--2-2-4-2-|
E|-----------------0-0-0-0-0-0-0-0--0-3-0--0-0-0-0-|

   E
E|---| And this is the basic riff played throughout the whole
B|---| song. Unfortunatly, I do not own a mandolin, so I can`t
G|-1-| post the mandolin solo.
D|-2-|
A|-2-|
E|-0-|

This is one of those songs where Robert tends to
mumble the lyrics, so these lyrics aren`t totally
accurate

Leaving town, now, baby
(I`d) leave before I call
Yeah Yeah Yeah Yeah Darlin`
Leave before I go home
I don`t want no Tutti-Fruiti-
No-life rock
Now come on baby just rock rock rock

Yeah ya ya ya honey,
We can shake them on down...
Whoa wo wo wo Darlin`
We just go on and ride...
Ahhhhhh
Ooooh... my head..
ROCK ON!

Hey Babe, Hey Babe (x4)

I don`t no Tutti-Fruiti-
No-Life Rock...
Now come on baby just rock rock rock

I don`t no Tutti-Fruiti-
No Life Rock
Now come on baby just rock rock rock
Вверх

Bring It On Home

g-------------------------
d-----------5/9-7-6-7-6---
a-----5-7---------------7-
e-5-7-----0---------------

g-------------------------
d-----------5/9-7-6-7-6---
a-----5-7-----------------
e-5-7-----0---------------

the rest goes basically like this, with little things added in for spice

g------------------------------
d-2-2---------2-2-2---2---2----
a---------2-4-------4---4------
e-----3-4-------------------3-0


7--0-----------| 3X

G| |----------------|----------------|----------------|----------------|
D|o|----------------|----------------|----------------|----------------|
A|o|--------------7-|7--7-7--77------|7--777--------7-|7--7-7-7-7-7----|
E| |0--0---4-5-7-9-9|----9--9----3-0-|-------4-5-7-9--|----9-------3-0-|
    Gotta tell you baby...            Tryin` to love me baby...
    Tell you pretty baby...           I`m gonna keep you lovin`...

G|----------------|----------------|----------------|----------------|
D|----------------|----------------|----------------|----------------|
A|7--777--------7-|7--7-7-7-7-7----|7--777-------7--|7--777-4-7------|
E|-------4-5-7-9--|----9-------3-0-|-------457-79--9|------------3-0-|

G|---------7-----9|----------------|-----------7---9|
D|-------79--9911-|----------------|---------79-911-|
A|7--777----------|7--75-----------|7--777-7--------|
E|----------------|-----7-5-4-43-0-|----------------|

G|----------------|-----------7---9|----------------|----------------|
D|----------------|---------79-911-|----------------|----------------|
A|7--777-5--------|7--777-7--------|7--777-5--------|7--77--7---775--|
E|---------7-53-0-|----------------|---------7-53-0-|--------------7-|

G|----------------|----------------|----------------|----------------|
D|-------9--767---|-------9--7676--|-------9--767---|-------9--7676--|
A|--57------------|--57----------7-|--57------------|--57----------7-|
E|57--0-----------|57--0-----------|57--0-----------|57--0-----------|
                                   __________________
                                   1.                |
G|----------------|----------------|---------------- |
D|-------9--767---|-------9-97676--|-------9-9767---o|
A|--57------------|--57----------7-|--57------------o|
E|57--0-----------|57--0-----------|57--0----------- |
 _________________
 2.
G|----------------|----------------|
D|-------9--767---|7---------------|
A|--57------------|----------------|
E|57--0-----------|----------------|

G|----------------|
D|----------------|
A|----------------|
E|----------------| 8X
Вверх

Bring It On Home (2 вариант)

[Riff 1]

E|--------------------------|
B|--------------------------|
G|--------------------------|
D|--------------------------|
A|--2--2--4--4--2---------2-|
E|--0--0--0--0--0--0--3h4---|
 PM ------------------------|

[Riff 2]

E|--------------------------|
B|--------------------------|
G|--------------------------|
D|--2--2--4--4--2---------2-|
A|--0--0--0--0--0--0--3h4---|
E|--------------------------|
 PM ------------------------|

[Riff 3]                          [Riff 3a]

E|----------------------------|------------------------|
B|----------------------------|------------------------|
G|----------------------------|------------------------|
D|--4--4--6--6--4--4--6--6----|---2-2--4-4--2-2--4-----|
A|--2--2--2--2--2--2--2--2----|---0-0--0-0--0-0--0---2-|
E|----------------------------|----------------------0-|
 PM -----------------------|   PM ---------------------|

[Riff 4] - with distortion

E|----------------------------------|-------------------------|
B|----------------------------------|-------------------------|
G|-------------2b4r2p1---2p1--------|-------------2b4r2p1--2~-|
D|-----0h2--------------------2~----|------0h2----------------|
A|-0h2------------------------------|--0h2--------------------|
E|---------0------------------------|----------0--------------|

[Riff 5] - with distortion

E|---------------------------------|--------------------------|
B|---------------------------------|--------------------------|
G|---------------------------------|--------------------------|
D|---------------7b9r7p6--7p6------|--------------7b9r7p6--7~-|
A|------5h7---------------------7~-|-------5h7----------------|
E|--5h7------0---------------------|---5h7-----0--------------|

[Riff 6] - with distortion

E|---------------------------|-------------|-------------|
B|---3--x-x--2--x-x--0h1--x--|-------------|-------------|
G|---4--x-x--2--x-x----------|-------------|-------------|
D|---------------------------|-------------|-------------|
A|---------------------------|-------------|-------------|
E|---------------------------|--3--3b--5---|--3--3b---0.-|

[Riff 7 - only played once in the entire song]

E|------------------------------|
B|------------------------------|
G|------------------------------|
D|------------------------------|
A|--2--2--4--4--2---------------|
E|--0--0--0--0--0---4.-5.-------|
 PM ----------------------|

[Riff 8]
                                                      D#7  E7
E|----------------12---------12----------12-------------------|
B|-------------9------9--10------10--11-----11--12------------|
G|-----------------------------------------------------6----7-|
D|-------------9------9--10------10--11-----11--12-----5----6-|
A|-----------------------------------------------------6----7-|
E|--0~~~~----------------------------------------------0----0-|

[Riff 9]

E|-----------------------------------------|
B|-------12--14-----14b15r14p12---14p12----|
G|-12-13--------13----------------------13-|
D|-----------------------------------------|
A|-----------------------------------------|
E|-----------------------------------------|

E|----------------------------------|
B|-------12-14----14b15r14p12---14~-|
G|-12-13-------13-------------------|
D|----------------------------------|
A|----------------------------------|
E|----------------------------------|

[Riff 10]

E|-----------------------------------------|
B|-----------------------------------------|
G|------------------14b16r14p13---14p13----|
D|--------12-14-------------------------14-|
A|--12-14----------------------------------|
E|--------------12-------------------------|

[Fill 1] - played with octave/fuzz

E|---12----12-12--12-|
B|-------------------|
G|----9-----9--9---9-|
D|-------------------|
A|-------------------|
E|-------------------|

Song progression:

[Riff 1] 35 times

On the 16th timE|

Ba - by,
Ba - by,
I`m gonna bring it on home to you.
I`ve got my ticket, I`ve got that load.
Got up, gone higher, all aboard.

With [Riff 2] 4 times

Take my seat, right way back.

With [Riff 1] 4 times

Watch this train roll down the track.

With [Riff 3] 1 time

I`m gonna bring it on home,

Play Half of [Riff 2]

bring it on home to you.

With [Riff 1] 2 times

Watch out, watch out, make room.

Play [Riff 3] and then [Riff 3a] .....

[Riff 4] + [Riff 5] + [Riff 10] 4 times, On third time enter
[Riff 9] and cut [Riff 10] out.

With [Riff 6]:

Try to tell you baby,
What you tryin` to do?
Tryin` to love me baby,
Love some other man too.
Bring it on home,
Bring it on home.

Went a little walk downtown,
Messed and got back late.
Found a note there waiting
It said "Daddy, I just can`t wait."
Bring it on home,
Bring it on home,
Bring it back home,
Bring it back home to me baby.

[Riff 4] + [Riff 5] + [Riff 10] 4 times, On third time enter
Riff 9] and cut [Riff 10] out.

With [Riff 6]:

Tell you pretty baby,
You love to mess me `roun`.
I`m gonna give you lovin`, baby.
Gonna move you outta town.
Bring it on home,
Bring it on home.

(Add [Fill 1] 8 times herE|)

Sweetest little baby
Daddy ever saw
I`m gonna give you lovin` baby,
I`m gonna give you more.
Bring it on home,
Bring it on home,
Bring it on home,
Alright.

[Riff 4] + [Riff 5] + [Riff 10] 4 times, On third time enter
[Riff 9] and
cut [Riff 10] out.

[Riff 4] x1

Then:

[Riff 3] x1

Bring it on home,

[Riff 2] x1

Bring it on home to you.

[Riff 1] x1
[Riff 7] x1

[Riff 3] x1
[Riff 3a] x1

[Riff 8] x1
Вверх

Bron-Yr-Aur

Tuning: C A C G C E
E|---|---------------------|-----------------|------0----------|
B|---|-------0-------------|------0----------|-----------------|
G|---|----0----------0-----|----0--------0---|----0-------0----|
D|---|------------0--------|-----------0-----|----------0------|
A|-0-|-h3---------------0--|-h3------------0-|-h3------------0-|
E|---|---------0-----------|--------0--------|--------0--------|

E|------0---------------|-------0------------|------0----------|
B|-----------------0----|----------------0---|--------------0--|
G|----0---------0-------|----0---------0-----|----0-------0----|
D|-----------0----------|------------0-------|----------0------|
A|-h3-----------------0-|-h3---------------0-|-h3-------------0|
E|--------0-------------|----------0---------|--------0--------|

E|------0---------------|--------0---------|--------3p-0-------|
B|-----------------0----|------------------|-2-----------2---0-|
G|----0---------0-------|-----0----------0-|---0-----------0---|
D|-----------0----------|-------------0----|-----2-------2-----|
A|-h3-----------------0-|-h3---------------|-2---------2-------|
E|--------0-------------|----------0-------|-------------------|

E|----------------------|-----------0--------0-|---------------|
B|--------0-------------|--5-----------------0-|-------0-------|
G|------0----------0----|-----4---------4----0-|-----0-------0-|
D|----0---------0-------|--------0--------0----|---0-------0---|
A|-3--------------------|--5----------5--------|-3-------------|
E|------0----0----------|----------------------|-----0---0-----|

E|--------3p-0-------|-----------------|---------0-------------|
B|-2-----------2-----|--------0--------|-5-------------------0-|
G|----0----------0---|-----0---------0-|---4-----------4-------|
D|------2------------|-0----------0----|------0-----------0----|
A|-2---------2-----3-|---3-------------|-5----------5----------|
E|-------------------|-----0----0------|-----------------------|

E|-------------------|---------------0-|-----------------------|
B|-------0-----------|------0----------|--0--------0-----------|
G|-----0-------------|-0----------0----|--------0----------0---|
D|---0--------0------|---0------0------|-----------------0-----|
A|-3-----------------|-----0--0--------|--0-h3-----------------|
E|-----0---0-----0---|-5------------0--|--------------0--------|

E|------------------0-|------------------|--------3-p0---------|
B|--------0-----------|-0-------0--------|-2------------2----0-|
G|-0-------------0----|------0---------0-|---0-------------0---|
D|----0--------0------|-------------0----|------2-------2------|
A|------0---0---------|-0-h3-------------|-2---------2---------|
E|-5-------------0----|-----------0------|---------------------|

E|----------------|----------0----------0-|--------------------|
B|-------0--------|-5-------------------0-|----------0---------|
G|-----0--------0-|----4----------4-----0-|-------0----------0-|
D|---0-------0----|-------0----------0----|----0----------0----|
A|-3--------------|-5----------5----------|-3------------------|
E|-----0---0------|-----------------------|-------0-----0------|

E|------------------|----------------------|-------------------|
B|--------0-------2-|----------4---------0-|--------0--------2-|
G|------0-------0---|-------4----------0---|------0--------0---|
D|----0-------2-----|----4----------4------|----0--------2-----|
A|-/3-------2-------|-0----------0---------|-/3--------2-------|
E|------------------|----------------------|-------------------|

E|-------------------|-------------------|---------------------|
B|-------4---------0-|--------0-------2/4|--------4h5p4-----4h5|
G|-----4---------0---|------0-------0----|-----4----------4----|
D|---4--------4------|----0-------2------|---4----------4------|
A|-0-------0---------|-/3-------2--------|-0----------0--------|
E|-------------------|-------------------|---------------------|

E|-----------------|-----------------|-------------------------|
B|-p4-----4------5-|-------4-------4-|-/5-------5---/7-------0-|
G|------4------4---|-----4-------4---|-------5-------------7---|
D|----4------4-----|---4-------4-----|----5-------------7------|
A|--0------0-------|-0-------0-------|-------------------------|
E|-----------------|-----------------|-/5----------5/7-----7---|

E|------------------|-----------------------|------------------|
B|--------0-------0-|--------5--/7--7-----0-|--------0-------0-|
G|------0-------0---|------5-----------7----|------0-------0---|
D|----0-------0-----|----5------------------|----0-------0-----|
A|-/3---------------|------------------7----|-/3---------------|
E|----------0-------|2/5-------5/7----------|----------0-------|

E|-------------------|------------------|----------------------|
B|-------5--/7-----0-|--------0-------0-|-------5---/7--7----0-|
G|-----5---------7---|------0-------0---|-----5------------7---|
D|---5---------7-----|----0-------0-----|---5------------------|
A|-------------------|-/3---------------|----------------------|
E|-5-------5/7---7---|----------0-------|-5--------5/7-----7---|

E|-------------------|--------3-p0----------|------------------|
B|---------0---------|-2------------2-----0-|--------0---------|
G|-------0---------0-|---0-------------0----|------0---------0-|
D|-----0--------0----|-----2--------2-------|---0---------0----|
A|-/3----------------|-2---------2----------|-3----------------|
E|-----------0-------|----------------------|------0----0------|

E|--------0-----------0-|-----------------|--------3-p0--------|
B|-5------------------0-|--------0--------|-2------------2-----|
G|----4---------4-----0-|------0--------0-|---0------------0---|
D|------0----------0----|---0---------0---|-----2--------------|
A|-5---------5----------|-3---------------|-2---------2------3-|
E|----------------------|------0----0-----|--------------------|

E|--------------------|-----------0--------0-|-----------------|
B|--------0-----------|--5-----------------0-|-------0---------|
G|------0---------0---|-----4----------4---0-|-----0-----------|
D|-0-----------0------|--------0---------0---|---0--------0----|
A|----3---------------|--5----------5--------|-3---------------|
E|------0----0--------|----------------------|-----0---0-----0-|

E|----------------0-|-------------------|--------------------0-|
B|-------0----------|-0--------0--------|---------0------------|
G|-0------------0---|-------0---------0-|-0----------------0---|
D|---0--------0-----|--------------0.---|---0-----------0------|
A|-----0----0-------|-0-h3--------------|------0-----0---------|
E|-5------------0---|------------0------|-5----------------0---|

E|-------------------|---------3-p0---------|------------------|
B|-0------0----------|-2-------------2----0-|-------0----------|
G|------0----------0-|----0-------------0---|-----0----------0-|
D|--------------0----|------2--------2------|---0---------0----|
A|-0-h3--------------|-2----------2---------|-3----------------|
E|-----------0-------|----------------------|-----0----0-------|

E|-------0----------0-|---------------------|------------------|
B|-5----------------0-|----------0----------|-------0--------2-|
G|---4--------4-----0-|-------0-----------0-|-----0--------0---|
D|-----0---------0----|----0-----------0----|---0--------2-----|
A|-5--------5---------|-3-------------------|-3--------2-------|
E|--------------------|-------0-----0-------|------------------|

E|--------------------|-------------------|--------------------|
B|-/4-----4h5p4-----0-|--------0--------2-|-/4-----4h5p4-----0-|
G|------4---------4---|------0--------0---|------4---------4---|
D|----4---------4-----|----0-------2------|----4---------4-----|
A|--0---------0-------|-/3-------2--------|--0---------0-------|
E|--------------------|-------------------|--------------------|

E|---------------------|-------------------|-------------------|
B|--------0----------2-|-/4------4h5p4---4-|-------5---------4-|
G|------0---------0----|------4------------|-----4---------4---|
D|----0--------2-------|----4----------4---|---4---------4-----|
A|-/3-------2----------|--0----------0-----|-0--------0--------|
E|---------------------|-------------------|-------------------|

E|---------------------|--------------------|------------------|
B|-------5-----------4-|-/5-------5/7-----0-|--------0-------0-|
G|-----4----------4----|-------5--------7---|------0-------0---|
D|---4---------4-------|-----5--------7-----|----0-------0-----|
A|-0--------0----------|-/5-----------------|-/3---------------|
E|---------------------|-----------/7-------|----------0-------|

E|--------------------|------------------|---------------------|
B|--------5--/7-7---0-|--------0-------0-|--------5--/7-7----0-|
G|------5---------7---|------0-------0---|------5---------7----|
D|----5---------------|----0-------0-----|----5----------------|
A|--------------------|-/3---------------|---------------------|
E|2/5-------5/7---7---|----------0-------|2/5-------5/7---7----|

E|------------------|------------------|-----------------------|
B|--------0-------0-|--------5--/7-7---|---------4-----------5-|
G|------0-------0---|------5---------7-|------4-----------4----|
D|----0-------0-----|----5-------------|---4-----------4-------|
A|-/3---------------|------------------|-0----------0----------|
E|----------0-------|2/5-------5/7---7-|-----------------------|

E|-----------------|------------------|------------------------|
B|-------4-------5-|-------4--------5-|----------4-----------4-|
G|-----4-------4---|-----4--------4---|-------4-----------4----|
D|---4-------4-----|---4--------4-----|----4-----------4-------|
A|-0-------0-------|-0--------0-------|-0-----------0----------|
E|-----------------|------------------|------------------------|

E|---------------0--|-------0--------0-|----------0----------0-|
B|-------0-----0----|-----5--------5---|-------5----------5----|
G|-----0-----5------|---7--------7-----|----7----------7-------|
D|---5-----7--------|-0--------0-------|-0-----------7---------|
A|-7----------------|------------------|-----------------------|
E|------------------|------------------|-----------------------|

E|------------0-------------0--|-------------------------------|
B|---------5------------5------|----0--------------------------|
G|------7------------7---------|----0--------------------------|
D|--0------------7-------------|----0--------------------------|
A|-----------------------------|----3--------------------------|
E|-----------------------------|----0--------------------------|
Вверх

Bron Yr Aur Stomp

Alternate tuning - (6)=C (-4 semitones),(5)=F (-4),(4)=C (-2),(3)=F (-2),
		 (2)=A (-2) ,(1)=F (+1)
		 (6 is the lowest in pitch and 1 is highest)


   P
3--0 = 3 pull of to 0              2/4 slide up from 2 to 4
			        42  slide down from 4 to 2
   H
0--3 = 0 hammer onto 3             [5]  Percussive strum (muting)

(0)   = Ghost Note(tie)             tempo = 110 bpm

F--12--7--------------0-(0)---------|--12--7--------------0-(0)-----------
A--12--7--------3-----------3-------|--12--7--------3-----------3---------
F--12--7--2//4-----4-----------4----|--12--7--2//4-----------4------------
C--12--7----------------------------|--12--7-----------5-----------5------
F--12--7-----------------0----------|--12--7------------------------------
C--12--7----------------------------|--12--7------------------------------

-------0-(0)-----0-(0)----------|---------0-(0)-----0-(0)-----------------
---3---------3---------3--------|-----3---------3---------3---3---0-------
-4--------4---------4------2-0--|-2/4--------4---------4--------2---0-----
-----5---------5---------5------|-------5---------5---------5-------------
--------------------------------|-----------------------------------------
--------------------------------|-----------------------------------------

				        P         P       H
---------0-(0)-----0-(0)--------------|-----------------------------------
-----3---------3---------3---3---0----|---------3-(3)---3-------3---3-3-3-
-2/4--------4---------4--------2---0--|-2/4-0-0----4--0-4-------0-0---0-0-
-------5---------5---------5----------|-----------------5-0-0-2-----------
--------------------------------------|-----------------------------------
--------------------------------------|-----------------------------------

     P         P       P                   P         P         P
-------------------------------------|--------------------------------------
-------3-3-(3)---3-------3-3-(3)-----|---3-----3-(3)---3-3-(3)---3-----3----
-2/4-0-0----4--0-0-0-2-0-0-------0---|-2/4-0-0----4--0------4--0-0---2-0----
------------------------------2--0---|--------------------------------------
-------------------------------------|--------------------------------------
-------------------------------------|--------------------------------------

    H     H                              H     H
-------------------------------------|--------------------------------------
-(3)--3---3-(3)-3---3-3-3---3-(3)-3--|-----3---3---3---3-(3)-3---3----------
------0-0-2--0----0---0---0----------|-----0-0-2-0---0----0----0-----0------
--0-2--------------------------2--0--|-0-2-------------------------2-0------
-------------------------------------|--------------------------------------
-------------------------------------|--------------------------------------

	      Strum Pattern ->            ___          __       __
			          |  |   |   |  |  |  |  |  |  |  |
--------------------------------|--------------------------------------
--3--3--------------------------|----0--(0)--0--0-----------------0----
-(0)------3--3--3--5--5--[5]----|-0--0--(0)--0--0--3--3--3--5--5--0----
-(0)---0--3--3--3--5--5--[5]----|----0--(0)--0--0--3--3--3--5--5-------
----------3--------5--5--[5]----|----0--(0)--0--0--3--3--3--5--5-------
--------------------------------|--------------------------------------

     __ ___ ___ ___                         __ __ __ __       __
 |  |  |   |   |   |   |  |  |  |       |  |  |  |  |  |  |  |  |  |  |
-------------------------------------|--------------------------------------
-0--0--0--(0)--0--[0]----------------|--0--0--0--0--0--0--------------------
-0--0--0--(0)--0--[0]--3--3--5--5----|--0--0--0--0--0--0--3--3--3--5--5-----
-0--0--0--(0)--0--[0]--3--3--5--5----|--0--0--0--0--0--0--3--3--3--5--5-----
-0--0--0--(0)--0--[0]--3--3--5--5----|--0--0--0--0--0--0--3--3--3--5--5-----
-------------------------------------|--------------------------------------

     __ __ __ __ __ __ __ __ __ __ __ __ __
 |  |  |  |  |  |  |  |  |  |  |  |  |  |  |
---------------------------------------------|------------------------------
-0--0--0--0--0--0--0--0--0--0--0--0--0--0--0-|--Repeat last measure---------
-0--0--0--0--0--0--0--0--0--0--0--0--0--0--0-|--Except that first 8th note--
-0--0--0--0--0--0--0--0--0--0--0--0--0--0--0-|--is two 16th notes-----------
-0--0--0--0--0--0--0--0--0--0--0--0--0--0--0-|---(i.e) different strum pat.-
---------------------------------------------|-------------------------------
     __ __ __ __                               __
 |  |  |  |  |  |           P           |  |  |  |  |           P
--------------------------------------|------------------------------------
-0--0--0--0--0--0--0-----0-(0)--------|-0--0--0--0--0--0-----0-(0)---------
-0--0--0--0--0--0--0---0-0-(0)--------|-0--0--0--0--0--0---0-0-(0)---------
-0--0--0--0--0--0--3-0-0-0-(0)-0-0----|-0--0--0--0--0--3-0-0-0-(0)-0-0-----
-0--0--0--0--0--0--------3--0--0-0----|-0--0--0--0--0--------3--0--0-0-----
---------------------------------0-3--|------------------------------0-3---

This next measure is the main riff...played once before the drums ^^^^^^^
 and then 4 times total before the lyrics start.
         __                                  __
  |  |  |  |  |           P           |  |  |  |  |           P
------------------------------------|------------------------------------
--0--0--0--0--0--0-----0-(0)--------|-0--0--0--0--0--0-----0-(0)---------
--0--0--0--0--0--0---0-0-(0)--------|-0--0--0--0--0--0---0-0-(0)---------
--0--0--0--0--0--3-0-0-0-(0)-0-0----|-0--0--0--0--0--3-0-0-0-(0)-0-0-----
--0--0--0--0--0--------3--0--0-0----|-0--0--0--0--0--------3--0--0-0-----
-------------------------------0-3--|------------------------------0-3---

Next is the 6 measure part played behind the lyrics. Rhythm is very
important here...just get in the groove...
       	 __       __                      __          __
  |  |  |  |  |  |  |  |  |  |     |  |  |  |  |  |  |  |  |  |
--------------------------------|---------------------------------------
--5--5--5--5--5--5--5--5--0--3--|--4--5--5--5--0--5--5--5---------------
--5--5--5--5--5--5--5--5--0--3--|--4--5--5--5--0--5--5--5--0--3---------
--5--5--5--5--5--5--5--5--0--3--|--4--5--5--5--0--5--5--5--0--3---------
--5--5--5--5--5--5--5--5--0--3--|--4--5--5--5--0--5--5--5--0--3---------
--------------------------------|---------------------------------------
 Ah...                  Caught   smil-ing      at me     that`s
			 you                                 the

	 __          __                   __          __
  |  |  |  |  |  |  |  |  |  |     |  |  |  |  |  |  |  |  |  |
--------------------------------|--------------------------------------
--4--5--5--5--0--5--5--5--------|--4--5--5--5--0--5--5--5--------------
--4--5--5--5--0--5--5--5--0--3--|--4--5--5--5--0--5--5--5--3--3--------
--4--5--5--5--0--5--5--5--0--3--|--4--5--5--5--0--5--5--5--3--3--------
--4--5--5--5--0--5--5--5--0--3--|--4--5--5--5--0--5--5--5--3--3--------
--------------------------------|--------------------------------------
 way it     should      like a   leaf is to    a tree     so
	        be

	 __                                  __
  |  |  |  |  |           P           |  |  |  |  |           P
------------------------------------|------------------------------------
--0--0--0--0--0--0-----0-(0)--------|-0--0--0--0--0--0-----0-(0)---------
--0--0--0--0--0--0---0-0-(0)--------|-0--0--0--0--0--0---0-0-(0)---------
--0--0--0--0--0--3-0-0-0-(0)-0-0----|-0--0--0--0--0--3-0-0-0-(0)-0-0-----
--0--0--0--0--0--------3--0--0-0----|-0--0--0--0--0--------3--0--0-0-----
-------------------------------0-3--|------------------------------0-3---
 fine

Repeat above 6 measures a total of twice, behind lyrics...then it changes.
The timing here is great, a measure of 4/4, one 9/8, one 4/4 and one 7/8.

      __       __       __              __       __
  |  |  |  |  |  |  |  |  |  |      |  |  |  |  |  |  |  |  |  |  |
---------------------------------|--------------------------------------
--2--2--2--2--2--2--2--2--2--2---|--5--5--5--5--5--5--5--5--0--3--5-----
--2--2--2--2--2--2--2--2--2--2---|--5--5--5--5--5--5--5--5--0--3--5-----
--2--2--2--2--2--2--2--2--2--2---|--5--5--5--5--5--5--5--5--0--3--5-----
--2--2--2--2--2--2--2--2--2--2---|--------------------------0--3--5-----
---------------------------------|--------------------------------------

      __       __                           __       __
  |  |  |  |  |  |  |  |  |             |  |  |  |  |  |  |  |
-------------------------------------|--------------------------------------
--0--0--0--0-(0)-0--0--3--5----------|--0--0--0--0-(0)-0--0--3--------------
--0--0--0--0-(0)-0--0--3--5----------|--0--0--0--0-(0)-0--0--3--------------
--0--0--0--0-(0)-0--0--3--5----------|--0--0--0--0-(0)-0--0--3--------------
--0--0--0--0-(0)-0--0--3--5----------|--0--0--0--0-(0)-0--0-----------------
-------------------------------------|--------0-----------------------------

The next 4 measures are the same chords and at the end, 2 measures of the
cascade tacked on...
	 __                                  __
  |  |  |  |  |           P           |  |  |  |  |           P
------------------------------------|------------------------------------
--0--0--0--0--0--0-----0-(0)--------|-0--0--0--0--0--0-----0-(0)---------
--0--0--0--0--0--0---0-0-(0)--------|-0--0--0--0--0--0---0-0-(0)---------
--0--0--0--0--0--3-0-0-0-(0)-0-0----|-0--0--0--0--0--3-0-0-0-(0)-0-0-----
--0--0--0--0--0--------3--0--0-0----|-0--0--0--0--0--------3--0--0-0-----
-------------------------------0-3--|------------------------------0-3---

Then the whole thing basically repeats once again from the beginning,
but the next time you come to the end, instead of the above cascade, play
this...a little sliding thing that introduces a new riff for the bridge verse.

    __ __ __          __ __ __              __ __ __                __
   |  |  |  |  |  |  |  |  |  |  |  |      |  |  |  |  |  |  |  |  |  |
------0--0--0-----------0--0--0--0-----|------0--0--0--0---------------------
--12/15-15-15--0--0-12/15-15-15-15--0--|--12/15-15-15-15--0--3--5--0--0--0---
--12/16-16-16--0--0-12/16-16-16-16--0--|--12/16-16-16-16--0--3--5--0--0--0---
---------------0--0-----------------0--|------------------0--3--5--0--0--0---
---------------------------------------|------------------0--3--5--0-----0---
---------------------------------------|-------------------------------------

This is the same notes, just a different rhythm, played twice over the bridge.

   __ __ __ __ _ _ _ __ __ __ __ __ _ _ _      __ __ __
  |  |  |  |  | | | |  |  |  |  |  | | | |    |  |  |  |  |  |  |  |  |  |
-----0--0--0--0-----------0--0--0--0-------|-----0--0--0--0-----------------
-12/15-15-15-15-0-0-0-12/15-15-15-15-0-0-0-|-12/15-15-15-15--0--3--5--0--0--
-12/16-16-16-16-0-0-0-12/16-16-16-16-0-0-0-|-12/16-16-16-16--0--3--5--0--0--
--0-----0--0--0-0-0-0--0-----0--0--0-0-0-0-|--0-----0--0--0--0--3--5--0--0--
--0-----0--0--0-0-0-0--0-----0--0--0-0-0-0-|--0-----0--0--0--0--3--5--0--0--
-------------------------------------------|--------------------------------
 My          My       la    de la          Come on    now     ain`t
		   					          too far


After the above stuph, there is a part linking back to the intro riff,
basically play the 4/4, 9/8, 4/4, 7/8 part from above again, twice.  The
second time you play it, Plant says "Come one now, well let me tell you
what you`re miss-in`, miss-in` round them brick walls." Then, immediately
after that, he plays the intro fingerpicking part with a few changes
(of course...:>).


--------------------0--0----(0)------|--------------------0--0--0-(0)-------
--12--0--7----------------------3----|--12--0--0--7--0----------------3-----
--12--0--7--0--0--2/4--4-------------|--12--0--0--7--0--2/4--4-----4--------
--12--0--0--0--0----------5--------5-|--12--0--0--7--0-------------------5--
--12-------------------------0-------|--12----------------------------------
-------------------------------------|--------------------------------------


---------0---------0------------------|---------0--------0----------------
-----3---------3---------3---3---0----|-----3--------3-------3---0---0----
-2/4--------4---------4--------2---0--|-2/4--------4-------4-------2---0--
-------5---------5---------5----------|-------5--------5-------5----------
--------------------------------------|-----------------------------------
--------------------------------------|-----------------------------------

     P                                      P         P       P
--------------------------------------|-----------------------------------
-------3-3-(3)---3-------3-3-(3)------|---------3-(3)-----3-------3-------
-2/4-0-0----4--0-0-0-2-0-0-------0----|-2/4-0------4--0-0---2-0--------0--
------------------------------2--0----|-------0-----------------0---2--0--
--------------------------------------|-----------------------------------
--------------------------------------|-----------------------------------

This jumps directly to a part where he just wails on the open strings and
then plays four of the 3rd fret cascades...after this part, he goes back to
the main melody part that is already written above, sings one last verse,
and then the song is over!
Вверх

Carouselambra

Progression:

G A A G A A G A A G A A   B C#

Repeat this 8 times:

[x00231] [x02220]
Dm/A       A

With verse:  [x33211]  [x30210]

F/C C
Sisters by the wayside bide their time in quiet peace,
await their place within the ring of calm.

Dm/A A
Still stand to turn in seconds of release,
await the call they know may never come.

F/C C
In times of lightness no intruder dared upon
to jeopardize the course, upset the run.

Dm/A A
All was joy and hands were raised towards the sun,
as love in halls of plenty overrun.

[xx0233] [xx0232]
Dsus4      D
Ah,  ah,  ah,  ah.

Then 4 times in the same pattern:

[113331]   [133211]
Bb/F        F

4 times:
Dm/A     A

F/C C
Still in their bliss unchallenged mighty feast,
unending dances shadowed on the day.

Dm/A     A
Within the wall their dauting formless keep,
preserved their joy and kept their doubts at bay.

F/C C
Faceless legions stood in readiness to weep,
just turn a coin, bring order to the fray.

Dm/A     A
And everything is soon no sooner thought than deed,
but no-one seemed to question anyway.

Dsus4      D
Ah,  ah,  ah, ah.

4 times:

Bb/F F

Then the keyboard does a little roll which kinda goes like this:

|:  A~      F G  :|  [Play it four times]

F/C C
How keen the soaring hunter`s eye prevails upon the land,
to seek the unsuspecting and the weak.

Dm/A     A
And powerless the fabled sat, too slow to lift a hand,
toward the foe that threatened them from the deep.

F/C      C
Who cares to dry the cheeks of those who saddened stand,
adrift upon the sea of futile speech?

Dm/A A
Wha??

Dsus4 D
Ah,  ah,  ah, ah.

4 times:

Bb/F F

Then the keyboard does that little roll again:

|:  A~      F G  :|  [Play it four times]

The keyboard does another thing but I`ll list the chords here:

|:  F     G  Em  :|  [Play it three times]

|:  A~      F G  :|  [two times]

|:  F     G  Em  :|  [Play it three times]

|:  A~      F G  :|  [two times]

|:  F     G  Em  :|  [Play it three times]

[This is in D]:

[Riff 1] - play it once initially

   Em      D             A       G      C             D
e|--7------5~-----5------5~------3------0------0------2~-|
B|----8------7------7------5-------3------1------1----3~-|
G|------9------7~-----7------6~------4------0---------2~-|
D|----------------------------------------------------0~-|
A|-------------------------------------------------------|
E|-------------------------------------------------------|

e|--7------5~-----5------5~------3------0------0---|
B|----8------7------7------5-------3------1------1-|
G|------9------7~-----7------6~------4------0------|
D|-------------------------------------------------|
A|-------------------------------------------------|
E|-------------------------------------------------|

[Back to the key of C]:

[Riff 2]

    A              Cmaj7
e|--0~---------------0~-|
B|--2~---------------0~-|
G|--2~---------------0~-|
D|--2~---------4-----2~-|
A|--0~-------0---0---3~-|
E|----------------------|

[Riff 2] x2

[Riff 2] with lyrics:

Where was your word, where did you go?
Where was your helping, where was your bow? Bow.

[Riff 1] x1

[Riff 2] w/ lyrics:

Dull is the armour, cold is the day.
Hard was your journey, dark was the way. Way.

[Riff 1] x1

[Riff 2] w/ lyrics:

I heard the word, I couldn`t stay, oh.
I couldn`t stand it another day. Another day, ay, another day,
Another day.

Keyboard bangs out an A chord, then it plays a G for four
measures [final key switch to G], then A again for four measures

Play G:
Touched by the timely coming, roused from the keeper`s sleep,
Play A:
release the grip, throw down the key.
Play D:
Held now within the knowing, rest now within the peace,
Play A:
Take of the fruit, but guard the seed.

Play D for four measures, then:

        [x04442]
|:   A A   B/A~   :|   [Play this four times]

Play G for four measures, then A for four measures.

Play G:
Held now within the knowing, rest now within the beat,
take of the fruit but guard the seed.

Play D for four measures, then:

Play A:
Take of the fruit but guard the seed.

Play D for four measures, then:

|:   A A   B/A~   :|   [Play this three times]

Repeat until fadeout:
                       [x05553]
|:   A A   B/A~    C/A  B/A  :|
Вверх

Celebration Day Remasters

[Riff 1]

    A7      (play this rapidly)           (play this rapidly)
e|----------9--9--9--9--9--9--9-|------------------------------|
B|----------8--8--8--8--8--8--8-|---------5--5--5--5--5--5--5--|
G|o-------2-9--9--9--9--9--9--9-|---------6--6--6--6--6--6--6-o|
D|o-----------------------------|-5-------5--5--5--5--5--5--5-o|
A|--0-3-0-----------------------|---3--0-----------------------|
E|------------------------------|------------------------------|

[Riff 2]
          C              G              Bb             F
e|--0-0-0-0-0-0-0--3-3-3-3-3-3-3--1-1-1-1-1-1-1--1-1-1-1-1-1-1-|
B|--1-1-1-1-1-1-1--3-3-3-3-3-3-3--3-3-3-3-3-3-3--1-1-1-1-1-1-1-|
G|--0-0-0-0-0-0-0--0-0-0-0-0-0-0--3-3-3-3-3-3-3--2-2-2-2-2-2-2-|
D|--2-2-2-2-2-2-2--0-0-0-0-0-0-0--3-3-3-3-3-3-3--3-3-3-3-3-3-3-|
A|--3-3-3-3-3-3-3--2-2-2-2-2-2-2--1-1-1-1-1-1-1--3-3-3-3-3-3-3-|
E|-----------------3-3-3-3-3-3-3-----------------1-1-1-1-1-1-1-|

         C             G          Bb           F        E
e|-0-0-0-0-0-0-0-3-3-3-3-3-3-1-1-1-1-1-1-1-1-1-1-1-1-----------|
B|-1-1-1-1-1-1-1-3-3-3-3-3-3-3-3-3-3-3-3-3-1-1-1-1-1-----------|
G|-0-0-0-0-0-0-0-0-0-0-0-0-0-3-3-3-3-3-3-3-2-2-2-2-2-1-1-1-1-1-|
D|-2-2-2-2-2-2-2-0-0-0-0-0-0-3-3-3-3-3-3-3-3-3-3-3-3-2-2-2-2-2-|
A|-3-3-3-3-3-3-3-2-2-2-2-2-2-1-1-1-1-1-1-1-3-3-3-3-3-2-2-2-2-2-|
E|---------------3-3-3-3-3-3---------------1-1-1-1-1-----------|

Song Progression:

[Riff 1] x2

With [Riff 1]:

Her face is cracked from smiling,
all the fears that she`s been hiding,
and it seems that pretty soon
evr`ybody`s gonna know.

And her voice is sore from shouting,
cheering winners who are losing,
and she wonders if their days are few
and soon they`ll have to go.

[Riff 1] once more, then

With [Riff 2]: (chords shown here for reference)

C            G
My, my, my, I`m so happy,
Bb                F
I`m gonna join the band.
 C                     G
We are gonna dance and sing in celebration,
 Bb                   F  E
we are in the promised land.

With [Riff 1]:

She hears them talk of new ways
to protect the home she lives in,
Then she wonders what it`s all about
when they break down the door.
Her name is Brown or White or Black;
you know her very well.
You hear her cries of mercy
as the winners toll the bell.

With [Riff 2]:

My, my, my, I`m so happy,
I`m gonna join the band.
We are gonna sing and dance in celebration,
we are in the promised land.

[Solo]:


E|----------------------------------|
B|-15b17-15b17-15b17r15p13-15b17-15-|
G|----------------------------------|
D|----------------------------------|
A|----------------------------------|
E|----------------------------------|

E|----------------------------------|
B|-(15)---------13-15p13----15p13---|
G|-----12-12-14-----------14-----14-|
D|----------------------------------|
A|----------------------------------|
E|----------------------------------|

E|------------15------------|-------------8p5----------|
B|-13---15-13----15b17-15b17|-(17)-15b17-----8p5-8p5---|
G|--------------------------|-----------------------7p5|
D|--------------------------|--------------------------|
A|--------------------------|--------------------------|
E|--------------------------|--------------------------|

E|----------------------|-----------------------|-------------8|
B|----------------------|-----------------------|--------------|
G|-7b9-7b9-7b9r7p5-7b9r7|-(17)-----5-7p5-5-7p5--|-5-7-5-5-8h9--|
D|----------------------|-----5-5h7-----7-----7-|--------------|
A|----------------------|-----------------------|--------------|
E|----------------------|-----------------------|--------------|

E|-------13----13--------12----12-|
B|--------------------------------|
G|-12/14----14-----12/13----13----|
D|--------------------------------|
A|--------------------------------|
E|--------------------------------|

With [Riff 1]:

There is a train that leaves the station
heading for your destination,
But the price you pay to nowhere
has increased a dollar more. Yes, it has!
And if you walk you`re gonna get there
although it takes a little longer,
And when you see it in the distance
you will wring your hands and moan.

Repeat [Riff 1] until fade out
Вверх

Communication Breakdown

			D   A  D
e---------------------------------
B---T--------------------7---5--7-
G---A--------------------7---6--7-
D---B--------------------7---7--7-
A------------------------5---7--5-
E------0-0-0-0-0-0-0-0-0-----5----

	This pattern doesn`t change until the Chorus, where it switches to:

       A5  A6A5  A6  A7  A5A6A5  A6  A7  A5A6A5    A6A7  A5A6A5    A6A5
e--------------------5---------------5---------------5-----------------
B---T----------------5---------------5---------------5-----------------
G---A----------------6---------------6---------------6-----------------
D---B----------------5---------------5---------------5-----------------
A------7-7-9-7-7-9-x-7---7-9-7-7-9-r-7---7-9-7-7-7-9-7---7-9-7-7-7-9-7-
E------5-5-5-5-5-5-x-5---5-5-5-5-5-r-5---5-5-5-5-5-5-5---5-5-5-5-5-5-5-
                   |             |                 |
       Semi P.M.----     Semi P.M.       Semi P.M.--     Semi P.M.-----

   B5  B6B5      B6B7  B5B6B5    B6B7 B5B6B5      B5B7  B5B6B5    B6
e------------------7---------------7----------------7----------------
B------------------7---------------7----------------7----------------
G------------------8---------------8----------------8----------------
D------------------7---------------7----------------7----------------
A--9-9-119-9-9-9-119---9-119-9-9-119---9-1199-9-9-119---9-119-9-9-11-
E--7-7-7-7-7-7-7-7-7---7-7-7-7-7-7-7---7-7-77-7-7-7-7---7-7-7-7-7-7-0
                     |               |
----------------------    Semi P.M.---
note:  The parts where it looks like I have the 119th fret indicated came from
the inconvenience of a two digit number (11), therefore no dash.  The part
where it says "1199" and "77" are due to this same problem, as well as that two
sixteenth notes are played while up until here the pattern has been eigth
notes.  In other words he doubles time splitting the note into two, but not
skipping a beat.  This isn`t really complex at all, the problem is the way I`ve
written out the TAB. It wouldn`t be confusing if I knew how to do this
properly.  Sorry.
					-Dave

	Then back to the main riff of eigth note Es and the D-A-D changes,
after which the chorus is repeated.  The second time through the main riff and
chorus there are some minor changes which are probably not too hard to figure,
including some slides and harmonics (at the seventh fret).  This is because
there have actually been two electric guitars doing this part, and the second
guitar changes to these minor variations.  Anyway, let`s get to the solo:

	During the solo the second guitar repeats this pattern (until the
chorus):

       E                 D     A   E
e--------------------------------------
B---T--9-----------------7-----5---7---
G---A--9-9-9-9-9-9-9-9-r-7-----6---7---
D---B--9-9-9-9-9-9-9-9-r-7-----7---7---
A------7-7-7-7-7-7-7-7-r-5-----7---5---
E------0-0-0-0-0-0-0-0-r-------5-------
       Semi-P.M. throughout

	Okay, this is probably a no-no to do in writing TAB, but to write the
solo I`m going to pretty well forget about having the dashes mean anything in
terms of keeping time, and just get the notes down in proper order.  And I
thought I had no problems with tablature.  Anyone who wants to "clean-up" a
copy of this and repost is welcome to, perhaps along with sending me a detailed
e-message as to exactly where I went wrong tabbing things out.  Anyway, lead
guitar goes like:

e----------12-----------------14--------------------------------------12-------
B---T--12-----15^12-12--------12-15^12-12-12-----12-15^12-12-----12------15^12-
G---A--14b-------------14-14b----------------14b-------------14b-14b-----------
D---B--------------------------------------------------------------------------
A------------------------------------------------------------------------------
E------------------------------------------------------------------------------

------------------------------------12--------12-------------------------------
12----12---12-15----12--12-15^12-12--------------------------------------------
---14-14b--------14-14b------------------14b-14b-14^12------14-12h----------12-
-------------------------------------------------------14----------14-12-14----
-------------------------------------------------------------------------------
-------------------------------------------------------------------------------

-------12----12----12---12---15b---15---12----12------------12-----------------
----12----15----15-------------------------15------------12--------------------
14b----------------------------------------------14b-14b-------14b^14^12----14-
-------------------------------------------------------------------------14----
-------------------------------------------------------------------------------
-------------------------------------------------------------------------------

--------9----9----9---------------------------------------------------------10-
------9-9-12-9-12-9-------------------------------9--------------------10b-10b-
12-----------------11b^11^9-11-11-9----9-9-11b-----11b^11^9----11-9-9---------
---12--------------------------------11----------------------11----------------
-------------------------------------------------------------------------------
-------------------------------------------------------------------------------

----10-------------------------------7/9---9-97-7-0     Okay, I know the solo
10b----10b^10^8---10-8---------------7/9---9-97-7-0 continues on into the
----------------9------9-8-9---------7/9---9-97-7-0 chorus, but it`s 1:40 A.M.
---------------------------------------------------- right now, and I`ve got
---------------------------------------------------- classes from 8:30.  I`m
----------------------------/12-x-0-r--------------- not sure if this is really
           					     going to do anyone any
good anyway, what with my absolute lack of any time structure here.
	Anyway, I`ll post the rest of the solo later if someone will nicely
e-mail me and show me how to post TAB where dual digit fret numbers and adding
embellishments like bends won`t mess up the time kept by the dashes.  If you
have a copy of the song to listen to, this posting may yet do you some good, as
the notes are accurate, I`m fairly sure.  Yawn...
Вверх

Communication Breakdown (2 вариант)

E  DAD E
Verse
E       D A D    E                 D A D
Hey, Girl,  Stop what you`re doin`
E    D  A   D      E                D A D
Hey, Girl,  You`ll drive me to ruin
E                       D A    D          E               DAD
I don`t know what it is I like about you, but I like it alot
E                     D  A   D  E                     D A D
Oh, to let me hold you,  Let me feel you lovin charms.

Chorus

A7
Communication breakdown its always the same
B7
I`m havin` a nervous breakdown .. drive me insane

E  DADE  E  DAD

Verse
E    D   A  D     E                                   D A D
Hey, Girl,  I got something I think you ought to know
E       D A  D       E                           D  A  D
Hey,  babe,  I wanna tell you that I love you so
E            D   A  D  E            D  A  D
I wanna hold you in my arms,  yeah
E                       D A D    E                     D A D
I`m never gonna let you go       `cause I like your charms

Chrous

Solo

Repeat
E   DADE          DAD
Communications Breakdown
Communications Breakdown
Вверх

Custard Pie

part 1. intro

     h
G|---------------|--------|
D|-------2---757-|--------|
A|-3^4----4------|--rest--|
E|---------------|--------|

part 2. main riff

G|--------------|--------------------|
D|----------757-|------------2---757-|
A|--------------|-------3^4---4------|
E|-5--5--5------|-5--5---------------|

part 3. post main riff I

G|---|--------------|
D|---|--------------|
A|-5-|-5-4-3--3-2-1-|
E|---|--------------|

part 4. post main riff II

G|---|----------------|
D|---|-5--------------|
A|-7-|----------------|
E|---|----------1---3-|

Song structure: part:
1,1,2,2,3,2,2,2,2,4,2,2,2,2,3,2,2,2,2,4,...etc

ost main riff II

G|---|----------------|
D|---|-5--------------|
A|-7-|----------------|
E|---|----------1---3-|

Song structure: part:
1,1,2,2,3,2,2,2,2,4,2,2,2,2,3,2,2,2,2,4,...etc
Вверх

Dancing Days

 :Intro    |   *    |  --- Repeat two times---
E|---------|--------|---------------------------------|
B|-(2-/3)-2-(/32---0)--------------(2-/3)-2-(/32---0)-|
G|---------|--------|---------------------------------|
D|---------|--------|---------------------------------|
A|----------------------------------------------------|
E|----------------------------------------------------|

E|----------------------------------------------------|
B|-(2-/3)--(2/32--0)--(/7--5)------(2-/3)-2-(/32---0)-|
G|----------------------------------------------------|
D|---------------------(/7--5)------------------------|
A|----------------------------------------------------|
E|----------------------------------------------------|

I found there many veriations on the hammers and pulls.
:Verse
E|----------------------------------------------------|
B|-0--3--5------(5-h6)-(6--5)-------(/9--7)--9-(9--7)-|
G|-0--3--5-------5------5------------/6------6--6-----|
D|-0--3--5-------5------5------------/6------6--6-----|
A|----------------------------------------------------|
E|----------------------------------------------------|

E|-----------------------------------------------|
B|-(/6 -5 h6)--(6 h8)---(5 h6)  5----------------|
G|--/5----------5--------5------5----------------|
D|--/5----------5--------5------5------5-7-5-7-5-|
A|-----------------------------------------------|
E|-----------------------------------------------|

E|---------------------------------------------|
B|-6-----(5-h6)-(6--5)-------(/9--7)--9-(9 -7)-|
G|-5------5------5------------/6------6--6-----|
D|-5------5------5------------/6------6--6-----|
A|---------------------------------------------|
E|---------------------------------------------|

E|-----------------------------------------------|
B|-(/6--5-h6)--(6-h8)---(5-h6)--5----------------|
G|--/5----------5--------5------5----------------|
D|--/5----------5--------5------5------5-7-5-7-5-|
A|-----------------------------------------------|
E|-----------------------------------------------|

E|-------------------------------------------------|
B|-(6--5)-----6--(6--5)-------(/5 -3)--6--3---5--3-|
G|--5---------5---5------------/3------3--3---3--3-|
D|--5---------5---5------------/3------3--3---3--3-|
A|-------------------------------------------------|
E|-------------------------------------------------|

E|--------------------------------------------|
B|-(3--2)--3--2-(3-h5)--(2-h3)--2-------------|
G|--2------2--2--2-------2------2-------------|
D|--2------2--2--2-------2------2-----2-3-2-3-|
A|--------------------------------------------|
E|--------------------------------------------|

E|-------------------------------------------------|
B|-(6--5)-----6--(6--5)-------(/5--3)--6--3---5--3-|
G|--5---------5---5------------/3------3--3---3--3-|
D|--5---------5---5------------/3------3--3---3--3-|
A|-------------------------------------------------|
E|-------------------------------------------------|

E|-------------------------------------------------------------|
B|-(3--2)--3--2-(3-h5)--(2-h3) -2------------------------------|
G|--2------2--2--2-------2------2------------------------------|
D|--2------2--2--2-------2------2-----2-3-2-3-(or-2-3-2-2-3-2)-|
A|-------------------------------------------------------------|
E|-------------------------------------------------------------|

:Solo line over Verse
E|-------------------8------8---/9--(9/11)--8-|
B|-------------5--8--8------8---/9--(9/11)--8-|
G|----------5---------------------------------|
D|-------5------------------------------------|
A|-3-/7---------------------------------------|
E|--------------------------------------------|

E|-------------------8---------------------------------|
B|-------------5--8--8---------------------------------|
G|----------5------------------(1715)------(15/17)--14-|
D|-------5---------------------(1715)------(15/17)--14-|
A|-3-/7------------------------------------------------|
E|-----------------------------------------------------|

E|-------------------8---------------------------------|
B|-------------5--8--8---------------------------------|
G|----------5------------------(1715)------(15/17)--14-|
D|-------5---------------------(1715)------(15/17)--14-|
A|-3-/7------------------------------------------------|
E|-----------------------------------------------------|

:Solo
E|----------------------------------------------------------|
B|----------------------------------------------------------|
G|-0--3--/5------3--0--3--/5--6-----------6-8-(8 ^ 10)--8-8-|
D|-0--3--/5------3--0--3--/5--6-----------------------------|
A|----------------------------------------------------------|
E|----------------------------------------------------------|

E|-------------------------------------------------------------|
B|-------------------------------------------------------------|
G|-(8 ^ 10)--(8 ^ 10)--8-8----(8 ^ 10)--(8 ^ 10)-8-8-6-6-8-6-5-|
D|-------------------------------------------------------------|
A|-------------------------------------------------------------|
E|-------------------------------------------------------------|

                          ---or---

E|--------------------------------------------------------|
B|--------------------------------------------------------|
G|-0--3--/5------3--0--3--/5--6-------(6/8) /10--/10--8-8-|
D|-0--3--/5------3--0--3--/5--6-------(6/8) /10--/10--8-8-|
A|--------------------------------------------------------|
E|--------------------------------------------------------|

E|----------------------------------------------------------8-|
B|---------------------------------------------------5---5-8--|
G|-/10--/10--8-8-------/10--/10--8-8-6-(6/86)-5----5----------|
D|-/10--/10--8-8-------/10--/10--8-8-6-(6/86)-5---5-----------|
A|------------------------------------------------------------|
E|------------------------------------------------------------|

E|-(9/10)--9--(9/107)   ( over and over)-|
B|---------------------------------------|
G|---------------------------------------|
D|---------------------------------------|
A|---------------------------------------|
E|---------------------------------------|
Вверх

Dancing Days (2 вариант)

This song has at least three guitars, tuned with their high
E`s to D: EADGBD

The opening rhythm is  played almost exactly the same by two
guitars:
With this rhythm figure:     And the slide on the third measure:
D|-0----------0--------------------------------|
B|-2-3-2--3p2-0---------------------------5/75-|
G|-0-0-0--0---0--------------------------------|
D|-0-0-0--0---0---------------------------5/75-|
A|---------------------------------------------|
E|---------------------------------------------|

During the vocals, one guitar does this Chuck Berry like thing:

D|---------------------------------------|
B|---------------------------------------|
G|-5--5--7-7--5---6-6-8-8-6--5-5-7-7-5-5-|
D|-3--3--3-3--3---4-4-4-4-4--3-3-3-3-3-3-|
A|---------------------------------------|
E|---------------------------------------|

And during the "You know its alright" stuff:
D|---------------------------------------|
B|---------------------------------------|
G|-5-5-7-7-5---3-3--5-5--3--2-2-3-3-2--2-|
D|-3-3-3-3-3---1-1--1-1--1--0-0-0-0-0--0-|
A|---------------------------------------|
E|---------------------------------------|

The other guitar plays this:

D|-7--5--7-7--5---8--6--8-8--6---7--5--7--7--5-|
B|-6--5--6-6--5---8--6--8-8--6---6--5--6--6--5-|
G|-5--5--5-5--5---6--6--6-6--6---5--5--5--5--5-|
D|---------------------------------------------|
A|---------------------------------------------|
E|---------------------------------------------|
And during the "You know its allright" part:

D|-7-5--7-7--5---5--3--5--5--3--3-2--3-3---5p3p2-|
B|-6-5--6-6--5---5--3--5--5--3--3-2--3-3---2-----|
G|-5-5--5-5--5---3--3--3--3--3--2-2--2-2---2-----|
D|-----------------------------------------------|
A|-----------------------------------------------|
E|-----------------------------------------------|

The ascending riff during the vocals is:

D|-------------8-----8-8/10---10/118---------------------|
B|---------5-8------------------------------1715----1714-|
G|-------5----------------------------------1715----1714-|
D|-----5------------------------------------1715----1714-|
A|-5/7---------------------------------------------------|
E|-------------------------------------------------------|

The solo goes something like this:
D|-------------------------------------------------------------|
B|-------------------------------------------------------------|
G|-3-0-0-3-0-5-0-6-8/10-8/10-8-8/10-8/10-8-8/10-8/10-8-6-8-8/10|
D|-------------------------------------------------------------|
A|-------------------------------------------------------------|
E|-------------------------------------------------------------|

D|-----|
B|-----|
G|-2/5-|
D|-----|
A|-----|
E|-----|

Then just play the rythym riff up here:

D|-11--12--11-12p11p9-|
B|--------------------|
G|--------------------|
D|--------------------|
A|--------------------|
E|--------------------|
Вверх

Dazed And Confused

   s  s  s  s  e  s  s  s  s  s  s  s  s  s  s     s  s  s  s
E|----------r--r--------------------------------|-----------r--|
B|----------e--e--------------------------------|-----------e--|
G|----------s--s--------------------------------|-----------s--|
D|----------t--t--------------------------------|-----------t--|
A|----------------------------------------------|--------------|
E|-3--3--3--------3--3--3--3--3--3--3--3--3--3--|--3--3--3-----|

   q  h   s  s  s  s  e  s  s  s  s  s  s  s  s  s s   s  s  s
E|-r--r-|----------r--r------------------------------|-3--3--3-|
B|-e--e-|----------e--e------------------------------|-6--6--6-|
G|-s--s-|----------s--s------------------------------|-4--4--4-|
D|-t--t-|----------t--t------------------------------|-3--3--3-|
A|------|--------------------------------------------|-5--5--5-|
E|------|-3--3--3--------3--3--3--3--3--3--3--3--3-3-|-3--3--3-|

   s  q  h   E  E  E  E  Q   E  E  E  E  e  e   e  e  q  e  e
E|-r--r--r-|---------------|------------------|-------0--------|
B|-e--e--e-|---------------|------------------|-------8--------|
G|-s--s--s-|---------------|------------------|-------7--------|
D|-t--t--t-|-5--4--3--4--5-|-7--6--5--6--7--5-|-------6--------|
A|---------|---------------|------------------|-------7--------|
E|---------|---------------|------------------|-0--0-----0--0--|

   q   e  e  q  e  e  q   s  s  s  s  s  s  s  s  s  s  s  s
E|-0-|-------0--------0-|--------------------------------------|
B|-8-|-------8--------8-|--------------------------------------|
G|-7-|-------7--------7-|-------------------------------7--9---|
D|-6-|-------6--------6-|-------------------5--7--7--9---------|
A|-7-|-------7--------7-|----------5--5--7---------------------|
E|---|-0--0-----0--0----|-3--5--7------------------------------|

   s  s  e     e  e   q   s   s   e   s   s   s   s      s
E|----------|-----------------------------------------|--------|
B|-------12-|^-17-15--12------12----------------------|--------|
G|-12-14----|-------------14------12------------------|--------|
D|----------|-------------------------14--12--14--12--|--------|
A|----------|-----------------------------------------|--14----|
E|----------|-----------------------------------------|--------|

   s  s  s  s  s   s   s   s   s   s   s   s   s   s   s    e
E|--------------------------------------------------------|----|
B|--------------------------------------------------------|----|
G|--------------------------------------------------------|----|
D|-14-12----12-14--12------12-----------------------------|----|
A|-------14------------14------14--12--10--12--10------10-|/14-|
E|-------------------------------------------------12-----|----|

   s  s  s  s   s   s   s  s   s   s  s   s   s   s    e   e
E|----------------------r----------r--------------r--|---------|
B|----------------------e----------e--------------e--|-----15--|
G|--------------12--14--s--12--14--s--12--14--12--s--|/16------|
D|-12-12-12-14----------t----------t--------------t--|---------|
A|---------------------------------------------------|---------|
E|---------------------------------------------------|---------|

   e    E   q   e    e    q   q   e   e   e     s   s   s   s
E|---^--19--17-----|---^--19--17--15--17--15-|--15--16--17--15-|
B|-17--------------|-15----------------------|-----------------|
G|--------------16-|-------------------------|-----------------|
D|-----------------|-------------------------|-----------------|
A|-----------------|-------------------------|-----------------|
E|-----------------|-------------------------|-----------------|

   s  s  s  q  s  s   s  s   s   s   s    s   s   s   s  s  s
E|-16-------r---------r-----------------|-----12------r--------|
B|----17-15-e--17p14--e--14--12---------|---------15--e--15p12-|
G|----------s---------s----------14--12-|-13----------s--------|
D|----------t---------t-----------------|-------------t--------|
A|--------------------------------------|----------------------|
E|--------------------------------------|----------------------|

   s  s   s  s   s   s   e   e    s   s   s  s  s   s   s   s
E|--------r---------------------|------------------------------|
B|--------e---------------------|------------------------------|
G|-14-12--s--14--12--14--12-----|-14--14--12h14p12------14-----|
D|--------t------------------14-|-------------------14------14-|
A|------------------------------|------------------------------|
E|------------------------------|------------------------------|

   s  s  s  s  s   s   e    e   e   e   E   s   s   s   s   s
E|------------------------|---------12--15---------------------|
B|------------------------|-----15-----------------------------|
G|-12h14p12----14------12-|-16--------------14--12------14-----|
D|----------14-----14-----|-------------------------14------14-|
A|------------------------|------------------------------------|
E|------------------------|------------------------------------|

   s   s    e   e   q  s  s   s   s   s   s   s   s     e   e
E|--------|---------r--r-----------------------------|---------|
B|--------|---------e--e-----------------------------|---------|
G|-12--14-|-12------s--s--14--12------14------12--14-|--12-----|
D|--------|-----14--t--t----------14------14---------|------14-|
A|--------|------------------------------------------|---------|
E|--------|------------------------------------------|---------|

   q  s  s   s   s   s   s   s   s     e   e   q  s  s   s   s
E|-r--r-----------------------------|---------r--r-------------|
B|-e--e-----------------------------|---------e--e-------------|
G|-s--s--14--12------14------12--14-|-12------s--s--14--12-----|
D|-t--t----------14------14---------|-----14--t--t----------14-|
A|----------------------------------|--------------------------|
E|----------------------------------|--------------------------|

   s   s   s   s    e   e   e   E   s  s   s  s   s   e    e
E|----------------|--------------------------------------|-----|
B|----------------|--------------------------------------|-----|
G|-14------12--14-|-12-----------------------------------|-----|
D|-----14---------|-----14--12--14--12h14--12h14--12-----|-----|
A|----------------|-----------------------------------14-|-10--|
E|----------------|--------------------------------------|-----|

   e   e   E   s  s   s  s   s   s   s    e   s   s   s  s  s
E|--------------------------------------|----------------------|
B|--------------------------------------|----------------------|
G|--------------------------------------|-------------------12-|
D|--------------------------------------|-----12--12--12-14----|
A|-----10--12--10h12--10h12--10------10-|/14-------------------|
E|-12----------------------------12-----|----------------------|

   s  s s  s   s  e  s   s    t  t   s   s   s   t  t   s   s
E|----r--------r------------|--------15------15---------15-----|
B|----e--------e---------15-|-15h17------17------15h17------17-|
G|-14-s-12-14--s--12/16-----|----------------------------------|
D|----t--------t------------|----------------------------------|
A|--------------------------|----------------------------------|
E|--------------------------|----------------------------------|

  s   t  t   s   s   s   t  t   s  s  s    e   q   e   s   s
E|-15---------15------15---------15----15-|---^-19--17--15--16-|
B|-----15h17------17------15h17-----17----|-15-----------------|
G|----------------------------------------|--------------------|
D|----------------------------------------|--------------------|
A|----------------------------------------|--------------------|
E|----------------------------------------|--------------------|

   s   s   s   s   s   s   s  s  s   s  s   s   s   s   s   s
E|-17--15--16----------r-|-r---------r----------------------12-|
B|-------------17--15--e-|-e--17p14--e--14--12-----------------|
G|---------------------s-|-s---------s----------14--12--13-----|
D|---------------------t-|-t---------t-------------------------|
A|-----------------------|-------------------------------------|
E|-----------------------|-------------------------------------|

   s  s    e   s   s    s   s   s   s   s   s   s   s   s   s
E|--------------------|----------------------------------------|
B|-15p12--------------|----------------------------------------|
G|------^--16--14--12-|-----14--12------12--14--12------12-----|
D|--------------------|-14----------14--------------14------14-|
A|--------------------|----------------------------------------|
E|--------------------|----------------------------------------|

   s   s   s   s   s  s
E|------------------------|
B|------------------------|
G|------------------------|
D|-12------14------12h14--|
A|-----14------14---------|
E|------------------------|


TABLATURE EXPLANATION

----------                ----------              ----t---
----5h8--- Hammeron       ----(8)--- Ghost        ----6--- Tap
----------                ---------- Note         --------
----5p8--- Pulloff        ----------              --------

----------                ----------              -----p--
----5/8--- Slide Up       -----x---- Dead         -----7-- Pop
----------                ---------- Note         --s-----
----58--- Slide Down     ----------               --5----- Slap

----------                ||------|| Repeat       --------
----5~~~-- Vibrato        ||*----*||              ---5^--- Bend
----------                ||*----*||              --------
----------                ||------||              --------

----------                ----------              --------
-4:------- Time           ----------              --------
-4:------- Signature      ----------              --------
----------                ----------              --------

Rhythm:
w = whole note        W = dotted whole
h = half note         H = dotted half
q = quarter note      Q = dotted quarter
e = eighth note       E = dotted eighth
s = sixteenth note    S = dotted sixteenth
t = 32nd note         T = dotted 32nd
x = 64th note         X = dotted 64th
^ = triplet
Вверх

Dazed And Confused (2 вариант)

The intro should be done using NATURAL HARMONICS like this..

E|----12-----5----------------12------5----|
B|-12------5---------------12-------5------|
G|-------------12------------------------5-|
D|-----------------------------------------|
A|-----------------------------------------|
E|-----------------------------------------|

~ pretty wild vibrato - since this is a harmonic on an open
  string you need   to use a vibrato arm (or if your guitar
  does not have one you can do this by applying pressure to
  the string above the nut - but this is harder to control)
Вверх

Dyer Maker

Basically, it follows the pattern C Am F G (all E-form bar
chords):

C     Am     F  G
Oh oh oh oh oh, you don`t have to go, ...

repeated endless number of times, until:

Am                         G
When I read the letter you wrote me, ...

which also repeats a few times before going back to the verse.
Вверх

Fool In The Rain

Electric Guitar: Main Rythm

E|-0--1---3---5---5---3----------------0--1--3---5---5--3-|
B|-1--3---5---5---5---4---3------------1--3--5---5---5--3-|
G|-0--2---4---5---5---4---4------------0--2--4---5---5--4-|
D|------------------------5-------------------------------|
A|--------------------------------------------------------|
E|--------------------------------------------------------|

Acoustic 12-String during Rythym Pickup
E|-----------------------------------------------|
B|--------------5--------------------------------|
G|-------5----5------7---4------7--4--5-----4----|
D|-----5----7----------------------------7-----5-|
A|---7-------------------------------------------|
E|-----------------------------------------------|

Acoustic Guitar during the middle with all the percussion
E|--0--0------1--1----1-----3--3--3--3-|
B|--1--1------1--1----1-----3--3--3--3-|
G|--0--0------2--2----2-----4--4--4--4-|
D|--2--2------3--3----3-----5--5--5--5-|
A|--3--3-------------------------------|
E|-------------------------------------|

Electric Guitar during the middle
E|---0--0-----1--1----1-----3--3--3--3-|
B|---1--1-----1--1----1-----3--3--3--3-|
G|---0--0-----2--2----2-----4--4--4--4-|
D|-------------------------------------|
A|-------------------------------------|
E|-------------------------------------|

Guitar Solo is a Guitar Synth down one octave

E|---------------------------------------------------------|
B|-----5--8--5--6-----5--8--5--6--5-----3-6-3-5----3-5-3-5-|
G|---------------------------------------------------------|
D|---7--------------7-----------------5----------5---------|
A|---------------------------------------------------------|
E|---------------------------------------------------------|

E|------------------------------------------------------------|
B|-31--3--1------------------------6p5-6p5--------------------|
G|----2--2--2---------------7---5------------7-5--7-5----5----|
D|------------5-----5-7-5-7---7-----------------------7-----7-|
A|--------------5/7-------------------------------------------|
E|------------------------------------------------------------|

E|------------------------|
B|------------------------|
G|-7--5-----5-------5-4---|
D|----------------7-----5-|
A|------------------------|
E|------------------------|

E|---------------------------------5---------------------------|
B|-------------------5-6-5---5-6-8---8-6-5-6-5-6-5-------------|
G|-----4-5-4---4-5-7-------7-----------------------7-5-7-5-7-5-|
D|-5-7-------7-------------------------------------------------|
A|-------------------------------------------------------------|
E|-------------------------------------------------------------|

E|-----------|
B|-----------|
G|-------5-7-|
D|-7-5-7-----|
A|-----------|
E|-----------|

E|---------------------------5-5-------------------------------|
B|---------------6-5---5-6-8-----8-6-5-6-5---------------10--8-|
G|-5-7-5-------5-----7---------------------7-5-7---5-7/9----9--|
D|-------7-7-7-----------------------------------7-------------|
A|-------------------------------------------------------------|
E|-------------------------------------------------------------|

E|----3--------------------------------------------------------|
B|-5-6--5-6-3-5-3----------------------------------------------|
G|---------------5-4-5-4---------------------------------------|
D|-----------------------5----------------------12-14-15-14-12-|
A|-------------------------12-14-15-14-12-14-15----------------|
E|-------------------------------------------------------------|

E|----------------------------------------12-------------------|
B|-------------------12----------12-12-15----15-12-15-12-12-12-|
G|-------12-12-14-14----14-12-14-------------------------------|
D|-14-15-------------------------------------------------------|
A|-------------------------------------------------------------|
E|-------------------------------------------------------------|

E|---------------|
B|----12---------|
G|-14---14-14-12-|
D|---------------|
A|---------------|
E|---------------|

E|----------------------------------------------------------|
B|----------------------------------------------------------|
G|----12----------------------------------------------------|
D|-15----14-15-14-15-14-12-14-12----------------------------|
A|-------------------------------15-15-14-12-15-14-15-14----|
E|-------------------------------------------------------15-|

E|-12-12------------------10-----------------------------------|
B|-------------------------------------------------------------|
G|-------9-9-9-10-9----------7-7-7-7-9-7-9-7-----7-9-7---------|
D|------------------10---------------------------------9-7-9-7-|
A|---------------------10--------------------------------------|
E|-------------------------------------------------------------|

E|-------------------------------------------------------------|
B|-------------------------------------------------5-6-5---5-6-|
G|---------------7--5----5--7-----5----4----4----7-------7-----|
D|-5-7-5-------7------7-------------------7----7---------------|
A|--------5/10-------------------------------------------------|
E|-------------------------------------------------------------|

E|-5----------------------------------------------------------|
B|---8-8-5-6-5---5--------------------------------------------|
G|-------------7---7-5-7-5-4-5-4---4-5--4------5-----4--------|
D|-------------------------------7---------7------7----5/7--5-|
A|------------------------------------------------------------|
E|------------------------------------------------------------|

Guitar Synth during Vocals Part
E|----------------------|
B|----------------------|
G|----------------------|
D|---3--5---------2-5---|
A|-3----------2-5-----3-|
E|----------3-----------|

Acoustic Guitar to end:

E|-3------------5------------------------------|
B|---5-5----------5-6------8-6-5-----6-5-------|
G|-------4-5----------5-5--------7-5-----7-5-4-|
D|---------------------------------------------|
A|---------------------------------------------|
E|---------------------------------------------|
Вверх

Fool In The Rain (2 вариант)

Great tune! Here`s the main riff (as I figured out):

   Cmaj7 Dmin7 Emin7   Fmaj7 Amin7 G  GII
e|-3-----5-----7-------8-----12-------7--|
B|-5-----6-----8-------10----13--12---8--|
G|-4-----5-----7-------9-----12--12---7--|
D|-5-----7-----9-------10----14--12---9--|
A|-3-----5-----7-------8-----12--10---10-|
E|---------------------------------------|

Continuing, it begins again with: Cmaj7 - Dmin7 - Emin7 - Fmaj7
-Fmaj7- G.

The bridge just strums over C -F -G -C.
Вверх

For Your Life

Intro to verses: (for intro to third verse, play the G majors
as G minors)

E|-3---3-----------3---3------3---3-----------3---3-|
B|-3---3-----------3---3------3---3-----------3---3-|
G|-4---4---5-3-5---4---4------4---4---5-3-5---4---4-|
D|-5---5---5-3-5---5---5------5---5---5-3-5---5---5-|
A|-5---5---3-3-3---5---5------5---5---3-3-3---5---5-|
E|-3---3-----------3---3------3---3-----------3---3-|

E|-3---3-----------3---3------3---3-----------3---3----------|
B|-3---3-----------3---3------3---3-----------3---3----------|
G|-4---4---5-3-5---4---4------4---4---5-3-5---4---4----5-3-5-|
D|-5---5---5-3-5---5---5------5---5---5-3-5---5---5----5-3-5-|
A|-5---5---3-3-3---5---5------5---5---3-3-3---5---5----3-3-3-|
E|-3---3-----------3---3------3---3-----------3---3----------|

Verses: (repeat this bit three times)
E|----------------------------------|
B|----------------------------------|
G|-5--7-5-5-5-7-5----5--7-5-5-5-7-5-|
D|-5--7-5-5-5-7-5----5--7-5-5-5-7-5-|
A|-3--3-3-3-3-3-3----3--3-3-3-3-3-3-|
E|----------------------------------|

E|-3--3---------3--3---3---3-----------3---3-------------------|
B|-3--3---------3--3---3---3-----------3---3-------------------|
G|-4--4--5-3-5--4--4---4---4---5-3-5---4---4---5-3-5---5-3-----|
D|-5--5--5-3-5--5--5---5---5---5-3-5---5---5---5-3-5---5-3-5-5-|
A|-5--5--3-3-3--5--5---5---5---3-3-3---5---5---3-3-3---3-3-5-5-|
E|-3--3---------3--3---3---3-----------3---3---------------3-3-|
                                                <----->  <----->
                                                 first    third
                                                  two      time
                                                  times

Tail end to each verse:
E|-----------------------------------------------|
B|-----------------------------------------------|
G|-8---8--8----8--10--10-------------------------|
D|-8---8--8----8--10--10---7--8----8--10--10---5-|
A|-6---6--6----6---8---8---7--8----8--10--10---5-|
E|-------------------------5--6----6---8---8---3-|
                                         <----->
                                          first time only

After second verse: (repeat it a few times)
E|--------------------------------------|
B|--------------------------------------|
G|----------5----7--7--5------------5---|
D|-7--5-6-7---7--7--7--5---7--5-6-7---7-|
A|-7-------------5--5--5---7------------|
E|-5-----------------------5------------|

sometimes you go on with this:
E|---------------------------------|
B|---------------------------------|
G|-------5----------5----------5---|
D|-5-6-7---7--5-6-7---7--5-6-7---7-|
A|---------------------------------|
E|---------------------------------|

jingle-jangle bit: (repeat a few times)
E|-3-------------------------------------------------------|
B|-3-----------1------1------1------1----------------------|
G|-4---------2------0------0------0------------------------|
D|-5-------3------2------0---------------------------------|
A|-5----------------------------3------1-0-----------------|
E|-3---------------------------------------3-1-3-3-3-3-1-3-|

guitar solo: (chords under)
E|-3------------------------3-------------|
B|-3--------------4--4--3---3-------------|
G|-3---------3----5--5--3---4---------3---|
D|-5---3-4-5---5--5--5--3---5---3-4-5---5-|
A|-5--------------3--3--3---5-------------|
E|-3------------------------3-------------|
                               <------->
                           this bit gets repeated every so often

...then repeat the above, but up two frets

Then jingle-jangle bit, then back to intro to third verse.
Вверх

Four Sticks

Main Riff (Repeat as nessecery for verse)

e|-------------------------------------------------------------|
b|-------------------------------------------------------------|
g|-------------------------------------------------------------|
d|----------5b----------5b-----------5b----------5b-------7--5-|
a|-4--5--7--0--4--5--7--0---4--5--7--0--4--5--7--0--4--5--7--5-|
E|-0--0--0-----0--0--0------0--0--0-----0--0--0-----0--0--5--3-|

e|-----------------------------------------|
b|-----------------------------------------|
g|-----------------------------------------|
d|-----------5b-----------5b----7-------5--|
a|--4--5--7--0---4--5--7--0-----7-------5--|
E|--0--0--0------0--0--0--------5-------3--|

Riff 2 (When the owls cry in the night)

e|-------------0---------------0---------------0-----0-------0-|
b|-------------0---------------0---------------0-----0-------0-|
g|-------------------------------------------------------------|
d|-7--7--7--7------9--9--9--9--------7------------7-------7----|
a|-------------------------------------------------------------|
E|-5--5--5--5------7--7--7--7--------9------------9-------9----|

e|-------------0---------------0-----------0--------0--------0-|
b|-------------0---------------0-----------0--------0--------0-|
g|-------------------------------------------------------------|
d|-7--7--7--7------5--5--5--5--------4-----------4--------4----|
a|-------------------------------------------------------------|
E|-5--5--5--5------3--3--3--3--------2-----------2--------2----|

Riff 3: (guitar played in sync with sythesizer)

e|-------------------------------------------------|
b|-------------------------------------------------|
g|---------------------------5-----7-----9-----11--|
d|--9-----7-----5-----9------3-----5-----7-----9---|
a|--7-----5-----3-----7----------------------------|
E|-------------------------------------------------|

Lyrics:

Oh, baby, it`s crying time                             (Riff 1)
Oh, baby, I`ve got to fly
Got to try to find a way
Got to try to get away
Cause you know I got to get away from you babe
Oh, baby, the river`s red
Ah, baby, in my head
There`s a funny feeling going on
I don`t think I can hold out long

And when the owls cry in the night                     (Riff 2)
Oh, baby, when the pines begin to cry
Baby, baby, how do you feel?
If the rivers run dry, baby, how would you feel?

                                                       (Riff 1)
Craze, baby, rainbow`s end
Oh, baby, it`s just a den for those who hide
Who hide their love to the depths of life
And ruin dreams that we all knew so babe

And when the owls cry in the night                     (Riff 2)
Oh, baby, when the pines begin to cry
Baby, baby, how do you feel?
If the rivers run dry, baby, how would you feel?
Ah, baby how do you feel
                                                       (Riff 3)

Oh, brave I endure                                     (Riff 1)
Ooh, yeah, strong sheilds of love
They can hold the wrath of those who walk
And the boots of those who march
Baby, through the Roads of Time so long ago            (Riff 1)
                                                       Fade out
Вверх

Four Sticks (2 вариант)

The intro/verse riff has three guitars, all standard tuning:

guitar 1:

E|----------------------------|
B|----------------------------|
G|----------------------------|
D|-------/2--5b--------/2--5b-|
A|-4--5----------4--5---------|
E|----------------------------|

guitar 2:

E|------------------------|
B|------------------------|
G|------------------------|
D|-6--7--9--------6--7--9-|
A|-4--5--7--------4--5--7-|
E|-0--0--0--------0--0--0-|

guitar 3:

E|-----------------|
B|-----------------|
G|-7-------------7-|
D|-9-------------9-|
A|-7-------------7-|
E|-----------------|

All of that repeats acouple times with some small ad-lib
variations on guitars 1 and 2 with things like slides and
vibratos until:

guitar 1:
          let ring
E|------------------|
B|------------------|
G|------------------|
D|-------/2---------|
A|-4--5---0-------5-|
E|------------------|

guitar 2:

E|------------------|
B|------------------|
G|------------------|
D|-6--7---7-------9-|
A|-4--5---7--12---7-|
E|--------5--12-----|

guitar 3:

E|---------------------|
B|---------------------|
G|---------------------|
D|---------------------|
A|------------------10-|
E|-0/9-0/10---------10-|

All of that is played throughout the song besides the chorus,
which has three more guitars:

Guitar 4 (Acoustic)

E|----------------2--2--0--2---------------------------|
B|-5--5--2--5--5--3--3--3--3--5--5--2--5--7--7--7--7/9-|
G|-2--2--2--2--2--4--4--4--4--2--2--2--2--4--4--4--4/6-|
D|-2--2--2--2--2--5--5--5--5--2--2--2--2--4--4--4--4/6-|
A|-0--------------------------0--------------------0---|
E|-----------------------------------------------------|

Guitar 5: (Acousic)

E|------------------------------------------------------|
B|-5--------5--5--3--3--0--3--5--5--5--5----------------|
G|-6--------6--6--4--4--4--4--6--6--6--6--/4-----4--4/6-|
D|-7--7--7--7--7--5--5--5--5--7--7--7--7----------------|
A|-7--7--7--------5--5--5--5--7--7--7--7--/2--0--2--2/4-|
E|-5--5--5--------3--3--0--3--5--5--5--5----------------|

Guitar 6: (Electric 12-string)

E|-0-------------------------0-------------0-|
B|-0-------------------------0-------------0-|
G|-4-------------------------4-------------4-|
D|-5-------------------------5-------------5-|
A|-------------------------------------------|
E|-------------------------------------------|

Those 3 guitar parts are a bit different during the lyrics,
but the lyrics basically drown them out, the part I posted was
the part between the lyrics.

And the last guitar parts, guitars 4 and 5 play during the
synthesiser, goes like this:

E|-------------------------0--0--0--0--0--0--0----------------|
B|-------------------------0--0--0--0--7--7--7--------------7-|
G|-4--2--0--2--4--6--8--9--8--8--8--8--8--8--8--------------8-|
D|-5--4--2--4--5--7--9--7--9--9--9--9--9--9--9--7--7--7--7--9-|
A|-------------------------0--0--0--0--0--0--0----------------|
E|------------------------------------------------------------|
Вверх

Four Sticks For 3 Guitars

The intro/verse riff has three guitars, all standard tuning:

guitar 1:

E|-----------------------------|
B|-----------------------------|
G|-----------------------------|
D|--------/2--5b--------/2--5b-|
A|--4--5----------4--5---------|
E|-----------------------------|

guitar 2:

E|-------------------------|
B|-------------------------|
G|-------------------------|
D|--6--7--9--------6--7--9-|
A|--4--5--7--------4--5--7-|
E|--0--0--0--------0--0--0-|

guitar 3:

E|-----------------------------|
B|-----------------------------|
G|-------------7-------------7-|
D|-------------9-------------9-|
A|-------------7-------------7-|
E|-----------------------------|

All of that repeats acouple times with some small ad-lib variations on guitars 1 and 2 
with things like slides and vibratos until:

guitar 1:
          let ring 
E|-------------------|
B|-------------------|
G|-------------------|
D|--------/2---------|
A|--4--5---0-------5-|
E|-------------------|

guitar 2:

E|-------------------|
B|-------------------|
G|-------------------|
D|--6--7---7-------9-|
A|--4--5---7--12---7-|
E|---------5--12-----|

guitar 3:

E|---------------------|
B|---------------------|
G|---------------------|
D|---------------------|
A|------------------10-|
E|-0/9-0/10---------10-|

All of that is played throughout the song besides the chorus, which has three more 
guitars:

Guitar 4 (Acoustic)

E|----------------2--2--0--2---------------------------|
B|-5--5--2--5--5--3--3--3--3--5--5--2--5--7--7--7--7/9-|
G|-2--2--2--2--2--4--4--4--4--2--2--2--2--4--4--4--4/6-|
D|-2--2--2--2--2--5--5--5--5--2--2--2--2--4--4--4--4/6-|
A|-0--------------------------0--------------------0---|
E|-----------------------------------------------------|

Guitar 5: (Acousic)

E|------------------------------------------------------|
B|-5--------5--5--3--3--0--3--5--5--5--5----------------|
G|-6--------6--6--4--4--4--4--6--6--6--6--/4-----4--4/6-|
D|-7--7--7--7--7--5--5--5--5--7--7--7--7----------------|
A|-7--7--7--------5--5--5--5--7--7--7--7--/2--0--2--2/4-|
E|-5--5--5--------3--3--0--3--5--5--5--5----------------|

Guitar 6: (Electric 12-string)

E|----------------0-------------------------0-------------0-|
B|----------------0-------------------------0-------------0-|
G|----------------4-------------------------4-------------4-|
D|----------------5-------------------------5-------------5-|
A|----------------------------------------------------------|
E|----------------------------------------------------------|

Those 3 guitar parts are a bit different during the lyrics, but the lyrics basically 
drown them out, the part I posted was the part between the lyrics. If you want the part 
during the lyrics, e-mail me.

And the last guitar parts, guitars 4 and 5 play during the synthesiser, goes like this:

E|--------------------------0--0--0--0--0--0--0----------------|
B|--------------------------0--0--0--0--7--7--7--------------7-|
G|--4--2--0--2--4--6--8--9--8--8--8--8--8--8--8--------------8-|
D|--5--4--2--4--5--7--9--7--9--9--9--9--9--9--9--7--7--7--7--9-|
A|--------------------------0--0--0--0--0--0--0----------------|
E|-------------------------------------------------------------|
Вверх

Friends

Rythym figure 1:
Repeat twice

E|-0--3--0--2--0--0--2--0--2--0--2--0--0--0--0--0--3--0--2--0-|
B|-0--3--0--2--0--0--2--0--2--0--2--0--0--0--0--0--3--0--2--0-|
G|-0--------------------------------0--0--0--0----------------|
D|-0--------------------------------0--0--0--0----------------|
A|-0--------------------------------0--0--0--0----------------|
E|-0--------------------------------0--0--0--0----------------|

E|-0--2--0--2--0--2--0-0-0--0--0--3--0--2--0--0--2--0--2--0--2-|
B|-0--2--0--2--0--2--0-0-0--0--0--3--0--2--0--0--2--0--2--0--2-|
G|-------------------0-0-0--0----------------------------------|
D|-------------------0-0-0--0----------------------------------|
A|-------------------0-0-0--0----------------------------------|
E|-------------------0-0-0--0----------------------------------|

E|-0--0--0--0--0--3--0--2--0----0------------------------------|
B|-0--0--0--0--0--3--0--2--0----0------------------------------|
G|-0--0--0--0-------------------0------------------------------|
D|-0--0--0--0-------------------0------------------------------|
A|-0--0--0--0-------------------0----3-X---2-X---5-X---4X---7X-|
E|-0--0--0--0-------------------0----3-X---2-X---5-X---4X---7X-|

Rythym figure 2:

E|-0-0-0-0-0-0-0-0-0-0-0-0-0-0-0-0-0-0-0-0-0-0-0-|
B|-0-0-0-0-0-0-0-0-0-0-0-5-5-5-5-3-3-3-3-3-3-3-3-|
G|-0-0-0-0-0-0-0-0-0-0-0-------------------------|
D|-0-0-0-0-0-0-0-0-0-0-0-3-3-3-3-1-1-1-1-1-1-1-1-|
A|-0-0-0-0-0-0-0-0-0-0-0-0-0-0-0-0-0-0-0-0-0-0-0-|
E|-0-0-0-0-0-0-0-0-0-0-0-0-0-0-0-0-0-0-0-0-0-0-0-|

E|-0-0-0-0-0-0-0-0-0-0-0-0-0-0-0-0-0-0-0-0-0-0-0-0-|
B|-3-3-3-3-3-3-3-3-3-3-7-7-7-7-5-5-5-5-5-5-5-5-5-5-|
G|-------------------------------------------------|
B|-5-5-5-5-5-5-5-5-5-5-5-5-5-5-3-3-3-3-3-3-3-3-3-3-|
A|-0-0-0-0-0-0-0-0-0-0-0-0-0-0-0-0-0-0-0-0-0-0-0-0-|
E|-0-0-0-0-0-0-0-0-0-0-0-0-0-0-0-0-0-0-0-0-0-0-0-0-|

E|-0-0-0-0-0-0-0-0-0-0-0-0-0-0-0-0-0-0-0-0-0-0-0-0-|
B|-5-5-5-5-5-5-5-5-5-5-5-7-7-7-7-7-7-7-7-7-7-7-7-7-|
G|-------------------------------------------------|
D|-3-3-3-3-3-3-3-3-3-3-3-5-5-5-5-5-5-5-5-5-5-5-5-5-|
A|-0-0-0-0-0-0-0-0-0-0-0-0-0-0-0-0-0-0-0-0-0-0-0-0-|
E|-0-0-0-0-0-0-0-0-0-0-0-0-0-0-0-0-0-0-0-0-0-0-0-0-|

E|-0-0-0-0-0-0-0-0-0-0-0-0-|
B|-7-7-7-7-7-3-3-3-3-5-5-5-|
G|-------------------------|
D|-5-5-5-5-5-1-1-1-1-3-3-3-|
A|-0-0-0-0-0-0-0-0-0-0-0-0-|
E|-0-0-0-0-0-0-0-0-0-0-0-0-|

Rythym Figure 3:

E|-0-0-0-0-0-0-0-0-0-0-0-0-0-0-0-0-0-0-0-0-0-0-0-|
B|-0-0-0-0-0-0-0-0-0-0-0-5-5-5-5-3-3-3-3-3-3-3-3-|
G|-0-0-0-0-0-0-0-0-0-0-0-------------------------|
D|-0-0-0-0-0-0-0-0-0-0-0-3-3-3-3-1-1-1-1-1-1-1-1-|
A|-0-0-0-0-0-0-0-0-0-0-0-0-0-0-0-0-0-0-0-0-0-0-0-|
E|-0-0-0-0-0-0-0-0-0-0-0-0-0-0-0-0-0-0-0-0-0-0-0-|

E|-0-0-0-0-0-0-0-0-0-0-0-0-0-0-0-0-0-0-0-0-0-0-|
B|-3-3-3-3-3-3-3-3-3-3-5-5-5-5-7-7-7-7-9-9-9-9-|
G|---------------------------------------------|
B|-1-1-1-1-1-1-1-1-1-1-3-3-3-3-5-5-5-5-7-7-7-7-|
A|-0-0-0-0-0-0-0-0-0-0-0-0-0-0-0-0-0-0-0-0-0-0-|
E|-0-0-0-0-0-0-0-0-0-0-0-0-0-0-0-0-0-0-0-0-0-0-|

E|-0--0--0--0--0--0--0--0-|
B|-3--3--3--3--5--5--5--5-|
G|------------------------|
D|-1--1--1--1--3--3--3--3-|
A|-0--0--0--0--0--0--0--0-|
E|-0--0--0--0--0--0--0--0-|

-* Lyrics and Guitar *-

(Rythym Fig. 1)
(Rythym Fig. 2)
Bright light almost blinding
Black night still there shining
I can`t stop; keep on climbing
Looking for what I knew

(Rythym Fig. 2)
Had a friend she once told me,
"You got love, you ain`t lonley,"
Now she`s gone and left me only
Looking for what I knew

(Rythym Fig. 3)
(Rythym Fig. 1)
Mmm, I`m tellin` you now,
The greatest thing you ever can do now
Is trade a smile with someone who`s blue now
It`s very easy just

(Rythym Fig. 2)
Met a man on the roadside crying
Without a friend there`s no denying
Your incomplete there`ll be no finding
Looking for what you knew

(Rythym Fig. 2)
So anytime somebody needs you
Don`t let `em down although it grieves you
Some day you`ll need someone like they do
Looking for what you knew

(Rythym Fig. 3)
(Rythym Fig. 1)
Mmm, I`m tellin` you now
The greatest thing you ever can do now
Is trade a smile with someone who`s blue now
It`s very easy just

(Rythym Fig. 2)
(Rythym Fig. 2)
End with a barrage of open C chords, and a droning sound
Вверх

Gallows Pole mp3

riff:

e|-------------|
B|-2-0-2---1-3-|
G|-2-0-2---0-0-|
D|-2-2-2---2-4-|
A|-------------|
E|-------------|

riff
Hangman, Hangman, hold it a little while
I think I see my friends a commin

G       D    riff
ridin a many mile

Friends you get a little silver, get a little gold
what did you bring me, my dear friends

   G                D       riff
to keep me from the gallows pole

what did you bring me

   G                D       riff
to keep me from the gallows pole

I couldn`t get no silver
couldn`t get no gold
you know the way they took that ball

   G                D       riff
to keep you from the gallows pole

A     D G D       A         D      G
Hangman, Hangman, hold it a little while
A         D      G
I think I see my brother commin

G       D    G A  G A  G A  G A
ridin a many mile

Brother you get a little silver, get a little gold
what did you bring me, my brother

   G                D       G A  G A
to keep me from the gallows pole

brother I brought you some silver
I brought a little gold
Brought a little of everything

   G                D        G A  G A
to keep you from the gallows pole

     C       D
Ya I brought you

   G                D        G A  G A
to keep you from the gallows pole

A     D G D       A         D      G
Hangman, Hangman, turn your head a while
A         D      G
I think I see my sister commin

G       D    G A  G A  G A  G A
ridin a many mile mile  mile mile

Sister I emplore you take him by the hand
take him to some shady pass and

G              D           A  G A  G A  G A
sit him on the rock of his man
please take him

G              D       A  G A  G A  G A
sit him on the rock of main man man

A     D G D       A         D      G
Hangman, Hangman, on your face a smile
A       D        G
tell me that I`m free to ride
G        D    G A  G A  G A  G A
ride for many mile

uh you`ve got a fine sister
she want my blood to boil
she want my blood to boil in her
G                    D       G A  G A  G A  G A
to keep you from the gallows pole

Your brother brought me silver
and your sister want my sole
for now I laugh oh so hard
G                    D       G A  G A  G A  G A
she`s swinging on my gallows pole

for now I laugh oh so hard
G                    D       G A  G A  G A  G A
she`s swinging on my gallows pole

swinging on my gallows pole

swinging on my gallows pole

swinging on my gallows pole
Вверх

Going To California

Tuning:   D A D G B E

Intro:

----------------|----------------|---5---5---5---5|---5-5-5-5---5-7|
----------------|----------------|-5---5---5---5--|--7-5---5---5-7-|
----------------|-7-7-----7-7----|--7---7---7---7-|------7---7-----|
--0---0---0---0-|--0---0---0---0-|----------------|----------------|
----------------|----------------|----------------|----------------|
0---0---0---0---|0---0---0---0---|0---0---0---0---|0---------------|

                                    p                p
3--2---0-------3|---2---0--------|--20---0---0----|--20---0---0----|
-0---0---0-3----|-0---0---0-3----|-----3---3---3--|-----3---3---3--|
--0---0------0--|--0---0------0--|--2---2---2---2-|--2---2---2---2-|
----------0---0-|----------0---0-|----------------|----------------|
----------------|----------------|----------------|----------------|
5---5---5---5---|5---5---5---5---|0---0---0---0---|0---0---0---0---|

Spent...         Smoked...        All...
Made...          Goin`...         In...
Some...          Love...          In...

        p        h       h                p        h       h
--1111--10---0--|02---0--02---0--|--1111--10---0--|02---0--02---0--|
--3333--3--3----|---3---3---3----|--3333--3--3----|---3---3---3----|
--2222----------|----------------|--2222----------|----------------|
0---------------|--0---0---0---0-|0---------------|--0---0---0---0-|
--------2-------|----------------|--------2-------|----------------|
----------------|0---0---0---0---|----------------|0---0---0---0---|

(double spaced for double digits...  essentially an Am7 up 9 frets...)

 - - - 12- - - 12- - - 12- - - 12| - - - 12- - - 12- - - 12- - - 12|
 - - 10- - - 10- - - 10- - - 10- | - - 10- - - 10- - - 10- - - 10- |
 - 11- - - 11- - - 11- - - 11- - | - 11- - - 11- - - 11- - - 11- - |
 - - - - 0 - - - - - - - 0 - - - | - - - - 0 - - - - - - - 0 - - - |
 - - - - - - - - - - - - - - - - | - - - - - - - - - - - - - - - - |
 0 - - - - - - - 0 - - - - - - - | 0 - - - - - - - 0 - - - - - - - |

                                    p                p
----------------|----------------|--20---0---0----|--20---0---0----|
---0---3---0----|---0---3---3----|-----3---3---3--|-----3---3---3--|
-0---0---0---0-0|-0---0---0---0--|--0---0---0---0-|--0---0---0---0-|
--0---0---0---0-|--0---0---0---0-|----------------|----------------|
----------------|----------------|----------------|----------------|
5---5---5---5---|5---5---5---5---|0---0---0---0---|0---0---0---0---|

Took...          Never...         same...
Sea...           Wonder...        day...
Mount...         Chil...          wake...            watch out...

                                          h                h
-0---0---0---0--|-0---0---0---0--|-----------0----|-----------0----|
6--6---6---6---6|---6---6---6----|--2-----23---3--|--2-----23---3--|
--7---7---7---7-|--7---7---7---7-|-----2----------|-----2----------|
0---0---0---0---|0---0---0---0---|--2---2---2---2-|--2---2---2---2-|
----------------|----------------|0---0---0---0---|0---0---0---0---|
----------------|----------------|----------------|----------------|

Seems...       nose...            sinking...
Throw...         Meet...          high...

ending:
  p                p                p                p
--20---0---0----|--20---0---0----|--20---0---0----|--20---0---0----|
-----3---3---3--|-----3---3---3--|-----3---3---3--|-----3---3---3--|
--2---2---2---2-|--2---2---2---2-|--2---2---2---2-|--2---2---2---2-|
----------------|----------------|----------------|----------------|
----------------|----------------|----------------|----------------|
0---0---0---0---|0---0---0---0---|0---0---0---0---|0---0---0---0---|
Ahhhhh.....      Ahhhhh.....      Ahhhhh.....
Ahhhhh.....      Ahhhhh.....      Ahhhhh.....      Fade out...

Spent my days with a woman unkind:
Smoked my stuff and drank  all my wine.
Made up my mind, make a new start,
Goin` to California with an achin` in my heart.
Someone told me there`s a girl out there
With love in her eyes and flowers in her hair.

Took my chances on a big jet plane.
Never let `em tell you that they`re all the same.
Ah, the Sea was red and the Sky was grey:
I wondered how tomorrow could ever follow today.
The mountains and the canyons start to tremble and shake:
Children of the Sun begin to wake....  [spoken:] watch out

Seems like the wrath of the Gods: got a punch on the nose
and it`s startin` to flow, I think I might be sinking.
Throw me a line, if I reach it in time
(I`ll) meet you up there where the path runs straight and high.

Find a Queen without a King,
They say she plays guitar and cries and sings: la-la-la-la.
Ride a white mare on the footsteps of Dawn,
Tryin` to find a woman who`s never, never, never been born.
Standing on a hill and a mountain of dreams,
Telling myself it`s not as hard, hard, hard as it seems....

Ahhhhh..... Ahhhhh..... Ahhhhh.....
Ahhhhh..... Ahhhhh..... Ahhhhh.....      Fade out...
Вверх

Going To California (2 вариант)

Intro on one guitar

D|----0------------0----|
B|-----------3----------|
G|----------------------|
D|--------0-----------0-|
G|----------------------|
D|-0------------0-------|

At the start of the lyrics, still one guitar

D|---5-------4--4---2----0-----0--2-----0--0----|
B|-------0------------0--------------0--------0-|
G|-------0------------0--------------0--------0-|
D|----------------------------------------------|
G|---0----------0--------------0-----------0----|
D|----------------------------------------------|

At "all my wine" and at corresponding part in next verse

D|--------42--2---0------7---------7-|
B|--5/7-----5--5------0----------7---|
G|----------------------------9------|
D|--------0-----------0----------0---|
G|-----------------------------------|
D|--0----------0----------0----------|


When the second guitar enters is plays this..

D|-3--2--0--3--3--2--0-----0-------2--0--0----2----0-------0---|
B|-----------------------------------------------------3-------|
G|------------------------------0------------------------------|
D|-------0-----0-----0-----4----------4-----0--------0-------0-|
G|-------------------------------------------------------------|
D|-0---------------------------------------------0-------0-----|

While the second guitar plays this..

D|---0--0--0-----0--0--0-----4----------5---5--4-------0-0-0-0-|
B|---0--0--0-----0--0--0-----3---2h3p2------2-----3----0-0-0-0-|
G|---0--0--0-----0--0--0-----2-------------------------0-0-0-0-|
D|---------------------------0---------------------------------|
G|------------4------------------------------------------------|
D|-0----------------------0------------------------------------|

D|--0----0-------0----0-----2--4-|
B|--0----0-------0----0-----3--3-|
G|--0----0-------0----0-----2--2-|
D|-----------------------------0-|
G|-------------------------------|
D|-------------------------------|

At the "wrath of the gods" part.. guitar 1 plays X 4

D|-7----0--5--5-----0---7-|
B|---6-----------6--------|
G|------------------------|
D|------------0-----------|
G|------------------------|
D|-7----------------------|

then...
|--------X1---------| |----------X3--------------------|
D|----------0---0-------0-------0---0--------0--0------|
B|-----0--2--------2---------2------------2-------0--2-|
G|--0----------------------0-----------0---------------|
D|-----------------------------------------------------|
G|----------------------2-----------2-----------2------|
D|-----------------------------------------------------|

And guitar 2 plays
  |------X4-----------| |-----X4--------------|
D|----0-----------0----------------------------|
B|-------5--5--6-----6-------2h3---3---2-----2-|
G|-6-------------------------------------------|
D|----------0----------------2-----------------|
G|------------------------2--------2------2----|
D|-7-------------------------------------------|

After that, replay the intro accompanyed by this on guitar 2

D|---------7----------------7-------------7--7--------7-|
B|------7----------------7-------------7-----------7----|
G|---7---------7--7---9----------7--9-----------9-------|
D|------------------------------------------------------|
G|---7------------7--------------7-----7-----7-----7----|
D|---------7-------------7------------------------------|

D|----------------------7-----7--------7---7--------7-|
B|-------------------7--------------7------------7----|
G|--7---9--7--7--9---------------9------------9-------|
D|----------------------------------0------------0----|
G|--7---7-----7------7--------------------------------|
D|----------------------------0------------0----------|

On the outro both guitar play essentially the same thing.

D|--0----2---2--2-----0-|
B|----------------------|
G|----------------------|
D|-----0-----------0----|
G|-----------0----------|
D|--0-------------------|
Вверх

Good Times Bad Times

      E5                               [:     D         A   :]x5
e|------------------------------------------------------------|
B|-T--9-9-r-9-9-r-9-9-r--9-9-r--9-9-r--9-9-----7-7------------|
G|-A--9-9-r-9-9-r-9-9-r--9-9-r--9-9-r--9-9-----7-7------------|
D|-B--9-9-r-9-9-r-9-9-r--9-9-r--9-9-r--9-9----7-7-7-4-7-------|
A|----7-7-r-7-7-r-7-7-r--7-7-r--7-7-r--7-7--/5-----5---4--5-6-|
E|----0-0-r-0-0-r-0-0-r--0-0-r--0-0-r--0-0-r------------------|

This is the intro, taking you up to the chorus. ("Good Times,
Bad Times...")  There are actually two guitars here, but I`ve
tried to simplify things as much as possible for one.  Also,
watch for minor changes in the fingering, as there are changes
not only between the hammers-on and slides of the two guitar
parts, but between each time the bit is repeated.  My symbols
above the TAB, "[:  :]x mean to repeat everything betweeen the
brackets and colons, and do it the number of times followed by
"x", in this case five times.
					-Dave

Here`s the chorus, in which I`ll TAB out the two guitar parts
separately, as there is quite a difference:

Guitar II:
            x x                            x x
e|---3/5-3--x-x--------------------------5-x-x------10---------|
B|-T-3/5-5--x-x-7/12-12-10-10-10-0-3/5---5-x-x-7-12-12---7-7-7-|
G|-A-4/6-6--x-x-7/12-12-11-11-11-0-4/6---6-x-x-7-12-12-7-7-7-7-|
D|-B-5/7-7--x-x-7/12-12-12-12-12-0-5/7-7-7-x-x-7-12-12-7-7-7-7-|
A|---5/7-7--x-x-5/10-10-12-12-12-0-5/7-7-7-x-x-5-10-10-5-5-5-5-|
E|---3/5-5------5/10-10-10-10-10---3/5-5-5-----5-10------------|

e|--------7-----------------------------------7------------|
B|-T------7---9/14---14-14---12-12-12---------7------------|
G|-A------8---9/14---14-14---13-13-13---------8------------|
D|-B------9---9/14---14-14---14-14-14---------9-9-9-9-9-9--|
  ("r" stands
A|----9-9-9---7/12---12-12---14-14-14---7/9-9-9-9-9-9-9-9--|
   for "rest")
E|----7-7-----7/12---12-12---12-12-12---5/7-7----7-7-7-7-7-|

Guitar I:

e|-------------------------------------------------------------|
B|-T-----2-----------------------------------------------------|
G|-A-----------------------------------------------------------|
D|-B--------2-2---2----7^5^7-----7-7-7-9-9-9-9-9-9-9-7/9-9-9-9-|
A|----------0-0---0---0------0---------------------------------|
E|----4/5--0-------------------------5/7-7-7-7-7-7-7-5/7-7-7-7-|

e|---------------|
B|-T-------------|
G|-A-----------4-|
D|-B--7/9-9-9-9--|
A|-------------2-|
E|----5/7-7-7-7--|

At this point "Sixteen I fell in love..." both guitars play the
same part, which is:
    [:F#5       E5F#5   E5F#5  F#5       E5 F#5  E5F#5:]x3
e|-----------------------------------------------------|
B|-T---------------------------------------------------|
G|-A----------11^9-11--4^2-4-x---------11^9-11-4^2-4^2-|
D|-B----------11-9-11--4-2-4-x---------11-9-11-4-2-4-2-|
A|----4-4------------------------4---------------------|
E|----2-2----------------------2-2---------------------|

Watch for changes in which notes are struck and where rests are
taken each time you repeat.
Now the chorus comes again, but this time it`s in B, use chord
changes between B (x2444x), Esus4 (00222x), and E (02210x).  At
"when my woman left home..."  go to a C# (x4666x) on "woman",
to a B (799877) to an F# (x9.11.11.11x).  Hopefully, you get
the picture.  I could TAB it out, but it`s not that complex,
and I`m feeling lazy.
					-Dave

	Here`s the solo:

e|---------12-----12-12--12-----12-----------------------------|
B|-T-----12-----12-----12-----12-------------------------------|
G|-A--14b----14b-----------14h----14b14-12--14---12q-------12q-|
D|-B---------------------------------------14---------14-14----|
A|-------------------------------------------------------------|
E|-------------------------------------------------------------|

E|---------------|
B|---------------|
G|--12-14-12-14h-|
D|-14------------|
A|---------------|
E|---------------|

e|-------------------------------------------------------------|
B|-T-15---------------20bb-17-17-17-20-17-20b-20-17---17-20^17-|
G|-A----14-12-14-12-0-------------------------------19---------|
D|-B-----------------------------------------------------------|
A|-------------------------------------------------------------|
E|-------------------------------------------------------------|

e|-------------------------------------------------------|
B|-T-----17----------------------------------------------|
G|-A--19----19-19b---x-x-x-------------------------12----|
D|-B-----------------x-x-x-------12----12-14-12-14-12-14-|
A|------------------------/14-14----14-------------------|
E|-------------------------------------------------------|

E|----------------------|
B|-------------12-15^12-|
G|-12-14^12-14----------|
D|----------------------|
A|----------------------|
E|----------------------|

e|-------12----12-15b----15-15q----------17h-17b-17h-17b-17h-|
B|-T--15-12-15------------------17-15q-17--------------------|
G|-A---------------------------------------------------------|
D|-B---------------------------------------------------------|
A|-----------------------------------------------------------|
E|-----------------------------------------------------------|

E|-17b-17b17-15-----|
B|---------------17-|
G|------------------|
D|------------------|
A|------------------|
E|------------------|

e|----15----15-17-17^16--17--16-17^16-17b-15h-----------------|
B|-T-----17-----------------------------------17-17-17-17-15b-|
G|-A----------------------------------------------------------|
D|-B----------------------------------------------------------|
A|------------------------------------------------------------|
E|------------------------------------------------------------|

E|---------------|
B|-17bb-------15-|
G|---------------|
D|---------------|
A|---------------|
E|---------------|

e|-------------------------------------------------------------|
B|-T-----------------------------------------------------------|
G|-A-----------------------------2-2-2-2---4---4-4-4-4-4-4-4-4-|
D|-B-7-7-7-7---7-7^5-5^7-7-7-7---2-2-2-2-4-4---4-4-4-4-4-4-4-4-|
A|-----------0-----------------0-----0-0-2-2-2-2-2-2-2-2-2-2-2-|
E|-------------------------------------------------------------|

E|---------|
B|---------|
G|-4-4-4-4-|
D|-4-4-4-4-|
A|-2-2-2-2-|
E|---------|

e|--------12---------------------------------------------------|
B|-T---------15^12----12----12---------------------------------|
G|-A--4-4----------14----14----14-12^14^12----12---------------|
D|-B--4-4----------------------------------14----14^12-14^12---|
A|----2-2----------------------------------------------------14|
E|-------------------------------------------------------------|

e|-------------------------------------------------------------|
B|-T-----------------------------------------------------------|
G|-A-----------------------------------------------------------|
D|-B-12--------------------------------------------------------|
A|------14^12-14^12^10-12^10-----------------------------------|
E|---------------------------12-10--10-10------(10)/11/12-(12)-|
           hold bend
e|---------------------------------------0-19bbb------20bb20---|
B|T-20b-20h-20b-20h-20b-20h-20b-20b-20-0---19bh--20bb--------17|
G|A------------------------------------------------------------|
D|B------------------------------------------------------------|
A|-------------------------------------------------------------|
E|-------------------------------------------------------------|

e|--------------------15b15--15-15--15-15--15-15--(15)-(15)-|
B|-T--(17)-----------15--15b15-15b15-15b15-15b(15)-(15)-----|
G|-A--------------------------------------------------------|
D|-B--------------------------------------------------------|
A|----------------------------------------------------------|
E|----------------------------------------------------------|

e|----(14)h14-------------14h-14h-----14h14--------------------|
B|-T---14b--14----14-14----14----------14h14----14/b-15--------|
G|-A-----------14-------14-------------------------------14^12-|
D|-B-----------------------------------------------------------|
A|-------------------------------------------------------------|
E|-------------------------------------------------------------|

e|------------------------------------------------------|
B|-T----------------------------------------------------|
G|-A-14-12-------14^12----------------------------------|
D|-B-------14-12-------14^12-14^12----12----------------|
A|---------------------------------14----14^12^10-12^10-|
E|------------------------------------------------------|

E|-----------------------|
B|-----------------------|
G|-----------------------|
D|-----------------------|
A|---10^12^10------------|
E|-12----------10---5h/5-|

e|----17b/17-17-^15----17-15-17-15-17---15-15/16-|
B|-T----------------17---------------------------|
G|-A---------------------------------------------|
D|-B---------------------------------------------|
A|-----------------------------------------------|
E|-----------------------------------------------|
Вверх

Heartbreaker

Intro:

	<---------Repeat 3x-------------->
e|----|---------------------------------|
B|----|---------------------------------|
G|----|---------------------------------|
D|----|---------------------------------|
A|----|---3-5-6-7-------------3-5-6-7---|
E|-3b-|-5---------3bb-5-5-5-5---------3-|

Then play this riff once:

e|---------------------------------|
B|---------------------------------|
G|---------------------------------|
D|---------------------------------|
A|---5-7-8-9-------------5-7-8-9---|
E|-7---------5bb-7-7-7-7---------5-|

After this, play the first riff once more.

Verses

e|---------------------------------------7-5-|
B|---------------------------------------7-5-|
G|---------------------------------------7-5-|
D|---------------------------------------7-7-|
A|-7--Let-ring--/-/-/-/-/-/-/-/-10-------5-7-|
E|-5--Let-ring--/-/-/-/-/-/-/-/--8-------5---|
Hey fellas have you heard the news you know the ?`s back in town

A woman came `long just to watch an` see all the fellas lay
their money down

The ?style? is new but the pay`s the same as it was so long ago

But from her eyes a different smile can`t understand this at all

Now, play this 3x:

e|-7-5-|	After this, go to the 1st intro riff, and play it
B|-7-5-|	twice.  Then, play the 2nd riff once, and the 1st
G|-7-5-|	riff once.
D|-7-7-|
A|-5-7-|
E|---5-|

After this, the it goes back to the verse riff, with these
lyrics:

Well it`s been ten years and maybe more since I first set eyes
on you The best years of my life gone by, here I am alone and
blue Some peaple cry and some people die by the wicked ways of
love But I just keep on rollin` `long with a praise from the
Lord above

Play the `chrod` riff (above) 3x, and then this:

e|------------------------------------|
B|------------------------------------|
G|------------------------------------|
D|------------------------------------|
A|---6-8-9-10-------------6-8-9-10----|
E|-8----------6bb-8-8-8-8-----------6-|
Play 2x

e|-----------------------------------------------|
B|-----------------------------------------------|
G|-----------------------------------------------|
D|-----------------------------------------------|
A|----8-10-11-12-------------------8-10-11-13----|
E|-10------------10bb--10-10-10-10------------10-|
Play 1x

e|------------------------------------------------|
B|------------------------------------------------|
G|------------------------------------------------|
D|------------------------------------------------|
A|----10-12-13-14------------------10-12-13-14----|
E|-12-------------12bb-12-12-12-12-------------12-|
Play 1x

The lyrics for this part are:

People talkin` all around
`bout the way you left me flat
i don`t care what the people say
i know where their job is at
one thing i do have on my mind
if you could cloarify please do
is the way you called me another guy`s name
when i tried to make love . . . to you

just after `to you`, this riff comes in:

e|------------------------------------------|
B|-3---3-3---3-3---3-5--3---3-3---3-3---3-5-|
G|---4-----4-----4--------4-----4-----4-----|
D|------------------------------------------|
A|------------------------------------------|
E|------------------------------------------|

After this, comes the solo, which I`m not even going to attempt.
After the solo, you come back to the `verse` riff, with these
lyrics:

[can`t understand first line]
abuse my love a thousand times, however hard i try
heartbreaker your time has come can`t take your evil ways
go away heartbreaker

now, play the `chord` riff 6 times, and start playing the 1st
intro riff. Play through it once, and start it again, but
leave out the last 9 notes.
Вверх

Heartbreaker (2 вариант)

  intro
G|------------------------------------------------------------|
D|------------------------------------------------------------|
A|0-3-5-67--00003-5-67--0-3-5-67--00003-5-67--2-5-7-89--22225-|
E|--------3-----------3---------3-----------3---------5-------|

G|-----------------------------|
D|-----------------------------|
A|-7-89--0-3-5-67--00003-5-67--|
E|-----5---------3-----------3-|

  verse
G|-------------------------------------------------------------|
D|--------0----------------0------------------0----------------|
A|0-0-/3----0-0-3--0-0-/3----0-0-313--0-0-/3----0-0-3-32-0-0-/3|
E|-------------------------------------------------------------|

G|-------------------|
D|-0--------0--0--7--|
A|---0-0-3---0--0--9-|
E|-------------------|

  "people talkin` all around about.."
G|--------------------------------------------0-12------0-12---|
D|--1-3-45----1-3-45----1-3-45----1-3-45--0-3-------0-3-------2|
A|3-------1-3-------1-3-------1-3-------1---------3---------3--|
E|-------------------------------------------------------------|

G|-0-2-34----0-2-34-----------------|
D|-------0-2-------0--2-202---------|
A|--------------------------5-54300-|
E|----------------------------------|

G|-----------------------------------------------------|
D|-2-202---------2-202---------2-202---------2-2-2-----|
A|-------5-54300-------5-54300-------5-54300-------0---|
E|---------------------------------------------------0-|

  solo
G|-------------------------------------------------------------|
D|---3-5-35---3-5-35---3-5-35-------3--------3--------3--------|
A|---------5--------5--------5--3-5--53--3-5--53--3-5--53--3-5-|
E|35--------5--------5--------5--------5--------5--------5-----|

E|------------|
B|-3----------|
G|--53-simile-|
D|------------|
Вверх

Hey Hey What Can I Do

Main Riff

E|------------|
B|------------|
G|---------0~-|
D|-----0^2^0~-| strum G chord and repeat
A|-1^2--------|
E|------------|

G     D         F               C
Wanna tell you `bout the girl I love
C
My she looks so fine
G         D             F               C
She`s the only one that I been dreamin` of
C                 (C7 spices it up)
Maybe someday she will be all mine
[etc...]
I wanna tell her that I love her so
I thrill with her every touch
I need to tell her she`s the only one I really love

[CHORUS]
riff: G  G  x  F  CxC
I got a woman, wanna ball all day
riff
I got a woman, she won`t be true, no
riff
I got a woman, stay drunk all the time
riff
I said I got a little woman and she won`t be true

G      D               F          C
Sunday morning when we go down to church
C
See the menfolk standin` in line
I said they come to pray to the Lord
With my little girl, looks so fine
In the evening when the sun is sinkin` low
Everybody`s with the one they love
I walk the town
Keep a-searchin` all around:
Lookin` for my street corner girl

[CHORUS]

G      D              F            C
In the bars, with the men who play guitars
C
Singin`, drinkin` and rememberin` the times
My little lover does a midnight shift
She followed around all the time
I guess there`s just one thing a-left for me to do
Gonna pack my bags and move on my way
Cause I got a worried mind
Sharin` what I thought was mine
Gonna leave her where the guitars play

I got a woman, she won`t be true, no no
I got a woman, wanna ball all day
I got a woman, stay drunk all the time
I got a little woman and she won`t be true

(hey hey what can I do)

I said she won`t be true

(Hey Hey, What can I say?)

RIFF [at same time of lyrics]
Hey hey, what can I do
C
I got a woman, she won`t be true
RIFF
Lo-o-ord, hear what I say
C
I got a woman, wanna ball all day
Вверх

Hot Dog

E|-----------------------------------------------------|
B|-----------------------------------------------------|
G|-------4^2^0-------------0---------4^2^0-------------|
D|-5^4^5-------0---------0-----5^4^5-------0-----0---0-|
A|-----------------3^2^3-----------------------5-------|
E|-----------------------------------------------------|

E|-----------------------------------------------------|
B|-----------------------------------------------------|
G|-------4^2^0-------------0---------4^2^0-----0-------|
D|-5^4^5-------0---------0-----5^4^5-------0-----------|
A|-----------------3^2^3-------------------------0-2-4-|
E|-----------------------------------------------------|

GGCCGGDD
GGCCGDGG

GGCCGGDD
GGCCGDGG

G
Well I just got in to town today,
C
To find my girl has gone away,
G                                     D
She took the Greyhound in the general store.

G
I searched myself, I searched the town,
C
And when I finally did set down,
G                 D          G
I found myself no wiser than before.

She said we couldn`t do no wrong,
No other love could be so strong,
She locked up my heart in the bottom drawer.

Now, she took my heart, and she took my keys,
>From in my old blue dungarees,
And I`ll never love old Texas anymore.

D                        G
Now that my baby`s gone, I don`t know what to do,
D                                         G
She took my love and walked right out the door.
C                             G
And if I ever find that girl, I know one thing for sure,
C                                     D
I`m gonna give her something like she never had before.

I took her love at seventeen,
A little late these days, it seems,
But they said_________________before.

I took her word, I took it all,
I made the__________________
Shouldn`t let______________ more.

Hot Dog!

E|-----------------------0---------------------3-2-3-5-3---3-|
B|-----------------3-2-3---3---------3-5---5-3---------------|
G|-------2-4---4-2-------------5-4-5-------------------------|
D|-5-4-5-----------------------------------------------------|
A|-----------------------------------------------------------|
E|-----------------------------------------------------------|

E|-3------------7------------7---5)--(5-3-5)-5-|
B|-----8-7-8-10-----8-7-8-10-------------------|
G|---------------------------------------------|
D|---------------------------------------------|
A|---------------------------------------------|
E|---------------------------------------------|

E|------------------------|
B|------------------------|
G|-------2-4-2------------|
D|-5-4-5-------5-4-5---5)-|
A|------------------------|
E|------------------------|

E|-----------------------------------------------2-3-2-3-5-3-|
B|---------------------------------------3-5-3-5-------------|
G|-------2-4-2-----------2-4-2-----5-4-5---------------------|
D|-5-4-5-------5-4-5-4-5-------5-4---------------------------|
A|-----------------------------------------------------------|
E|-----------------------------------------------------------|

E|-----15-13---------------|
B|-13)-------13)(----------|
G|----------------12-15-12-|
D|-------------------------|
A|-------------------------|
E|-------------------------|

Now that my baby`s gone, I don`t know what to do,
She took my love and walked right out the door.
And if I ever find that girl, I know one thing for sure.
I`m gonna give her something like she never had before.

I_________________ luck,
I________________________ truck,
But____________________________.

I never did quite understand,
All that junk about _____ _ands,
But they just rolled my ____ right out the door.
But they just rolled my ____ right out the door.
But they just rolled my ____ right out the door.

E|-----------------------------------------------------|
B|-----------------------------------------------------|
G|-------4^2^0-------------0---------4^2^0-------------|
D|-5^4^5-------0---------0-----5^4^5-------0-----0---0-|
A|-----------------3^2^3-----------------------5-------|
E|-----------------------------------------------------|

E|-----------------------------------------------2-3-|
B|-----------------------------------------------3-0-|
G|-------4^2^0-------------0---------4^2^0---0---2-0-|
D|-5^4^5-------0---------0-----5^4^5-------0-----0-0-|
A|-----------------3^2^3---------------------------2-|
E|-------------------------------------------------3-|
Вверх

Hots On For Nowhere

G|----------------|----------------|----------------|
D|------2---------|------2---------|------2---------|
A|5-4424----------|5-4424----------|5-4424-5-7---242|
E|-------0--------|-------0--------|-----------34---|
                                                I was
G|---------|----------------|---------|----------------|
D|------2--|------2---------|------2--|------2---------|Repeat
A|5-4424---|5-4424-5-7---242|5-4424---|5-4424-5-7---242| twice
E|-------0-|-----------34---|-------0-|-----------34---|
  burned in the.....

G|----------------|----------------|----------------|
D|---245---245---2|42-----24----245|---245---24-----|
A|-34----34----34-|--34034--0-34---|-34----34--03403|
E|----------------|----------------|----------------|

G|---------|----------------|---------|----------------|
D|------2--|------2---------|------2--|------2---------|Repeat
A|5-4424---|5-4424-5-7---242|5-4424---|5-4424-5-7---242| twice
E|-------0-|-----------34---|-------0-|-----------34---|
  Corner of Bleeker.....

G|----------------|----------------|----------------|
D|---245---245---2|42-----24----245|---245---24-----|
A|-34----34----34-|--34034--0-34---|-34----34--03403|
E|----------------|----------------|----------------|

G|---------|----------------|---------|----------------|
D|------2--|------2---------|------2--|------2---------|Repeat
A|5-4424---|5-4424-5-7---242|5-4424---|5-4424-5-7---242| twice
E|-------0-|-----------34---|-------0-|-----------34---|

G|---------|----------------|----------------|----------------|
D|---------|----------------|----------------|----------------|
A|7----5---|----0--00-2-4567|(7)----5--------|----0--00-2-4567|
E|--------5|(5)-------------|---------------5|(5)-------------|

G|-----------|----------------|-------------|----------------|
D|-----------|-------45-452---|-------------|-------4554-----|
A|(7)---5----|----0--------447|(7)----5-----|----0-------7-6-|
E|----------5|(5)-------------|------------5|(5)-------------|

G|---------|----------------|---------|----------------|
D|------2--|------2---------|------2--|------2---------|Repeat
A|5-4424---|5-4424-5-7---242|5-4424---|5-4424-5-7---242| twice
E|-------0-|-----------34---|-------0-|-----------34---|
  (Guitar Solo)

G|----------------|----------------|----------------|
D|---245---245---2|42-----24----245|---245---24-----|
A|-34----34----34-|--34034--0-34---|-34----34--03403|
E|----------------|----------------|----------------|

G|---------|----------------|---------|----------------|
D|------2--|------2---------|------2--|------2---------|Repeat
A|5-4424---|5-4424-5-7---242|5-4424---|5-4424-5-7---242| twice
E|-------0-|-----------34---|-------0-|-----------34---|
  Lost on the path to attainment.....

G|-------|----------------|----------|----------------|
D|-------|----------------|----------|----------------|Repeat
A|7--5---|----0--00-2-4567|(7)----5--|----0--00-2-4567| twice
E|------5|(5)-------------|---------5|(5)-------------|

  3/4 time     4/4 time         3/4 time     4/4 time
G|------------|----------------|------------|----------------|
D|------------|----------------|------------|----------------|
A|-----------0|(0)-------------|------------|0--------------7|
E|------------|----------------|------------|----------------|

G|-----------|--------------|-----------|----------------|
D|-----------|-----45-4-22--|-----------|---------2-42---|Repeat
A|(7)----5---|------------47|(7)----5---|-------4-----447| twice
E|----------5|(5)-----------|----------5|(5)-------------|

  4/4 time         3/4 time         4/4 time         3/4 time
G|----------------|------------|----------------|------------|
D|----------------|------------|----------------|------------|
A|----------------|-----------0|(0)-------------|------------|
E|----------------|------------|----------------|------------|

  4/4 time
G|----|
D|----|
A|0---|
E|----|
Вверх

Houses Of The Holy

Intro
Repeat these first 2 bars twice
e----------------------------------------|
e|--------------------|-------------2--2-|
B|--------------------|-------------2--2-|
G|----------2--2------|-------2--2--2--2-|
D|-2--2-----2--2----2-|-2-----2--2--2--2-|
A|-3--4--0--0--0----3-|-4--0--0--0-------|
E|--------------------|------------------|

e|--------------------|--------------2--2-2-|-2--------------|
B|--------------------|--------------2--2-2-|-2--------------|
G|----------2--2------|--------2--2--2--2-2-|-2-------2-2----|
D|-2--2-----2--2----2-|--2-----2--2--2--2-2-|-2-2-----2-2--2-|
A|-3--4--0--0--0----3-|--4--0--0--0---------|---3-4-0-0-0--3-|
E|--------------------|---------------------|----------------|

This chord rings into the next bar for the start of the verse
e-------------2--2-|
B-------------2--0-|
G-------2-2---2--1-|
D--2----2-2---2--2-|
A--4--0-0-0--------|
E------------------|

Note that the chords on the verses sustain a little, but
notation wasn`t easy so listen to the record to get the timing
and feel.

Verses    D      G  D  A    E
e|--------2-|-2--3--2--0-|-----|
B|--------3-|-3--3--3--2-|-0-0-|
G|--------2-|-2--4--2--2-|-1-1-|
D|-----2--0-|-0--0--0--2-|-2-2-|
A|-2h4------|------------|-----|
E|----------|------------|-----|

The above is repeated for the verses 4 times.  But the last
time no E is played, instead Jimmy goes back into the intro
parts.  Othertimes in the song he plays the E four times before
going back to the intro.  Listen to the recording to get these
changes, it is quite clear.

Note during the song similar riffs to the intro.  The little
riff fill goes something like this.  Note that Jimmy plays
variations on the fill.

                          bend from b to c# and then back to b
e|--------------|------------------------------|---|
B|-------2-2----|-----2------------------------|---|
G|-------2-2----|-----2--4b-6b-4-2-4p2-4p2-----|---|
D|-2-----2-2--2-|-2---2--------------------4p2-|---|
A|-3-4-0------3-|-4-0--------------------------|-0-|
E|--------------|------------------------------|---|
                          riff fill

                         variation something like this
e|--------------|--------------2-------------------|
B|-------2-2----|-----2----------5p2---------------|
G|-------2-2----|-----2--4b-6b-------4p2---4p2---2-|
D|-2-----2-2--2-|-2---2------------------4-----4---|
A|-3-4-0------3-|-4-0------------------------------|
E|--------------|----------------------------------|

Words :

Let me take you to the movies, can I take you to the show?
Let me be yours ever truly, can I make your garden grow?

>From the houses of the holy, we can watch the white doves go.
>From the door comes Satans daughter, and it only goes to show.
and you know.

There`s an angel on my shoulder, in my hand a sword of gold.
Let me wander in your garden, and the seeds of love I`ll sow.
You know.

So the world is spinning faster, are you dizzy when you stall
Let the music be your master will you heed the master`s call
Ohhh

Said there aint no use in crying, cause it will only, only
drive you mad
Does it hurt to hear them lying?  Was this the only world you
had?

So let me take you take you to the movies, can I take you baby
to the show
Why don`t you let me be yours ever truly, Can I make your
garden grow?
Вверх

Houses Of The Holy (2 вариант)

  intro/chorus riff  end
G|------------------|-----------|
D|----77-----77-7-7-|----77-7---|
A|340----340--------|340-----7--|
E|------------------|-----------|

  verse riff (x3)  end 1st verse  end for other verses
G|----------------|-------------|----------------------|
D|----------------|---/7-3/5----|---/7-3/5-------------|
A|345-5-5-5-3-----|345------5-0-|345------5-0------340-|
E|------------0000|-------------|-------------0000-----|
Вверх

How Many More Times

[Intro] - use wah-wah pedal
    o + o + o etc   +    o + o + etc   +    o     +    o    +
e|---------------|----|-------------|----|-----|----|----|----|
B|---------------|----|-------------|----|-----|----|----|----|
G|--9~-----------|----|--9~---------|----|--9~-|----|-9~-|----|
D|--9~-----------|--9-|--9~---------|--9-|--9~-|--9-|-9~-|--9-|
A|--7~-----------|--7-|--7~---------|--7-|--7~-|--7-|-7~-|--7-|
E|---------------|----|-------------|----|-----|----|----|----|

[Riff 1]				[Fill 1]
    E					   D	   A
e|-----------------------------------|-------------5--5--5-|
B|-----------------------------------|-7--7--7-----5--5--5-|
G|-----------------------------------|-7--7--7-----6--6--6-|
D|-----------------------------------|-7--7--7-----7--7--7-|
A|-----7--5----5~----------7-5---5---|-5--5--5-----7--7--7-|
E|--0-------7--------0---------7-----|-------------5--5--5-|

[Fill 2]		    [Fill 3]
	    E
e|-----------------------|------------5-5-5----0~-|
B|--7-7-7---9~~----7~----|----7-7-7---5-5-5----0~-|
G|--7-7-7---9~~----7~----|----7-7-7---6-6-6----1~-|
D|--7-7-7---9~~----7~----|----7-7-7---7-7-7----2~-|
A|--5-5-5---7~~----5~----|----5-5-5---7-7-7----2~-|
E|-----------------------|------------5-5-5----0~-|

Song progression:

[Intro] x1

With [Riff 1]:

How many more times treat me the way you wanna do?
How many more times treat me the way you wanna do?

						   [Fill 1] x1
When I give you all my love please, please be true.

I`ll give you all I got to give, rings, pearls and all.
I`ll give you all I`ve got to give, rings, pearls and all.

I`ve got to get you together baby.
				  [Fill 2] x1
I`m sure, sure you`re gonna crawl.

[Guitar Solo] - Wish I could transcribe it! Sounds like a solo
over E and D on rhythm guitar

I can only tab the ending.

Repeat first section as necessary, then do the last bit.

e|---------------------------------------|--------------|
B|----5--7--7b9~~----7b9---7--5h7p5------|---9~-------9-|
G|o-7~------------------------------7~~-o|---9~-------9-|
D|o-------------------------------------o|---9~-------9-|
A|---------------------------------------|---7~-------7-|
E|---------------------------------------|--------------|
                                            tr

[Riff 2] - goes with the next part, then just do whatever you
           want I guess

e|-------------------------|
B|-------------------------|
G|-------------------------|
D|-------------------------|
A|-------------------------|
E|---7s10~~~~-----7s4~~~~~-|

I was a young man, I couldn`t resist
Started thinking it over, just what I had missed.
Got me a girl and I kissed her and then and then
Whoops, oh Lordy, well I did it again.
Now I got ten children of my own.
I got another child on the way, that makes eleven.
You know I`m in constant heaven.
I know it`s all right in my mind
I got a little schoolgirl and she`s all mine.
I can`t get through to her cause it doesn`t permit

Start hitting E [x7999x]

But I`m gonna give her everything I`ve got to give.

       E	E
Oh Rosie, oh girl
       E	E
Oh Rosie, oh girl
	      E 	  E
Steal away now, steal away
	       E	   E
Steal away baby, steal away
			     E		      E
Little Robert Anthony wants to come and play.
			       E
Why don`t you come to me baby?
          E           E           E
Steal away, all right, all right.

[Riff 3] - with the next set of lyrics

e|--------------------------------|---|
B|------------------------------9-|---|
G|o-----------------------------9-|--o|
D|o-----------------------------9-|--o|
A|------------------------------7-|---|
E|---0---0-0--5-5-5-5-5s7--0------|---|

[Lyrics lovingly taken from an Albert King song]

They call me the hunter, that`s my name
They call me the hunter, that`s how I got my fame

   E E E E E E E etc
Ain`t no need to hide,

  D D D D D D etc
Ain`t need to run

  E     E
Cause I`ve got you in the sights of my gun.....

With [Riff 1]:
					      [Fill 1]
How many more times barrelhouse all night long?
					      [Fill 1]
How many more times barrelhouse all night long?

I`ve got to get you, baby.

		       [Fill 1] but different timing
Baby, please come home.

With [Fill 1]:
	Why don`t you please come home?

With [Fill 3]:
	Why don`t you please come home?

[Fill 3] x3

Strike E [x7999x] many times
Вверх

How Many More Times (2 вариант)

  ____________23 times_____________
/
G|----------------|----------------|
D|----------------|----------------|
A|----7--5----5---|----7---5------5|
E|0-------7-------|0-----------7---|

G|----------------|----------------|
D|----------------|----------------|
A|----7--5----5---|5-5-5-----------|
E|0-------7-------|--------5-5-5---|

  ____________14 times_____________
/
G|----------------|----------------|
D|----------------|----------------|
A|----7--5----5---|----7---5------5|
E|0-------7-------|0-----------7---|

G|----------------|----------------|
D|----------------|----------------|
A|5-5-5-7---------|5---------------|
E|----------------|----------------|

  _____________8 times_____________
/
G|----------------|----------------|
D|----------------|----------------|
A|7---------------|5---------------|
E|----------------|----------------|

  _________3 times_________
/
G|-------------------------|
D|-------------------------|
A|7--7777--7777--7775-2-5--|
E|-------------------------|

  ____________3 times______________
/
G|----------------|----------------|
D|----------------|----------------|
A|7777777777777777|7777777777777777|
E|----------------|----------------|

  ___Use this in the bowing solo___
/
G|----------------|----------------|
D|----------------|----------------|
A|7---------------|5---------------|
E|----------------|----------------|

End Of Bowing solo
  ____________3 times______________
/
G|----------------|----------------|
D|----------------|----------------|
A|7777777777777777|7777777777777777|
E|----------------|----------------|

This is when Rob goes into the Oh Rosie part.

            Repeat it 2x.
G|----------------|----------------|
D|----------------|----------------|
A|------------7---|------------7---|
E|----------------|----------------|

Steal away..
G|----------------|----------------|
D|----------------|----------------|
A|----------9-7---|------------7---|
E|----------------|----------------|

  ____________10 times_____________
/
G|----------------|----------------|
D|----------------|----------------|
A|------------7---|------------7---|
E|----------------|----------------|

Ain`t no need to run.............
G|---------------|---------------|---------------|-------------|
D|---------------|---------------|---------------|-------------|
A|7-7-7-7-7-7-7-7|5-5-5-5-5-5-5-5|3-3-3-3-3-3-3-3|1-1-1-1------|
E|---------------|---------------|---------------|---------3-5-|

                   ____7 times_____
                  /
G|----------------|--R-------------|
D|----------------|----E-----------|
A|----------------|------S---------|
E|5==============*|--------T-------|

Main Riff until song ends (one where you repeat it 23x)
Вверх

How Many More Times (3 вариант)

    E7
How many more times treat me the way you wanna do?

How many more times treat me the way you wanna do?

When I give you all my love
                        D  A  E7
Please, please be true.
E7
I'll give you all I got to give, rings, pearls and all.

I'll give you all I've got to give, rings, pearls and all.

I've got to get you together baby,
          A7
I'm sure, sure you're gonna crawl.

Iwas a young man, I couldn't resist
Started thinking it over, just what I had missed.
Got me a girl and I kissed her and then and then
Whoops, oh Lordy, well I did it again.
Now I got ten children of my own.
I got another child on the way, that makes eleven.
You know I'm in constant heaven.
I know it's all right in my mind
I got a little schoolgirl and she's all mine.
I can't get through to her cause it doesn't permit
But I'm gonna give her everything I've got to give.

Oh Rosie, oh girl
Oh Rosie, oh girl
Steal away now, steal away
Steal away baby, steal away
Little Robert Anthony wants to come and play.

Why don't you come to me baby?
Steal away, all right, all right.

They call me the hunter, that's my name
They call me the hunter, that's how I got my fame
Ain't no need to hide,
Ain't need to run
Cause I've got you in the sights of my gun.

How many more times barrelhouse all night long?
How many more times barrelhouse all night long?
I've got to get you, baby
Baby, please come home.
Why don't you please come home?
Why don't you please come home?
Вверх

I`m Gonna Crawl

Riff 1:

   C                  Am
e|----------0---------------------0--35-|
b|-------------1---------------1--------|
g|-------0--------0---------2-----------|
d|----2------------------2--------------|
a|-3------------------0-----------------|
E|--------------------------------------|

Riff 2:

(when Robert is going "cause she is my girl")

          v
e|--------5----------------X-|
b|--------5----------------X-|
g|--------5----------------X-|
d|-3--7-----------7-----5----|
a|-5--7-----------7-----5----|
E|-5--5-----------5-----3----|

Riff 3:

(This is the "If she would come back and only stay")

e|----------------------------------------------|
b|----------------------------------------------|
g|--7-----------7----------------------9------2-|
d|--7-----------7----------(7)---------9------2-|
a|--5-----------5----------(7)---------7------0-|
E|-------------------------(5)------------------|

                                                A   Ab
e|----------------------------------------------5--3-|
b|----------------------------------------------5--3-|
g|----------------------------------------------6--4-|
d|-9--9--9--9--9--9--9--9--9--9--9--9--9--9--9--7--5-|
a|-9--9--9--9--9--9--9--9--9--9--9--9--9--9--9--7--5-|
E|-7--7--7--7--7--7--7--7--7--7--7--7--7--7--7--5--3-|
Lyrics:

Oh, she`s my baby                 (Riff 1)
Let me tell you why
Hey, she drives me crazy
She`s the apple of my eye
`Cause she is my girl             (Riff 2)
And she can never do me wrong
If I dream too much at night
Somebody please bring me down

Hey, I love that little lady      (Riff 1)
I got to be her fool
Ain`t no other than my baby
I can break the golden rule
`Cause I get down on my knees     (Riff 2)
Oh, I pray that love won`t die
And if I always try to please
And I don`t know the reason why

If she would come back            (Riff 3)
And only stay with me
Oh yeah
Every little bit, every little bit,
Every little bit of my love
I give to you girl
Every little bit, every little bit,
Every little bit of myy love, oh

I don`t have to go by plane       (Riff 1)
I don`t have to go by car
People, I don`t care just where my darling is
I just don`t care how far
I`m Gonna Crawl, I`m Gonna Crawl
I don`t care if I have to go back home
I don`t care where I got to stand to get to you
I`m Gonna Crawl, I`m Gonna Crawl
Ah, ooh, ooh, I`m gonna move the car, baby
I say, she give me good lovin`
She give me good lovin`
She give me good lovin`
My baby give me good lovin`
Ooh, yes I love her
I guess I love her
Yes, I love her
I`m Gonna Crawl  (C chord at end of Riff 1)

I`ll post the solo once I figure it out. but here`s all I know.

If anyone knows the solo, then re-post this. Sorry for any
mistakes
Вверх

I`m Gonna Crawl

Riff 1:
    C                                 Am
e|--------------------0---------------------------------------0-----35-|
b|-------------------------1----------------------------1--------------|
g|--------------0---------------0-----------------2--------------------|
d|--------2---------------------------------2--------------------------|
a|--3---------------------------------0--------------------------------|
E|---------------------------------------------------------------------|

Riff 2:
(when Robert is going "cause she is my girl")

e|---------5----------------X-|
b|---------5----------------X-|
g|---------5----------------X-|
d|--3--7-----------7-----5----|
a|--5--7-----------7-----5----|
E|--5--5-----------5-----3----|


Riff 3:
(This is the "If she would come back and only stay")

e|----------------------------------------------|
b|----------------------------------------------|
g|--7-----------7----------------------9------2-|
d|--7-----------7----------(7)---------9------2-|
a|--5-----------5----------(7)---------7------0-|
E|-------------------------(5)------------------|

                                                         A     Ab
e|-------------------------------------------------------5----3-|
b|-------------------------------------------------------5----3-|
g|-------------------------------------------------------6----4-|
d|--9--9--9--9--9-----9--9--9--9--9-----9--9--9--9--9----7----5-|
a|--9--9--9--9--9-----9--9--9--9--9-----9--9--9--9--9----7----5-|
E|--7--7--7--7--7-----7--7--7--7--7-----7--7--7--7--7----5----3-|

Lyrics:

Oh, she`s my baby                              (Riff 1) 
Let me tell you why
Hey, she drives me crazy
She`s the apple of my eye
`Cause she is my girl                          (Riff 2)
And she can never do me wrong
If I dream too much at night
Somebody please bring me down

Hey, I love that little lady                   (Riff 1)
I got to be her fool
Ain`t no other than my baby
I can break the golden rule
`Cause I get down on my knees                  (Riff 2)
Oh, I pray that love won`t die
And if I always try to please
And I don`t know the reason why
  
If she would come back                         (Riff 3)
And only stay with me        
Oh yeah
Every little bit, every little bit,
Every little bit of my love
I give to you girl
Every little bit, every little bit,
Every little bit of myy love, oh

I don`t have to go by plane                    (Riff 1)
I don`t have to go by car
People, I don`t care just where my darling is
I just don`t care how far
I`m Gonna Crawl, I`m Gonna Crawl
I don`t care if I have to go back home
I don`t care where I got to stand to get to you
I`m Gonna Crawl, I`m Gonna Crawl
Ah, ooh, ooh, I`m gonna move the car, baby
I say, she give me good lovin`
She give me good lovin`
She give me good lovin`
My baby give me good lovin`
Ooh, yes I love her
I guess I love her
Yes, I love her
I`m Gonna Crawl

Riff 1 should be:
                          rake
    C             Ab      G              
e|------------------------3-5-|
b|--------1-----------4---3---|
g|------0---0-------5-----4---|
d|----2-------2---6-------5---|
a|--3-------------------------|
E|----------------------------|

Riff 2 should be:
(when Robert is going "cause she is my girl")

               Am
e|-------------5------------------X-|
b|-------------5------------------X-|
g|-------------5------------------X-|
d|----------------------------------|
a|----------------------------------|
E|--3--3--5-------3--1--3-/-1-------|

Riff 3 should be:

Seems to be arpeggios in D, arpeggios in G, then

    Am                                                   G     F
e|---------------------------------------------------------------|
b|---------------------------------------------------------------|
g|---------------------------------------------------------------|
d|--7--7--7--7--7-----7--7--7--7--7-----7--7--7--7--7------------|
a|--7--7--7--7--7-----7--7--7--7--7-----7--7--7--7--7------------|
E|--5--5--5--5--5-----5--5--5--5--5-----5--5--5--5--5----3-----1-|
Вверх

I`m Gonna Crawl (2 вариант)

  12/8 time
G|------------1-----0-----|------------------------|------------1-----0-----|
D|------------------------|------------------------|------------------------|
A|3-----------------------|3--------3--------------|3---3-----3-------------|
E|------------------------|-----------4-----3------|------------------------|

G|------------------------||------------1-----0-----|------------1-----0-----|
D|------------------------||------------------------|------------------------|
A|3---3-----3-------------||3-----------------------|3---3-----3-------------|
E|------------4-----3-----||------------------------|----------------------3-|

G|------------1-----0-----|----------0-1-----0-----|------------------------|
D|------------------------|--------2---------------|------------------------|
A|3---------3-------------|3---3------------------3|0---0-----------------3-|
E|------------------------|------------------------|----------3-1-----------|

G|------------------------|------------------------|------------------------|
D|------------------------|------------------------|------------------------|
A|0-------0---------------|0---0-------------------|0---0-------------------|
E|----------3-1---------3-|--------0-3-1---------3-|--------0-3-1-1-1-1-1-1-|

  6/8 time     12/8 time
G|------------|------------------------|----------0-1-----0-----|
D|------------|------------------------|--------2---------------|
A|------------|3-------------------0-2-|3---3-------------------|
E|1111--------|------------4-----3-----|------------------------|

G|------------------------|------------------------|------------1-----0-----|
D|------------------------|------------------------|------------------------|
A|3---------3-------------|3---3-----3------------2|3---------3-------------|
E|------------4-----3-----|------------4-----3-----|------------------------|

G|------------1-----0-----|------------------------|------------------------|
D|------------------------|------------------------|------------------------|
A|3---3------------------3|0---0-------------------|0---0-------------------|
E|------------------------|----------3-1---1---3-4-|----------3-1---1---3-4-|

                                                    6/8 time
G|------------------------|------------------------|------------|
D|------------------------|------------------------|------------|
A|0---0-------------------|0---0-------------------|------------|
E|--------0-3-1---1---3-4-|----------3-1-1---1-1---|1-1---------|

  12/8 time
G|--------------------9-7-|------------------------||------------------------|
D|------------------7-----|5-----------------------||------------------------|
A|5-----5---0-5-----------|------5-----------------||------------------------|
E|------------------------|------------3-----3-3034||55555-55555-55555-5-----|
                                                     Ev`ry little bit...

G|------------------------|------------------------|------------------------||
D|-----------53-----------|------------------------|------------3-----------||
A|----0---0-3-----------0-|00000-00000-00000-0-----|----------3-------------||
E|1-----------------------|--------------------3-1-|1-----------------------||

  Guitar Solo
G|----------0-1-----0-----|------------------------|----------0-1-----0-----|
D|--------2---------------|------------------------|--------2---------------|
A|3-----------------------|3-----------------------|3---3-------------------|
E|------------------------|------------4-----3-----|------------------------|

G|------------------------|------2-----------------|-------2----------------|
D|------------------------|------------------------|------2-----------------|
A|3---3-----3-------------|0-------0-----------0-3-|0---03--------------3---|
E|------------4-----3--034|----------3-1---1-13----|---------3-1---1-55---3-|
                                                        3/

                                                    6/8 time
G|------------------------|------------------------|------------|
D|------------------------|------------------------|--3-3-------|
A|0---0---0---------------|------------------------|-----30--003|
E|----------3-1-------1-34|5---55--5-3-111---111---|1------1----|
                                                        3/
  12/8 time
G|----------7-----------0-|0-------0-0-------------|------------------------|
D|0-----0--7-70-----0-02-2|-------0----------5-----|-------------------2----|
A|------------------------|--------------2-5-------|00000-00000-00000-0-30--|
E|------------------------|------------3-------3-0-|----------------------3-|

v|----------------------02|------------------222---|------------------------||
D|------3-----------3-----|---------------------2--|------3-----------------||
A|---------30-------------|00000-00000-00000-----0-|----------0-3-----------||
E|1-----------1---1-------|------------------------|11----------------------||

G|--------0-1-----0-------|----------0-1-----0-----|------------1-----0-----|
D|------2-----------------|--------2---------------|--------2-0-------------|
A|3-----------------------|3-----------------------|3---3-------------------|
E|------------------------|------------------------|------------------------|

G|------0----01-----0-----|----------0-1-----0-----|----------0-1-----0-----|
D|----------2-------------|--------2--------1------|--------2---------------|
A|3-----------------------|3---33------------------|3-----------------------|
E|------------------------|------------------------|------------------------|

G|----------------8-------|------------------------|----------0-1---1-0-0-0-|
D|--------3-5-6----65---5-|------2-2-5-6-----5-----|--------2-----1---------|
A|3-----------------------|3------0----------------|3-----------------------|
E|------------------------|------------------------|------------------------|

G|------------------------|--------5---------------|------------------------|
D|--------5---------------|----------5-------------|------------------------|
A|3---3-----3-------------|3----------------------2|3---3-----3-------------|
E|------------4-----3-----|------------4-----3-----|-----------44-----3-3-3-|

G|------------------------|------5-----------------|--------5---------------|
D|------------------------|------------------------|------------------------|
A|3-3-3-3-3-3------------2|3---3---3-1-------------|3---3-----3-------------|
E|------------4-4-4-3-3-3-|------------4-----3-----|------------4---4-3-3-3-|

G|------5-----------------|------5-----------------|------0-----------------|
D|------------------------|------------------------|------------------------|
A|3---3-----3-------------|3---3-----3------------2|33333-----1-------------|
E|------------4---4-3-3-3-|------------44444-33333-|------------44444-3--33-|

G|------5-----------------|----------------1-----3-|------------------------|
D|------------------------|--------------------55-5|--------5---------------|
A|333333----31------------|33333-3---1-------------|3---------31------------|
E|------------4444443-3-3-|------------4-----3-----|------------4---4-3-----|

G|---|
D|---|
A|-3-|
E|---|
Вверх

Immigrant Song mp3

Main Riff:
[F#m]
----------------------------------|---------------------------------|
----------------------------------|---------------------------------|
----------------------------------|---------------------------------|
----------4---------------4-------|---------4---------------4-------|
----------------------------------|---------------------------------|
--2---2-2---2---2-2---2-2---2---2-|-2---2-2---2---2-2---2-2---2---2-|

Ah,_____________
ah._____________

[A] We [E] come from the land of ice and
snow, from the midnite sun where the hot springs blow.____

(main riff)
The hammer of the gods  will drive our ships__ to new lands, to fight the
horde,__ singing and crying:
[E] Vahala, I am coming!______[A]__[F#m]__
[A] on we sweep_
[B] with treshing oar,_
[C] our only goal will be the west-ern
shore

(Main riff)
Ah,____________
ah.____________

[A] We [E] come from the land of ice and snow, from the midnite sun where
the hot springs blow.____

(Main riff)
How soft your fields so green,  can whisper tales__ of gore,___  of how we
calmed_ the tides of war.___
[E] We are your over lords.
[A] on we sweep_
[B] with treshing oar,_
[C] our only goal will be the west-ern shore

(main riff)
So now you`d better stop__
and rebuild your ruins,
for peace and trust__ can win the day despite of all your
losing.


--------------------------2-------|-------------------------2-------|
--------------------------3-------|-------------------------3-------|
--------------------------3-------|-------------------------3-------|
----------4---------------X-------|---------4---------------X-------|
--------------------------3-------|-------------------------3-------|
--2---2-2---2---2-2---2-2---2---2-|-2---2-2---2---2-2---2-2---2---2-|


--------------------------2-------|---------------------------------|
--------------------------3-------|---------------------------------|
--------------------------3-------|---------------------------------|
----------4---------------X-------|---------4-----------------------|
--------------------------3-------|---------------------------------|
--2---2-2---2---2-2---2-2---2---2-|-2---2-2---2---2-2---------------|
Вверх

In My Time Of Dying

Opening riff: (set tone to "crunchy" :-))

e|-------------------------------|---------------------|
B|-------------------------------|---------------------|
G|-32^0-2/3/5~--0-32^0-(0)/12~---|-32^0-2/3/5~-0-31^0--|
D|-32^0-2/3/5~--0-32^0-(0)/12~---|-32^0-2/3/5~-0-31^0--|
A|-------------------------------|-----------------^---|
E|-------------------------------|-----------------|---|
                                 |                 |
                                wait          slow slide
                                 |                 |
e|-------------------------------|-----------------|---|
B|---------------------------12~-|-----------------v---|
G|-32^0-2/3/5~--0-32^0-(0)/12--~-|-32^0-2/3/5--0-31----|
D|-32^0-2/3/5~--0-32^0-(0)/12--~-|-32^0-2/3/5--0-31----|
A|-------------------------------|---------------------|
E|-------------------------------|---------------------|

Another part:

e|----------------------------|---------------------------|
B|----------------------------|---------------------------|
G|-0-3-5---0-(5)/7-0-(3)/53-0-|-0-3-5---0-(5)/7-0-(3)/5-3-|
D|-0-3-5---0-(5)/7-0-(3)/53-0-|-0-3-5---0-(5)/7-0-(3)/5-3-|
A|----------------------------|---------------------------|
E|----------------------------|---------------------------|

Repeat that once.

Yet another part: (a little faster than previous progressions)

e|------------------------|--------------------------------|
B|------------------------|--------------------------------|
G|-(3)/7~-0-(3)/5^0-3-0-:-|-/12~-0-(3)/5^0-3^0-:--5-(hold)-|
D|-(3)/7~-0-(3)/5^0-3-0-:-|-/12~-0-(3)/5^0-3^0-:--5-(hold)-|
A|----------------------^-|--------------------^-----------|
E|----------------------|-|--------------------|-----------|
                      repeat                 repeat

Now, right after that last 5-5 power chord, there`s a little
piece that I can`t figure out. It leads to this fast part, tight
with the drums:

e|---------------------------------------------------------|
B|---------------------------------------------------------|
G|-(2)/32^0-(2)/32-0-(2)/53-0-(right here I usually play some)
D|-(2)/32^0-(2)/32-0-(2)/53-0-(fast 0-0 "fills"; 3 or 4, drums)
A|---------------------------------------------------------|
E|---------------------------------------------------------|

Repeat several times.

I`m not sure what the standard nomenclature is, but here is what
I meant:

        (X)/Y : Start slide at X fret, slide up to Y fret.
        X^Y   : Pull slide off strings.
        X~    : Hold and "wiggle" slide for a tremolo effect.

This is my first tab, so please refrain from flaming, although
corrections are more than welcome. At the very least, your
friends
will recognize this tune. I recommend listening to the song, of
course. Have fun!
Вверх

In My Time Of Dying (2 вариант)

G|------------|-------|------------2-|-------------------|
D|-/5---------|-------|-/5-----------|-------------------|
A|----0/7-0/5-|-0-3-5-|----0/7-0/5---|-3-2-0-2h3h5-0-3-0-|
E|------------|-------|--------------|-------------------|

G|----------------------|----------------|--------------|
D|-------------------/7-|----------------|--------------|
A|-3-2-0-3-2-0-5-3-0----|-5-5-5--5-5-5-3-|-3-3-3--3-3-3-|
E|----------------------|----------------|--------------|

G|------------|--------------------0-1-2-|-7-5--7-5--7-5--|
D|------------|--------------------------|----7----7----7-|
A|-/3-0-5-3-0-|-3-2-0-0-0-0-5-3-0--------|----------------|
E|------------|--------------------------|----------------|

G|-----------------|
D|-----------------|
A|-0-3-5-----------|
E|-------0-1-2-3-5-|
Вверх

In The Light

In the light,
You will find the road..
You will find the road..

Riff.1  (4 times)
E|-----------------------------------|
B|-----------------------------------|
G|-----------------------------------|
D|--7--6----5-------------------(14)-|
A|-------------7----6--5-------7(12)-|
E|--------------------------7--5-----|
                                ^--^-
                 both chords played at the same
time

Riff.2
E|-------------------------------------------------------------|
B|-------------------------------------------------------------|
G|---------------------7-------------------------------7-------|
D|-------7--5--7--4-3-----7--5--7--------7--5--7--4-3----7-5-7-|
A|-0--0----------------------------0--0------------------------|
E|-------------------------------------------------------------|
     Hey ooh did you ever believe that I would leave you ...

At the end of

    Hey  yeah  baby
    I know how it feels to kinda slip through
    To the bitter depths of my soul -- yeah

they jump back to the first four notes of Riff.1, then directly
back to
Riff.2.  Nothing really difficult to pick up;  I just thought
I would mention it.

Riff.3
E|---------------------------------------------|
B|--------------------------------5---7--9--10-|
G|--------------------------6--7---------------|
D|----------------4--6--7----------------------|
A|--0---4--5--7--------------------------------|
E|---------------------------------------------|

Riff.3 starts

I will share your love
Let me share your love
Oooooo, let me share
Share your love

(keyboard) then Riff.3

>From there, you should be able to pick up the whole song.
I have also transcribed the first 5 licks at the end of the
song.  There is some serious overdubbing to get a neat delay
effect on these licks. I, somewhat, try to simulate a little of
that in the tab.

E|-17--------17---------17---------17--------------------------|
B|---b(19)17----b(19)17----b(19)17-----------------------------|
G|------------------------------------b16(18)-16-14-b16(18)-14-|
D|-------------------------------------------------------------|
A|-------------------------------------------------------------|
E|-------------------------------------------------------------|

E|---------------------------------------------------------|
B|---------------------------------------------------------|
G|-b(18)16-14-b(18)16-14-b(18)16--14---b(18)16--14-b16(18)-|
D|---------------------------------------------------------|
A|---------------------------------------------------------|
E|---------------------------------------------------------|

E|---------------------------------------------|
B|---------------------------------------------|
G|--b9(11)-9--7---b9(11)-9--7---7-6------------|
D|----------------------------------7----------|
A|------------------------------------b7(9)(7)-|
E|---------------------------------------------|

E|-------------------------------------------------------------|
B|--------------------------------------b8(10)--8--7---b12(14)-|
G|-----------------------b9(11)--9--7--------------------------|
D|-b9(11)-9-7-b9(11)-9-7---------------------------------------|
A|-------------------------------------------------------------|
E|-------------------------------------------------------------|

E|-------------------17------------------------------|
B|--b17(19)--17--15--------b17(18)--17--1514------14-|
G|---------------------------------------------16----|
D|---------------------------------------------------|
A|---------------------------------------------------|
E|---------------------------------------------------|
Вверх

Jennings Farm Blues

The tuning is: 6 = E, 5 = F, 4 = C, 3 = F, 2 = A, 1 = E (low  to high)

Moderately:

--------3-------------3------3-----------3----
----------------------------------------------
----------------------------------------------
---2-2~-----2-----2b~-------------2---2~------
-2--------2---2-2-------2--2----2---2---------
----------------------------------------------

Repeat that 4 or 5 times with some ad-lib variations, then:
                                       x2
---------------------------------------:-------
----3--5--7--5--7-----0--3--5--7--5--7-:-------
-0--3--5--7--5--7-----0--3--5--7--5--7-:-------
-0--3--5--7--5--7-----0--3--5--7--5--7-:-------
-0--3--5--7--5--7--0--0--3--5--7--5--7-:-------
---------------------------------------:-------

Go back to the first riff, then:

---------------------------------------------------------------------
---2--2--2-2--2/5-5--5-5-5-5-5~~---0--3--5--0-------0-0--3--5--0-----
---2--2--2-2--2/5-5--5-5-5-5-5~~---0--3--5--0-------0-0--3--5--0-----
-2-2--2--2-2--2/5-5--5-5-5-5-5~~---0--3--5--0----0--0-0--3--5--0-----
-2-2--2--2-2--2/5-5--5-5-5-5-5~~-0-0--3--5--0--0----0-0--3--5--0-----
---------------------------------------------------------------------
Вверх

Kashmir mp3

(basic song riff)
------------------------------------------------------------------------
------------------------------------------------------------------------
4-4-4---4-4-4---5-5-5---5-5-5---6-6-6---6-6-6---7-7-7---7-7-7---9-9-9---
------------------------------------------------------------------------
2-2-2---2-2-2---3-3-3---3-3-3---4-4-4---4-4-4---5-5-5---5-5-5---7-7-7---
--------------0---------------0---------------0---------------0---------

NOTE: the first 2-2-2 is dropped when repeated.

OH let the sun beat down upon my face, stars fill my dream
I am a traveler of both time and space, to be where I have been
secret elders of a gentle race, swierl but seldom seen
top of days for which they sit and wait, all will be revealed

(POWER FILL)
------------------
9--7--7--5--7--5--
9--8--7--6--7--6--
9--9--7--7--7--7--
7--7--5--5--5--5--
0--0--0--0--0--0--

(basic song riff)
offer song from tongues of lilding grace, sounds caress my ear
not a word I heard could I relate, the story was quite clear
WHOOA  OH,  WHOOA OH

(POWER FILL) x 2

Am
OOOH baby I`ve been lie`n
OOOH yea, baby there aint no deny`n
OOOH yea, I`ve been fly`n
mama    aint no deny`n, no deny`n
(POWER FILL) x 2

Am                 B      Am                   B
all I see turns to brown, as the sun burns the ground
Am                     B     Am                  B
and my eye filled with sand, as I scan this racy land
Am                                     B
try`n to find, try`n to find were I`ve been

(basic song riff)
AHHHH

OH I love the storm that leaves no trace, like thoughts inside a dream
he is the band that led me to that place, yellow desert screams
like shangrela beneath the summer moon, I will return to err
as the death that floats behind you, were moving through kashmir
(POWER FILL)

(basic song riff)
OH father of the four winds fill my sails, cross the sea of errs
with no provisions but an open face, norm`d straits of fear
WHOOA  OH,  WHOOA OH
(POWER FILL) x 2

Am                          B
When I want, when I`m on my way, yea
Am                                    B
When I feel, when I think my brain to stay
Am         B  Am                B
... OOOH yea  OOOH yea when I`m down
Am                            B
OOOH yea  OOOH yea when I`m down
Am                                     B
OH my baby, OH my baby let me take you there
Am              B
let me take you there....
Вверх

Kashmir (2 вариант) mp3

I have tabbed all the riffs in the entire song, but you will
have to listen to the album to see exactly how the riffs fit
together. Enjoy.

Main Riff 1

D|---------------------------------------------------------|
A|---------------------------------------------------------|
G|--2---2---2------2---2---2------3---3---3------3---3---3-|
D|--0---0---0------0---0---0------0---0---0------0---0---0-|
A|--5---5---5------5---5---5------5---5---5------5---5---5-|
D|---------------------------------------------------------|

D|---------------------------------------------------------|
A|---------------------------------------------------------|
G|--4---4---4------4---4---4------5---5---5------5---5---5-|
D|--0---0---0------0---0---0------0---0---0------0---0---0-|
A|--5---5---5------5---5---5------5---5---5------5---5---5-|
D|---------------------------------------------------------|

D|---------------------------------------------------|
A|---------------------------------------------------|
G|--7---7---7------2---2---2------2---2---2----------|
D|--0---0---0------0---0---0------0---0---0---repeat-|
A|--5---5---5------5---5---5------5---5---5----------|
D|---------------------------------------------------|

Riff 2

D|--12---12---10---10----7----7----5----5----3----3----------|
A|---0----0----0----0----0----0----0----0----0----0----------|
G|--12---11---10----9----7----6----5----4----3----2----------|
D|---0----0----0----0----0----0----0----0----0----0----3-2-0-|
A|-----------------------------------------------------------|
D|-----------------------------------------------------------|

D|--12---12---10---10----7----7----5----5----3----3----------|
A|---0----0----0----0----0----0----0----0----0----0----------|
G|--12---11---10----9----7----6----5----4----3----2----------|
D|---0----0----0----0----0----0----0----0----0----0----3-2-0-|
A|-----------------------------------------------------------|
D|-----------------------------------------------------------|

When you go back to the Main Riff start here and then proceed
as usual.
D|---------------------------------------------------------|
A|---------------------------------------------------------|
G|--3---3---3------3---3---3------4---4---4------4---4---4-|
D|--0---0---0------0---0---0------0---0---0------0---0---0-|
A|--5---5---5------5---5---5------5---5---5------5---5---5-|
D|---------------------------------------------------------|

D|-------------------------------------------------------------|
A|-------------------------------------------------------------|
G|-5---5---5-----5---5---5----7---7---7------2---2---2---------|
D|-0---0---0-----0---0---0----0---0---0------0---0---0----etc.-|
A|-5---5---5-----5---5---5----5---5---5------5---5---5---------|
D|-------------------------------------------------------------|

Interlude 1-After Riff 2

D|-12---12---10---10---7---7----5----5----3----3---------------|
A|--0----0----0----0---0---0----0----0----0----0---------------|
G|-12---11---10----9---7---6----5----4----3----2---------------|
D|--0----0----0----0---0---0----0----0----0----0--3-2-0------0-|
A|--------------------------------------------------------0-2--|
D|-------------------------------------------------------------|

D|-------------------------------------------------------------|
A|-------------------------------------------------------------|
G|-------------------------------------------------------------|
D|--2------2---2---11-2----2------2---2---11-2-----3-2-0-----0-|
A|--0------0---0---12-0----0------0---0---12-0-----------0-2---|
D|-------------------------------------------------------------|

D|-------------------------------------------------------------|
A|-------------------------------------------------------------|
G|-------------------------------------------------------------|
D|-2----2---2---11-2--------2------2---2---11-2----3-2-0-----0-|
A|-0----0---0---12-0--------0------0---0---12-0-----------0-2--|
D|-------------------------------------------------------------|

Repeat
Back to Riff 2

Interlude 2-After Riff 2
Interlude 2 is two chords that are alternated in this section
of the song.

D|--12---12---10---10----7----7----5----5----3----3----------|
A|---0----0----0----0----0----0----0----0----0----0----------|
G|--12---11---10----9----7----6----5----4----3----2----------|
D|---0----0----0----0----0----0----0----0----0----0----3-2-0-|
A|-----------------------------------------------------------|
D|-----------------------------------------------------------|

D|--5---------------------------7-|
A|--5---------------------------7-|
G|--7---------------------------9-|
D|--5---------------------------7-|
A|--5---------------------------7-|
D|--5---------------------------7-|

The rest of the song alternates between the Main Riff and Riff 2
End on Interlude 2.

If you happen to be playing along with the Page and Plant:
No Quarter album, here is the riff that comes after the violin
solo.

D|---------------------------|
A|---------------------------|
G|---------------------------|
D|---------------------------|
A|--12-11-12-14-12-11-12--9--|
D|---0--0--0--0--0--0---0--0-|
Вверх

Living Loving Maid

[Riff 1]
      A
e|-------------------------------------------------|
B|---(10)------------------------------------------|
G|----9-------------------(9)-(9)-(9)--------------|
D|----7---(7)-(7)-(7)-(7)-(7)-(7)-(7)--------------|
A|----0---(0)-(0)-(0)-(0)-(0)-(0)-(0)--------------|
E|-------------------------------------------------|

[Riff 2]                           [Riff 3]
    (N.C.)					 A A A	 D    A
e|--------------------------------|------------------------------|
B|--------------------------------|--------------5-5-5---7----5--|
G|--------------------------------|--------------6-6-6---7----6--|
D|--------------------------------|--------------7-7-7---7----7--|
A|----3---3--4--5------------3----|--------------7-7-7---5----7--|
E|--5---5---------3--3--3--5---5--|-3--5--3--5-------------------|

[Riff 4]
    D				  A
e|-----------------------------------------------------------------------|
B|--7--7---7-7--7--7--7--7-7-7-7--5--5---5-5--5--5--5---5-5-5-5----------|
G|--7--7---7-7--7--7--7--7-7-7-7--6--6---6-6--6--6--6---6-6-6-6----------|
D|--7--7---7-7--7--7--7--7-7-7-7--7--7---7-7--7--7--7---7-7-7-7----------|
A|--5--5---5-5--5--5--5--5-5-5-5--7--7---7-7--7--7--7---7-7-7-7----------|
E|-----------------------------------------------------------------------|

    D                                 E
e|------------------------------------0~--|
B|--7--7---7-7--7--7--7--7-7-7-7------0~--|
G|--7--7---7-7--7--7--7--7-7-7-7------1~--|
D|--7--7---7-7--7--7--7--7-7-7-7------2~--|
A|--5--5---5-5--5--5--5--5-5-5-5------2~--|
E|------------------------------------0~--|

[Riff 5]
e|--------------------------------|
B|--9-----------------------------|
G|--9-----------------------------|
D|--9-----------------------------|
A|--7-----------------------------|
E|--0-----------------------------|

[Riff 6]
e|--------------------------------|
B|--------------------------------|
G|--------------------------------|
D|-7-7-7-7-7-7-7-7-7-7-7-7-7-7-7-7|
A|--------------------------------|
E|--------------------------------|

[These fills are played on another guitar using a slide and wah-wah
effect. They are carefully placed in the chorus so watch out for them.]

[Fill 1]             [Fill 2]          [Fill 3]
    o          +       o                + o       +
e|-----------------|-----------------|-------------------------------|
B|-/7----------7--|-/14------(14)--|--2/7------(7)----------------|
G|-/7----------7--|-/14------(14)--|--2/7------(7)----------------|
D|-/7----------7--|-/14------(14)--|--2/7------(7)----------------|
A|-----------------|-----------------|-------------------------------|
E|-----------------|-----------------|-------------------------------|


Song progression:

[Riff 1] w/ lyrics:
	     With a purple umbrella and a fifty-cent hat -
[Riff 2+3]   (livin`, lovin`, she`s just a woman)

[Riff 1] w/ lyrics:
	     Missus Cool rides out in her aged Cadillac -
[Riff 2+3]   (livin`, lovin`, she`s just a woman)

[Riff 4] w/ lyrics:
          [Fill 1]
             Come on babe on the roundabout,
          [Fill 2]
             ride on the merry-go-round.
   [Fill 3]
      We all know what your name is, so you better lay your money down.

Strum [Riff 5]

[Riff 2+3] x1

[Riff 1] w/ lyrics:

	Alimony, alimony payin` your bills -
[Riff 3] (livin`, lovin`, she`s just a woman)

[Riff 1] w/ lyrics:

	When your conscience hits you, knock it back with pills.
[Riff 3] (livin`, lovin`, she`s just a woman)

[Riff 4] w/ lyrics:
     [Fill 1]
	Come on babe on the roundabout,
     [Fill 2]
        ride on the merry-go-round.
     [Fill 1]
        We all know what your name is, so you better lay your money down.

[Riff 1] w/ lyrics:
	     Tellin` tall tales of how it used to be,
[Riff 2+3]   (livin`, lovin`, she`s just a woman)

[Riff 1] w/ lyrics:
	     with the butler and the maid and the servants three.
[Riff 2+3]   (livin`, lovin`, she`s just a woman)

[Guitar Solo] /w [Riff 3] x1:
   D                                                  A
e|---------------------------------------------------------------------|
B|---------------------------------------------17b19--17b19-17b19--17~-|
G|-------14----14--16--16b18r16b18r16---14~----------------------------|
D|-14-16----16---------------------------------------------------------|
A|---------------------------------------------------------------------|
E|---------------------------------------------------------------------|
                    D
e|-------------------------------------------------------------------|
B|-------15-14~------------------------------------------------------|
G|------------------------14----14--16--16b18r16b18r16--14~----------|
D|------------------14-16----16--------------------------------------|
A|-------------------------------------------------------------------|
E|-------------------------------------------------------------------|
   E
e|-------------------------------------------------------------------|
B|-5-x-6-x-7-x-8-x-9-x-10-x-11-x-12-x-13---13-14-13--14b16~~---------|
G|-------------------------------------------------------------------|
D|-------------------------------------------------------------------|
A|-------------------------------------------------------------------|
E|-------------------------------------------------------------------|

Strum [Riff 5]

[Riff 2+3] x1

[Riff 1] w/ lyrics:
	Nobody hears a single word you say,
[Riff 3] (livin`, lovin`, she`s just a woman)

[Riff 1] w/ lyrics:
	but you keep on talkin` till your dying day.
[Riff 3] (livin`, lovin`, she`s just a woman)

[Riff 4] w/ lyrics:
      [Fill 1]
        Come on babe on the roundabout,
      [Fill 2]
        ride on the merry-go-round.
      [Fill 3]
        We all know what your name is, so you better lay your money down.

[Riff 6] x1

[Riff 2+3] until end (3 times)
Вверх

Living Loving Maid (2 вариант)

 G|----|----------------|----------------|----------------|----------------|
 D|----|----------------|----------------|----------------|----------------|
 A|----|----------------|----------------|----3---3-4-5---|--------3-------|
 E|----|5-5---5---5---5-|--5---5---5---0-|5-5---5-------3-|--3-3-5-----5---|

 G|----------------|----------------|
 D|----------------|----------------|
 A|----------------|--------5-------|
 E|3-5-----3-5-----|--5-5-5-----5---| 2X

 G|----------7-----|----------------|----------------|----------------|
 D|------5-7-----4-|--5---6-7-------|--------7-7---4-|5---------------|
 A|5---------------|----------7-5-6-|----------------|----7-7---5---4-|
 E|----------------|----------------|5-----5---------|------------5---|
   Come on babe on the roundabout...

 G|----------------|----------------|----------------|----------------|
 D|----------------|----------------|----------------|----------------|
 A|5-------------2-|3-4---5-----5-6-|7---------------|----------------|
 E|--2-3-4-5-5-----|----------5-----|----------------|----------------|

 					      D.S. al CODA
 G|----------------|----------------|----------------|----------------|
 D|----------------|----------------|----------------|----------------|
 A|----------------|----------------|----3---3-4-5---|--------3-3-----|
 E|0-0-0-0-0-0-0-0-|0-0-0-0-0-0-0-0-|5-5---5-------3-|--3-3-5-----5---|

 G|----------------|----------------|----------------|----------------|
 D|----------------|----------------|----------------|----------------|
 A|----------------|--------5-------|----------------|----------------|
 E|3-5-----3-5-----|--5-5-5-----5---|5-5---5---5---5-|--5---5---5---0-|

 G|----------------|----------------|----------------|----------------|
 D|----------------|----------------|----------------|----------------|
 A|----------------|--------5-------|----------------|----------------|
 E|3-5-----3-5-----|--5-5-5-----5---|5-5---5---5---5-|--5---5---5---0-|

 G|----------------|----------------|----7---7-------|------5-6-7-----|
 D|----------------|----------------|--7---7---4---5-|6-7---------7---|
 A|----------------|--------5-------|5---------------|--------------5-|
 E|3-5-----3-5-----|--5-5-5-----5---|----------------|----------------|
                                     Come on babe on the roundabout...

 								     to CODA
 G|----------------|----------------|----------------|----------------|
 D|--------7-7---5-|----------------|----------------|----------------|
 A|----------------|7---5-4-----3-4-|5---------5---5-|----5---5-5-6-6-|
 E|5---------------|--------5-5-----|--2-3-4-5-------|--5---5---------|

 G|----------------|----------------|----------------|----------------|
 D|----------------|----------------|----------------|----------------|
 A|7---------------|----------------|----------------|----------------|
 E|----------------|----------------|----------------|5-5-5-5-5-5-5-5-|

 G|----------------|----------------|----------------|----------------|
 D|----------------|----------------|----------------|----------------|
 A|----------------|----3---3-4-5---|--------3-------|----------------|
 E|5-5-5-5-5-5-5-5-|5-5---5-------3-|--3-3-5-----5---|3-5-----3-5-----|

 G|----------------|----------------|----------------|----------------|
 D|----------------|----------------|----------------|----------------|
 A|--------5-------|----------------|----------------|----3---3-4-5---|
 E|--5-5-5-----5---|5-5---5---5---5-|--5---5---5---5-|5-5---5-------5-|

 G|----------------|----------------|----------------|----------------|
 D|----------------|----------------|----------------|----------------|
 A|--------3-3-----|----------------|--------5-------|5---------------|
 E|--3-3-5-----5---|3-5-----3-5-----|--5-5-5-----5---|------2-3-3-4-5-|

 G|----------------|--------------9-|--9-------------|--------------7-|
 D|----------------|7---------------|7---7-----------|----4-5-6-7-----|
 A|----3-4-5-5-6-7-|----------------|--------7-----4-|5-5-------------|
 E|----------------|----------------|----------5-----|----------------|

 G|--5-------------|----------------|----------------|----------------|
 D|------7-4-------|----------------|----------------|----------------|
 A|----------7-5-6-|7---------------|----------------|----------------|
 E|----------------|----------------|----------------|0-0-0-0-0-0-0-0-|

 G|----------------|----------------|----------------|----------------|
 D|----------------|----------------|----------------|----------------|
 A|----------------|----3---3-4-5---|--------3-------|----------------|
 E|0-0-0-0-0-0-0-0-|5-5---5-------3-|--3-3-5-----5---|3-5-----3-5-----|

 G|----------------|
 D|----------------|
 A|--------5-------|
 E|--5-5-5-----5---| D.S.

   CODA
 G|----------------|----------------|----------------|----------------|
 D|----------------|----------------|----------------|----------------|
 A|----------------|----------------|----3---3-4-5---|--------3-------|
 E|5-5-5-5-5-5-5-5-|5-5-5-5-5-5-5-5-|5-5---5-------3-|--3-3-5-----5---|

 G|----------------|----------------|----------------|----------------|
 D|----------------|----------------|----------------|----------------|
 A|----------------|--------5-------|----3---3-4-5---|--------3-------|
 E|3-5-----3-5-----|--5-5-5-----5---|5-5---5-------3-|--3-3-5-----5---|

 G|----------------|----------------|----------------|----------------|
 D|----------------|----------------|----------------|----------------|
 A|----------------|--------5-------|----3---3-4-5---|--------3-------|
 E|3-5-----3-5-----|--5-5-5-----5---|5-5---5-------3-|--3-3-5-----5---|

 G|----------------|----------------|
 D|----------------|----------------|
 A|----------------|--------5-------|
 E|3-5-----3-5-----|--5-5-5-----5---|
Вверх

Misty Mountain` Hop

 There are really only three parts to the tab:

 Section 1:

       Q.    Q   S   S  S   Q.

 -----------------------------------------

 ------------------------2---------------	Do this 4 times

 -----------------------------------------

 -------5-----3----0-------0----5------



 Section 2

 Then,

     S S S S S S S S S etc.........

 -----------------------------------------------------------

 -----------------------------------------------------------

 -----------------------------------------------------------

 ---5-5-5-5-5-5-5-5-5-5-5-5-5-5-5-5-5-5-5-5-



 The first two sections repeat a few times, then it goes to:

 Section 3

 And you know how it is.............          I really don`t...

         Q        S   S    S    S       E  E    E    Q. E

 ---------------------------------------|-------------------------------|

 ------------------------2-------------|----------------------------4-|

 ------------------------------------4-|------5---5----0----5-------|

 -------3----------0---------0-------|--------------------------------|







      time it was.....                    whoa, oh,           ho

       W+					            E

 ---------------------------------------|-------------------------------------|

 ---------------------------------------|-------------------------------------|

 ---------------------------------------|----------------------------------4-|

 ------5-------------------------------|-------------------------------------|









     S    S    S    S        E	        S     S    S    S    Q.

 ---------------------------------------|------------------------------------|

 ---------------------------------------|---5H-----5----2-----------------|

 ----5-----5------0------2-----5----|------------------------2-----------|

 ---------------------------------------|------------------------------3-----|



 Just mix and match as necessary through the song.  It should not

 be too hard to figure out.  If there are any mistakes just e-mail me

 and let me know. Also, I am not sure if the timing and note choices

  are correct, but I am sort of new to this. It should be a decent start,

 though.
Вверх

Misty Mountain` Hop (2 вариант)

            Main Riff
 E--------------------------------
 B--------------------------------
 G--------------------------------
 D---2--------2----2--------2-----
 A---0-------------0--------------
 E------3b--0---0-----3b--0---0---

 This next part comes in after that.

 E----------------------------------------------------
 B----------------------------------------------------
 G----------------------------------------------------
 D----------------------------------------------------
 A---4--5--3--4--5--3--4--5--3--4--5--3--4--5--3--4---
 E----------------------------------------------------

 This part comes in after they play those two riffs a couple times.

 E---------2------------------
 B-------3---3----------------
 G-----2-------2---------0----
 D---0-----------------0------
 A-------------------2--------
 E---------------0-3----------

 Then he plays the main riff again.  Later comes in this riff that sounds
 just like the main riff

 E----------------------------------------
 B----------------------------------------
 G----------------------------------------
 D----------------2-----------------2-----
 A----------------------------------------
 E---3^(5)--3b--0---0--3^(5)--3b--0---0---

 The solo starts out going along with the main riff and then branching
 off later.

 Solo:
 E---------------------------------------------------------------------
 B---------------------------------------------------------------------
 G---6--4--0h2h4---6--4--0h2h4---6--4--0h2h4---6--4--0h2h4---11-9-
 D---------------------------------------------------------------------
 A---------------------------------------------------------------------
 E---------------------------------------------------------------------

 E---------------------------------------------------------------------
 B---------------------------------------------------------------------
 G--7-h9---11--9--7-h9---11--9--7-h9---11--9--7-h9---11-p9----------
 D-------------------------------------------------------------12-p9---
 A---------------------------------------------------------------------
 E---------------------------------------------------------------------

 E------10-----------------------------------------------10------------
 B---------10^(12)-10--8---8-10-----------------------------10^(14)-10-
 G-----------------------9-----------------11-p9-----------------------
 D--12---------------------------7^(9)------------12-p9----------------
 A---------------------------------------------------------------------
 E---------------------------------------------------------------------

 E-------------------
 B--8---8-10---------
 G----9-------7^(9)--
 D-------------------           Then, from the distance, fades in this
 A-------------------           next guitar part which is played four
 E-------------------           times as much as shown.

 E---7^(8)--7-5-7----------7^(8)--7-5-7----------
 B-----------------5h7p5-----------------5h7p5---
 G-----------------------------------------------
 D-----------------------------------------------
 A-----------------------------------------------
 E-----------------------------------------------

 That`s Misty Mountain Hop. And also, if anyone knows "When the Levee Breaks,"
 could you please email it to Jeff White at jeffw@virginia.edu.

 Lyrics

 Walkin` in the park just the other day, Baby,
 What do you, what do you think I saw?
 Crowds of people sittin` on the grass with flowers in their her said,
 "Hey, Boy, do you wanna score?"
 And you know how it is;
 I really don`t know what time it was, woh, oh,
 So I asked them to stay awhile.

 I didn`t notice but it got very dark and I was really,
 Really out of my mind.
 Just policeman stepped up to me and asked us said,
 "Please, hey, would we care to all get in line,
 Get in line."
 Well you know,
 They asked us to stay for tea and have some fun,
 Oh, oh, he said that his friends would all drop by, ooh.

 Why don`t you take a good look at yourself and describe what you see,
 And Baby, Baby, Baby, do you like it?
 There you sit , sitting spare like a book on a shelf rustin`
 Ah, not trying to fight it.
 You really care if they`re coming, oh, oh,
 I know that it`s all a state of mind, ooh.

 If you go down in the streets today, Baby, you better,
 You better open your eyes.
 Folk down there really don`t care, really don`t care, don`t care, really
     don`t
 Which, which way the pressure lies,
 So I`ve decided what I`m gonn do now.
 So I`m packing my bags for the Misty Mountains
 Where the spirits go now,
 Over the hills where the spirits fly, ooh.
 I really don`t know.
Вверх

Moby Dick mp3

Dropped D-tuning : e H G D A D
---------------------------

1:
e-------------------------------
H-------------------------------
G-------------------------------
D-------------------------------
A-----5--5--3-------------------
D--0-----------5--3--5--3--5--3-

2:
e-------------------------------
H-------------------------------
G-------------------------------
D----5--5--3--0-----------------
A----------------1--3--1--3--1--
D--5----------------------------

3:
e--------------------------------------------------------------
H--------------------------------------------------------------
G--------------------------------------------5b7----5--2-------
D----7--7-5-----7--7---5--7-0-5-5-5-5-5--3---------------5--3--
A------------7-------7---------------------5-------------------
D--7-----------------------------------------------------------

end:

e--------------
H--7---5---2---
G--7---5---2---
D--7---5---2---
A--------------
D--------------

Solo by Jimmy Pena - jimmy@walrus.com
------------------

[Solo 1]:

  e:--------10-10---------------------------------------------|
  B:--------10-----------------------------------12--10------|
  G:-12b14---------12b14p12-----12-10------------12--10------|
  D:-------------------------12--------12-10-12---------------|
  A:----------------------------------------------------------|
  E:----------------------------------------------------------|

[Solo 2]:

  e:----------------------------------------------------------13b15----|
  B:--------13b15~13b15~13b15~13b15~13b15~13b15~13b15------------------|
  G:-------------------------------------------------------------------|
  D:-------------------------------------------------------------------|
  A:-------------------------------------------------------------------|
  E:-------------------------------------------------------------------|
                   hold bend and strike

     **             **
  e:-10----13b15----10-------------------------------------------------|
  B:--10-------------10------------------------------------------------|
  G:---12-------------12-----------------------------------------------|
  D:-------------------------------------------------------------------|
  A:-------------------------------------------------------------------|
  E:-------------------------------------------------------------------|
  (** rake these very quickly)


[Solo 3]:
  e:-3p1p0--------------------3p1p0------------------------------------|
  B:-------3p1p0--------------------3p1p0------------------------------|
  G:-------------4p2p0--------------------4p2p0------------------------|
  D:-------------------3p2p0--------------------3p2p0------------------|
  A:--------------------------------------------------3p2p0------------|
  E:-------------------------------------------------------------------|
                                                  faster
[Solo 4]:

  e:-----------------------------------10------------------------------|
  B:----------------------------10-12-----13b15--13b15~~~-------------|
  G:-----------------7-7-7-9s11----------------------------------------|
  D:-----------7-9-----------------------------------------------------|
  A:-5-5-5-7s9---------------------------------------------------------|
  E:-------------------------------------------------------------------|
Вверх

Moby Dick mp3

Dropped D-tuning : e H G D A D
---------------------------

1:
e-------------------------------|
H-------------------------------|
G-------------------------------|
D-------------------------------|
A-----5--5--3-------------------|
D--0-----------5--3--5--3--5--3-|

2:
e------------------------------|
H------------------------------|
G------------------------------|
D----5--5--3--0----------------|
A----------------1--3--1--3--1-|
D--5---------------------------|

3:
e-------------------------------------------------------------|
H-------------------------------------------------------------|
G--------------------------------------------5b7----5--2------|
D----7--7-5-----7--7---5--7-0-5-5-5-5-5--3---------------5--3-|
A------------7-------7---------------------5------------------|
D--7----------------------------------------------------------|

end:

e------------|
H--7---5---2-|
G--7---5---2-|
D--7---5---2-|
A------------|
D------------|

-----------------

[Solo 1]:

  e:--------10-10---------------------------------------|
  B:--------10-----------------------------------12--10-|
  G:-12b14---------12b14p12-----12-10------------12--10-|
  D:-------------------------12--------12-10-12---------|
  A:----------------------------------------------------|
  E:----------------------------------------------------|

[Solo 2]:

  e:----------------------------------------------------------13b15-|
  B:--------13b15~13b15~13b15~13b15~13b15~13b15~13b15---------------|
  G:----------------------------------------------------------------|
  D:----------------------------------------------------------------|
  A:----------------------------------------------------------------|
  E:----------------------------------------------------------------|
                   hold bend and strike

     **             **
  e:-10----13b15----10---|
  B:--10-------------10--|
  G:---12-------------12-|
  D:---------------------|
  A:---------------------|
  E:---------------------|
  (** rake these very quickly)


[Solo 3]:
  e:-3p1p0--------------------3p1p0-------------------------|
  B:-------3p1p0--------------------3p1p0-------------------|
  G:-------------4p2p0--------------------4p2p0-------------|
  D:-------------------3p2p0--------------------3p2p0-------|
  A:--------------------------------------------------3p2p0-|
  E:--------------------------------------------------------|
                                                  faster
[Solo 4]:

  e:-----------------------------------10-----------------|
  B:----------------------------10-12-----13b15--13b15~~~-|
  G:-----------------7-7-7-9s11---------------------------|
  D:-----------7-9----------------------------------------|
  A:-5-5-5-7s9--------------------------------------------|
  E:------------------------------------------------------|
Вверх

Most High

   Tuning
 4  3  2 1
 E  A  D G


 G|----||----------------|----------------|----------------|----------------|
 D|----||----------------|----------------|----------------|---------------5|
 A|----||----------------|----------------|----------------|------------8-8-|
 E|3/--||88888---88888---|88888---88888---|88888---88888---|88888---8888----|
         Who hides the east...

 G|----------------|----------------|-53-------------|----------------|
 D|----------------|----------------|---53-----------|----------------|
 A|----------------|----------------|-----65---------|------------65--|
 E|66666---66666---|66666---66666---|8------888888-33|88888---8888--88|

 G|----------------|----------------|----------------|----------------|
 D|----------------|----------------|------35--------|----------------|
 A|--------------46|----------------|----------------|----------------|
 E|4-444-2344444---|4-444-2344444-66|88888---88888---|88888---88888-88|
   Where are the words...

 G|----------------|----------------|----------------|---------35-3---||
 D|----------------|----------------|--------------35|-------35----5--||Play
 A|----------------|----------------|----------------|--------------65||three
 E|55555-5-55555-00|55555---55555-55|88888---88888---|88888-----------||times

 G|----------------|----------------|----------------|----------------|
 D|----------------|----------------|----------------|----------------|
 A|----------------|----------------|----------------|----------------|
 E|8---------------|----------------|----------------|----------------|
   David`s seed talks...

 G|----------------|----------------|----------------|----------------||
 D|----------------|----------------|----------------|----------------||
 A|----------------|----------------|----------------|----------------||
 E|----------------|----------------|----------------|------------2/--||

 G|----------------|----------------||
 D|----------------|----------------||
 A|----------------|----------------||
 E|8-888-999-888-99|9-888---88888---||

 G|----------------|----------------|----------------|---------35-----|Play 9
 D|----------------|----------------|----------------|--------4--3553-|times
 A|----------------|----------------|----------------|-------8-------6|then
 E|8-888-999-888-99|9-888---88888888|111111999-888-99|9-888-----------|fade
Вверх

Nobodys Fault But Mine

 [Intro] /w phaser (doubled by two guitars playing [Intro2])

 e:-------------------------------|-------------------------------------|
 B:-15p12-12-15p12-12-15-15b17~---|-15p12-12-15p12-12-------------------|
 G:-------------------------------|-------------------12-14b16~---------|
 D:-------------------------------|-------------------------------------|
 A:-------------------------------|-------------------------------------|
 E:-------------------------------|-------------------------------------|

 e:----------------------------------|--------------------------------|
 B:-15p12-12-15~--15b17---15-12------|--------------------------------|
 G:-----------------------------14p12|-14p13-13-14p13-13-14-14b16r14--|
 D:----------------------------------|--------------------------------|
 A:----------------------------------|--------------------------------|
 E:----------------------------------|--------------------------------|

 e:--------------------|
 B:--------------------|
 G:-13-----------------|
 D:----14~-------------|
 A:--------------------|
 E:--------------------|

 [Intro2] also /w phaser

 e:-----------------------|----------------------|--------------------|
 B:--3p0-0-3p0-0-3--3b5~--|-3p0-0-3p0-0----------|-3p0-0-3~--3b5--3-0-|
 G:-----------------------|-------------0--2b4~--|--------------------|
 D:-----------------------|----------------------|--------------------|
 A:-----------------------|----------------------|--------------------|
 E:-----------------------|----------------------|--------------------|

 e:------|------------------------------------------------------------|
 B:------|------------------------------------------------------------|
 G:-2p0~-|-2p1-1-2p1-1-2--2b4r2--1---1~-------------------------------|
 D:------|---------------------------2~-------------------------------|
 A:------|---------------------------2~-------------------------------|
 E:------|---------------------------0~-------------------------------|

 [Riff 1]

 e:-----------------------------|-------------------------------------|
 B:-----------------------------|-------------------------------------|
 G:----------7------------------|-----------7-------------------------|
 D:--9p7-----7------------------|---9p7--7--7------------2~-----------|
 A:--7p5--7--5p2--2-------------|---7p5--5--5----0-------0~-----------|
 E:------------------3b---0~----|--------------------3b---------------|

 [Riff 2]

 e:-------------------------|-----------------------------------------|
 B:-------------------------|-----------------------------------------|
 G:-------------------------|----------------------2~-----------------|
 D:-2p0-0-------------------|--2p0-0---------------2~-----------------|
 A:-------2p0---------------|--------2p0--0--------0~-----------------|
 E:-----------0---3b---0~---|----------------3b4----------------------|

 [Riff 3] Freely

 e:-----------------------|-------------------------------------------|
 B:-----------------------|-------------------------9-9-10-10--9-10---|
 G:-7-----7-7-----9-x-x-9-|--7-----7---7---------9--9-9--9--9--9--9---|
 D:-7-----7-7---9-9-x-x-9-|--7-----7---7--------11--9-9-11-11--9-11---|
 A:-5-0-0-5-0-0-7-7-x-x-7-|--5-0-0-5-0-0--10-11-----------------------|
 E:-------------0---------|-------------------------------------------|

 Song progression:

 Fade into [Intro] and [Intro2] (/w phaser!) played FOUR times

 Repeat lyrics two times, with [Intro] and [Intro2]

 Aah aah aah aah,
 Aah aah aah aah.
 Aah aah, aah aah aah aah aah,
 Aah aah aah ah ah ah aah.

 [phaser off]

 [Riff 1] x1

 [Riff 3] x2

 [Riff 3] x1 /w lyrics:

 Oh, nobody`s fault but mine,
 oh, nobody`s fault but mine, yeah,

 [strum]
   E            F#5     G5    A5
     tryin` to save my soul Delilah.

 Oh it`s nobody`s fault but mine.

 [Riff 2] x1

 [Riff 3] x2

 [Riff 3] x1 /w lyrics:

 Devil he taught me to roll,
 the Devil he taught me to roll,

 [strum]
   E        F#5       G5   A5
     how to roll the log Delilah.

 Oh it`s nobody`s fault but mine.

 [Riff 2] x1

 [Riff 1] x1

 Repeat lyrics *three* times, with [Intro] and [Intro2] (and phaser)

 Aah aah aah aah,
 Aah aah aah aah.
 Aah aah, aah aah aah aah aah,
 Aah aah aah ah ah ah aah.

 [phaser off]

 [Riff 1] x2

 During Harmonica solo, guitar plays:

 [Riff 3] x9 1/2 times freely

 [Riff 3] x1 /w lyrics:

 Brother he showed me the gong,
 brother he showed me the ding dong ding dong,

 [strum]
   E         F#5       G5     A5
     how to kick that gong Delilah.

 Oh it`s nobody`s fault but mine.

 [Riff 2] x1

 [Riff 3] x2

 [Riff 3] x1 /w lyrics:

 Gotta monkey on my back,
 a m-m-m-m-monkey on my back back back back.

 [strum]
   E         F#5       G5    A5
     Vow to change my ways Delilah.

 Nobody`s fault but mine.

 [Guitar Solo]

 Rhythm for guitar solo is: [Riff 1] x2, then [Riff 3] x8

                                (bend the open note behind the nut)
                                             /
 e:-------------------------------------------------------------------|
 B:---------------3~--------------------------------------------------|
 G:--2b4r3b4~---------2b3r2b3r2p0------0~~----0b2r0b2r0---------------|
 D:----------------------------------2-------------------2~-----------|
 A:-------------------------------------------------------------------|
 E:-------------------------------------------------------------------|

 e:-------3-----3----5h6---5--3---5--3-----3--------------------------|
 B:-----3---5~----5--------------------5------------------------------|
 G:-2h4-------------------------------------------------------9~------|
 D:------------------------------------------------------9h11---------|
 A:-------------------------------------------------7h11--------------|
 E:-------------------------------------------------------------------|

 e:------------------------------------------12-9----9----------------|
 B:-----------------------------------------------12---12-9--------12-|
 G:-11b13r11b13r11p9----11--9----9~-------------------------11b13-----|
 D:---------------------------11----11--------------------------------|
 A:-------------------------------------------------------------------|
 E:-------------------------------------------------------------------|

 e:-9----9------------------------------------------------------------|
 B:---12---12~-9--------------------------------------12b14r12b14~----|
 G:--------------11--11b13--11-9----9-9----9~-9-----------------------|
 D:------------------------------11-----11------11--------------------|
 A:-------------------------------------------------------------------|
 E:-------------------------------------------------------------------|

 e:-------------------------------------------------------------------|
 B:-12--11b12---10---------10-------------------12b14r12b14~------12--|
 G:----------------12b14------12-11-9-9~--9---------------------------|
 D:-----------------------------------------11------------------------|
 A:-------------------------------------------------------------------|
 E:-------------------------------------------------------------------|

 e:-------------------------------------------------------------------|
 B:--9----9~--x--10------11b12------11b12-----11b12------11b12--------|
 G:----11---------9--------------x----------x---------x----------x----|
 D:-------------------------------------------------------------------|
 A:-------------------------------------------------------------------|
 E:-------------------------------------------------------------------|

 e:-------------------------------------------------12----------------|
 B:-11b12------11b12-----------------------------12-----15b17~~-------|
 G:---------x----------x--x---9----9----9--11h13----------------------|
 D:-----------------------------11---11-------------------------------|
 A:-------------------------------------------------------------------|
 E:-------------------------------------------------------------------|

 e:-15.--------15.--------15---------------15.---------15.------------|
 B:----15b17------15b17------15----------------15b17-------15b17r15---|
 G:-----------------------------14b15r14------------------------------|
 D:-------------------------------------------------------------------|
 A:-------------------------------------------------------------------|
 E:-------------------------------------------------------------------|

 e:------------------------------------12-----------------------------|
 B:-12------------------------------------15~--------12-12-15---------|
 G:----14b15----12-14-12b13------12h13---------12s13------------------|
 D:---------------------------14--------------------------------------|
 A:-------------------------------------------------------------------|
 E:-------------------------------------------------------------------|

 e:-------------------------------------------------------------------|
 B:-------12-12-15~-----------------------------------------------9---|
 G:-12s13------------14b16r14b16r14-----------9--9----9---11b13-------|
 D:-----------------------------------14-x---------11-----------------|
 A:-------------------------------------------------------------------|
 E:-------------------------------------------------------------------|

 e:-9----------------------------------------------14b16----14--12~---|
 B:----12p9-12p9----9---------------------------12--------------------|
 G:--------------11---11p9-11p9----9----9-11s13-----------------------|
 D:-----------------------------11---11-------------------------------|
 A:-------------------------------------------------------------------|
 E:-------------------------------------------------------------------|

 e:-12------------12--14b16----14--12----12--------12--14b16----------|
 B:----15------12---------------------15---------12-------------------|
 G:---------13---------------------------------x----------------------|
 D:-------------------------------------------------------------------|
 A:-------------------------------------------------------------------|
 E:-------------------------------------------------------------------|

 e:-14b16r14---12---12~--12p9-----------------------------------------|
 B:---------------x-----------12-9-----------------------10-----------|
 G:------------------------------------9----11----9----9-11-9--9~~----|
 D:---------------------------------11---11----11---11----------------|
 A:-------------------------------------------------------------------|
 E:-------------------------------------------------------------------|

 Repeat lyrics *two and one half* times, with [Intro] and [Intro2] (and
    phaser)

 Aah aah aah aah,
 Aah aah aah aah.
 Aah aah, aah aah aah aah aah,
 Aah aah aah ah ah ah aah.

 [phaser off]

 [strum]
   E           F#5    G5     A5
   I will get down rollin` tonight.

  N-n-n-n-n-n-n nobody`s fault...

 e:----------------------|--------------------------------------------|
 B:----------------------|--------------------------------------------|
 G:--7-----7-7---7--9~---|--------------------------------------------|
 D:--7-----7-7---7--9~---|--9s7--7--7s4--4--4s2--2--------------------|
 A:--5-0-0-5-0-0-5--7~---|--7s5--5--5s2--2--2p0--0---5-5-5--2-2-2-2---|
 E:----------------------|---------------------------3-3-3--0-0-0-0---|
Вверх

No Quarter mp3

 Here are the two chords played before the chorus:
 both are strummed out sort of slowly
 e--------------------------------------------------------------------
 b--4----------------9------------------------------------------------
 g--6---------------11------------------------------------------------
 d--7---------------12------------------------------------------------
 a--7---------------12------------------------------------------------
 E--------------------------------------------------------------------

 And the chorus part has some heavy fuzz on the guitar:
 (The last bend is for the end of the chorus)
 e--------------------------------------------------------------------
 b--------------------------------------------------------------------
 g--------------------------------------------------------------------
 d-----6-6-6------6-6-6------6------------------------2---------------
 a-2/4-4-4-4--2/4-4-4-4--2/4-4-4-----4-4-4-2------2-----4----2^4------
 E-------------------------------0/2-2-2-2-0--0-4---4-----------------

 The solo has two guitars on it, one clean, and one with fuzz.
 Just listen to the song to try to match up parts.
 Here is the clean guitar solo:
 e--------------------------------------------------------------------
 b--------------------------------------------------------------------
 g--------------------------4-6/8-6-4-6/8-64-6----------------8-11p8-
 d-9p6---9p6---6p4--------6---------------------------9-8----9--------
 a-----9-----7-----7--4-7---------------------------------11----------
 E--------------------------------------------------------------------

 e--------------------------------------------------------------------
 b--------------------------------------------------------------------
 g--11p8---8-11p8-11p8---8--------------------------------------------
 d-------9-------------9---9-8----8-9---8-----------------------------
 a-----------------------------11----------11-11-11-------------------
 E--------------------------------------------------------------------

 e--------------------------------------------14p11----14p11----------
 b-------------------------------------11-12--------12-------12-16p12-
 g-----------9---------9-11-11---11h13--------------------------------
 d----8-9-11---11p9-11------------------------------------------------
 a-11-----------------------------------------------------------------
 E--------------------------------------------------------------------

 e--------------------------------------------------------------------
 b--11-12p11----11--------------------9-------------------------------
 g-----------13----13-11-9----9-11-12--------12-11-9-8--9p8----8-9p8--
 d--------------------------11------------------------------11--------
 a--------------------------------------------------------------------
 E--------------------------------------------------------------------

 e--------------------------------------------------------------------
 b--------------------------------------------------------------------
 g----9--------------------------------------------4---6---8-----8----
 d-11---11-9---9-11------9--------------------------------------------
 a-----------11---------------7-6----6-7-6---------2---4---6-----6----
 E---------------------------------9-------9--------------------------

 e--------------------------------------------------------------------
 b--------------------------------------------------------------------
 g-11--13----1312--1312---1312--12/13------------------------------
 d----------------------------------------9---------------------------
 a--9--11----1110--1110---1110--10/11------------------------------
 E--------------------------------------------------------------------

 Here`s the solo parts for the fuzzed guitar.

 e--------------------------------------------------------------------
 b--------------------------------------------------------------------
 g-------6/8-6p4-6---------------------------------9-11-9-8-----------
 d-----6------------------------------9-8-------------------11--------
 a-6-7------------------------------------11-11-11--------------------
 E--------------------------------------------------------------------

 (This is during the octave part)
 e-------------------------------------------------11-11h12p11-11-12--
 b-9-11--11^12---12p11-12p11-12p11^12---14^16-------------------------
 g--------------------------------------------------------------------
 d--------------------------------------------------------------------
 a--------------------------------------------------------------------
 E--------------------------------------------------------------------

 e-11h12p11---------------------------------------------------16------
 b-----------14-12--11h12p11----11-12-14-16^17^16-14-16-16^17---------
 g---------------------------13---------------------------------------
 d--------------------------------------------------------------------
 a--------------------------------------------------------------------
 E--------------------------------------------------------------------

 e--------------------------------------------------------------------
 b-16^17--16-14-16-14--12^14^12----11-12-11----11-12-11-12------------
 g------------------------------------------13-------------13-11--11--
 d--------------------------------------------------------------------
 a--------------------------------------------------------------------
 E--------------------------------------------------------------------

 e--------------------------------------------------------------------
 b--------------------------------------------------------------------
 g--13^15-----11-9----9-8---8h9p8-------------------------------------
 d-----------------11-----9--------11---------------------------------
 a--------------------------------------------------------------------
 E--------------------------------------------------------------------

 Enjoy!
 CHUCK


 From: v104pwrb@ubvms.cc.buffalo.edu (Michael J Peet)

 	Whoever posted No Quarter the other day, thanks. I went home
 and tried it (listened to the tape at the same time) and found that
 it sounded better one half step higher, though. Maybe my guitar is
 tuned off by a fret..

 e--------------------------------------------------------------
 B--------------------------------------------------------------
 G--------------------------------------------------------------
 D-----7-7-7------7-7-7------7------------------------3-0-------
 A-3/5-5-5-5--3/5-5-5-5--3/5-5------5-5-5-3-------3-0-----------
 E------------------------------1/3-3-3-3-1---3-5---------------
Вверх

Out On The Tiles

 :Intro
 ---------------------------------------------------------------------------
 ---------------------------------------------------------------------------
 ---------------------------------------------------------------------------
 ----------------------------------------7-------7------7-------------------
 ----------------------------------------7-------7------7-------------------
 --3-3-3-3-3-3-3-3--2-2-2-2-2-2-2-2----5-5-----5-5----5-5-------------------

 ===========================================================================

 :Verse   (Repeat this line 2x)  ---Play the whole Verse two times---
 ---------------------------------------------------------------------------
 ---------------------------------------------------------------------------
 ---------------------------------------------------------------------------
 --------4------------------------------------------------------------------
 ------4-------------6-7-6-7-6-7-6------------------------------------------
 --2-5-----------------------------9-4--7-5-7-5--(7 ^ 8)-(8 v 7)-5-7--------

                       ==============================

 ---------------------------------------------------------------------------
 ---------------------------------------------------------------------------
 ---------------------------------------------------------------------------
 --------4------------------------------------------------------------------
 ------4-------------6-7-6-7-6-7-6----|---------------|---------------------
 --2-5-----------------------------9-7-9-7-9-7-9-7-5-4-5-4-5-4-5-4-5--------


 ---------------------------------------------------------------------------
 ---------------------------------------------------------------------------
 ---------------------------------------------------------------------------
 --4-------4-------4--------------------------------------------------------
 --4-------4-------4--------------------------------------------------------
 --2---0---2---0---2--------------------------------------------------------
                     (NOTE: Remember, Verse is in 15/8, so it comes back
                            a beat short! Chorus is in 4/4)

 ===========================================================================

 :Chorus  (Repeat two times)
 ---------0-------------------5----------------5----------------------------
 ---------0-------------------5----------------5-----------------9----------
 ---------1-------------------6----------------6-----------------9----------
 ---------2-------------------7----------------7-----------------9----------
 ---------2-------------------7----------------7----------7-7-7--7--7-7-----
 --0-0-0--0--0-0--------5-5-5-5-5-5------5-5-5-5--5-5-----------------------


 -----------------------------5----------------5-----------------0----------
 ---------9-------------------5----------------5-----------------0----------
 ---------9-------------------6----------------6-----------------1----------
 ---------9-------------------7----------------7-----------------2----------
 ---7-7-7-7--7-7--------------7----------------7-----------------2----------
 -----------------------5-5-5-5-5-5------5-5-5-5--5-5-----0-0-0--0----------


 ---------------------------------------------------------------------------
 ---------------------------------------------------------------------------
 ---------------------------------------------------------------------------
 -----7--------7--------7--------7------------------------------------------
 -----7--------7--------7--------7------------------------------------------
 --5--5-----5--5-----5--5-----5--5------------------------------------------
                    ===================================

     Repeat the whole -Intro,Verse,Chorus- a second time.  Then...
 ===========================================================================

 :Outro
 ---------------------------------------------------------------------------
 ---------------------------------------------------------------------------
 --9--12------9--9--12------9--12------9--14--12----------------------------
 --9--12------9--9--12------9--12------9--14--12----------------------------
 --7--10------7--7--10------7--10------7--12--10----------------------------
 ---------------------------------------------------------------------------
Вверх

Out On The Tiles (2 вариант)

 E:-------------------------------------------------------------
 B:-------------------------------------------------------------
 G:-------------------------------------------------------------
 D:--6-6-6-6-6-6-6-6--5-5-5-5-5-5-5-5--8-8---8-8---8-8---8-8----
 A:-------------------------------------------------------------
 E:--4-4-4-4-4-4-4-4--3-3-3-3-3-3-3-3--6-5b6-6-5b6-6-5b6-6-5b6--
 (I kinda doubt Jimmy is playing anything on the D string, but it
 thickens it up so..)

 E:-----------------------------------------------
 B:-----------------------------------------------
 G:--------0--------------------------------------
 D:------0-----3-2-3-2-3-2-3-2--------------------
 A:----2-------------------------3-1-3-1-3-4-3-1--
 E:--3--------------------------------------------

 I sometimes play this instead..(just for flavour >=-)

 E:-----------------------------------------------
 B:-----------------------------------------------
 G:--------0--------------------------------------
 D:------0----------------------------------------
 A:----2-------------------------3-1-3-1-3-4-3-1--
 E:--3--------1-0-1-0-1-0-1-0---------------------

 He plays this as the little bridge.. (listen to the record..)
 E:-------------------------------------------------------------
 B:-------------------------------------------------------------
 G:--------0----------------------------------------------------
 D:------0-----3-2-3-2-3-2-3-2----------------------------------
 A:----2------------------------3-1-3-1-3-1-3-1--0-1-0-1-0-1-0--
 E:--3----------------------------------------------------------

 E:-------------
 B:-------------
 G:-------------
 D:--5-3-5-3-5--
 A:--5-3-5-3-5--
 E:--3-1-3-1-3--

 Chorus:

 F  Bb Bb F x2  Then do intro again.

 Little ending thing:

 E:---------------------------------------------------------------------
 B:--10-10-10-10/13-13--10-10-10-10/13-13--10-10-10-10/13-13--10-15-13--
 G:--10-10-10-10/13-13--10-10-10-10/13-13--10-10-10-10/13-13--10-15-13--
 D:--10-10-10-10/13-13--10-10-10-10/13-13--10-10-10-10/13-13--10-15-13--
 A:---------------------------------------------------------------------
 E:---------------------------------------------------------------------
 I think Pagey plays this with a slide on reconrd, but eighther way is
 fine..
Вверх

Over The Hills And Far Away

 [Intro]
                   G                               D
 e:-------------------3-3--------------------------2-2----|
 B:-------------------3-3-3------------------------3-3----|
 G:o--0h2p0-----0--0--0-0-0----0h2p0---0-4p2p0-----2-2---o|
 D:o--------4p0----0----0-0----------4---------0---0-0---o|
 A:----------------2------2-2-----------------------------|
 E:----------------3--------3-----------------------------|

 e:------------------3-3-------------------------2-2-----------|
 B:------------------3-3-3-----------------------3-3-----------|
 G:---------------0--0-0-0--0h2p0----0--4p2p0----2-2-----------|
 D:----2---0-2-0--0----0-0---------4----------0--0-0-----------|
 A:0-2---2--------2------2-------------------------------------|
 E:---------------3--------------------------------------------|

                   C(add D)   G/B
 e:--------------------------------------------------------------|
 B:----------------3-3-3-----3-3-3-----3---------------------/-5-|
 G:---0h2p0--------0-0-0-----0-0-0-----0---(strum and slide)---0-|
 D:---------4p0----2-2-2-----0-0-0-----3---------------------/-5-|
 A:-------------3--3-3-3--2--2-2-2--1--1---------------------/-3-|
 E:--------------------------------------------------------------|

 e:-------------------3-3--------------------------2-2----|
 B:-------------------3-3-3------------------------3-3----|
 G:o--0h2p0-----0--0--0-0-0----0h2p0---0-4p2p0-----2-2---o|
 D:o--------4p0----0----0-0----------4---------0---0-0---o|
 A:----------------2------2-------------------------------|
 E:----------------3--------------------------------------|

 e:------------------3-3-------------------------2-2-----------|
 B:------------------3-3-3-----------------------3-3-----------|
 G:---------------0--0-0-0--0h2p0----0--4p2p0----2-2-----------|
 D:----2---0-2-0--0----0-0---------4----------0--0-0-----------|
 A:0-2---2--------2------2-------------------------------------|
 E:---------------3--------------------------------------------|

                                               Dsus2
 e:----------------------------------------2-2-2-0--------------|
 B:-----------------3--3-------------------3-3-3-3--------------|
 G:--0h2p0----------0--0-------------------2-2-2-2--------------|
 D:---------4p0-----2--0------------0-2p0--0-0-0-0--------------|
 A:-------------3---3--2-------0--2-----------------------------|
 E:-----------------------3--3----------------------------------|

 e:--------------------2-2-2-0--------------------2-2-2--2-2-2--|
 B:--------------------3-3-3-3--------------------3-3-3--3-3-3--|
 G:--------------------2-2-2-2--------------------2-2-2--2-2-2--|
 D:------------0--2p0--0-0-0-0------------0--2p0--0-0-0--0-0-0--|
 A:-------0--2-----------------------0--2-----------------------|
 E:--3--3-----------------------3--3----------------------------|

 e:-------------------3-3---------------------------2-2---------|
 B:-------------------3-3-3-------------------------3-3---------|
 G:--0h2p0-----0---0--0-0-0--0h2p0---0--4p2p0-------2-2---------|
 D:--------4p0-----0----0-0--------4----------0-----0-0---------|
 A:----------------2------2-------------------------------------|
 E:----------------3--------------------------------------------|
         Hey, lady,         you got the love I need;

 e:------------------3-3----------------0h2-----2--2-2-2--|
 B:------------------3-3-----3--5p3-5p3---------3--3-3-3--|
 G:-0h2p0-----0------0-0--/4--------------------2--2-2-2--|
 D:-------4p0--------0-0------------------------0--0-0-0--|
 A:------------------2-2----------------------------------|
 E:------------------3-3----------------------------------|
                   maybe  .....   more than enough.

 e:-------------------3-3----------------------------------2-2--|
 B:-------------------3-3-3--------------------------------3-3--|
 G:--0h2p0-----0---0--0-0-0------0h2p0---0--4p2p0----------2-2--|
 D:--------4p0-----0----0-0------------4----------0--------0-0--|
 A:----------------2------2-------------------------------------|
 E:----------------3--------------------------------------------|
     Oh,   darlin, darlin` darlin`   walk a while with me.

                          [Repeat 3 times]
 e:----------------------|-------------------2-2-2-0-------------------|
 B:-----------------3--3-|-------------------3-3-3-3-------------------|
 G:-0h2p0-----------0--0-|o------------------2-2-2-2------------------o|
 D:-------4p0-------2--0-|o-----------0-2p0--0-0-0-0------------------o|
 A:-----------3-----3--2-|-------0-2-----------------------------------|
 E:----------------------|--3--3---------------------------------------|
                     Oh,          you  got  so much....

    A   G
 e:-9---7-----|
 B:-10--8-----|
 G:-9---7-----|
 D:-----------|
 A:-----------|
 E:-----------|

         This is played like this:

        A A A A  G G G G G G G G / A A A A

         (Just listen to the song, it`s not hard to figure out.)

               A
 e:---3--2--2-------|
 B:---3--3--3--2----|
 G:---0--2--2--2----|
 D:---0--0--0--2----|
 A:---2--------0----|
 E:---3-------------|

      G(no 3rd)           A(no 3rd)
 e:---------------------------------------------|------3---2--2----|
 B:---------------------------------------------|------3---3--3--2-|
 G:---------------------------------------------|------0---2--2--2-|
 D:---------------------------------------------|------0---0--0--2-|
 A:--5-5-5-5-5------------7-7-7--9-7--5-5-5-5-5-|------2---------0-|
 E:--3-3-3-3-3------------5-5-5--5-5--3-3-3-3-3-|------3-----------|
 1.  Many have I loved,           and many times been bitten.
 2.  Many times I`ve lied         and many times I`ve listened.
 3.  Many dreams come true        and some have silver linings.

 e:---------------------------------------------|
 B:---------------------------------------------|
 G:---------------------------------------------|
 D:---------------------------------------------|
 A:--5-5-5-5-5------------7-7-7--9-7--5-5-5-5-5-|
 E:--3-3-3-3-3------------5-5-5--5-5--3-3-3-3-3-|
 1.  Many times I`ve  gazed        along the  open
 2.  Many times I`ve wondered      how much there
 3.  I live for my dream           and a pocketful

    e:----------------------|----------------------|
    B:----------------------|----------------------|
    G:o---------------------|---------------------o|
    D:o---------------------|---------------------o|
    A:-------5---5-5---5h7--|-------5---5-5---5----|
    E:-5-5-7---7-----7------|-5-5-7---7-----7---7--|
 1. road.
 2. is to know.
         ____________________
         | 1.2.             |         You play the above in number order.
                                      Obviously, play all of number 1
         e:---3--2--2-------|         first, the return to the beginning
         B:---3--3--3--2----|         and play number 2, then back to
         G:---0--2--2--2----|         start and play number 3 and continue
         D:---0--0--0--2----|
         A:---2--------0----|
         E:---3-------------|

         _____________________
         |3.                 |

         e:------------------|
         B:------------------|
         G:------------------|
         D:------------------|
         A:-7-7-7-9-7--------|
         E:-5-5-5-5-5--------|
 3. of gold.


 This is also played at the end of each verse:

    A                    G
 e:-9--9--9--9--9--9--9-7-7-7-7-7-----------------|
 B:-10-10-10-10-10-10-108-8-8-8-8-----------------|
 G:-9--9--9--9--9--9--9-7-7-7-7-7-----------------|
 D:------------------------------------------------|
 A:------------------------------------------------|
 E:------------------------------------------------|



     G       D           A5  E
 e:--3--3-3--2--2-2---2------0-----|
 B:--3--3-3--3--3-3---3------0-----|
 G:--0--0-0--2--2-2---2--2---1-----|
 D:--0--0-0--0--0-0---0--2---2-----|
 A:--2--2-2--------------0---2-----|
 E:--3--3-3------------------0-----|

 e:--------10--------------------------------------------------|
 B:--10b12~~~~10b12r10--------10-----------------------9-------|
 G:----------------------9b11~~~~9b11r9-------9---7---11b13----|
 D:---------------------------------------7h9---9--------------|
 A:------------------------------------------------------------|
 E:------------------------------------------------------------|

 e:--------10------------------------------------------0-------|
 B:--10h12~~~~10h12p10--------10----------------------7b9------|
 G:----------------------9h11----9h11p9-------9---7------------|
 D:---------------------------------------7h9---9--------------|
 A:------------------------------------------------------------|
 E:------------------------------------------------------------|

 [Guitar Solo]

 e:-------------|------------------------|-------------------------|
 B:----------5--|------------------------|-------------------------|
 G:-4b6~--4b6~r4|-4b6r4b6r4b6r4--2~------|-----------------2-------|
 D:-------------|---------------------2-4|-2-4--2-4--2-4-2---4~--2-|
 A:-------------|------------------------|-------------------------|
 E:-------------|------------------------|-------------------------|

 e:----------------------------|--------------|--------------------|
 B:----------------------------|--------------|--------------------|
 G:----------------------------|--------------|---------------16b18|
 D:4p2---2---------------------|--------------|--------------------|
 A:----4--4-2-4-2--------------|--------------|--------------------|
 E:---------------4-5-2-0-2-0-0|-2-2-2-2/7b8b9|-2p0-2-2-0h2~-------|

 e:----14--14---19b21~-|-18-16-14----14--14-------17---------17-----|
 B:-17---17--17--------|----------17---17---17b19----17-17b19--17-17|
 G:--------------------|--------------------------------------------|
 D:--------------------|--------------------------------------------|
 A:--------------------|--------------------------------------------|
 E:--------------------|--------------------------------------------|

 e:------17-----------17-----------17------------17-----|
 B:-17b19--17-17-17b19--17-17-17b19--17-17-17b19---17-17|
 G:-----------------------------------------------------|
 D:-----------------------------------------------------|
 A:-----------------------------------------------------|
 E:-----------------------------------------------------|

 e:------17------------------------------------|
 B:-17b19--17b19-17-16p15--14------------------|
 G:----------------------17--17-16-14--16p14-14|
 D:----------------------------------16--------|
 A:--------------------------------------------|
 E:--------------------------------------------|

 e:----------------------------------|-------------------|
 B:----------------------------------|-------------------|
 G:-14-14b15--------14-14b15---------|-------------------|
 D:---------16-14-16---------16-14-16|-16p15p14-----(14)-|
 A:----------------------------------|-------------------|
 E:----------------------------------|-------------------|

 e:------------------------------4-------------------16--18-----|
 B:---------------------------5------------------17--------------|
 G:---------------1--3-3-3-6-------15-15-15--18------------------|
 D:------------2-------------------------------------------------|
 A:--1-1-1-4-----------------------------------------------------|
 E:--------------------------------------------------------------|


 e:----------------------|----------------------|---3--2--2-------|
 B:----------------------|----------------------|---3--3--3--2----|
 G:o---------------------|---------------------o|---0--2--2--2----|
 D:o---------------------|---------------------o|---0--0--0--2----|
 A:-------5---5-5---5h7--|-------5---5-5---5----|---2--------0----|
 E:-5-5-7---7-----7------|-5-5-7---7-----7---7--|---3-------------|

 e:---------------------------------------------|------3---2--2----|
 B:---------------------------------------------|------3---3--3--2-|
 G:---------------------------------------------|------0---2--2--2-|
 D:---------------------------------------------|------0---0--0--2-|
 A:--5-5-5-5-5------------7-7-7--9-7--5-5-5-5-5-|------2---------0-|
 E:--3-3-3-3-3------------5-5-5--5-5--3-3-3-3-3-|------3-----------|
 4. Mellow is the man           who knows what he`s been missin`
 5. Many is a word              that only leaves you guessin`

 e:---------------------------------------------|
 B:---------------------------------------------|
 G:---------------------------------------------|
 D:---------------------------------------------|
 A:--5-5-5-5-5------------7-7-7--9-7--5-5-5-5-5-|
 E:--3-3-3-3-3------------5-5-5--5-5--3-3-3-3-3-|
 4. Many, many men                 can`t see the
 5. guessin` `bout a thing        you really ought

         e:----------------------|----------------------|---3--2--2-------|
         B:----------------------|----------------------|---3--3--3--2----|
         G:o---------------------|---------------------o|---0--2--2--2----|
         D:o---------------------|---------------------o|---0--0--0--2----|
         A:-------5---5-5---5h7--|-------5---5-5---5----|---2--------0----|
         E:-5-5-7---7-----7------|-5-5-7---7-----7---7--|---3-------------|
 4. open road.

         e:--------------------2-|-------------------3----|
         B:--------------------3-|-------------------0----|
         G:--------------------2-|-------------------0----|
         D:---------0-2-0------0-|---------0-2-0-----0----|
         A:-----0-2-------2-0----|-----0-2-------2-0------|
         E:-3-3------------------|-3-3--------------------|
     5. to know.

 Play the above a *TOTAL* of 10 times while fading, and then, very softly,
 play this:

 (Some sort of organ/piano arr. for guitar)

 e:--------------------2--|--------------|------------------------|
 B:--------------------3--|--------------|------------------------|
 G:--------------------2--|--0h2p0-----0~|--0h2p0---0--4p2p0------|
 D:---------0-2-0------0--|--------4p0---|--------4----------0~---|
 A:-----0-2-------2-0-----|--------------|------------------------|
 E:-3-3-------------------|--------------|------------------------|

                                                  G     C     D
 e:--------------|---------------|----------------3--3--0--0--2~--|
 B:--------------|---------------|----------------3--3--1--1--3~--|
 G:-0h2p0------0~|---------------|-0h2p0-----0~---0--0--0--0--2~--|
 D:-------4p0----|-----0h2--2h4~-|-------4p0------0--0--2--2--0~--|
 A:--------------|-0h2-----------|----------------2--2--3--3------|
 E:--------------|---------------|----------------3--3------------|

              Csus2    G/B     Gm/B           Csus2             G
 e:-------------------3-------3---------3-----------3-------3---3-|
 B:-----------------3-------3-------3-------3-----------3---3---3-|
 G:-0h2p0---------0-------0-------0---0---0---0---0---0---0---0-0-|
 D:--------4p0--------------------------------------------------0-|
 A:-------------3~------2~------1~--------------3~--------------2-|
 E:-------------------------------------------------------------3-|
Вверх

Over The Hills And Far Away (2 вариант)

   Intro parts

 G|---------------h42--------------|-------------|-----------------------------------|
 D|-5-5-55-5h7p4h5----0-0-00-5h7p5-5|--2-020-0-00-|5h7p4------------------------------|
 A|-------------------------------5-|-2-2---------|-----53--3222--21-1-1111/3-333-3-33|
 E|---------------------------------|3------------|-----------------------------------|

 G|----------------------------------------------|
 D|5h7p4---------020-0------020-0-0------020-0-0-|
 A|-----53-3---02---------02-----------02--------|
 E|---------33---------33-----------33-----------|

   verse  "Many have I loved"
 G|-----------------------------------------------------------------------------------------
 D|-----------------------------------------------------------------------------------------
 A|105-5---------------87-------105-5---------------87----------------5-5-57----------5-5-5--
 E|-----5--33333--5-5-5--33333-------5--33333--5-5-5--33333--5-5-5hp57---7---5-5-5h7p5---7-7-

 --------------------------------|
 --------------------------------|
 ---------5-5-57----------5-5-5--|
 5-5-5h7p5---7---5-5-5h7p5---7-7-|

 on the end of a verse before the solo it does this
 G|------------------------------|
 D|-------7----------------------| (x3)
 A|10-1010--5-557--557-------0---|
 E|--------------------0-0-01-210|

   outro riff
 G|-------------|
 D|------0320---|
 A|----02----2--|
 E|3-3--------3-|
Вверх

Rain Song Intro

 E=-0----0-----|-0-------0---|---------0-3-|---------------|-----------0-------|
 D=-7--7---7-7-|-6-6---6-----|---5-5-3-x-3-|-------3-------|-----------11------|
 A=-0-0------0-|-0---0-------|---4-4-4-4-3-|-----3-------2-|-4-4-----0-0-------|
 D=-7----------|-6-----------|---5-5-5-5-3-|---3---------2-|-2-2---2---11------|
 A=-0----------|-0---------0-|-0-----------|-0-------0-0-0-|---0-0-------------|
 E=------------|-------------|-------------|---------------|-------------------|

 E=-0-0--0--0-|-----0-------0--|--------------|---0-0-------------|
 D=-9-12-11-4-|-9---9-----9-11-|--------------|-9-9-9-----9--10-9-|
 A=-0-0--0--0-|---0---------0--|--------------|---0-0-----10-11-10|
 D=-9-12-10-4-|-9-9-----9---11-|--------------|-----9---9-------11|
 A=-----------|---8---8--------|-repeat bar 6-|-------8-----------|
 E=---------------------------------------------------------------|
                                               *********************
 E=--------0---0--|----------------|-5-5-5-5-5-|next few bars follow same
 D=------9---9-9--|---------9----5-|---------0-|pattern until
 A=----10------10-|------10--------|-----------|
 D=--11--------10-|--10-------10-5-|-4-----4-5-|
 A=-0-------------|-0---0----------|---5-5-----|
 E=---------------|----------------|-----------|
  ********************************************* repeat star section 3 times,impro
 E=-------------------|---------------------|--------------------|
 D=-2-2---------------|---------------------|------------------2-|
 A=-4-4-2-4-0-2--0--2-|-4-4-2-4-0-2---0---2-|-4-4-2-4-0-2---0--2-|
 D=-2-2--------4--2-3-|-3-3---------4---2-4-|-4-4---------4----5-|
 A=-0---------------0-|-0-----------------0-|-0----------------0-|
 E=--------------------------------------------------------------|
                         h p
 E=-----2-------|-------4-5-4-----2-|---4-------4-------4---|
 D=-------2-----|-------------4---2-|-2---2---2---2---2---2-|
 A=---4-----4---|-----4---------4---|-----------------------|
 D=-5-5-------5-|-4---4-----------2-|---2---0---------------|
 A=-0-0---------|---5---------------|---------------4-------|
 E=-------------|-------------------|-----------------------|
         h p             h p
 E=-0-2-0-2-0-----|---2-0-2-0-------|---2----------------------------
 D=-0---------0---|-0---------0-----|---2----------------------------
 A=-0-----------0-|-0-----------0-2-|-4-4----------------------------
 D=-0-------------|-0-------------2-|-2------------------------------
 A=-2-------------|-2---------------|-0------------------------------ etc
 E=---------------|-----------------|--------------------------------
Вверх

Ramble On

The main acoustic riff is Riff.1.  This is the basic feel for the riff and
you can add your own variations to make it sound more full.  The chord
changes are E(E5), E7sus4, Esus2 | A, Asus4, A, A9.

Riff.1
E-|---------------0----------|-----0----------------------0-------------|
B-|--9---------0--0----------|--5--5----5--5--5--5--5--5--5--------0----|
G-|--9---9--9--7--9----------|--6--6h7--7--7--7--7--7--7--6--6--6--6----|
D-|--9---9--9--7--7---0--0---|--7--7----7--7--7--7--7--7--7--7--7--5--7-|
A-|--7---7--7--7--9---0--0---|--0--0----0-----0--0--0--0--------0-----7-|
E-|---------0------------0---|----------------------------------------0-|

Riff.1
E-|--------------0---------0--------------|----0------------------------------|
B-|--------9--9--0---------0--------------|----5----5-5-5---5---5--5--5----5--|
G-|--7/9---9--9--7--7-7----9--9-9-9-------|-6--6h7--7-7-7-7-6h7-7--7--6h7--7--|
D-|--------9--9--7--7-7-7--7--7-7-7--0--0-|-7--7----7-7-7-7-7---7--7--7----7--|
A-|--9/11--7--7--7---------9---------0--0-|-0-----------0---0---0--0--0----0--|
E-|-----------0-------------------------0-|-----------------------------------|


Riff.2 (electric) is a clean electric fill during the lyrics, "Ah, sometimes
I grow so tired, but I know one thing I`ve got to do!"  Riff.2 (acoustic) is
the acoustic part played behind Riff.2 (electric).  The chord pattern is
E, F#m7, G#m7 | A, F#m7, E.

Riff.2 (electric)
E-|-0---0-----0------------|-------------0---0---------|-0--------0-----------|
B-|-0----0-0--0---0-0----0-|-0----0--0---0-0---0-------|---------0--0--0-0---0|
G-|-11-----9--9-----9h11---|-7p6-----6p4---------------|b11(13)p9---9----9h11-|
D-|------------------------|---------------------7p6---|----------------------|
A-|------------------------|-------------------------7-|----------------------|
E-|------------------------|---------------------------|----------------------|
    ^play this measure the                              ^ extra addition to
     first time -- goto the                               measure one to give
     end measure after that                               the bend in the riff

Riff.2 (acoustic)
E-|-4---------------------------|--0----------------0-|
B-|----------2------7-----------|--5-----------2----0-|
G-|-1--------2------4--4--4-----|--6-----------2----1-|
D-|----------2------4--4--4--0--|--7--7--------2----2-|
A-|-2--2-----4------6--6--------|--0--0-0--7---4----2-|
E-|-0-----0--2--0---4-----------|----------0---2----0-|


These two riffs go on top of each other to make the sound more full.  These
start at "Ramble on, now`s the time, the time is now.  Sing my song..."

Riff.3 (electric)
E-|--------------------|-----------------------------2---2--3-|
B-|-9------------------|--3/5-----5--53---3--3------3---3--3--|
G-|-9--9--9--7--9-----|-------------------------0-------2-----|
D-|-9--9--9--7--7-----|--5/7--------75------5--0--------------|
A-|-7--7--7--7--9-----|---------------------------------------|
E-|--------------------|--------------------------------------|

Riff.3 (acoustic)
E-|--------------------|-------0----------0---0----------2--3-|
B-|--------------------|----5--5--5--53--3---3----------3--3--|
G-|-9--9--9--7--9-----|-------0--0-------0---0--0-0-----2--0--|
D-|-9--9--9--7--7-----|----7--------75---------0-0-----0------|
A-|-7--------7--9-----|---------------------------------------|
E-|--------------------|--------------------------------------|


These riffs are for the first solo.  They harmonize quite nicely.

Solo.1 (gtr1)
E-|---------|-----------------------------12-----------|
B-|-15------|-15p14h15--15p14h15-15p14h15-----15-14-15-|
G-|---------|------------------------------------------|
D-|---------|------------------------------------------|
A-|---------|------------------------------------------|
E-|---------|------------------------------------------|

Solo.1 (gtr2)
E-|---------|------------------------------------------|
B-|-12------|-12p10h12--12p10h10-12p10h12-14--12-10-12-|
G-|---------|------------------------------------------|
D-|---------|------------------------------------------|
A-|---------|------------------------------------------|
E-|---------|------------------------------------------|


Here is the second harmonized solo.

Solo.2 (gtr1)
E-|-12-------------12-------------12------|-12--------------------------------|
B-|---15-14-12-------15-14-12-------15-14-|---15-14-12----12-14--12-14--12-14-|
G-|------------14-------------14----------|------------14---------------------|
D-|---------------------------------------|-----------------------------------|
A-|---------------------------------------|-----------------------------------|
E-|---------------------------------------|-----------------------------------|

Solo.2 (gtr2)
E-|-------------------------------------|-----------------------------------|
B-|-14p12---------14p12---------14p12---|-14p12-----------------------------|
G-|------14p11---------14p11---------14-|------14p11----11-14--11-14--11-14-|
D-|-----------14------------14----------|-----------14----------------------|
A-|-------------------------------------|-----------------------------------|
E-|-------------------------------------|-----------------------------------|


This riff starts at the end of the second harmonized solo.  The first
acoustic riff (Riff.1) is played behind Riff.4.

Riff.4 (electric)
E-|------------------------------|-----------------------------|
B-|------------------------------|-----------------------------|
G-|--------9--9--9---------------|------9-9--9--7---7-7-7------|
D-|------9-9--9--9-------9-9-----|-9h11-----11--7h9-----9--6-7-|
A-|-9h11-----11--9--9p11-----11--|-----------------------------|
E-|------------------------------|-----------------------------|
Вверх

Rock N Roll

 A riff
|------------------------|--------------------------|
|------------------------|--------------------------|
|------------------------|--------------------------|
|-2--2-----2--5^2--4-----|-----2--4--2--2--2--4--2--|
|-0--0--4--0--0----0--3`-|-(3)-0--0--0--0--0--0--0--|
|------------------------|--------------------------|


  D riff
|------------------------|--------------------------|
|------------------------|--------------------------|
|-2--2-----2--5^2--4-----|-----2--4--2--2--2--4--2--|
|-0--0--4--0--0----0--3`-|-(3)-0--0--0--0--0--0--0--|
|------------------------|--------------------------|
|------------------------|--------------------------|

  E riff
|---------------------------------------------------|
|------------------------|--------------------------|-
|------------------------|--------------------------|
|------------------------|--------------------------|
|-2--2-----2--5^2--4-----|-----2--4--2--2--2--4--2--|
|-0--0--4--0--0----0--3`-|-(3)-0--0--0--0--0--0--0--|

The riff names coorespond to the chord names of a twelve bar blues in A.  Since
each riff is two measures long the progression looks like this:

| A riff | A riff | D riff | A riff | E riff | A riff |

The verse tab also follow the chords of a twelve bar blues like this.

 A verse riff
|-----------------|            |------------------|
|-----------------|            |------------------|
|-----2-----------| play 3     |-----2-----2------|
|-----2-----------| times      |-----2-----2------|
|-----0-----------| <----      |-----0-----0------|
|--3--------------|            |--3-----3-----3^0-|

 D verse riff
|-----------------|            |------------------|
|-----3-----------| play 3     |-----3-----3------|
|-----2-----------| times      |-----2-----2------|
|-----0-----------| <----      |-----0-----0------|
|--3--------------|            |--3-----3-----3^0-|
|-----------------|            |------------------|

E verse riff
|--------------------------|--------------------------|------------|
|--------------------------|--------------------------|------------|
|--------------------------|--------------------------|------------|
|--9--9--11-9--9--9--11-9--|--9--9--11-9--9--9--11-9--|--7---------|
|--7--7--7--7--7--7--7--7--|--7--7--7--7--7--7--7--7--|--5---------|
|--------------------------|--------------------------|------------|


                                Rock and Roll
				     By
				Led Zeppelin
Song:

 A riff
|------------------------|--------------------------|
|------------------------|--------------------------|
|------------------------|--------------------------|
|-2--2-----2--5^2--4-----|-----2--4--2--2--2--4--2--|     repeat 1x
|-0--0--4--0--0----0--3`-|-(3)-0--0--0--0--0--0--0--|
|------------------------|--------------------------|


  D riff
|------------------------|--------------------------|
|------------------------|--------------------------|
|-2--2-----2--5^2--4-----|-----2--4--2--2--2--4--2--|
|-0--0--4--0--0----0--3`-|-(3)-0--0--0--0--0--0--0--|
|------------------------|--------------------------|
|------------------------|--------------------------|

 A riff
|------------------------|--------------------------|
|------------------------|--------------------------|
|------------------------|--------------------------|
|-2--2-----2--5^2--4-----|-----2--4--2--2--2--4--2--|
|-0--0--4--0--0----0--3`-|-(3)-0--0--0--0--0--0--0--|
|------------------------|--------------------------|


  E riff
|---------------------------------------------------|
|------------------------|--------------------------|-
|------------------------|--------------------------|
|------------------------|--------------------------|
|-2--2-----2--5^2--4-----|-----2--4--2--2--2--4--2--|
|-0--0--4--0--0----0--3`-|-(3)-0--0--0--0--0--0--0--|

 A riff
|------------------------|--------------------------|
|------------------------|--------------------------|
|------------------------|--------------------------|
|-2--2-----2--5^2--4-----|-----2--4--2--2--2--4--2--|
|-0--0--4--0--0----0--3`-|-(3)-0--0--0--0--0--0--0--|
|------------------------|--------------------------|


 A verse riff
|-----------------|            |------------------|
|-----------------|            |------------------|
|-----2-----------| play 3     |-----2-----2------|
|-----2-----------| times      |-----2-----2------|
|-----0-----------| <----      |-----0-----0------|
|--3--------------|            |--3-----3-----3^0-|

Been a long time since I rock and rolled

 A verse riff
|-----------------|            |------------------|
|-----------------|            |------------------|
|-----2-----------| play 3     |-----2-----2------|
|-----2-----------| times      |-----2-----2------|
|-----0-----------| <----      |-----0-----0------|
|--3--------------|            |--3-----3-----3^0-|

Been a long time since I did the stroll.



 D verse riff
|-----------------|            |------------------|
|-----3-----------| play 3     |-----3-----3------|
|-----2-----------| times      |-----2-----2------|
|-----0-----------| <----      |-----0-----0------|
|--3--------------|            |--3-----3-----3^0-|
|-----------------|            |------------------|
Let me get back let me get back let me get back, baby where I come

 A verse riff
|-----------------|            |------------------|
|-----------------|            |------------------|
|-----2-----------| play 3     |-----2-----2------|
|-----2-----------| times      |-----2-----2------|
|-----0-----------| <----      |-----0-----0------|
|--3--------------|            |--3-----3-----3^0-|
from.


E verse riff
|--------------------------|--------------------------|------------|
|--------------------------|--------------------------|------------|
|--------------------------|--------------------------|------------|
|--9--9--11-9--9--9--11-9--|--9--9--11-9--9--9--11-9--|--7---------|
|--7--7--7--7--7--7--7--7--|--7--7--7--7--7--7--7--7--|--5---------|
|--------------------------|--------------------------|------------|

It`s been a long time been a long time been a long lonely lonely lonely lonely
lonely

 A riff
|------------------------|--------------------------|
|------------------------|--------------------------|
|------------------------|--------------------------|
|-2--2-----2--5^2--4-----|-----2--4--2--2--2--4--2--|      repeat 1x
|-0--0--4--0--0----0--3`-|-(3)-0--0--0--0--0--0--0--|
|------------------------|--------------------------|
time.

That covers the two types of progressions for the verse and chorus.  You should
be able to figure out when each is played by the way they sound.

The end is as follows:

  free time
  A7
|--------------------------------------------------------------------------|
|--5-----------------------------------------------------------------------|
|--x-----------------------------------------------------------------------|
|--5---------------------------5^7^5-7^5----5------------------------------|
|--4--------3^5^3------3-5/7-------------0-----------------------5---------|
|-------5---------3^5-------------------------------------------------------|
Вверх

Royal Orleans

INTRO: 2X

 guitar1                                              H
|---------------------------------|----------------------------------|
|---5-7-5--/8-----5-7-5--/8-------|---5-7-5---8--7--5------5---------|
|---6-7-6--/9-----6-7-6--/9-------|---6-7-6---9--7--5^6----6---------|
|---------------------------------|---------------------7------------|
|---------------------------------|----------------------------------|
|---------------------------------|----------------------------------|
|   1 4 1   1                                 1  4  1      1         |
|   2 4 2   2                                 2  4  1 2 3  2         |
|                                                                    |
|guitar2                                                             |
|---------------------------------|----------------------------------|
|---------------------------------|----------------------------------|
|---------------------------------|----------/4--2-------------------|
|---------------------------------|-----------------4-2--------------|
|----------0-------------0--------|-------00------------4--0---------|
|---0-2-2---------0-2-2-----------|---0-2----------------------------|
      1 1                               1     3  1  3 1 3


VERSE1: 2X

|-------------------|-------------------|-------------------|-------------------|
|--9-9---9-9-9--7---|--9-9---9-9-9--7---|--9-9---9-9-9--7---|--9-9---9-9-9--7---|
|--9-9---9-9-9--7---|--9-9---9-9-9--7---|--9-9---9-9-9--7---|--9-9---9-9-9--7---|
|-------------------|-------------------|-------------------|-------------------|
|-------------------|-------------------|-------------------|-------------------|
|------0------------|------0------------|------0------------|------0------------|



INTRO: 2X


VERSE2: 4X

|-------------------10-101010-----|--------------------10-1010-------|
|--9-9-7---9-9-9-7---9--9-9-9-----|--9-9-7---9-9-9-7----9--9-9-------|
|--9-9(7)--9-9-9(7)---------------|--9-9(7)--9-9-9(7)----------------|
|---------------------------------|----------------------------------|
|---------------------------------|----------------------------------|
|---------------------------------|----------------------------------|
   3 3 1             4  4 4 4                           |
   3 3 1             3  3 3 3                           |  tail end for
                                                        V   last verse

                                                --------121212121212-|
                                                --------121212121212-|
                                                ---------------------|
                                                ---------------------|
                                                ---------------------|
                                                ---------------------|
                                                         4 4 4 4 4 4
                                                         4 4 4 4 4 4
^L
INTRO: 4X

VERSE2:  4X

SOLO: 4X


|------------------------12--12-12-12--|------------------------12--12-12-----|
|--11-11-9--11-11-11-9---11--11-11-11--|--11-11-9--11-11-11-9---11--11-11-----|
|--11-11(9)-11-11-11(9)----------------|--11-11(9)-11-11-11(9)----------------|
|--------------------------------------|--------------------------------------|
|--------------------------------------|--------------------------------------|
|--------------------------------------|--------------------------------------|
    3  3 1   3  3  3 1    4   4  4  4
    3  3 1   3  3  3 1    3   3  3  3


INTRO: 2X

BRIDGE: 4X

      H     H                                H     H
|--------------------------------------|--------------------------------------|
|----------------------------(3)(3)----|----------------------------(3)-------|
|-----------------------------2--2-----|-----------------------------2--------|
|--------------/4--2----------0--0-----|--------------/4--2----------0--------|
|---------0-^2-------------------------|---------0-^2-------------------------|
|---0-^2--------------0-0-0------------|---0-^2--------------0-0-0------------|
       1     1  4  1          3  3
                              1  1

VERSE2: 8X
Вверх

Sick Again

Guitar Intro

G|--|--|
D|--|--|
A|7-|7-|
E|--|--|

G|------------|------------|----------------|---------------|
D|------------|------------|----------0-2-2-|---------0-2-2-|
A|----7---7---|----7---7---|--------3-------|-------3-------|
E|0--0--0---0-|0--0--0---0-|0-3-2-0---------|-332-0---------| 2X

G|--------------|--------------|
D|----7---7---7-|--------------|
A|--------------|----5-4-5-4---|
E|5--5--5---5---|5-----------5-| 3X

G|----------|----------------|----------------|----------------|
D|----------|----------------|----------------|----------------|
A|----------|----------------|----------------|----------------|
E|7-------5-|4---------2-0-2-|7-------5-------|4-------2-------|

G|------------|------------|----------------|---------------|
D|------------|------------|----------0-2-2-|---------0-2-2-|
A|----7---7---|----7---7---|--------3-------|-------3-------|
E|0--0--0---0-|0--0--0---0-|0-3-2-0---------|-332-0---------| 2X

G|----------------|----------------|
D|----7---7---7---|----------------|
A|----------------|----5-4-5-4-----|
E|5--5--5---5-----|5-----------5---| 3X

G|----------|----------------|----------|----------|
D|----------|----------------|----------|----------|
A|----------|----------------|----------|----------|
E|7-------5-|4---------2-0-2-|7-------5-|4-------2-|

G|----------------|----------------|----------------|
D|----------------|----------------|----------------|
A|----------------|----------------|----------------|
E|0-0-3-3-5-5-5-5-|5-5-5-5-5-5-5-5-|0-0-3-3-5-5-5-5-|

G|----------------|
D|----------------|
A|----------------|
E|5-5-5-5-5-5-5-5-|

G|----------------|----------------|
D|----------------|----------------|
A|----------------|----------------|
E|0-0-3-3-5---5---|5-5-----0-0-----| 8X

G|------------|------------|----------------|---------------|
D|------------|------------|----------0-2-2-|---------0-2-2-|
A|----7---7---|----7---7---|--------3-------|-------3-------|
E|0--0--0---0-|0--0--0---0-|0-3-2-0---------|-332-0---------| 2X

G|----------------|----------------|
D|----7---7---7---|----------------|
A|----------------|----5-4-5-4-----|
E|5--5--5---5-----|5-----------5---| 3X

G|----------|----------------|----------|----------|
D|----------|----------------|----------|----------|
A|----------|----------------|----------|----------|
E|7-------5-|4---------2-0-2-|7-------5-|4-------2-|

G|----------------|----------------|----------------|
D|----------------|----------------|----------------|
A|----------------|----------------|----------------|
E|0-0-3-3-5-5-5-5-|5-5-5-5-5-5-5-5-|0-0-3-3-5-5-5-5-|

G|----------------|
D|----------------|
A|----------------|
E|5-5-5-5-5-5-5-5-|

G|----------------|----------------|----------------|
D|----------------|----------------|----------------|
A|----------------|----------------|----------------|
E|0-0-3-3-5-5-5-5-|5-5-5-5-5-5-5-5-|0-0-3-3-5-5-5-5-|

G|----------------|
D|----------------|
A|----------------|
E|5-5-5-5-5-5-5-5-|

G|----------------|----------------|----------------|
D|----------------|----------------|----------------|
A|----------------|----------------|----------------|
E|0-0-3-3-5-5-5-5-|5-5-5-5-5-5-5-5-|0-0-3-3-5-5-5-5-|

G|----------------|
D|----------------|
A|----------------|
E|5-5-5-5-5-5-5-5-|

G|----------------|----------------|----------------|----------------|
D|----------------|----------------|----------------|----------------|
A|----------------|----------------|----------------|----------------|
E|0-0-3-3-5-5-5-5-|5-5-5-5-5-5-5-5-|0-0-3-3-5-5-5-5-|5-5-5-5-5-5-5-5-|

G|------------|------------|----------------|---------------|
D|------------|------------|----------0-2-2-|---------0-2-2-|
A|----7---7---|----7---7---|--------3-------|-------3-------|
E|0--0--0---0-|0--0--0---0-|0-3-2-0---------|-332-0---------| 2X

G|----------------|----------------|
D|----7---7---7---|----------------|
A|----------------|----5-4-5-4-----|
E|5--5--5---5-----|5-----------5---| 3X

G|----------|----------------|----------|----------|
D|----------|----------------|----------|----------|
A|----------|----------------|----------|----------|
E|7-------5-|4---------2-0-2-|7-------5-|4-------2-|

G|------------|------------|----------------|---------------|
D|------------|------------|----------0-2-2-|---------0-2-2-|
A|----7---7---|----7---7---|--------3-------|-------3-------|
E|0--0--0---0-|0--0--0---0-|0-3-2-0---------|-332-0---------|

G|---------------|
D|---------0-2-2-|
A|-------3-------|
E|-332-0---------| 20X

G|--|
D|--|
A|--|
E|0-|
Вверх

Since Ive Been Loving You

                                              /-3-            V
||---|-8------|-8-|-11-10-8-10-11-|-10-8---10-8-----|--------|-------|
||-8-|---11-8-|---|---------------|------9------9-9-|-9-8----|-R-3-4-|
||---|--------|---|---------------|-----------------|-----10-|-------|
||---|--------|---|---------------|-----------------|--------|-------|
||---|--------|---|---------------|-----------------|--------|-------|
||---|--------|---|---------------|-----------------|--------|-------|

           /-3-         /-3-
||---------------|-----|-------------|---/3-|-3-3-|-(3)-------|
||-6-3-4---------|-----|-4-3---3-4-6-|-/----|-----|-----16-18-|
||-------5-3-----|---5-|-----5-------|------|-----|-----------|
||-----------5-3-|-----|-------------|------|-----|-----------|
||---------------|-6---|-------------|------|-----|-----------|
||---------------|-----|-------------|------|-----|-----------|

   /--3--- /--3---
||-15-------15----------------|----|---------------15-------------|
||----18-16----18-16-18-------|----|------18-16-18----18-16-18-17-|
||----------------------17-15-|-17-|-(17)-------------------------|
||----------------------------|----|------------------------------|
||----------------------------|----|------------------------------|
||----------------------------|----|------------------------------|


||---------|--------|-8-----------------------|---------|---------|
||------11-|-8----8-|---11-8------------------|-4-3-----|-4-3-----|
||-(17)----|---10---|--------11-10-8----10----|-----5-3-|-----5-3-|
||---------|--------|----------------10----10-|---------|---------|
||---------|--------|-------------------------|---------|---------|
||---------|--------|-------------------------|---------|---------|

                       /-3--
||-----------|------------8-8-|-8-------------|-15----------15-15-|
||-----4-3---|-3-4-6-8-11-----|---------16-18-|----18-16-18-------|
||-(3)-----5-|----------------|---15-17-------|-------------------|
||-----------|----------------|---------------|-------------------|
||-----------|----------------|---------------|-------------------|
||-----------|----------------|---------------|-------------------|

  /-------6--------
||-------------------------|------------------15-15-|-------|-------|
||-------------------------|------------15-18-------|-------|----16-|
||-15-------15-------------|---------15-------------|----15-|-17----|
||----17-15----17-15-17-17-|-(17)-17----------------|-18----|-------|
||-------------------------|------------------------|-------|-------|
||-------------------------|------------------------|-------|-------|


||----------|-15-15-|----15-|-------|
||----16----|-------|-18----|-16----|
||-17----15-|-------|-------|----17-|
||----------|-------|-------|-------|
||----------|-------|-------|-------|
||----------|-------|-------|-------|

Working seven to eleven every night,
It really makes my life a drag.
I don?t think that?s right.
I?ve really been the best of fools,
I did what I could.
Beause I love you baby.
But baby, since I?ve been loving you,
I?m about to lose my worried mind.

Everybody trying to tell me,
That you didn?t mean me no good.
I?ve been trying let me tell you,
Let me tell you I really did the best I could.
I?ve been working seven to eleven every night,
It kinda makes my life a drag.
Lord you know it ain?t right.
Since I?ve been loving you,
I?m about to lose my worried mind.

Said I?ve been crying,
My tears they fell like rain.
Don?t you hear,
Don?t you hear them falling?
Don?t you hear,
Don?t you hear them falling?

Do you remember mama when I knocked upon your door?
I said you had the nerve to tell me you didn?t want me no more.
I open my front door hearing my back door slam.
You must have one of them new fangled,
New fangled back door man.

I?ve been working from seven to eleven every night,
It kinda makes my life a drag.
Since I?ve been loving you,
I?m about to lose my worried mind.
Вверх

Stairways to heaven

{c:Intro:}
Intro, Verse:
[Am]     [G#+]    [C]     [D]      [Fmaj7]       [G][Am]
E|-------5-7-----7-|8-----8-5-------|0-------0----|------------|
B|-----5-----5-----|----5-----5---5-|--2---2---1--|------------|
G|---5---------5---|--5---------5---|----1-------2|0-2-2-------|
D|-7-------6-------|5-------4-------|3------------|------------|
A|-----------------|----------------|-------------|2-0-0-0-8-7-|
E|-----------------|----------------|-------------|------------|
(with flute...)
[Am]     [G#+]    [C]     [D]      [Fmaj7]         [G][Am]
E|------5-7-----7-|8-----8-5-------|------0--------|-----------|
B|----5-----5-----|----5-----5---5-|----1-----1----|-----------|
G|--5---------5---|--5---------5---|--2---------2--|0-2-2------|
D|7-------6-------|5-------4-------|3--------------|-----------|
A|----------------|----------------|---------------|2-0-0--0-2-|
E|----------------|----------------|---------------|-----------|

End V2.

[C]      [D]      [Fmaj7] [Am]    [C]      [G]     p [D]
E|-0-----0-2-----2|0-----0---------|------0-3-----3|322-2-----||
B|---1-------3----|--1-----1-------|----1-----0----|----------||
G|-----0-------2--|----2-----2-----|--0---------0--|2---------||
D|---------0------|3---------------|---------------|----0-----||
A|-3--------------|--------0---0-2-|3--------------|------0-2-||
E|----------------|----------------|--------3------|----------||

End V1.


[C]      [D]      [Fmaj7] [Am]     [C]     [D]      [Fmaj7]
E|-0---3-0-3-2-----|0-----0---------|--------------2-|----0---||
B|---1---------3---|--1-----1-------|------1-----3---|----1---||
G|---------------2-|----2-----2-----|----0-----2-----|----2---||
D|---------0-------|3---------------|--2-----0-------|2/3-----||
A|-3---------------|--------0---0-2-|3---------------|--------||
E|-----------------|----------------|----------------|--------||
V1:
There's a [Am]lady who's [G#+]sure all that [C]glitters is [D]
                                                            gold
and she's [Fmaj7]buying a stairway to [G]hea[Am]ven
When she [Am]gets there she [G#+]knows if the [C]stores are
                                                   all [D]closed
with a [Fmaj7]word she can get what she [G]came [Am]for
[C]Oh_[D]__ [Fmaj7]oh____ [Am]
and she's [C]buying a [G]stairway to [D]heaven
V2:
There's a [C]sign on the [D]wall but she [Fmaj7]wants to be [Am]
                                                            sure
'cause you [C]know sometimes [D]words have two [Fmaj7]meanings
In a [Am]tree by the [G#+]brook there's a [C]songbird who [D]
                                                           sings
Sometimes [Fmaj7]all of her thoughts are [G]mis[Am]given

[Am]     [G#+]    [C]     [D]      [Fmaj7]         [G][Am][G]
E|-------5-7---7---|---8-------5----|---0-------0----|---------|
B|-----5----5-5-5--|--5-5-----5-5---|--1--1----1-1---|-------0-|
G|---5-------5---5-|-5---5---5---5--|-2----2--2---2--|0-2-2--0-|
D|---------6-------|5-----5-4-----4-|3-------3-----3-|-------0-|
A|-0---------------|----------------|----------------|2-0-0----|
E|-----------------|----------------|----------------|-------3-|

(strumming...)
[C]       [D]   [C]   ? [D-C-D] [C]    [D]   [C]    ? [D-C-D]
E|-3---0--|3-2---|3--0-7|-5-3-5--|3--0-|3-2---|3---0-7|-5-3-5--|
B|-1---1--|3-3---|1--1-8|-7-5-7--|1--1-|3-3---|1---1-8|-7-5-7--|
G|-2---2--|2-2---|2--2-9|-7-5-7--|2--2-|2-2---|2---2-9|-7-5-7--|
D|-2---2--|0-0---|2--2--|-0---0--|2--2-|0-0---|2---2--|-0---0--|
A|-0---0--|------|0--0--|--------|0--0-|------|0---0--|------02|
E|--------|------|------|--------|-----|------|-------|--------|

 Oh it makes me wonder Oh it really makes me wonder. There's a

  [C]      [G]     [Am]             [C]      [G]      [Am]
E|-----------------|------0---------|----------------|--------||
B|-----------------|----1---1-------|----------------|--------||
G|-----0-------0---|--2-------2-----|----0-------0---|-2------||
D|---2-------0-----|----------------|--2-------0-----|-2------||
A|-3-----3-2-----2-|0-----------0-2-|3-----3-2-----2-|-0--0-2-||
E|-----------------|----------------|----------------|--------||

[C]feeling I [G]get when I [Am]look to the west
and my [C]spirit is [G]crying for [F]lea[Am]ving
In my [C]thoughts I have [G]seen rings of [Am]smoke through the
                                                           trees
and the [C]voices of [G]those who stand [F]loo[Am]king
[Am7]     [Dsus4]   Oh___ [D]it makes me wonder [Am7]
 [Em]     [D]     [C]     [D]
[Am7]Oh___[Dsus4] it [D]really makes me
wonder [Am7]     [Em]     [D]     [C]     [D]
And it's whispered that soon if we all call the tune
then the piper will lead us to reason
And the new day will dawn for those who stand long
and the forest will echo with laughter
If theres a bustle in your hedgerow dont be alarmed now
it's just a spring clean for the May queen
Yes there are two paths you can go by but in the long run
there's still time to change the road you're on
Your head is humming and it wont go in case you dont know
the piper's calling you to join him
Dear lady can you hear the wind blow and did you know
your stairway lies on the whispering wind
[C]      [G]     [D]
E|-----------------|2---------------|023-----023-|023---3---2-||
B|-----------------|3---------------|333-----333-|333---3---3-||
G|-----0-------0---|2---------------|022-----022-|022---2---2-||
D|---2-------0-----|0---------------|0-------0---|0-----0---0-||
A|-3-----3-2-----2-|----------------|------------|------------||
E|-----------------|----------------|------------|------------||

E|-----0--00-0-----|----0--00-0-----|023-----023-|023---3---2-||
B|-----3--33-3-----|----3--33-3-----|333-----333-|333---3---3-||
G|-----0--00-0-----|----0--00-0-----|022-----022-|022---2---2-||
D|-----0--00-0-----|----0--00-0-----|0-------0---|0-----0---0-||
A|-3---------------|3---------------|------------|------------||
E|-----------------|----------------|------------|------------||
                  [G]
E|-----0--00-0-----|---3--33-3------|
B|-----3--33-3-----|---0--00-0------|
G|-----0--00-0-----|---0--00-0------|
D|------0--00-0----|---0--00-0------|
A|-3---------------|----------------|
E|-----------------|3---------------|
{np}
{c:For the solo and the
remaining lyrics use a Am  G  F  G  barre chord sequence}
{c:Solo}
And as we wind on down the road
Our shadows taller than our soul
There walks the lady we all know
Who shines white light and wants to know
how everything still turns to gold
And if you listen very hard
the time will come to you at last
When all are one and one is all
To be a rock and not to roll
(unaccomp.)
And she's buying a stairway to heaven
Вверх

Tangerine

Tune down 1/4 step.

Verse:

E|------------------------------------3----3----------2---2-|
B|-----1------3------1-----0----------0----0-----0----3---3-|
G|o----2------2------2-----2----------0----0-----0----2---2-|
D|o----2------2------2-----2----------0----0-----0----0---0-|
A|-----0------0------0-----0----------2----2----------------|
E|------------------------------------3----3----------------|

___1st ending
E|-------2-----2-----|
B|-------3-----3-----|
G|-------2-----2----o|
D|--0----0-----0----o|
A|-------------------|
E|-------------------|

___2nd  ending
E|--0---0------0---0---------------------------------------|
B|--1---1------1---1--------------------1----------------3-|
G|--0---0------0---0---------------0-----------------0-----|
D|--2---2------2---2----------2-----------------0----------|
A|--3---3------3---3-----3------------------2--------------|
E|---------------------------------------------------------|

E|-0------0---0-----------------------------2---2-|
B|-1------1--1-------5--5-----3--3-------3---3----|
G|-2------2--2-------5--5-----4--4-------2---2----|
D|-2------2--2-------5--5-----5--5-------0---0----|
A|-0------0--0------------------------------------|
E|------------------------------------------------|

E|-2-------2--2----3----2---------2-|
B|-3-------3--3----3----3----0---3--|
G|-2-------2--2----2----2----0---2--|
D|-0-------0--0----0----0----0---0--|
A|----------------------------------|
E|----------------------------------|

Refrain:
                                  _____1, 2, 3 endings
E|-0--0---0----2--2--2-|-----3-----3-------3---3----2--2--2-|
B|-1--1---1----3--3--3-|-----3-----3-------3---3----3--3--3-|
G|-0--0---0----2--2--2-|o----0-----0-------0---0----2--2--2-|
D|-2--2---2----0--0--0-|o----0-----0-------0---0----0--0--0-|
A|-3--3---3------------|-----2-----2-------2---2------------|
E|---------------------|-----3-----3-------3---3------------|

E|-0---------0----------0---0---0----2---2---2-----|
B|-1---------1----------1---1---1----3---3---3-----|
G|-0---------0----------0---0---0----2---2---2----o|
D|-2---------2----------2---2---2----0---0---0----o|
A|-3---------3----------3---3---3------------------|
E|-3---------3-------------------------------------|

_______4th ending
E|--3--3-----3--3-----3---3-----2---------2-------2-|
B|--0--0-----0--0-----0---0-----3---------3-------3-|
G|--0--0-----0--0-----0---0-----2---------2-------2-|
D|--0--0-----0--0-----0---0-----0-----3--0----3--0--|
A|--2--2-----2--2-----2---2-------------------------|
E|--3--3-----3--3-----3---3-------------------------|

Solo Rhythm:  (Listen to CD)

|Am    |G       |D       |F      |E   F   |E   F  |

then:

E|-0------0-------0---0------3---3---3-------3-|
B|-1------1-------1---1------0---0---0-------0-|
G|-0------0-------0---0------0---0---0-------0-|
D|-2------2-------2---2------0---0---0-------0-|
A|-3------3-------3---3------2---2---2-------2-|
E|---------------------------3---3---3-------3-|

E|-2----------------------|
B|-3-----------3--------3-|
G|-2-----------2--------2-|
D|-0--------3--0----3---0-|
A|------------------------|
E|------------------------|

Refrain

Outro:
___________7  times    ______4  times
E|----2---2---2----------------|---2--2--2--2--2--3--2---|
B|----3---3---3----------------|---3--3--3--3--3--3--3---|
G|o---2---2---2---------------o|o--2--2--2--2--2--2--2--o|
D|o---0---0---0---------------o|o--0--0--0--0--0--0--0--o|
A|-----------------------------|-------------------------|
E|-----------------------------|-------------------------|


E|-------3-----------------------|
B|-0----1-----1------------------|
G|-0----2-----0-----------1----3-|
D|-0----2-----2-----------0------|
A|-------0-------------0---------|
E|-----------------3-------------|

E|------------------------------------|
B|-----------------------------0----1-|
G|-0--0--0---------0---0----2---------|
D|-0--0--0--0-----0---0----3----------|
A|-------------2----------------------|
E|------------------------------------|

E|-3---3---3---3--------3---3---3---3-|
B|-1---1---1---1--------1---1---1---1-|
G|-2---2---2---2--------2---2---2---2-|
D|-3---3---3---3----3---3---3---3---3-|
A|------------------------------------|
E|------------------------------------|

E|------------------------------------|
B|-1----0------------------------[12]-|
G|-0----0----0--------------0----[12]-|
D|-0----0--------------0---------[12]-|
A|-2----2-----------------------------|
E|-3----3---------3-------------------|

Solo (over Solo Rhythm):

E|--------------------------|
B|-10----13----15---^----15-|
G|-12^---15^----------------|
D|--------------------------|
A|--------------------------|
E|--------------------------|

E|-----------------------------------------------|
B|-r12^----r13----12-------12---12------13--/-15-|
G|-----------------------------------------------|
D|-----------------------------------------------|
A|-----------------------------------------------|
E|-----------------------------------------------|

E|-------------------------------15^---15----17^-|
B|---------12--12---13--/-15---------------------|
G|-r14^------------------------------------------|
D|-----------------------------------------------|
A|-----------------------------------------------|
E|-----------------------------------------------|

E|-17^---17^----17---17-------19-^-------20--20^-|
B|-----------------------------------------------|
G|-----------------------------------------------|
D|-----------------------------------------------|
A|-----------------------------------------------|
E|-----------------------------------------------|
Вверх

Tea For One

Tea For One ---- 3/4 blues in Cm

8 bars of Cm
8 bars of Fm
8 bars of Cm
4 bars of Gm (first bar is actually 2 beats of Fm and
2 bars of Fm one beat of Gm)
2 bars of Bb
back to Cm

E|--3----1----3----6-|
B|--4----1----3----6-|
G|--5----1----3----7-|
D|--5----3----5----8-|
A|--3----3----5----8-|
E|-------1----3----6-|
    Cm   Fm   Gm   Bb

E|--------------|
B|-------6--(4)-|
G|--------------|
D|---5s7---7s5--|
A|--------------|
E|--------------|
riff played over Cm every so often
...let notes ring (that F has to go back down to Eb)

E|-------------|
B|-------------|
G|------3--(1)-|
D|-------------|
A|--3s5---5s3--|
E|-------------|
same riff played over Fm

E|---6--8--10--10--8h10p8-|
B|------------------------|
G|---7--8--10--10--8h10p8-|
D|------------------------|
A|------------------------|
E|------------------------|
   Bb        Cm
riff played at the end of each verse

Every so often a verse is played like this:
E|---------------------------------|
B|---------------------------------|
G|--3--5-----3--5----3--5----------|
D|--3--5-----3--5----------3--5----| Play twice
A|--1--3-----1--3----------------6-|
E|---------------------------------|

E|-----------------------------|
B|-----------------------------|
G|-8--10--8--10--3--5----------| Play once, then the above bit
D|-8--10--8--10--------3--5----|
A|-6---8--6---8--------------6-|
E|-----------------------------|

E|-----------4-------4--------------6-----6--8--10--10--8h10p8-|
B|---------6---6-------6----------6---6------------------------|
G|-------5-------5-------5------7---------7--8--10--10--8h10p8-|
D|-3-5-3-----------3-------3--8--------------------------------|
A|-3-5---------------------------------------------------------|
E|-1-3---------------------------------------------------------|
         This is an arpeggio bit   This is the familiar riff ...
         similar to what Pagey
         plays each time through
Вверх

Ten Years Gone mp3

Part 1: (played 2 times)

             let ring
             >>>>>>>>                             >>>>>
E|---------------|----------------|----------0-------|---------|
B|---2-0---0--3--|-3--------3-----|-------2------0-3-|-3-3-3---|
G|---2---2----2--|-2------2---2---|-2-----2----2---2-|-2----2--|
D|---2--------3--|-3----3-------3-|-2-----2--------3-|-3-----3-|
A|-0-0--------0--|-0-0------------|-0--0--0--------0-|-0-------|
E|---------------|----------------|------------------|---------|

Part 2:
         x = mute strings
E|----------------------------------|-7-7-7-7-x-x-------------|
B|--2--2--x(2)--x(2)--1-1-x(1)-x(1)-|-8-8-8-8-x-x-7-7-7-7-7-5-|
G|--2--2--x(2)--x(2)--2-2-x(2)-x(1)-|-9-9-9-9-x-x-6-6-6-6-6-4-|
D|--2--2--x(2)--x(2)--1-1-x(2)-x(1)-|-9-9-9-9-x-x-7-7-7-7-7-5-|
A|--0--0----------------------------|-------------------------|
E|----------------------------------|-------------------------|

Part 3: heavy guitar sound with distortion (remember drop D
tuning) Page overdubs to get that wall of sound here. I think a
sitar was also overdubbed.

  lead in riff
E|----------------------|-------------------|------------------|
B|----------------------|---0---------------|---------2--------|
G|-----------------2-4-2|-4-4-4-6-2---2-4-2-|-2-2-2-4-2--2-4-2-|
D|---------2-3-2---2-2-2|-5-5-5-5-4---4-4-4-|-3-3-3-3-2--2-2-2-|
A|-----0-3-------0------|-----------0-------|-----------0------|
E|-2-3------------------|-------------------|------------------|

E|--------------------|------------------|
B|---0----------------|---------2--------|
G|-4-4-4--6-2---2-4-2-|-2-2-2-4-2--2-4-2-|
D|-5-5-5--5-4---4-4-4-|-3-3-3-3-2--2-2-2-|
A|------------0-------|-----------0------|
E|--------------------|------------------|

E|--------------------|------------------|
B|---0----------------|---------2--------|
G|-4-4-4--6-2---2-4-2-|-2-2-2-4-2--2-4-2-|
D|-5-5-5--5-4---4-4-4-|-3-3-3-3-2--2-2-2-|
A|------------0-------|-----------0------|
E|--------------------|------------------|

                               * heavy part ends leads
                                 into Part 1
E|--------------------|----------------------|--------------|
B|---0----------------|-------0-2---0---0-3--|--------3-----|
G|-4-4-4--6-2---2-4-2-|-2-2-2---2-----2---2--|------2---2---|
D|-5-5-5--5-4---4-4-4-|-3-3-3---2---------3--|----3-------3-|
A|------------0-------|-------------------0--|--0-----------|
E|--------------------|----------------------|--------------|

Part 4:

   Dmaj7                C/G  G
E|----------------------|---------------------------|
B|--5--7-7-7-7--7-7--5--|--5--3--5--3--3-3--3-3-3-3-|
G|--4--6-6-6-6--6-6--4--|--5--4--5--4--4-4--4-4-4-4-|
D|--5--7-7-7-7--7-7--5--|--5--5--5--5--5-5--5-5-5-5-|
A|----------------------|---------------------------|
E|----------------------|---------------------------|

  Em7              >>>>> Dmaj7
E|-0--0-0-0-0-0-0-0-0-|-0-2--2--2--|---------------------|
B|-5--5-5-5-5-5-5-5-3-|-3-2--2--2--|--5-7-7-7-7--7-7-7-7-|
G|-4--4-4-4-4-4-4-4-4-|-4-2--2--2--|--4-6-6-6-6--6-6-6-6-|
D|-5--5-5-5-5-5-5-5-5-|-5-4--0--0--|--5-7-7-7-7--7-7-7-7-|
A|--------------------|------------|---------------------|
E|--------------------|------------|---------------------|
                                                        >>>>>
   C/G      G           Em9                        Dmaj7
E|--------------------|-----------0-0-------------|----2-------|
B|--5--5--5--3--------|--0-0-3-3--3-3--3-3--3--0--|-0--2-------|
G|--5--5--5--4--4--4--|--0-0-0-0--0-0--0-0--0--0--|-0--2-------|
D|--5--5--5--5--5--5--|--4-4-4-4-------4-4--4-----|-------2--2-|
A|--------------------|---------------------------|-------0--0-|
E|--------------------|---------------------------|------------|

E|-0--2--2--0--|----------------|---------------------0-|0-----|
B|-0--2--2--0--|-5--5-5-3--3--3-|-0-0-0-0-0-0-0-0-0-0-3-|3-7-7-|
G|-0--2--2--0--|-5--5-5-4--4--4-|-0-0-0-0-0-0-0-0-0-0-4-|4-6-6-|
D|-------------|-5--5-5-5--5--5-|-4-4-4-4-4-4-4-4-4-4-5-|5-7-7-|
A|-------------|----------------|-----------------------|------|
E|------------------------------------------------------|------|

   Dmaj7
e|--------------------|
B|-5--7-7-7-7--7-7--7-|
G|-4--6-6-6-6--6-6--6-|
D|-5--7-7-7-7--7-7--7-|
A|--------------------|
E|--------------------|
                                                       distorted
   C/G    G       Em9                          (remember drop d)
e|--------------|---------0-0---------|------------------------|
B|-5--5-5-3-----|-0-0-3-3-3-3-3-3-3-5-|-5--7--7-7--------------|
G|-5--5-5-4-4-4-|-0-0-0-0-0-0-0-0-0-4-|-4--6--6-6--------------|
D|-5--5-5-5-5-5-|-4-4-4-4-----4-4-4-5-|-5--7--7-7--------------|
A|--------------|---------------------|------------5-7-7-9-9-7-|
E|--------------|---------------------|------------5-7-7-9-9-7-|

Part 5:
e|-------------------|-0--------------|
B|-------------------|-0--------------|
G|-------------------|-2--------------| Repeat 2 more times
D|-------------5-5---|-4--------------| and then
A|-7-5-5-5-5-5-5-5-0-|---0-0-5-7-9-9-7|
E|-7-5-5-5-5-5-5-5-0-|---0-0-5-7-9-9-7|

e|---------------------|
B|---------------------|
G|---------------------|
D|---------------------|
A|-7-5-5-5-5-5-5-5-5-7-|
E|-7-5-5-5-5-5-5-5-5-7-|

Part 6:

e|--------0-|-0-5-5-5-5-5-5-5-0-|-0-0-0-0-0-0-0-0-0-0|-0-------|
B|---9-9--7-|-7-7-7-7-7-7-7-7-7-|-7-7-7-7-7-7-7-7-7-0|-0-------|
G|---9-9--6-|-6-6-6-6-6-6-6-6-7-|-7-7-7-7-7-7-7-7-7-0|-0-0-0-0-|
D|---7-7--7-|-7-7-7-7-7-7-7-7-5-|-5-5-5-5-5-5-5-5-5-2|-2-------|
A|-7--------|-----------------5-|-5-5-5-5-5-5-5-5-5-3|-3-------|
E|-7--------|-----------------5-|-5-5-5-5-5-5-5-5-5--|---------|

e|-4-0-0-0-0-0-0-0--|-0--0--0--0--0--9--7-|-7-7-7-7-7-7-7-0-|
B|-5-5-5-5-5-5-5-10-|-10-10-10-10-10-10-7-|-7-7-7-7-7-7-7-0-|
G|-6-6-6-6-6-6-6-11-|-11-11-11-11-11-11-7-|-7-7-7-7-7-7-7-0-|
D|-6-6-6-6-6-6-6-12-|-12-12-12-12-12-12-5-|-5-5-5-5-5-5-5---|
A|------------------|-------------------5-|-5-5-5-5-5-5-5---|
E|------------------|-------------------5---5-5-5-5-5-5-5---|

Intro:
[ Guitar : Part 1 ]
[ Guitar : Part 2 ]
[ Guitar : Part 3 ]

Verse:
[ Guitar : Part 1 ]

Think as it was, then again it will be.

Though the course may change sometimes, rivers always reach the
sea.

[ Guitar : Part 2  (no vocals) ]

[ Guitar : Part 3 (vocals start in second measure) ]

Blind spies of fortune, each has several ways

on the wings of maybe, downing birds of prey.

Kind of makes me feel sometime I didn`t have to grow.

For as a eagle leaves a nest, I got so far to go.


[ Guitar : Part 1 ]

Changes fill my time, baby thats all right with me,

in the midst I think of you and how it used to be.

[ Guitar : Part 2 ]

[ Guitar : Part 4 ] played behind solo 1, leads into Part 5
with vocals

[ Guitar : Part 5 ]

Did you ever really need somebody and really need`em bad

Did You ever really want somebody the best stuff you ever had

Will you ever remember me baby, did it feel so good

Cause it was just the first time and you knew you would

[ Guitar : Part 6] played behind solo 2.

[ Guitar : Part 3]

Do the eyes not sparkle, senses go again

tasting love along the way, see a feather spring

Gonna make you a meal sometime, it`ll help you know

We are eagles all one loves, the message in our soul

[ Guitar : Part 1 ]

Fixin in my dreams with great surprise to me

I never thought I`d see your face, the way it used to be

[ Guitar : Part 2 ]

Oh darling, Oh darlin.

[ Guitar : Part 3 ]  Repeat and fade etc.
Вверх

Thank You

Riff A
E|---------3-2-0-0-2----2-0---2-|---------3-2-0-0-2----2-0---2-|
B|---------3-3-3-3-3----3-3---3-|-------3-3-3-3-3-3----3-3---3-|
G|-----2---2-2-2-2-2----2-2---2-|-----0---0-0-0-0-0----0-0---0-|
D|-0----------------------------|------------------------------|
A|------------------------------|2h3---------------------------|
E|------------------------------|------------------------------|

E|---------3-2-0-0-2-----2-0---2-|-------2-----2-2---3(3)3-3-3-|
B|---------3-3-3-3-3-----3-3---3-|-------3-----3-3---3(3)3-3-3-|
G|-------0-0-0-0-0-0-----0-0---0-|-2-----2-----2-2---2(2)2-2-2-|
D|-----0-------------------------|-0---------------------------|
A|-0h2---------------------------|-----------------------------|
E|-------------------------------|-----------------------------|
								end of riff A
			Repeat first 3 measures
			of the section above and
		        then proceed below.

E|------2--(2)-(2)2-2-3(3)3-3-|-2--(2)-(2)-(2)-(2)-(2)-(2)-(2)-|
B|------3--(3)-(3)3-3-3(3)3-3-|-3--(3)-(3)-(3)-(3)-(3)-(3)-(3)-|
G|-2----2--(2)-(2)2-2-2(2)2-2-|-2--(2)-(2)-(2)-(2)-(2)-(2)-(2)-|
D|-0--------------------------|-0--(0)-(0)-(0)-(0)-(0)-(0)-(0)-|
A|----------------------------|--------------------------------|
E|----------------------------|--------------------------------|

			Rest for the next 4 measures

E|-----------------3-----3-----|-----------------3-------3-----|
B|-------------3-------------3-|-------------3-------3-------3-|
G|---------0-------------------|---------0---------------------|
D|-----2---------------2-------|-----0-------------------------|
A|-3---------------------------|-0h2---------------------------|
E|-----------------------------|-------------------------------|

E|-------------2---3---2---------|-2---2-2----2-2----2-2---2-2-|
B|---------3---------------3-----|-3---3-3----3-3----3-3---3-3-|
G|-----2-----------------------2-|-2---2-2----2-2----2-2---2-2-|
D|-0-----------------------------|-0---0-0----0-0----0-0---0-0-|
A|-------------------------------|-----------------------------|
E|-------------------------------|-----------------------------|

E|-2---2---2---2---2---2---2-|-7---7---7--(7)7-7---7---7---0-|
B|-3---3---3---3---3---3---3-|-9---9---9--(9)9-9---9---9---0-|
G|-4---4---4---4---4---4---4-|-9---9---9--(9)9-9---9---9---0-|
D|-4---4---4---4---4---4---4-|-9---9---9--(9)9-9---9---9---0-|
A|---------------------------|-------------------------------|
E|---------------------------|-------------------------------|

E|-2---2---2-----2-2-------2-------|-7---R---0--(0)-(0)-(0)--R-|
B|-3---3---3-----3-3-------3-------|-9---R---2--(2)-(2)-(2)--R-|
G|-4---4---4-----4-4-------4-----9-|-9---R---2--(2)-(2)-(2)--R-|
D|-4---4---4-----4-4-------4-----9-|-9---R---2--(2)-(2)-(2)--R-|
A|---------------------------------|---------------------------|
E|---------------------------------|---------------------------|

E|-0--0--0--0--0---0---0---0-|-3---3---3---3---3---3---3---3-3-|
B|-1--1--1--1--1---1---1---1-|-3---3---3---3---3---3---3---3-3-|
G|-0--0--0--0--0---0---0---0-|-0---0---0---0---0---0---0---0-0-|
D|-2--2--2--2--2---2---2---2-|-0---0---0---0---0---0---0---0-0-|
A|-3--3--3--3--3---3---3---3-|-2---2---2---2---2---2---2---2-2-|
E|---------------------------|---------------------------------|

E|-2--2--2--2--3-3-3---3-3-3-3-|-2-------2-----2-2-2-2---2-2-2-|
B|-3--3--3--3--3-3-3---3-3-3-3-|-3-------3-----3-3-3-3---3-3-3-|
G|-2--2--2--2--2-2-2---2-2-2-2-|-2-------2-----2-2-2-2---2-2-2-|
D|-0--0--0--0--0-0-0---0-0-0-0-|-0-------0-----0-0-0-0---0-0-0-|
A|-----------------------------|-------------------------------|
E|-----------------------------|-------------------------------|

E|-0--0-0-0--0-0-0---0-0-0---0-0-|-3---3-3-3-----3-3---3-3---3-|
B|-1--1-1-1--1-1-1---1-1-1---1-1-|-0---0-0-0-----0-0---0-0---0-|
G|-0--0-0-0--0-0-0---0-0-0---0-0-|-0---0-0-0-----0-0---0-0---0-|
D|-2--2-2-2--2-2-2---2-2-2---2-2-|-0---0-0-0-----0-0---0-0---0-|
A|-3--3-3-3--3-3-3---3-3-3---3-3-|-2---2-2-2-----2-2---2-2---2-|
E|-------------------------------|-----------------------------|

E|-2--2-2-2--2-2-3-3-3--3-3-3-3-|-2--2-2-2--2-2-2-2-2--2-2-2-2-|
B|-3--3-3-3--3-3-3-3-3--3-3-3-3-|-3--3-3-3--3-3-3-3-3--3-3-3-3-|
G|-2--2-2-2--2-2-2-2-2--2-2-2-2-|-2--2-2-2--2-2-2-2-2--2-2-2-2-|
D|-0--0-0-0--0-0-0-0-0--0-0-0-0-|-0--0-0-0--0-0-0-0-0--0-0-0-0-|
A|------------------------------|------------------------------|
E|------------------------------|------------------------------|

E|-2--2-2-2---2-2-2---2---2--2-|-7---7---7--(7)7-7-----7-7---7-|
B|-3--3-3-3---3-3-3---3---3--3-|-9---9---9--(9)9-9-----9-9---9-|
G|-4--4-4-4---4-4-4---4---4--4-|-9---9---9--(9)9-9-----9-9---9-|
D|-4--4-4-4---4-4-4---4---4--4-|-9---9---9--(9)9-9-----9-9---9-|
A|-----------------------------|-------------------------------|
E|-----------------------------|-------------------------------|

E|-2-----2-2---2---2-----2-2-------|-7---R---0--(0)-(0)-(0)--R-|
B|-3-----3-3---3---3-----3-3-------|-9---R---2--(2)-(2)-(2)--R-|
G|-4-----4-4---4---4-----4-4-----9-|-9---R---2--(2)-(2)-(2)--R-|
D|-4-----4-4---4---4-----4-4-----9-|-9---R---2--(2)-(2)-(2)--R-|
A|---------------------------------|---------------------------|
E|---------------------------------|---------------------------|

E|--------3-2-0-0-2----2-0---2-|---------3-2-0-0-2-----2-0---2-|
B|--------3-3-3-3-3----3-3---3-|---------3-3-3-3-3-----3-3---3-|
G|--------2-2-2-2-2----2-2---2-|-----0---0-0-0-0-0-----0-0---0-|
D|-0---------------------------|-3-----------------------------|
A|-----------------------------|-------------------------------|
E|-----------------------------|-------------------------------|

E|---------3-2-0-0-2-2-0-2-|
B|---------3-3-3-3-3-3-3-3-|Solo starts here (transcribed below)
G|-------0-0-0-0-0-0-0-0-0-| Continue with rythym work by
D|-----0-------------------|  repeating Riff A thru solo.
A|-0h2---------------------|
E|-------------------------|

Acoustic solo:

E|---------------------------|-------7-------------------------|
B|---------------------------|-7-8-10-10-8-7---7-----------7-8-|
G|-----------------4-6-7-7-9-|---------------9---9-7-6-7-9-----|
D|-7-(7)-(7)-4-5-7-----------|---------------------------------|
A|---------------------------|---------------------------------|
E|---------------------------|---------------------------------|

E|----7----------------------7-|--------5-7---------5-7-5------|
B|(8)---10-10-8-8-(8)-7-8-10---|---5h7h8-------5h7h8-----8-7-8-|
G|-----------------------------|6h7---------6h7----------------|
D|-----------------------------|-------------------------------|
A|-----------------------------|-------------------------------|
E|-----------------------------|-------------------------------|

E|---------------------------|---------------------------------|
B|-8-8-8-7-7-7---------------|---------------------------------|
G|-----------------------7-R-|-7--(7)--7-6-7-6-4-6---4---------|
D|-----------------7-9-------|-0--(0)--------------7---5-7-4-5-|
A|---------------------------|---------------------------------|
E|---------------------------|---------------------------------|

E|-------------------------------|---------------7-5-----------|
B|-------------------------------|---------5-7-8-----8-7-5-7-8-|
G|-------------------------------|---4-6-7---------------------|
D|-5---4-------------------4-5-7-|-7---------------------------|
A|---7---7-5--(5)--5-4-5-7-------|-----------------------------|
E|-------------------------------|-----------------------------|

E|--------------------------------|-3------(3)-----(3)-----(3)-|
B|-8-7-7---7-------8-7-7---8-7-7--|-3------(3)-----(3)-----(3)-|
G|--------------------------------|-2------(2)-----(2)-----(2)-|
D|--------------------------------|----------------------------|
A|--------------------------------|----------------------------|
E|--------------------------------|----------------------------|

Rest for the next 3 measures

E|-5p0-2p0-------------------|---------------------------------|
B|---------------3-----------|-------------1-------1-----------|
G|-----------2/4---42--------|---------0-------0---------------|
D|---------------------0-----|-----2-------------------2p0---0-|
A|-----------------------2-0-|-3---------------------------3---|
E|---------------------------|---------------------------------|

E|-----------------------------|-------------0---2-------2---2-|
B|--------------1--------------|---------3-------------------3-|
G|-----------0-----2p0---------|-----2---------------2-------2-|
D|-2p0----0------------2p0-----|-0---------------------------0-|
A|-----2-------------------0h2-|-------------------------------|
E|-----------------------------|-------------------------------|

E|-3-3-3-2-2-2-2-2-2---2-2-2-2-|-2---2-2-2---2-2-2---2---2---2-|
B|-3-3-3-3-3-3-3-3-3---3-3-3-3-|-3---3-3-3---3-3-3---3---3---3-|
G|-2-2-2-2-2-2-2-2-2---2-2-2-2-|-4---4-4-4---4-4-4---4---4---4-|
D|-0-0-0-0-0-0-0-0-0---0-0-0-0-|-4---4-4-4---4-4-4---4---4---4-|
A|-----------------------------|-------------------------------|
E|-----------------------------|-------------------------------|

E|-7--7--7-----7-7-----7-7---7-|-2---2---2---2---2---2---2---2-|
B|-9--9--9-----9-9-----9-9---9-|-3---3---3---3---3---3---3---3-|
G|-9--9--9-----9-9-----9-9---9-|-4---4---4---4---4---4---4---4-|
D|-9--9--9-----9-9-----9-9---9-|-4---4---4---4---4---4---4---4-|
A|-0--0--0-----0-0-----0-0---0-|-------------------------------|
E|-----------------------------|-------------------------------|

E|-7-------0-------R-|
B|-9-------2-------R-|
G|-9-----2-2-------R-|  Rest for the next 4 measures
D|-9-----2-2-------R-|
A|-0-----------------|
E|-------------------|

E|-5-7-5-----------------------|-------------------------3---0-|
B|-------8-7-5-----------------|-------------1-----------------|
G|-------------2-4-2-----------|---------0---------------------|
D|-------------------5-4-2---0-|-----2-------------------------|
A|-------------------------3---|-3-----------------------------|
E|-----------------------------|-------------------------------|

E|------------------------------|--------5---2---3p2-----------|
B|------------------------------|--------------------3---3p0---|
G|------------------------------|----2-----------------------2-|
D|-----0h2p0----------0h2p0-----|-0----------------------------|
A|-0h2---------0--0h2---------2-|------------------------------|
E|------------------------------|------------------------------|

E|--------------------------------|----------------------------|
B|--------------------------------|----------------------------|
G|-2p0----------------------------|----------------------------|
D|-----4---2p0-----0h2p0---0------|----------------------------|
A|-------------0h2-------2-----2--|-3------(3)-----(3)-----(3)-|
E|--------------------------------|----------------------------|

E|------------------------------|----------------------------||
B|------------------------------|----------------------------||
G|------------------------------|-2------(2)-----(2)-----(2)-||
D|------------------------------|-0------(0)-----(0)-----(0)-||
A|-2------(2)-----(2)-----(2)---|----------------------------||
E|------------------------------|----------------------------||
Вверх

That`s The Way

Open G tuning D B G D G D


* (If you want you can play the fifth string also)

Riff 1

   ^ v ^ v  ^  ^   v   ^  v ^  ^ v ^ v  ^  ^   v ^ ^ v ^ v
D|-0-0-0-0--2--4---4---4--4----4-4-4-4--2--0---0---2-2-2-0-|
B|-0-0-0-0--1--3---3---0--0----3-3-3-3--1--0---0---1-1-1-0-|
G|-0-0-0-0--0--0-------0-------0-0-0-0--0--0-------0-0-0-0-|
D|-0-0-0-0--2--4-------0-------4-4-4-4--2--0-------2-2-2-0-|
G|-*-------------------0----0--------------0-----0---------|
D|---------------------------------------------------------|

Riff 2

   ^  v  ^  ^  ^  ^  ^  v  ^  v  ^  ^  ^ ^  ^  v
D|-3--3-----3-----3--3--3--3--3-----3----3--3--3-|
B|-3--3-----3-----3--3--3--3--3-----3----3--3--3-|
G|-3--------3-----3--3--3--3--------3----3--3--3-|
D|-3-----3--3--3--3--3--3--3-----3--3--3-3--3--3-|
G|-*-----0-----0-----------------0-----0---------|
D|-----------------------------------------------|

Riff 3A                         Riff 3B

   ^  v  ^  ^  ^  ^  ^  v       ^  v  ^  ^  ^  ^  ^  ^
D|-4--4-----4-----4--4--4-|  D|-4--4-----4--4--0--2--4-|
B|-3--3-----3-----3--3--3-|  B|-3--3-----3--3--3--3--3-|
G|-2--------2-----2--2--2-|  G|-2--------2--2--2--2--2-|
D|-0-----0--0--0--0--0--0-|  D|-0-----0--0--0--0--0--0-|
G|-0-----0--0--0--0--0--0-|  G|-0-----0--0--0----------|
D|------------------------|  D|------------------------|

Riff 4

   ^ v ^ v ^ ^ ^ ^ v ^ v ^ v ^ ^ ^ ^ v
D|-3-3-3-3---3-3-3-3-0-0-0-0---0-0-0-0-|
B|-1-1-1-1---1-1-1-1-1-1-1-1---1-1-1-1-|
G|-2-2-2-2-2-2-2-2-2-0-0-0-0-0-0-0-0-0-|
D|-3-3-3-3-3-3-3-3-3-2-2-2-2-2-2-2-2-2-|
G|-0-0-0-0-0-0-0-0-0-0-0-0-0-0-0-0-0-0-|
D|-------------------------------------|

Riff 5

   ^ ^ v ^ ^ v ^ ^ v ^ ^ v ^ v ^ ^ ^ v ^ v
D|-0-0-0-0-0-0-0-0-0-0-0-0-4-4---4-4-4-4-4-|
B|-0-0-0-1-1-1-3-3-3-5-5-5-3-3---3-3-3-3-3-|
G|-0-0-0-0-0-0-0-0-0-0-0-0-2-2---2-2-2-2-2-|
D|-0-0-0-2-2-2-4-4-4-5-5-5-0-0-0-0-0-0-0-0-|
G|-0-----0-----0-----0-0-0-0---0-0-0-------|
D|-----------------------------------------|

   ^ ^ ^ ^ ^ v ^ v ^ ^ ^ ^ ^ v ^ v ^ ^ ^ ^ ^ v ^ v
D|-2-4-5-4-0-0-0-0-2-4-5-4-0-0-0-0-2-4-5-4-0-0-0-0-|
B|-1-3-3-3-3-3-3-3-1-3-3-3-3-3-3-3-1-3-3-3-3-3-3-3-|
G|-0-0-0-0-0-0-0-0-0-0-0-0-0-0-0-0-0-0-0-0-0-0-0-0-|
D|-2-4-4-4-4-4-4-4-2-4-4-4-4-4-4-4-2-4-4-4-4-4-4-4-|
G|-*-----------------------------------------------|
D|-------------------------------------------------|

   ^  v  ^  ^   ^   v ^ v  ^  v  ^  ^  ^  ^   ^  v
D|-4--4-----4---4---4-4-4--4--4-----4-----4---4--4-|
B|-3--3-----3---3---3-3-3--3--3-----3-----3---3--3-|
G|-2-----2--2---2---2-2-2--2-----2--2--2--2---2--2-|
D|-0-----0--0---0---0-0-0--0-----0--0--0--0---0--0-|
G|-0-----0--0---0----------0-----0--0--0--0--------|
D|-------------------------------------------------|

Intro:Riff 1  2x

Riff 1
I don`t know how I`m going to tell you
Riff 1
I can`t play with you no more
Riff 1
I don`t know how I`m going to do what mama told me
Riff 1
My friend the boy next door

Riff 1  3x

Riff 1
I can`t believe what people saying
Riff 1
You only let your hair down
Riff 1
I`m satisfied to sit here working all day long
Riff 1
You`re in the darkest side of town

Riff 1  4x

Riff 1
And when I`m out I see you walking
Riff 1
Why don`t your eyes see me
Riff 1
Could it be you`ve found another game to play
Riff 1
What did mama say to me

Riff 2                           Riff 1
That`s the way   Oh  that`s the way it ought to be
Riff 2                Riff 3A 2x
Mama said that`s the way it ought to stay

Riff 4

Riff 1 1x

Riff 1
And yesterday I saw you standing by the river
Riff 1
And weren`t those tears that filled your eyes
Riff 1
And all the fish that lay in dirty water dying
Riff 1
Had they got you hypnotized

Riff 1  4x

Riff 1
And yesterday I saw you kissing tiny flowers
Riff 1
But all that lives is born to die
Riff 1
And so I say to you that nothing really matters
Riff 1
And all you do is stand and cry

Riff 1  4x

Riff 1
I don`t know what to say about it
Riff 1
When all your ears are turned away
Riff 1
But now`s the time to look and look again at what you see
Riff 1
Is that the way it ought to stay

Riff 2                      Riff 1
That`s the way That`s the way it ought to be Whoa don`t you
                                                      know now
Riff 2                           Riff B  3x
Mama said  mama said that`s the way it`s going to stay Ahh Ahh

Riff 4
Aaaaaaaaaah  Ahhh   Ohhhhhhhhhhhhh

Riff 5 until end
Вверх

The Battle Of Evermore

Am       Am G   Am      Am C      Am       Am  G     Am Am C
Queen of Light, took her bow, and then she turned to go
Am        Am G     Am         Am C       Am        Am G Am Am C
Prince of Peace, embraced the gloom, and walked the night alone
   D     D     D     D     D     D     D     D
Oh,........(sorry, don`t remember this verse)
(continues Am Am G Am Am C etc. until:)
Am         D                Am                 D
I hear the horse`s thunder, down in the valley below
G7              C                  G7              C
waiting for the angels of Babylon, waiting for the eastern glow
and so forth...
Вверх

The Crunge

A6  A9
I wanna tell you `bout my good thing
D9  C#9  D9  C#9 D9 C39 D9   Eb9  D9    C#9
I ain`t disclosin` no names, but
D9   C#9  D9 C#9   D9   C9    C#9  D9   C#9
He sure is a good friend and
   D9               C#9    D9  C#9   D9     Eb9   D9
I ain`t gonna tell you where he comes from, but
C#9 D9 C#9  D9  C#9   D9  C9  C#9 D9 C#9 D9 C#9 D9 C#9 D9 Eb9
If I tell yuou, you won`t come again    oh
D9            C#9     D9       C#9
I ain`t gonna tell you nothin` but
C#9 D9  C#9  D9   A6  A9     A6  A9
I do, well, but I know, yeah

Now let me tell you `bout my girl
I open up a newspaper and what do I see?
Ah, see my girl, ah
Ah, lookin` at me
Ooh, and when she walks, she walks,
Let me tell you
When she talks, she talks
And when she looks me in my eye
She`s my baby, Lord, I wanna make her mine
Oh, tell me baby what you want me to do
And you want me to love you
Love some other man
Oo they ain`t gonna call me Mister Pitiful No
I don`t need no respect from nobody no,
I ain`t gonna tell you nothin, I ain`t gonna tell you no more,
No she is my baby, let me tell you that I love her so
And, and she`s the woman I really wanna
love and let me tell you more
Oo, she`s my baby, let me tell you she lives
Next door
She`s the one a woman, the one a woman that I know
I ain`t goin`, I ain`t goin`, I ain`t gonna tell.
I ain`t goin` tell you one thing that you really ought a know
But - she`s my lover baby, and I love her so.
And - she`s the one that really makes me whirl and twirl
And - she`s the kind of lover that makes
me fill the whole world
And - she`s the one who really makes me jump and shout
Oh - she`s the kind of girl that I know what it`s all about
Take it home,
Take it, take it, take it

Ah, excuse me,
Ah, will you excuse me?
I`m just try`n a find the bridge,
Has anybody seen the bridge?
(spoken) Please, have you seen the bridge?
I ain`t seen the bridge
Where`s that confounded bridge?
Вверх

The Girl I Love She Got Long Black Wavy Hair

G|------------------|--75-5--57---75-7--|
D|--75-5--57--------|----7--7-------7---|
A|----7--7----------|55---------55------|
E|55--------553035--|-------------------|

  chorus
G|--------------------|
D|--------------------|
A|77779777755573-3333-|
E|--------------------|
Вверх

The Lemon Song

     E7
*---||----------------------|-----9--7--7-----------7--|-----------------------------|
|4:-||-----6--7--8--9-------|--------------7--8--9-----|--------6--6--7--7--8--9--0--|
|4:-||--7--------------7----|--7-----------------------|--7--7-----------------------|
*---||-------------------7--|--------------------------|-----------------------------|

					    A7
*-------9-8-7-----------------------------|-------------------------------|
|4:--------------0-9-0-7-6----------------|------------------------5--6---|
|4:---------------------------____--7-----|------4----5---6-0-6-7---------|
*--------------------------7--6--7-----6--|-5-5-----5---5-----------------|

				E7
*-----------------------------------|------------------------|--------------------9-------|
|4:-----7--------------------7------|----6-6-6--7-7-7--8-8-8-|-9----------------9---7---8-|
|4:--------7----7--------4----5--6--|-7----------------------|----7--5-0-7-7-7---------7--|
*-------------5---5--5--------------|------------------------|----------------------------|

  B7			   A7				 E7
*-------------11--------------|-----------------------------|---9-7-------------|
|4:-----9-9-9----9------9---9-|-7-----------4-5-6-7---------|-------9-7-5-------|
|4:----------------12-9---9---|---0-4-5-6-7---------3-4-5-6-|-7-----------7-5---|
*-----------------------------|-----------------------------|-----------------7-|

*-------------------------------||
|4:-----------------------------||
|4:-----7-7-5-------------5-6-7-||
*-------------7-5-3-5-6-7-------||

	Notes:
* I have denoted the chords in case you want to adlib
___
x-y  hammer-on


--------------------------------||
|4:-----------------------------||
|4:-----7-7-5-------------5-6-7-||
*-------------7-5-3-5-6-7-------||
Вверх

The Ocean

  intro/chorus riff              verse riff
G|2-2-0----------0---2---2---2-|-----------------------|
D|-----2-------02--02-----0-2--|-----------------------|
A|------3(0)----------4--------|5555-53333-3------3555-|
E|-----------------------------|------------5-3-5------|

  end
G|--------|--------|--4-------|--------|----------|------------|
D|--------|--------|----7-4---|--------|----4--4--|---4--5--6--|
A|5-2-----|--4-2---|5-------7-|--------|5-7-------|7-----------|
E|----5-2-|0-----4-|----------|0-2-3-4-|----------|------------|

G|---------|-------|----------|------------|---------|---------|
D|---------|-------|-----4----|-----4------|---------|---------|
A|5-2------|-------|--45--7---|---45-7--7--|5-5------|---------|
E|----5-2-2|0-2-3-4|5-------70|55------7--5|----7-5-2|0-2-2-3-4|

G|------4----|---------|--4-------|--6-4-----|--------|--------|
D|--4-7---7-4|---------|----7-4-4-|------6---|--------|--------|
A|5----------|7-5-4----|5---------|7-------7-|5-4-----|--------|
E|-----------|------7-5|----------|----------|----7-5-|0-2-3-4-|

G|-------------|--------------|----------|--------|------4-----|
D|------4------|------4-------|----------|--------|--4-7---7-4-|
A|---45--7-----|---45--7--7---|5-5-2-----|--------|5-----------|
E|5---------70-|55-------7--5-|------5-2-|0-2-3-4-|------------|

G|--------|-------------|--------------|------------|----------|
D|--------|----4------4-|2-------------|------------|----------|
A|7-5-4---|--5---5-7----|------2--7--6-|5--5-3--2---|----------|
E|------7-|5------------|---4----------|----------5-|0-2-3-4-5-|

G|----------------|----------------|
D|-------4--------|--------4-------|
A|---45---7-------|----45---7------|
E|5----------70---|55----------77--|
Вверх

The Rain Song

Guitar 1: Six string electric: opening riff:
e|-------------------------------------------------|
B|-------------------------------------------------|
G|-------------------------------------------------|
D|-7-7-----------------5-7-7-7-----------------5-7-|
A|-----7-5-----5-7-5-7---------7-5-----5-7-5-7-----|
E|---------8-8---------------------8-8-------------|

Here`s the part throught most all of the lyrics, just four
chords:

Singing in the sunshine, laughing in the rain
e|---------------------------------------------|
B|---------------------------------------------|
G|-7--7--7--7--5--5--5--5-----------7--7--7--7-|
D|-7--7--7--7--5--5--5--5--7--5--7--7--7--7--7-|
A|-5--5--5--5--3--3--3--3--7--5--7--5--5--5--5-|
E|-5--5--5--5--3--3--3--3--5--3--5--5--5--5--5-|

Just repeat those two main riffs, and that`s 95% of the song,
there is also guitar 2, which I don`t know, I`m still trying to
figure it out.

Singing in the sunshine, laughing in the rain
hitting on the moonshine, rocking in the grain
Ain`t no time to pack my bag, my foots outside the door
Got a date, can`t be late for the hopes hailla ball.

Singing to an ocean, I can hear the oceans roar
Play for free, play for me and play for a whole lot more
Singing of the good things and the sun that lights the day
Singing to the Ocean, has the ocean lost its way?

Sitting round singing songs till the night turns into day
Used to sing on the mountains, but the mountains washed away
Now I`m singing all my songs to the girl who won my heart
She is only three years old its a real fine way to start.
Вверх

The Rover

   intro       verse          chorus
G|----------|---------------|-----------------------222-------|
D|02---02---|222222222222222|024-4442220-----024-444---2--024-|
A|----------|---------------|------------2234-----------------|
E|----------|---------------|---------------------------------|

G|-----------------222-------------------------------------|
D|-4442220--024-444---2--024-4442220-00-------------------0|
A|-------------------------------------4432-22222222222223-|
E|---------------------------------------------------------|
Вверх

The Song Remains The Same

This song has 3 12-string electrics and 2 6-strings(telecaster
thru supro)
Ill try to keep them all straight for you.

The intro is 1 12string banging out an open D repeatedly.
One 12-string plays this set of chords over it:
E|-2-----5-----7-----9----14------14-|
B|-3-----6-----8----10----15------15-|
G|-2-----5-----7-----9----14------14-|
D|-----------------------------------|
A|-----------------------------------|
E|-----------------------------------|

and the third 12 plays these chords:
E|-------------12----12---------14-----14-|
B|-7-----8-----12----14---------15-----15-|
G|-7-----7-----12----14---------14-----14-|
D|-7----10--------------------------------|
A|----------------------------------------|
E|----------------------------------------|

Now one 12 stops playing and one 12 plays these chords
while the second 12 plays the same chords but with an open
D|-string instead of a second fret D.
E|-0-0-0-2-2-2-0-0-0-2-2-2-3-3-3-0-0-0-3-3-3-2-|
B|-3-3-3-3-3-3-3-3-3-3-3-3-3-3-3-3-3-3-3-3-3-3-|
G|-2-2-2-2-2-2-2-2-2-2-2-2-2-2-2-2-2-2-2-2-2-2-|
D|-2-2-2-2-2-2-2-2-2-2-2-2-2-2-2-2-2-2-2-2-2-2-|
A|---------------------------------------------|
E|---------------------------------------------|

Now this chord sequence is played by 2 12`s the same way
and repeat it.                  /-again the 2nd 12 plays the
                                  open D on this chd
E|-2--2-2----2--2--3--3-3----2--0-|
B|-3--3-3----3--3--3--3-3----3--3-|
G|-2--2-2----2--2--2--2-2----2--2-|
D|-0--0-0----0--0--0--0-0----0--0-|
A|--------------------------------|
E|--------------------------------|

Next is both 12`s playing this:
E|---0---0---0-0---0-0---0------0-------0-0-0-0-0-0-0-0-0-0-0-|
B|---1-1---1---0-0-0---0----1-3---3-1-3---0-0-0-0-0-0-0-0-0-0-|
G|------------------------------------------------------------|
D|-3---------------3--------3---------------------------------|
A|------------------------------------------------------------|
E|------------------------------------------------------------|

Next one of the 6 strings come in with the 2 12`s to play this:
E|-0-0-0--2--2-2--0---0-0--2--2-2--3--3-3-0--0-0--3--3-3--2-|
B|-3-3-3--3--3-3--3---3-3--3--3-3--3--3-3-3--3-3--3--3-3--3-|
G|-2-2-2--2--2-2--2---2-2--2--2-2--2--2-2-2--2-2--2--2-2--2-|
D|-2-2-2--2--2-2--2---2-2--2--2-2--2--2-2-2--2-2--2--2-2--2-|
A|----------------------------------------------------------|
E|----------------------------------------------------------|

One this next distorted part,
the six string plays this:           and 12`s play this
E|-----------------------------------------------2-|
B|-----------------------------------------------3-|
G|-----------------------------------------------2-|
D|-----------------------------------------------2-|
A|-------------0------------------------------0----|
E|-3^4--0-3^4--0-----------------3^4--0--3^4-------|

Here is the 2 12`s backing part to the first solo:
E|---2------2---3--3-------5--3-|
B|-----3------3------3-----3--5-|
G|-------2-------------2--------|
D|-0----------------------------|
A|------------------------------|
E|------------------------------|

And the first 6 string solo:
E|-------------------------------------------------------------|
B|-------------------------------------------------------------|
G|---------------------------------------------------7-9-7---7-|
D|----------------------7-9-7---9-7---7--7-7-----7-9-------9---|
A|-3^4-0-3^4--5-7p5-7/9-------9-----9--------------------------|
E|-------------------------------------------------------------|

E|----------7--------------------------------------10----------|
B|------------10-7---------------------------------------------|
G|---7-9^11--------9-7---9-7---7-9-7---7-7---7-9^11---(11)^9-7-|
D|-9-------------------9-----9-------9-----9-------------------|
A|-------------------------------------------------------------|
E|-------------------------------------------------------------|

E|-----------------------------------7--------------------|
B|-7^8-7-------------------------------10-7---------------|
G|-------7------7-9-7---7----7-9^11---------9-7---9-7---7-|
D|----------7-9-------9----9--------------------9-----9---|
A|--------------------------------------------------------|
E|--------------------------------------------------------|

Now the 6 string plays this figure a few times:
E|------------------------------0-|
B|------------------------------0-|
G|--/5-4-2---2----/5-4--2-----2---|
D|---------3--------------3-3-----|
A|--------------------------------|
E|--------------------------------|

And ends it with this:
E|------------------------|
B|------------------------|
G|--/5-4-2-0--------------|
D|------------3-2-0-------|
A|------------------3-2-0-|
E|------------------------|

The 2 12`s play this after the solo: and end that section with
a bunch of
                                             /-these
E|-3-5---8--8--8------3--5---8--8--8--7-7---8-|
B|-5-7--10-10-10------5--7--10-10-10--9-9--10-|
G|--------------------------------------------|
D|---------------------------0----------------|
A|--------------------------------------------|
E|--------------------------------------------|

During the vocals, the 2 12`s play on this basic pattern with a
few subtle changes on the first couple of measures.
E|-0---0---------------3-----0------0-----------|
B|-1---1-----3-----3h5----3--3--3-3---3p1-----0-|
G|-0---0-----0-----------------------------0----|
D|-2---2----------------------------------------|
A|-3---3----------------------------------------|
E|----------------------------------------------|

While the 6 plays this on the first two measures.
E|-----------------3-------------------3-----------------------|
B|-------------1---------------------3-------3---0-------------|
G|-2^4^2-------------0--0--------5^6-----3/4---4-------0-------|
D|-------0-0-2---2---2--2-0---5--------------------0h2---------|
A|-------------------3--3---5----------------------------1h2---|
E|-----------------------------------------------------------3-|

And on the third measure the 12`s play this:
E|-0-0-0-0---0--------0--0---------0--0---0-0---0-0---0-0------|
B|-1-1-2-2---2---2----0-------0-2-------0-1---0-1---0-1--1-0-0-|
G|-0-0---------3---3--------3---3--3-------------------------0-|
D|-2-2-4---4---4-4-4-----------------------------------------0-|
A|-3-3---------------------------------------------------------|
E|-------------------------------------------------------------|

And the 6 plays this:
E|----------------------7--------6-------5--5--/10-8-/13-13/12-|
B|--2-----2--------------------5-------5-----------------------|
G|----------3------4/7-----4/6-----4h5------5------------------|
D|----4-----4----4---------------------------------------------|
A|-------------4-----------------------------------------------|
E|-------------------------------------------------------------|

              Heres that mid section thing:
E|--------15-|-(5)^7^5-5-3------3------------3-------------|
B|-----------|-------------------------3-----------4-------|
G|--14/16----|--------------3h4----3-4---3h4---3-4---3^4---|
D|-----------|-------------------------------------------5-|
A|-----------|---------------------------------------------|
E|-----------|---------------------------------------------|

On the last measure of the vocal part, the 6 plays this:
E|-------------------------------1-------5------10--8-----8-|
B|-----------------------0-----1---1------------------------|
G|-------------------------1-2-------3/5---5/10----10-10-10-|
D|-6^8-6^8-6-5-4-6^8-6-4------------------------------------|
A|----------------------------------------------------------|
E|----------------------------------------------------------|

E|-------10-|
B|-10/12----|
G|----------|
D|----------|
A|----------|
E|----------|

Then just bend the G|-string 5th fret up and pick it as you
release the bend.

The second solo is this:
E|----------------------------------7--------------------------|
B|-7----7-------------------------7---10-10-7------------------|
G|-9^11-9^11-9p7h9---7-7-7---9^11-------------9p7-9p7----7-7---|
D|-----------------9-------9--------------------------9------9-|
A|-------------------------------------------------------------|
E|-------------------------------------------------------------|

E|-----7-------------------------------------------------------|
B|-------10-7--------------------------------------------------|
G|-9^11------9-7-9-7--7-9-7------------------------------------|
D|------------------9------9-7-9-7---7-9-7---7-9-7/9-7-9-7---7-|
A|---------------------------------9-------9---------------9---|
E|-------------------------------------------------------------|

E|------------------------------------10-----------------------|
B|----------------------------------------13-10----10----------|
G|---------------------9p7-7---7-9/11-----------12----10^11----|
D|-------------------7-------9------------------------------12-|
A|-97-5-5-5-5-5h7/9--------------------------------------------|
E|-------------------------------------------------------------|

E|-------------------------------------------------15----------|
B|-------13-15^17-15-------------13-15-(15)^16^17-----15^17-15-|
G|-9/14---------------12----9/14-------------------------------|
D|-------------------------------------------------------------|
A|-------------------------------------------------------------|
E|-------------------------------------------------------------|

E|------------------------------------------------15-----------|
B|-15^17-15---------------------------------15^17-----15^17-15-|
G|----------12-14^16^14-16^18---14--14-16----------------------|
D|-------------------------------------------------------------|
A|-------------------------------------------------------------|
E|-------------------------------------------------------------|

E|------------------------------7------------------------------|
B|-12^13---12^13^12---------------10-7-10-7--------------------|
G|-------------------14------0-------------------------------7-|
D|------------------------------------------------7-10-7---7-7-|
A|--------------------------------------------7/9--------9-----|
E|-------------------------------------------------------------|

E|-------------------------------------------|
B|-------------------------------------------|
G|-----------------7-------------------7-7-7-|
D|------7-10-7---7-7-------10p7----7---7-7-7-|
A|--7/9--------9-------7/9------10---9-------|
E|-------------------------------------------|

After the next vocals bit, The 12`s play this chord sequence
hitting each one 3 or 4 times:
			  /--now just arpeggiate this chord
E|--8--7--10---8--12---10/14-|
B|-10--8--12--10--13---12/15-|
G|------------------------16-|
D|---------------------------|
A|---------------------------|
E|---------------------------|

After that, the 12`s play this:
E|-0-------------------------2--3--2---0-----------0---0-------|
B|-------3-----------------3--3--3--3---3--1-3---1-------------|
G|-0-0-0-0-0-0-0-0-0-0-0---0---2--2--2---2-----2---------------|
D|-----------------------0-2---------------------------2-2---2-|
A|---------------------------------------------------3---3-3---|
E|-------------------------------------------------------------|

E|----------------------------------|
B|--------------------------------3-|
G|--------------------------------2-|
D|--5-5-5-4-4-4-2-----------------0-|
A|--3-3-3-2-2-2-0--7-7-7-5-5-5-5--2-|
E|-----------------5-5-5-3-3-2-0--0-|

The 6 string part over that is:
E|--15-----------------------------------------------------|
B|------(15)^17^15-------------------------8^10---(8)^10^8-|
G|------------------(14)^16^14--9--7-8-9-7------7----------|
D|---------------------------------------------------------|
A|---------------------------------------------------------|
E|---------------------------------------------------------|

E|-15--------------------------------------|
B|----15^17^15-----------------------------|
G|-------------14^16^14-14--1412-----------|
D|--------------------------------12-12/14-|
A|-----------------------------------------|
E|-----------------------------------------|

E|-------------------------------7^9-7-5-----------(7)^9^7-7-5-|
B|-----------------6---5-----5------------7^9-7-5--------------|
G|-----------5-5-7---7---7-7-----------------------------------|
D|-----5-5-7---------------------------------------------------|
A|-5-7---------------------------------------------------------|
E|-------------------------------------------------------------|
And then the power chords with the 12`s and the 6

Next is as little soloing over the rythym laid down by the 2
12`s and 1 6
E|-------------------------------------------------------------|
B|-------------------------------------------------------------|
G|-7^9^7p5---------2h4p2---2----------2h4p2---2------2h4p2---2-|
D|---------7---2-4-------4--------2-4-------4--------------4---|
A|-------------------------------------------------------------|
E|-------------------------------------------------------------|

E|------2--------------------------------------------------|
B|--------5-2---------2----10h13p10--12-15-15^16--15-12-12-|
G|-4^6--------4-2-4-2--------------------------------------|
D|---------------------------------------------------------|
A|---------------------------------------------------------|
E|---------------------------------------------------------|

E|-------------------------------------------------------------|
B|------10-12-10---10--10----10-12-10----10----12-----10-12-10-|
G|-9/11----------11--11--9/11---------11----11----9/11---------|
D|-------------------------------------------------------------|
A|-------------------------------------------------------------|
E|-------------------------------------------------------------|

E|--------------5----------------------------------------------|
B|----10-10-------5^7-5-3-3------------------------------------|
G|-11-------12----------------2p0---0-2p0---0------------------|
D|--------------------------------4-------4----2p0---0-2p0---0-|
A|-------------------------------------------------4-------4---|
E|-------------------------------------------------------------|

E|-----------------------------------------------------|
B|-----------------------------------------------------|
G|-2p0--0---------2p0--0---------2p0---0---------------|
D|-----4---2p0--0-----4--2p0---0-----4---2p0---0-2p0-0-|
A|-------------4-------------4---------------4---------|
E|-----------------------------------------------------|

E|--------------------15---------------------13-14-15----------|
B|-----13-15-15^17-15----15^17-15----13-15^17---------15^17-15-|
G|-/14----------------------------14---------------------------|
D|-------------------------------------------------------------|
A|-------------------------------------------------------------|
E|-------------------------------------------------------------|

E|----------|
B|-13-15-13-|
G|----------|
D|----------|
A|----------|
E|----------|

Now w/heavy distortion repeat this figure a few times and end
it w/ that last little chord.
E|----------------------------------------------------------|
B|----------------------------------------------------------|
G|-------------2----------------------4p2-----------------2-|
D|-2-2-----2-4---4-2--2-2------2-4-2------4p2-------------0-|
A|-0-0-2/4------------0-0--2/4------------------------------|
E|----------------------------------------------------------|
Вверх

The Song Remains The Same (2 вариант)

Of course you all realize that I expect a complete tab of
Jethro Tull`s `The Minstrel in the Gallery` for this. ;)

guit. 1 (12 string)
E|--------------2---7---9---12---14---14-|
B|--------------3---8---10--13---15---15-|
G|--------------2---7---9---12---14---14-|
D|--0R-----------------------------------|
A|---------------------------------------|
E|---------------------------------------|
ride on the open d throughout (listen to tape for rythem)

guit. 2 (6 string)
E|------------------5---7---9--|
B|------------------6---8---10-|
G|------------------5---7---9--|
D|-----------------------------|
A|-----------------------------|
E|-----------------------------|

**1**
(12 string)
E|--0-0-0---2-2-2--|
B|--3-3-3---3-3-3--|
G|--0-0-0---0-0-0--|
D|--2-2-2---2-2-2--|x3
A|--0-0-0---0-0-0--|
E|-----------------|

**2**
E|--2-2-2--2-2--3-3-3--2-0--|
B|--3-3-3--3-3--3-3-3--3-3--|
G|--2-2-2--2-2--2-2-2--2-2--|
D|--0-0-0--0-0--0-0-0--0-0--|  x4
A|--------------------------|
E|--------------------------|

E|--0----0-----0----0------------0-----------0-----|
B|----1----1-----0----0----1--3-----3--1--3----0---|
G|------2----2-----0----0--2---------------------0-|
D|-------------------------------------------------|
A|-------------------------------------------------|
E|-------------------------------------------------|
(let all notes ring) [end of **2**]

Guitar 1 goes to **1**

then

**3**
(guitar 1 (12 string))
E|----------2--|
B|----------3--|
G|----------0--| <--\
D|----------2--|     \
A|----------0--|      \
E|-------------|       |
(guitar 2)             x4
E|-------------|       |
B|-------------|      /
G|-----------2-|     /
D|-----------2-| <--/
A|-----------0-|
E|--2b3-2b3--0-|
[end of **3**]
then guitar 1 does **2** (finger pick notes of chords
separately) while guitar 2 solos (the solo isn`t too difficult
to figure out if ya listen to the tape..)

**4**
(guit. 1)
E|-5-7-8--8--8----|-5-7--8-7--8-|
B|-6-8-10-10-10---|-6-8-10-9-10-|
G|-7-9-10-10-10-x4|-7-9-10-9-10-| x4
D|------------------------------|   (keep strumming final chord)
A|------------------------------|
E|------------------------------|

(guit. 2)
E|------------------------0-|
B|----------------------2---|
G|-5-4-2---2--5-4-2---2-----| x3
D|-------3----------3-------|

E|-------------------------------------|
B|-------------------------------------|
G|-5-4-2---2--5-4-2--0-----------------|
D|-------3--------------3--2--0--------|
A|-------------------------------3-2-0-|
[end of **4**]
==
(verse) (guit. 1)
chords: C C G(6) x2 (on G chord play the high `E` open rather
than 3rd fret) (guit. 2) (the little figure he plays between
the G and the C of part b))
E|-----3------------------------|
B|-2^3--------3-----------------|
G|--------3^4-------4-----------|
D|--------------4^5--------5----| <--- Riff:#1
A|---------------------4^5------|
E|----------------------------3-|

part b (guit. 1)
chords: C C F# F
(guit. 2)
E|--6---    --8-----8-----8-----10--8/13-|
B|---7-- x4 ---10----10-----10-----------|
G|----6-    -----10----10-------10--9/14-|
D:
(guit. 1)
chord: G
(while the `G` is ringing guit. 2 plays:
             (guit.1 2nd verse)--> C        C         G
B|--10b12r10-8-10-8------8-------------8----------------|
G|------------------------------7-------------7---------|
D|-------------------8-9----8-9----8-9----8-9----8-9----|
A|----------------------------------------------------8-|
Guitar 1 begins 2nd verse (same as first) in the middle (the
chords are indicated above guit.2`s tab.)

2nd verse (guitar 1)
chords: (the C C G written in above figure) and repeat (without
guitar 2 until riff #1 is replayed)

then replay `part b`
after you play that (adjust the ending appropriately)
the song gets fast again.

(guit.1) chord: G
(guit.2)
E|--------------|
B|--------------|
G|--------------|
D|-12-11-10-9-7-|

as guit.2 plays the `7` guit.1 begins **1** again.
then both guitars do **3**
then guit.1 does **2** (as written) while guit.2 solos.
then guit.1 does **1**
then guitars 1 and 2 do **3** and guit.3 solos
then vocals come back in and guit.1 plays **2** (play notes of
chord separately again)

(guit. 1)
E|-5-7--8--8--8------|--5-7---8--7--8-|
B|-6-8--10-10-10-----|--6-8--10--9-10-|
G|-7-9--10-10-10--x4-|--7-9--10--9-10-| x3
D|-------------------|----------------|
A|-------------------|----------------|
E|-------------------|----------------|

(guit. 2)
E|------------------------0-|
B|----------------------1---|
G|-5-4-2---2--5-4-2---2-----|x3
D|-------3----------3-------|

(guit.1)
E|--5-7---8--7--10--8---12--10--14--14-----14-----14-----|
B|--6-8--10--8--12--10--13--12--15----15-----15-----15---|
G|--7-9--10--9--12--10--14--12--16------16-----16-----16-|
D|-------------------------------------------------------|

g.2 | |   |  |   |  |   |   |   |
E|--------------------------------|
B|--------------------------------|
G|--5-4---2--0--------------------|
D|---------------3--2---0---------|
A|--------------------------3-2-0-|

$$$
(guit.1)
chords: G

(guit.2)
E|--14b15---------------------------------|
B|--------15b17r15------------------------|
G|-----------------14b16r14--12--------12-|
D|-------------------------------12^14----|

(guit.1)
E|------0-----2-----3-----2-----0-----|
B|--------3-----3-----3-----3-----3---|
G|----------2-----2-----2-----2-----2-|
D|------------------------------------|
A|--0---------------------------------|

(guit.2)
E|----------------------|
B|----------------------|
G|---------12-----------|
D|--12b14------14r12-10-|
repeat from $$$
then (guit.1)
chords: C

(guit.2)
E|----------------------------------------------------------|
B|-----------------6---5------------------------------------|
G|-----------5-5^7---7---5-7---12b13-12-10---------13^12^10-|
D|-----5-5^7-----------------7-------------12-10-9----------|
A|-5^7------------------------------------------------------|
E|----------------------------------------------------------|

                                E|--0-0-0-|
(guit.1)                        B|--0-0-0-|
G|----------------------------------0-0-0-|
D|--5-5-5--4-4-4--2--2-2-2----------0-0-0-|
A|--3-3-3--2-2-2--0--0-0-0---5-5-4--2-2-2-|
E|---------------------------3-3-2--0-0-0-|

then guit.1 does **1** while guit.3 solos
then guitars 1 and 2 do **3** while guit.3 solos
then guit.1 does **2** while guit.3 solos
then guit.1 plays **1** while guit.3 plays this:
E|-----------------------|
B|-----------------------|
G|----------------2------|
D|-----------2-4-----4-2-|
A|--0-0--3-4-------------|
E|-----------------------|
guit.3 continues to play that lick and guitars 1 and 2 play
**3**

then vocals return and guit.1 plays **2** (notes of chord
broken) then **4** is played
Вверх

Trampled Underfoot

Heres the main riff:
e|--------------------|
b|-2-3----------------|
g|-2-3--2-3-0-------0-|
d|------------3-0-3---|
a|--------------------|
E|--------------------|

And this ascending part:
e|-----5-5-5-------7-7-7---------10-10-10----------12-12-12-|
b|----------------------------------------------------------|
g|-4/6---------6/8---------9/11--------------11/13----------|
d|----------------------------------------------------------|
a|----------------------------------------------------------|
E|----------------------------------------------------------|

And after that this is played:
e|-11--11-------------------------11-11----------------------|
b|-11--12--11-12------------------11-12-11-12----------------|
g|----------------12-10----10-12--------------12-10----10-12-|
d|----------------------12--------------------------12-------|
a|-----------------------------------------------------------|
E|-----------------------------------------------------------|

And the chord before the keyboard solo and at the end of the
song:
e|---|
b|---|
g|-7-|
d|-5-|
a|---|
E|---|
Вверх

Travelling Riverside Blues

D|-/12-12-12-12-12-0-0-3-5-3-0-|-----0-----0-----0-----0-------|
B|-/12-12-12-12-12-0-0-3-5-3-0-|---0-----0-----0-----0---------|
G|-/12-12-12-12-12-0-0-3-5-3-0-|-------------------------------|
D|-/12-12-12-12-12-0---3-5-3-0-|-3-----2-----0-----------3p4-0-|
G|-----------------------------|--------------------5----------|
D|-----------------------------|-------------------------------|
Вверх

Travelling Riverside Blues (2 вариант)

  intro/beginning of second, third, fourth, and last verse
G|----------35-3-------------------------35-3--------------|
D|----5--05-----5-03-2-0------02----5-05-----5-033-22-00---|
A|-----------------------3-323---------------------------3-|
E|3332--------------------------3332-----------------------|

G|----------------35-3----------------|
D|----02----5--05-----5-03-2-0------02|
A|-323-------------------------3-323--|
E|------3332--------------------------|

  verse
G|------------------------------------------------------------|
D|----5---5-553-------5-----------5-5-3--5-553------5-------5-|
A|-------5-5---53--------02223-035------5-5---5--------02235--|
E|3-3-------------3-3---------------------------3-3-----------|

 "I know my baby if I see her in.."
G|---------5-553----------------------|
D|-----5--5-5---55-----2-2-33-44-05-5-|
A|-2-22------------2-2----------------|
E|------------------------------------|


G|-----------------------------------7-775-------------------|
D|-5---5-553-------5----------------5-5---75---------------5-|
A|----5-5---5--------02-20344-5-5-5----------03-3--------03--|
E|-----------5-3-3--------------------------------012-023----|

"if I see her in the dark"
G|-----------------------------------|
D|------5-5-0555-53---------------53-|
A|-03-3------------5-0355-5-05-035--5|
E|-----------------------------------|
Вверх

Walters Walk

G|--------------|--------------|---------------|---------------|
D|--------------|--------------|---------------|---------------|
A|--------------|--------------|---------------|-------------7-|
E|--------------|--------------|---------------|---------------|

G|--------------|--------------|---------------|---------------|
D|--------------|--------------|---------------|---------------|
A|-7-7-7-7------|----------7---|-----------7---|-7-7-7-7-7-7-7-|
E|------------0-|------0-0---0-|-------0-0---0-|---------------|

G|--------------|--------------|---------------|---------------|
D|--------------|--------0-----|----------0----|---------0-----|
A|-7--7-7-7-----|--0-1-2-------|----0-1-2------|---0-1-2-----0-|
E|------------3-|------------3-|--3----------3-|-3-------------|

G|--------------|--------------|---------------|---------------|
D|--------------|---------0----|---------0-----|---------0-----|
A|-0------------|---0-1-2------|---0-1-2-------|---0-1-2-----0-|
E|----0-3-0---3-|-3----------3-|-------------3-|---------------|

G|--------------|--------------|---------------|---------------|
D|--------------|---------0----|---------0-----|---------0-----|
A|-0------------|---0-1-2------|---0-1-2-------|---0-1-2-----0-|
E|----0-3-0---3-|-3----------3-|-------------3-|---------------|

G|--------------|--------------|---------------|---------------|
D|--------------|---------0----|---------0-----|---------0-----|
A|-0------------|---0-1-2------|---0-1-2-------|---0-1-2-----0-|
E|----0-3-0---3-|-3----------3-|-------------3-|---------------|

G|----------------||
D|----------------||
A|--0-----------3-||
E|------0-3-0-0---||

G|--------------|--------------|---------------|---------------|
D|--2-4-------2-|4-5-----2-4-5-|-----2-4-2-----|------2-4------|
A|4-----0-3-4---|----3-4-------|-3-4-------3-4-|0-3-4-----0--3-|
E|--------------|--------------|---------------|---------------|

                                2/4 time
G|--------------|--------------|--------||
D|--2-4-5-----2-|4-5-----2-4-2-|--------||
A|4-------3-4---|----3-4-------|3-4-5---||
E|--------------|--------------|------3-||

  4/4 time
G|-------------|-------------|-------------|-------------|
D|---------0---|---------0---|---------0---|-------------|Repeat
A|---0-1-2-----|---0-1-2-----|---0-1-2---0-|-0-----------| twice
E|-3---------3-|-3---------3-|-3-----------|---0-3-0-2-3-|

G|--------------|--------------|--------------|---------------||
D|---------0----|---------0----|---------0----|---------------||
A|---0-1-2------|---0-1-2------|---0-1-2----0-|--0------------||
E|-3----------3-|-3----------3-|-3------------|-----0-0-0-3-0-||

G|--------------|--------------|----------------|--------------|
D|--------------|--------------|----------------|--------------|
A|--------------|--------------|7-7-7-7-7-7-7-7-|-7--7-7-7-7-7-|
E|0-------------|(0)-----------|----------------|--------------|

G|---------------|---------------|----------------|-----------||
D|---------------|---------------|----------------|-----------||
A|7-7-7-7-7-7-7-7|7-7-7-7-7-7-7--|7-7-7-7-7-7-7-7-|-7-7-7-7---||
E|---------------|--------------0|----------------|---------3-||

G|-------------|-------------|-------------|-------------|
D|---------0---|---------0---|---------0---|-------------|Repeat
A|---0-1-2-----|---0-1-2-----|---0-1-2---0-|-0-----------| twice
E|-3---------3-|-3---------3-|-3-----------|---0-3-0-2-3-|

G|--------------|--------------|--------------|---------------||
D|---------0----|---------0----|---------0----|---------------||
A|---0-1-2------|---0-1-2------|---0-1-2----0-|--0------------||
E|-3----------3-|-3----------3-|-3------------|-----0-0-0-3-0-||

G|--------------|--------------|---------------|---------------|
D|--2-4-------2-|4-5-----2-4-5-|-----2-4-2-----|------2-4------|
A|4-----0-3-4---|----3-4-------|-3-4-------3-4-|0-3-4-----0--3-|
E|--------------|--------------|---------------|---------------|

                                    2/4 time
G|----------------|----------------|--------||
D|--2-4-5-------2-|4-5-------2-4-2-|--------||
A|4---------3-4---|------3-4-------|3-4-5---||
E|----------------|----------------|------3-||

  4/4 time
G|-------------|-------------|-------------|-------------|
D|---------0---|---------0---|---------0---|-------------|Repeat
A|---0-1-2-----|---0-1-2-----|---0-1-2---0-|-0-----------| twice
E|-3---------3-|-3---------3-|-3-----------|---0-3-0-2-3-|

G|-------------|-------------|---------------|----------------||
D|---------0---|---------0---|---------0-----|----------------||
A|---0-1-2-----|---0-1-2-----|---0-1-2-----0-|--0---0---------||
E|-3---------3-|-3---------3-|-3-------------|--------0-003-0-||

G|---------------|----------------|----------------|-----------|
D|---------------|----------------|----------------|-----------|
A|7-7-7-7-7-7-7-7|7-7-7-7-7-7-7---|7-7-7-7-7-7-7-7-|-7-7-5-7---|
E|---------------|--------------0-|----------------|---------0-|

G|---------------|----------------|----------------|-----------|
D|---------------|----------------|----------------|-----------|
A|-7-7-7-7-7-7-7-|7-7-7-7---7-7-7-|7-7-7-7-7-7-7-7-|-7-7-7-7-7-|
E|---------------|--------0-------|----------------|-----------|

G|-------------|---------------|---------------|---------------|
D|-------------|---------------|---------------|---------------|
A|7-7-7-7-7-7-7|7-7-7-7-7-7-7-7|7-7-7-7-7-7-7-7|7-7-7-7-7-7-7-7|
E|-------------|---------------|---------------|---------------|

G|---------------|----------------|----------------|-----------|
D|---------------|----------------|----------------|-----------|
A|-7-7-7-7-7-7-7-|7-7-7-7-7-7-7-7-|7-7-7-7-7-7-7-7-|-7-7-7-7---|
E|---------------|----------------|----------------|---------3-|

  Guitar Solo
G|-------------|-------------|-------------|-------------|
D|---------0---|---------0---|---------0---|-------------|Repeat
A|---0-1-2-----|---0-1-2-----|---0-1-2---0-|-0-----------| twice
E|-3---------3-|-3---------3-|-3-----------|---0-3-0-2-3-|

G|-------------|-------------|---------------|----------------||
D|---------0---|---------0---|---------0-----|----------------||
A|---0-1-2-----|---0-1-2-----|---0-1-2-----0-|--0-----------3-||
E|-3---------3-|-3---------3-|-3-------------|------0-3-0-0---||

G|--------------|--------------|---------------|---------------|
D|--2-4-------2-|4-5-----2-4-5-|-----2-4-2-----|------2-4------|
A|4-----0-3-4---|----3-4-------|-3-4-------3-4-|0-3-4-----0--3-|
E|--------------|--------------|---------------|---------------|

                                    2/4 time
G|----------------|----------------|--------||
D|--2-4-5-------2-|4-5-------2-4-2-|--------||
A|4---------3-4---|------3-4-------|3-4-5---||
E|----------------|----------------|------3-||

  4/4 time
G|-------------|-------------|-------------|-------------|
D|---------0---|---------0---|---------0---|-------------|Repeat
A|---0-1-2-----|---0-1-2-----|---0-1-2---0-|-0-----------| twice
E|-3---------3-|-3---------3-|-3-----------|---0-3-0-2-3-|

G|-------------|-------------|-------------|---------------||
D|---------0---|---------0---|---------0---|---------------||
A|---0-1-2-----|---0-1-2-----|---0-1-2---0-|-0-------------||
E|-3---------3-|-3---------3-|-3-----------|-----0-3-0-----||

G|-------------|-------------|-------------|----------------|
D|-------------|-------------|-------------|----------------|
A|-------------|-------------|-----------7-|--7---7-7-7-----|
E|-------------|-------------|-------------|----------------|

G|-------------|-------------|-------------|----------------|
D|-------------|-------------|-------------|----------------|
A|-------------|-------------|-----------7-|--7---7-7-7-7-7-|
E|-------------|-------------|-------------|----------------|

G|---------------|----------------|--------------|-------------|
D|---------------|----------------|--------------|-------------|
A|5-7------------|5-7-------------|5-7-7-5-7-7-7-|-7-7-7-7-7-7-|
E|----0-0-0-0-0-0|----0-0-0-0-0-0-|--------------|-------------|

G|--------------|--------------|---------------|---------------|
D|--------------|--------------|---------------|---------------|
A|---7-7-7-7-7-7|---7-7-7-7-7-7|----7-7-7-7-7-7|7-7-7-7-7-7-7-7|
E|0-0-----------|0-0-----------|0-0------------|---------------|

G|---------------|-------------|---------------|---------------|
D|---------------|-------------|---------------|---------------|
A|7-7-7-7-7-7-7--|--7-7-7-7-7--|7-7-7-7-7-7-7--|---7-7-7-7-5-7-|
E|--------------0|0-----------0|--------------0|-0-------------|

G|-------------|---------------|----------------|--------------|
D|-------------|---------------|----------------|--------------|
A|7-7-7-7-5-7-7|-7-7-7-7-7-7-7-|7-7-7-7-------7-|7-7-7-5-7-7---|
E|-------------|---------------|--------0-0-0---|------------0-|

G|------------|--------------|----------------|----------------|
D|------------|--------------|----------------|----------------|
A|7-7-7-7-7---|------7-7-7-7-|7-7-7-7-7-7-7-7-|--7-7-7-7-7-7-7-|
E|----------0-|-0--0---------|----------------|----------------|

G|---------------|-------------|---------------|---------------|
D|---------------|-------------|---------------|---------------|
A|7-7-7-7-7-7-7--|--7-7-7-7-7-7|7-7-7-7-7-7-7-7|7-7------------|
E|--------------0|0------------|---------------|----5-5-3-5-3--|

G|---------------|-------------|---------------|---------------|
D|---------------|-------------|---------------|---------------|
A|----7-7-7-7-7--|--7-7-7-7-7-7|7-7-7-7-7-7-7--|---7-7-7-7-4-4-|
E|0-0-----------0|0------------|--------------0|-0-------------|

G|---------------|---------------|------------|----------------|
D|---------------|---------------|------------|----------------|
A|------------7-7|7-7-7-7-7-7-7-7|7-7---7---4-|4-2-2-4-4-4-2-2-|
E|0-0-0-0-0-0----|---------------|----0---0---|----------------|

G|---------------|---------------|-------------|---------------|
D|---------------|---------------|-------------|---------------|
A|----7-7-7-7-7-7|7-7-7-7-7-7-7-7|7-7-7-7-7-7-7|7-7-7-7-7-7-7-7|
E|0-0------------|---------------|-------------|---------------|

G|---------------|---------------|-------------|---------------|
D|---------------|---------------|-------------|---------------|
A|7-7-7-7-7-7-7-7|7-7-7-7-7-7-7-7|7-7-7-7-7-7-7|7-7-7-7-7-7-7-7|
E|---------------|---------------|-------------|---------------|

G|----------------|
D|----------------|
A|7-7-7-7-7-7-7-7-|
E|----------------|
Вверх

Wanton Song

verse:
E|------------------    --------   ---------------------------|
B|------------------    --1--2--   ---------------------------|
G|------------------    --1--2--   -----------7---6---5---3---|
D|-----5-5-----5-5--    --1--2--   -------3-------------------|
A|------------------    --------   -3-4-5---5---5---4---3---1-|
E|-3-3-----3-3------    --1--2--   ---------------------------|
play this four times    then this
then this 4X again                  then this

bridge: (this bit`s tough to get sounding good on one guitar
         coz Page double-tracks so much)
E|-----------------------------------------|
B|-1--1--4---3--3--4---4--4-6-8---5--5-6-8-|
G|-1--1------1---------3----------3--------|
D|-3--3------3---------5----------5--------|
A|-----------2---------3----------4--------|
E|-1---------------------------------------|
   Fm        Bb7-9     Cm7        C7-9

E|-------------------------------------------------------|
B|-5-(6)(5)----------------------------------------------|
G|-5-------(7)--5------------------3------3-------5------|
D|-7------------5-(7)(5)-----------3---------------------|
A|-5------------7-------(7)(5)(7)--5--4-5---5-6-7----6-7-|
E|--------------5------------------3---------------------|
   Dm7sus2      Am7                Gm7
repeat this a few times
(I`ve put some notes in brackets that are "representative" ... a
    different thing gets played each time)

that reverse fade roaring guitar ....
E|----|
B|----|
G|-3--|
D|-3--|
A|-1--|
E|----|
   Gm7

Guitar solo over Bb-C-F-Gm, then that reverse fade bit, then
last verse.
Вверх

What Is And What Should Never Be mp3

  A13     E9  and these varied forms
e|-----|--0-------7-------|
B|--7--|--7-------0-------|
G|--6--|--7-------7-----7-|
D|--5--|--6-------6-----6-|
A|-----|----------------7-|
E|-----|------------------|

I suggest to do a little ad-lib with the E9 chord variations
until you find something that works and sounds good to you.

Chorus : (heavy guitar sound with distortion)
notation : h - hammer
           p - pulloff
	   b - bend

e|-----------------------------|----------------2-------|
B|-----------------------------|----------------3--2----|
G|-----------------------------|-------------2--2--2----|
D|-5h7--7-7-7p5---5--5--5------|-4--4---4----2--4--2----|
A|-0----0---------0--0----0--0-|-0--0-0----0-0-----0--0-|
E|-----------------------------|------------------------|

e|-----------------------------|----------------2-------|
B|-----------------------------|----------------3--2--2-|
G|-----------------------------|-------------2--2--2--2-|
D|-7---7---7p5-----5-------5---|-4-4-4-4---2-2-----2--2-|
A|-0---0-0---------0--0-0----0-|-0-0-0-0---0-0-----0--0-|
E|--------------3--------------|----------------------0-|

e|--------------------------|
B|-4-4-4-4------------------|
G|-4-4-4-4----4---4---4---4-|
D|-4-4-4-4----4---4---4---4-|
A|-2-2-2-2--0---0---0---0---|
E|--------------------------|

                                        let ring
e|---------------------0-------------|--------|----|
B|---------------------0---4--2------|--2-----|----|
G|---4---4---4----4----1---4--3------|--2-----|----|
D|---4---4---4----4----2---4--4------|--2-----|----|
A|---------------------2---2--4------|--0-----|--2-|
E|-4---4---4----4------0------2------|------3b|--0-|
                            	         1/2 step
Jimmy plays slide on the solo (I don`t, I`m not the best slide
player, so if you can`t, just slide to the notes rather than
picking each note, it sounds ok especially if you add a little
delay.)

notation : s = slide (e.g. xsy means pick note x and slide from
note x to note y)

e|-----------------------|--------|-------------------|------|
B|-----------------------|--------|------5--7s9--7s9--|--7s2-|
G|--------9--9s13--11s13-|--11s6--|--4-6----7s9--7s9--|--7s2-|
D|-9--11-----------------|--------|-------------------|------|
A|-----------------------|--------|-------------------|------|
E|-----------------------|--------|-------------------|------|

e|-------12---10-12-10---------------|-------------------|
B|-7s12----------------10s12---10s12-|-10s12s14-------12-|
G|-----------------------------------|-------------------|
D|-----------------------------------|-------------------|
A|-----------------------------------|-------------------|
E|-----------------------------------|-------------------|

e|-14s16--10s12------------------|--------|
B|---------------10s12---10-8-10-|--10s14-|
G|-------------------------------|--------|
D|-------------------------------|--------|
A|-------------------------------|--------|
E|-------------------------------|--------|

e|---------------------------------|---------------------------|
B|------14-------14---------14-14--|------14-14-14----14-------|
G|-----------------------14--------|------------------------14-|
D|-7s14----14-14----5s14----------7s14-14----------14----12-14-|
A|---------------------------------|---------------------12----|
E|---------------------------------|---------------------------|

e|---------------------------------|---------------------------|
B|------14-------14---------14-14--|------14-14-14----14-------|
G|-----------------------14--------|------------------------14-|
D|-7s14----14-14----5s14----------7s14-14----------14----12-14-|
A|---------------------------------|---------------------12----|
E|---------------------------------|---------------------------|

e|---------------------------------------|-------------------7-|
B|---------16----16-------------16--16---|------16-16-16--9--7-|
G|------16----16----16-------16----------|---16-----------9----|
D|-9s16-----------------9s16-----------7s|16-------------------|
A|---------------------------------------|---------------------|
E|---------------------------------------|---------------------|

e|----------------|-----------------------------|-------|---|--|
B|14s17-16-14-----|14s12s14-14s12s14-12s14-12s14|12s9s7s|sss|s2|
G|--------------14|-----------------------------|-----7s|sss|s2|
D|-----------14---|-----------------------------|-----7s|sss|s2|
A|----------------|-----------------------------|-------|---|--|
E|----------------|-----------------------------|-------|---|--|

Note that on the solo if you aren`t playing slide just bar the
A on the 14th fret and the B on the 16th fret with your ring
finger.  It allows you to let the notes ring and makes the
fingering very easy.

Sometimes I substitute the following A chord and B chords for
the A on the 14th and the B on the 16th respectivley, but still
play the same notes. Obviously you don`t do this if you play
the solo with a slide.

      A           B
e-----9-----------11-|
B-----10----------12-|
G-----9-----------11-|
D--------------------|
A--------------------|
E--------------------|

Outro :  Distorted, play to the end of the song. After playing
the following
part twice, from the third time on mute the strings in between
the notes
that are played to get that "chuka" effect.

e-----------------|-----------------------|
B------------9-9--|---------------9-9-9-9-|
G------------9-9--|----7---7-7----9-9-9-9-|
D---9-9------9-11-|--7-7---7-9----9-9-9-9-|
A---9-11-----0----|--7-9---0------7-7-7-7-|
E-----------------|---------------0-0-0-0-|

Now putting it altogether:

And if I say to you tomorrow, take my hand child come with me.

It`s to a castle I will take you, Well what`s to be they say
will be.


Chorus:

Catch the wind, see us spin, sail-away leave the day, way up
high in the sky
hey whoa,  But the wind won`t blow, you really shouldn`t go,
it only
goes to show, that you will be mine by taking our time.
Oooh Ho whoa.

And if you say to me tomorrow, oh what fun it all would be.
Then what`s to
stop us pretty baby, but what is and what should never be.

Chorus:

Guitar Solo (with verse rhythym guitar and then into the chorus
guitar part)

So if you wake up with the sunrise, and all your dreams are
still as new,
and happiness is what you need so bad, well girl the answer
lies with you yeah

Chorus:

Outro guitar with ad-lib vocals:

Uh, but a the wind wont blow and we really shouldn`t go, and it
only goes
to show, whoa, whoa whoa.  Got the wind gonna see us spin we`re
gonna
say leave the day.  A do be do ba da `n` do oh.  My my my my my
yeah.
Everybody I know seems to know me well, but they say I`m gonna
move like
hell.  Uh baby, baby, baby, baby, baby, baby....

As always with my tab versions you better listen to the record
to get
the timing straight and the changes.  Feel free to make any
corrections
because if it don`t sound right it probably ain`t.
Вверх

When The Levee Breaks

Half-time drum intro: Guitar 1, 12 sring electric:

E|------------0--0----------3--0--0-------|
B|------------3--3----------3--0--0-------|
G|-3p0--0--0--4--4--3p0--0--3--0--0--5--5-|
D|-3p0--0--0--5--5--3p0--0-----------5--5-|
A|----------------------------------------|
E|----------------------------------------|

Keep on repeating that riff a bunch of times until the slide
part enters:

E|-6/8--8--8--8--8--8/10--10--10--10-----------0--5--3-----0-|
B|-6/8--8--8--8--8--8/10--10--10--10-----------3--5--3-----3-|
G|-6/8--8--8--8--8--8/10--10--10--10--5--3--5--0--5--3--5--0-|
D|-6/8--8--8--8--8--8/10--10--10--10--5--3--5--0--5--3--5--0-|
A|-----------------------------------------------------------|
E|-----------------------------------------------------------|

After the "It`s got what it takes to make a mountain man leave
his home oh well oh well oh well" line, and the slide that is
shown above comes this:

12 string
E|----12--12--7--7--7--5--5--5--7--10--12-|
B|----12--12--7--7--7--5--5--5--7--10--12-|
G|-7--12--12--0--7--7--0--5--5--7--0---0--|
D|-7--12--12--0--7--7--0--5--5--7--0---0--|
A|----------------------------------------|
E|----------------------------------------|

After that another slide guitar enters (six string with regular
tuning [EADGBe], with a bit of fuzz or distortion):

E|-1210------12~--75----7~---------5--7--10--12~~~~-|
B|--------12------------8-----87/5------------------|
G|--------------------------------------------------|
D|--------------------------------------------------|
A|--------------------------------------------------|
E|--------------------------------------------------|
Вверх

White Summer

Tuning:

Tune both E strings down one tone to D
Tune the B string down one tone to A

The introduction....

     *   *   *               *
d-|-12---7---5--------------------------0-----------0----------|
a-|-12---7---5-----------------------------------------------3-|
G-|-12---7---5-----------0-12-----------0-h2-p0-----0-h2-h4----|
D~|-12---7---5--0-h2-h4--------------------------4-------------|
A-|-12---7---5-------------------------------------------------|
D-|-12---7---5-----------------3-b5-~5-------------------------|

d-|-0----------------------------------------------------------|
a-|-----------0-------------------3--------------0-------------|
G-|-4-p2-p0-2-2-0-h2-p0---0-h2-h4----4-p2--0--2--2--2-p0-------|
D~|-----------0---------4------------------------0--------2-p0-|
A-|-----------0----------------------------------0-------------|
D-|-----------0----------------------------------0-------------|

d-|-------------------------------------------4-/5-4-/8-7/1210-|
a-|---------------------2--------------------------------------|
G-|------------------------------------------------------------|
D~|---2--------4--------------2-2-h4-p2-h4-p2-4-/5-4-/8-7/1210-|
A-|-3----3-/5-----5--3--2---0----------------------------------|
D-|-----------------------0------------------------------------|

d-|----0--0--0-------------------------------------------------|
a-|-0--0--------------5-p3-b5-~5-3-b5-r3-b5-5-r3---------------|
G-|-2-----4--5--5--------------------------------2--4-b5-r4-b5-|
D~|-0--------------0-------------------------------------------|
A-|------------------------------------------------------------|
D-|------------------------------------------------------------|

d-|------------------------------------------------------------|
a-|---------------3------------0-------------------3-----------|
G-|-2-p0---0-h2-h3--3-p2-p0-h2-2---------0-0-h2-h4---3-p2-p0-2-|
D~|------4---------------------0-0-h2-h4-----------------------|
A-|----------------------------0-------------------------------|
D-|----------------------------0-------------------------------|

d-|-4-p0-h4-4-p0-h4-4-p0-h4---0-0-0----------------------------|
a-|-0-------0-------0-------0-0------------5-r3-b5-----3-b5-~5-|
G-|-2-------2-------2-------2---4-5--5-------------------------|
D~|-0-------0-------0-------0-----------0----------------------|
A-|-0-------0-------0------------------------------------------|
D-|-0-------0-------0------------------------------------------|

d-|------------------------------------------------------------|
a-|-5-p3-p2-h3-5-p3-p2-h3-5-p3-p2-p3-h5-/7-5--5-p3-p2--3-p2-p0-|
G-|------------------------------------------------------------|
D~|------------------------------------------------------------|
A-|------------------------------------------------------------|
D-|------------------------------------------------------------|

d-|-------------------0-----------0-----------0----------------|
a-|----------------------------------------3-----------------0-|
G-|-4-p2-p0-4---------0-h2-p0-----0-h2-h4-----4-p2-p0--2-----2-|
D~|----------------------------4-----------------------------0-|
A-|----------------------------------------------------------0-|
D-|-----------3-b5-~~----------------------------------------0-|

d-|------------------------------------------------------------|
a-|--------------------------3------------0-----------5--------|
G-|---------0-h2-p0--0-h2-h4---4-p2-p0-h2-2---------0-5--------|
D~|-0-h2-h4-------------------------------0-0-h2-h4---5--------|
A-|---------------------------------------0--------------------|
D-|---------------------------------------0-------------3-h5-~-|

d-|-0-----------0-----------0----------------|
a-|----------------------3-----------------0-|
G-|-0-h2-p0-----0-h2-h4-----4-p2-p0--2-----2-|
D~|----------4-----------------------------0-|
A-|----------------------------------------0-|
D-|----------------------------------------0-|

d-|----------------------------------------------------------0-|
a-|----------------------------------------------------------0-|
G-|-2-p0--------------------------0--------------------------2-|
D~|-------2-p0-----2-------4---5--9h10-p9--7-h9-p7--5-h7-p5--0-|
A-|-------------3-----3-/5---5-5-10--------9--------7--------0-|
D-|------------------------------------------------------------|

The guts...

 (It gets really fast here....

d-|---------0------0------0-----------------------------|
a-|-----------------------------------------------------|
G-|---------0-h2---0-h2---0-2------2-0------------------|
D~|-0-h2-h4------4------4-----0--0-----2-0---2--------4-|
A-|----------------------------------------3---3-3-/5---|
D-|-----------------------------------------------------|

d-|-----------------|
a-|-----------------|  ...  in fact, so fast that I can`t make
G-|-----------------|       the rest of it out.  :-(  )
D~|----------3-/4---|
A-|-5-3-p2-0--------|
D-|---------------0-|
Вверх

Whole Lotta Love

Main Riff:

e|------------------------------------|
B|------------------------------------|
G|----------------9--------9--------9-|
D|----------------9--------9--------9-|
A|-------5----5---7--------7--------7-|
E|-(5)>7----7-------0-0-0----0-0-0----|

Solo:
e|----------12----------------------------------|
B|-10/12-------15--12---------------------------|
G|---------------------15p14p12--14p12--14>(16)-|
D|----------------------------------------------|
A|----------------------------------------------|
E|----------------------------------------------|

         /-3-- /-3--
e|-----------------------------------------------|
B|-----------------------------------------------|
G|-2/4---4p2--0--2p0-0--2p0----------------------|
D|---------------------------2p0--2p0------------|
A|-------------------------------------2---------|
E|---------------------------------------------0-|

e|---------12-10>(12)-12-15-10>(12)-|-12 15>(19)>15-12----15p12|
B|-10>(12)-12-----------------------|------------------14------|
G|----------------------------------|--------------------------|
D|----------------------------------|--------------------------|
A|----------------------------------|--------------------------|
E|----------------------------------|--------------------------|

  /-----3------   /---3---
e|---19>(21)-19-18-17-15----15---|---------------------17-19---|
B|17---------------------17----17|17-19-19>(21)-19>(21)------17|
G|-------------------------------|-----------------------------|
D|-------------------------------|-----------------------------|
A|-------------------------------|-----------------------------|
E|-------------------------------|-----------------------------|
Вверх

Whole Lotta Love (2 вариант)

Intro:

G|----------------------------------|
D|----------------------------------|
A|--7-777-777-777-777-777-777---5--5|
E|-----------------------------7--7-|

Main riff:

G|------------------|
D|------------------|
A|--7-777-777---5--5|
E|-------------7--7-|

Woman, youuu neeed.....

G|----------|
D|----------|
A|-7--------|
E|----5-----|

Fade out:

G|------------------|
D|-----7------------|
A|--5----7-777-777--|
E|-7--7-------------|
Вверх

Yallah

E|-------------------------------------------------------|
B|-------------------------------------------------------|
G|-54--54--4/5--57-------54--54--4/5--57--7/9------------|
D|-54--54--4/5--57--2-2--54--54--4/5--57--7/9--2-2-------|
A|---------------------0-0---------------------------0-0-|
E|-------------------------------------------------------|
Вверх
English songs 109

ABBA
AC-DC
Adams Bryan
Adriano Celentano
Aerosmith
A-Ha
Animals
Antonio Banderos
Apocalyptica
Armstrong Louis
Billy's Band
Bjork
Blink 182
Blondie
Blur
Bob Dylan
Boney M
Bon Jovi
Bowie David
Brainstorm
Braxton Toni
Butch
Celine Dion
Chris De Burgh
Chris Isaak
Chuck Berry
Clapton Eric
Cohen Leonard
Cranberries
Deep Purple
Depeche Mode
Dire Straits
Donovan Jason
Eagles
Electric Light Orchestra
Elton John
Elvis Presley
Era
Europe
Evanescence
Garbage
Gary Moore
Glen Wiston
Gorillaz
Green Day
Guano Apes
Guns N Roses
Hendrix Jimi
Iggy Pop
Iron Maiden
Joe Dassin
Kansas
King Crimson
Kiss
Led Zeppelin
Leonard Cohen
Limp Bizkit
Linkin Park
Louis Amstrong
Madonna
Marilyn Manson
Marley Bob
Metallica
Moby
Morricone Ennio
Muse
Nazareth
Nelly Furtado
Nick Cave
Nirvana
No Doubt
Oasis
Offspring
Ottawan
Outkast
Ozzy Osbourne
Pain
Para Bellum
Pink Floyd
Placebo
P.O.D.
Queen
RadioHead
Rainbow
Rammstein
Rea Chris
Red Hot Chili Peppers
Ritchie Blackmore
Rolling Stones
Roxette
Rufus Wainwright
Santana
Sarah Brightman
Scorpions
Sex Pistols
Simon & Garfunkel
Shocking Blue
Soul Asylumx
Status Quo
Sting
System of a down
Sum 41
The Beatles
The Doors
Tito & Tarantula
U2
UB 40
Uriah Heep
Van Halen

Українські пісні 109

Boom Box
Escape
Flit
Kapela Drewutnia
Lama
LЮK
Mad Heads (XL)
Motor' rolla
NEON
Ot Vinta
The Вйо
Абздольц
Аероплан
Акорд
Ані Лорак
Бандурна розмова
Білик Ірина
Борщ
Брати Гадюкіни
Вася Club
Вій
Воплі Відоплясова
Гайдамаки
Гончар Олесь
Гринжоли
Гроно
Гуляйгород
Дарка і Славко
Дивні
Друга Ріка
Другий подих
Дударик
Експампей
Євтушенко Андрій
Жарівка (Дяк Олесь)
Журбовіз
Зібров Павло
Зінкевич Василь
Злотник Олександр
Івасюк Володимир
Калєкція
Карна
Карпа Ірена
Клямка
Козловський Віталій
Кому вниз
Крихітка Цахес
Курінь
Лесик-Band
Лорд Юрія
Львівські музики
Мандри
Менестрелі
Мері
Мертвий Півень
Міпеніум
Монте Крісто
Морозов Віктор
Нахтіґаль
Не журись!
Неборак Віктор
НеДІля
НЕМО
Нічлава блюз
Океан Ельзи
ПереBANDя
Перкалаба
Петрович
Піккардійська Терція
Піпа Олександр
Плач Єремїі
Пономарьов Олександр
Пророк
Росава
Ротару Софія
Руслана
Рутенія
С.К.А.Й.
САД
Самі свої
Серцевий Напад
Скрябін
Смерічка
Сокира Перука
Соколи
Таліта Кум
Тартак
Тінь сонця
Ткач Михайло
ТНМК
Тостер
Тріо Мареничів
Фарбований лис
Фестиваль Снів
Хвилю тримай
Цісик Квітка
Черемош
Черемшина
Четвертий кут
Чорний вересень
Чорні черешні
Шевченко Тарас
Щастя
Юркеш
Юрченко Юрко
Юрчишин Ярослав
Явір
Яка існуЄ
Яремчук Назарій

   
 sait@i.ua



Рейтинг@Mail.ru