accordS-land.ru Аккорды и табулатуры к гитаре.
Главная | Песенник | Аккорды | Учебник
Руссике песни 180
5nizza
7Б
9-й Район
Animal ДжаZ
Billy's Band
Butch
Para Bellum
TequilaJazzz
Worms
Zdob Si Zdub
Автоматические удовлетворители
Агата Кристи
Агузарова Жанна
Агутин Леонид
Адо
Аквариум
Алиса
Алсу
Амирамов Е.
Антонов Ю.
Арефьева Ольга
Ария
АукцЫон
Барыкин
Башаков Михаил
Башлачев Александр
БекХан
Бернес М.
Би - 2
Бони неМ
Борзов Найк
Боярский Михаил
Браво
Братья Грим
Ва-Банкъ
Вертинский Александр
Визбор Юрий
Високосный год
Воскресенье
Восьмая Марта
Высоцкий В.С.
Високосный год
Газманов О.
Галич Александр
Герман А.
Городницкий Александр
Глызин А.
Градский Александр
Гражданская Оборона
Гребещенков
Данко
ДДТ
Дидюля
Диоды
Дискотека Авария
Дягилева Янка
Ёлка
Жуки
Заблудовский Андрей
Запрещенные Барабанщики
Звери
Земляне
Земфира
Зинчук Виктор
Зоопарк
Иван Кайф
Иванов А.
Иваси
ИЗ КИНО И МУЛЬТФИЛЬМОВ
Империя
Калинов мост
Кашин Павел
Кельми К.
КИНО
Кипелов
Конец Фильма
Контингент
Корни
Король и Шут
Коррозия металла
Крематорий
Крупнов Анатолий
Кузьмин Владимир
Куликов Е.
Кукрыниксы
Курехин Сергей
Лаэртский Александр
Ласковый май
Ленинград
Леонидов Максим
Лесоповал
Лещенко Л.
Линда
Лицей
Лоза Юрий
Любэ
Люмен
Ляпис Трубецкой
Мальчишник
Манго-манго
Мара
Маркин В.
Маршал Александр
Маша и медведи
Машина времени
Мечтать
Мистер Кредо
Митяев Олег
Многоточье
Монгол Шуудан
Моральный Кодекс
Мультfильмы
Мумий Тролль
Настя
Науменко Майк
Наутилус Помпилиус
Непара
Неприкасаемые
Несчастный случай
Никоваев И.
Никольский Константин
Ногу свело
Ноль
Носков Николай
Ночные Снайперы
Окуджава Булат
Оркрист
Осин Е.
Оскар
Отиева И.
Паперный Т.А.М.
Парк Горького (Gorky Park)
Пикник
Пилот
Пламя
Полковник и однополчане
Пугачева А.
ПЭХ
Приключения Электроников
Просто прикольные песни
Рада и Терновник
Римский-Корсаков
Розенбаум Александр
Рок-Острова
Рондо
Сансара
Саруханов
Сегодня Ночью
Секрет
Сектор газа
Сенчина Л.
СерьГа
Смысловые Галлюцинации
Сплин
Солодуха А.
Старые блатные песни
Сукачев Гарик
Сурганова и Оркестр
Сюткин Валерий
Тальков Игорь
Танцы минус
Тараканы
Тату
Технология
УмаТурман
Умка и Броневичок
Ундервудъ
Фабрика звезд
Х.З. (Хуй Забей)
Центр
ЧайФ
Черный кофе
Черный Лукич
Чиж и Ко
Чистяков Федор
Шанхай
Щербаков Михаил
Ю-Питер

Классика 22

Албениз Исаак
Албениз Матео
Бах Иоган Себостьян
Бетховен Людвиг ван
Бизе Жорж
Брамс Иоганнес
Вивальди Антонио
Гендель Георг Фридрих
Гершвин Джордж
Григ Эдвард
Дебюсси Клод
Камиль Сен-Санс
Мендельсон
Моцарт Вольфгант Амадей
Мусоргский Модест Пертрович
Норис Крис
Огинский Михал Клеофас
Паганини Никколо
Рахманинов Сергей Васильевич
Римский-Корсаков
Чайковский Пётр Ильич
Шуберт Франц
 

 

Limp Bizkit

9 Teen 90 Nin
1999
A Lesson Learned
Behind Blue Eyes
Boiler
Break Stuff
Counterfeit
Dont Go Off Wandering
Eat You Alive
Faith
Finger
Full Nelson
Hate Me (Mission Impossible II theme song)
Hold On
Hold On 2 вариант
Hot Dog
Im Broke
Itll Be OK
Just Like This
Leech
Livin It Up
My Generation
My Way
My Way (2 вариант)
No Sex
No Sex (2 вариант)
Nookie
Pollution
Re-Arranged
Stalemate
Stuck
Take A Look Around
Take A Look Around (2 вариант)
The One
Вверх

9 Teen 90 Nin

Limp Bizkit 
"9 Teen 90 Nine" 
Significant Other 
Transcribed by: Justin Madkins (jusmad@adelphia.net)

Intro (0:00) 
C#------------------------------------------------------------- 
G#------------------------------------------------------------- 
E-------------------------------------------------------------- 
B-------------------------------------------------------------- 
F#------------------------------------------------------------- 
C#----0-0-0-0-0-0--0--0-0--0-0-----0-0-0-0-0-0--0--0-0--0-0---- 
      * Hit the notes with your thumb 

Chorus (0:10) 
C#-----------------------------------|------------------------- 
G#-----------------------------------|------------------------- 
E------------------------------------|------------------------- 
B------------------------------------|-------------------3b---- 
F#-------------------------------1---|-------------------3b---- 
C#---0--0---3-2-1-0---0--0---3-2-----|---0--0--3-2-0-1---1b---- 

Verse (0:30)(Clean w/ Delay) 
C#------------------------------------------------------------- 
G#------------------------------------------------------------- 
E---------8------------------------6--------------------------- 
B---------7------------------------7--------------------------- 
F#------------------------------------------------------------- 
C#------------------------------------------------------------- 

Interlude (2:20) 
C#------------------------------------------------------------- 
G#------------------------------------------------------------- 
E-------------------------------------------------------------- 
B------2--2--2------------------------------------------------- 
F#-----2--2--2------------------------------------------------- 
C#-----0--0--0------------------------------------------------- 

Bridge (3:07) 
C#------------------------------------------------------------- 
G#------------------------------------------------------------- 
E------9--9--9--9-10-10--9------------------------------------- 
B------6--6--6--6--7--7--6------------------------------------- 
F#-----7--7--7--7--8--8--7----------8-----------8-------------- 
C#-----0--0--0--0--0--0--0----0--0--6-----0--0--6-------------- 
P.M.                          ----        ---- 

Bridge 2 (3:16) 
C#------------------------------------------------------------- 
G#------------------------------------------------------------- 
E-------------------------------------------------------------- 
B---------2--------3--------2-----------2--2------2---2---2---- 
F#--------2--------3--------2-----------2--2------2---2---2---- 
C#-----0--0-----1--1-----0--0-----------0--0------0---0-------- 
Вверх

1999

 Intro:

   d#|------------------------------|
   A#|------------------------------|
   F#|------------------------------| 
   C#|------------------------------| X 3
   G#|------------------------------|
   C#|-0-0-0-0-0-0----0---0-0--0-0--|

   d#|-------------------------------------|
   A#|-------------------------------------|
   F#|-------------------------------------| 
   C#|-0-0---3-2-1---0---0-0----3-2-6------| X 6
   G#|-0-0---3-2-1---0---0-0----3-2-6------|
   C#|-0-0---3-2-1---0---0-0----3-2-6------|
   \
   d#|----------------| /
   A#|----------------| /
   F#|----------------| Play this /
   C#|-0-0---3-2-1--1-| Every 3rd / 
   G#|-0-0---3-2-1--1-| Time /
   C#|-0-0---3-2-1--1-| /
   \__________/ 


   Fame your claiming is... But this Stage i'm....
   [fig. 1]
   d#|-----------------------------------------|
   A#|-----------------------------------------|
   F#|-----------------------------------------| 
   C#|--11----------------------------------9--| 
   G#|-----------------------------------------| \
   D#|--11----------------------------------9--| \
   / / 
   Wrong chords if u know em' e-mail me please!_/ 


   ...let's make something out of it.. 
   [fig. 2]
   d#|-------------------------------------|
   A#|-------------------------------------|
   F#|-------------------------------------| 
   C#|-0-0---3-2-1---0---0-0----3-2-6------| X 6
   G#|-0-0---3-2-1---0---0-0----3-2-6------|
   C#|-0-0---3-2-1---0---0-0----3-2-6------|
   \
   bring it on... \
   \
   d#|----------------| /
   A#|----------------| /
   F#|----------------| Play this /
   C#|-0-0---3-2-1--1-| Every 3rd / 
   G#|-0-0---3-2-1--1-| Time /
   C#|-0-0---3-2-1--1-| /
   \__________/ 




   .... i've seen good things wasted...
   [fig. 3]
   d#|-------------|
   A#|-------------| 
   F#|-------------| It's Kinda Hard To know 
   G#|-------------| when it'scoming but
   C#|---0---0-0---| listen for John hitting 
   G#|---0---0-0---| the hi-hat once then 
   C#|---0---0-0---| u come in, understand? 


   Bring it on, Bring it on...
   [fig. 4]
   d#|-------------------------------|
   A#|-------------------------------| 
   F#|-------------------------------| The rhythm
   C#|--0----0-0--0-0---6-6-x-x--6---| is hard 
   G#|--0----0-0--0-0---6-6-x-x--6---| to write but 
   C#|--0----0-0--0-0---6-6-x-x--6---| you'll get it just mess 
   around
   with it!



   you gotta be down with the g shock
   [fig. 5]
   d#|------------------------------------|
   A#|------------------------------------|
   F#|------------------------------------| 
   C#|-0-0-1-1-0-0----0-0----0---0---0-0--| 
   G#|-0-0-1-1-0-0----0-0----0---0---0-0--| 
   C#|-0-0-1-1-0-0----0-0----0---0---0-0--| 



   Now this is how you put it all toghether, 
   if you want the lyrics go to 
   http://www.limp-bizkit.com.

   Theres only 5 riffs in this song, and u 
   should know when they come in if you 
   listen to it enough!

   [Intro ]
   [Fig. 1]
   [fig. 2] 
   [fig. 1] 
   [fig. 2]
   [fig. 3]
   [fig. 4]
   [fig. 5] X2
   [fig. 4]
   [fig. 5] X2
Вверх

A Lesson Learned

C#|--------------------------------------------------|
G#|--------------------------------------------------|
E-|-----4--------------------------4-----------------|
B-|-6-------4----3---------6---------------4-------3-|
F#|--------------------------------------------------|
C#|--------------------------------------------------|
Вверх

Behind Blue Eyes

Куплет играют перебором:
           
1 I---------x---------I
2 I-------x---x-------I
3 I-----x-------x-----I
4 I---x-----------x---I
5 I-------------------I
6 I-x-----------------I
Аккорды D и С нужно играть с бассом на пятой струне, вместо шестой. Аккорд А - боем.

Припев играется боем.

Em			      G
No one knows what it's like 
	     D
To be the bad man 
	     C
To be the sad man 
   A
Behind blue eyes 

And no one knows what it's like 
To be hated 
To be faded 
To telling only lies 

Припев:
	  C D
 But my dre-eams
          	    G
They aren't as empty 
	  C   	 D	     E
 As my conscience seems to be 

	  Bm	        C
I have hours, only lonely 
	      D
My love is vengeance 
		    A
That's never free 

No one knows what it's like 
To feel these feelings 
Like I do 
And I blame you 

No one bites back as hard 
On their anger 
None of my pain woe 
Can show through 

But my dreams 
They aren't as empty 
As my conscience seems to be 

I have hours, only lonely 
My love is vengeance 
That's never free 

Discover... L-I-M-P , say it (x4) 

No one knows what it's like 
To be mistreated 
To be defeated 
behind blue eyes 

No one knows how to say that they're sorry 
And don't worry 
I'm not telling lies 

But my dreams 
They aren't as empty 
As my conscience seems to be 

I have hours, only lonely 
My love is vengeance 
That's never free 

No one knows what it's like 
To be the bad man 
To be the sad man 
Behind blue eyes

P.S. Изначально эту песню исполнила группа The Who еще в 1976 году :)
Вверх

Boiler

   D D Am# Cm
E|-5-5-6---3-|
B|-5-5-6---3-|
G|-7-7-6---5-|
D|-7-7-8---5-|
A|-5-5-8---3-|
E|-5-5-6---3-|

играется весьма своебразно
играете каждый аккорд - потом приглушаете и опять долбите этот
же аккорд и так все аккорды

песню послушайте - поймете

Looks like i?m gonna do everything myself
Maybe I could use some help
But hell, you want something done right
You gotta do it yourself
Maybe life is up and down but
My life?s been (what?) till now
I crawled up your butt somehow
And that?s when things got turned around
I used to be alive
Now I feel pathetic and now I get it
What?s done is done you just leave it alone and don?t regret it
But sometimes, some things turn into dumb things
And that?s when you put your foot down.

Why did I have to go and meet somebody like you (like you)
Why did you have to go and hurt somebody like me (like me)
How you could do somebody like that? (like that)
Hope you know that i?m never coming back (never coming back)

Looks like i?m gonna do everything myself (everything myself)
Maybe I could use some help
But hell, if you want something done right
You just do it yourself (got it?)
Maybe life is up and down but
My life?s been (what?) till now (got it)
I crawled up your butt somehow (got it)
And that?s when shit got turned around (got it)
I used to be alive
I?m so pathetic but now I get it
What?s done is done I know you just leave it alone
and don?t regret it
But sometimes some things turn into dumb things
And that?s when you put your foot down.

Why did I have to go and meet somebody like you?
Why did you have to go and hurt somebody like me?
How you could do somebody like that?
Hope you know that i?m never comin? back

Why did I have to go and meet somebody like you?
Why did you have to go and hurt somebody like me?
How you could do somebody like that?
Hope you know that i?m never comin? back

Depending on you is done
Giving to you is done
No more eating no sleeping
No living it?s all just more giving to you and i?m done

Depending on you is done
Giving to you is done
No more reaching no sleeping
No living it?s all just more giving to you and i?m done

The hiding from you is done
The lying from you is done
No more eating no more sleeping
No living it?s all just more giving to you and i?m done

Why did I have to go and meet somebody like you?
Why did you have to go and hurt somebody like me?
How you could do somebody like that?
I hope you know that i?m never coming back

Why did I have to go and meet somebody like you?
Why did you have to go and hurt somebody like me?
How you could do somebody like that?
I hope you know that i?m never coming back

Why?
Why?
Why?
Вверх

Break Stuff

Intro,Verse : Play 10x
pm - palm muted (глушение)
 It?s just one of those days...
E|------|
B|------|
G|------|
D|-2--8-|
A|-2--8-|
E|-0--6-|
     pm

Note 1 : Глушите не сам удар,а просто не давайте ему долго
         звучать. Трудно объяснить. Послушайте песню и все
         станет понятно.

Chorus : Play 7x

  It?s all about the he said she said...
E|-------------------|
B|-------------------|
G|-------------------|
D|-4------4----4-----|
A|-4------4----4-0-0-|
E|-2--0---2----2-0-0-|
     pm      \_____/
               pm
End-Chorus : Play 1x

E|------|
B|------|
G|------|
D|-2--8-|
A|-2--8-|
E|-0--6-|

Note 2 : В припеве не обязательно строго следовать схеме,но
         вообще я описал все точно, там просто Вес глушит
         особенно. Повторяю,послушайте песню и все станет ясно.

Далее следует Verse - 8x и Chorus - 8x

Bridge 1 : Play 63x или что-то около того,короче очень много.
  I feel like shit...
E|-----|
B|-----| (Здесь самое важное понять ритм,но он простой,
G|-----| поэтому никаких солжностей не должно
D|-----| возникнуть.)
A|-2---|
E|---1-|

Bridge 2 : 40x
  Give me some to break...
E|----------------|
B|----------------|
G|-5--------------|
D|-5-4--4-4-4-4-4-|
A|-3-4--4-4-4-4-4-|
E|---2--2-2-2-2-2-|

Далее End-Chorus - 1x и Chorus - 7x

  Bass :

Verse : Play 8x
  It?s just one of those days...
G|-----|  (Бас начинает играть с третьего раза,тоесть
D|-----|          в Intro его нет.)
A|-----|
E|---3-|
B|-2---|

Chorus : Play 7x
  It?s all about the he said she said...
G|-----------|
D|-----------|
A|-----------|
E|-----------|
B|-3--3--3-0-|
          pm

Bridge 1 Play 25x            Bridge 2 Play : 38x
  I feel kike shit...         I?ll pack a chainsow...
G|--------------------|     G----------------|
D|--------------------|     D----------------|
A|--------------------|     A----------------|
E|-3------------------|     E-3--------------|
B|---2----------------|     B---2--2-2-2-2-2-|

Далее Chorus - 7x

It?s just one of those days
When ya don?t wanna wake up
Everything is fucked, everybody sucks.
You don?t really know why
But you wanna justify rippin? someone?s head off
No human contact
And if you interact your life is on contract
Your best bet is to stay away mother fucker!
It?s just one of those days!

It?s all about the he said she said bullshit
I think you better quit lettin? shit slip
Or you?ll be leavin with a fat lip
It?s all about the he said she said bullshit
I think you better quit talkin? that shit

It?s just one of those days
Feelin? like a freight train
First one to complain
Leaves with a blood stain
Damn right I?m a maniac
You better watch your back
Cuz I?m fuckin? up your program
And if you?re stuck up
You just lucked up
Next in line to get fucked up
Your best bet is to stay away motherfucker!
It?s just one of those days!

It?s all about the he said she said bullshit.
I think you better quit lettin shit slip
Or you?ll be leavin with a fat lip
It?s all about the he said she said bullshit
I think you better quit talkin that shit, punk
So come and get it

I feel like shit
My suggestion is to keep your distance
Cuz right now I?m dangerous
We?ve all felt like shit
And been treated like shit
All those motherfuckers, they want to step up
I hope ya know
I pack a chainsaw
I?ll skin your ass raw
And if my day keeps going this way
I just might break something tonight
Give me something to break

I pack a chainsaw
I?ll skin your ass raw
And if my day keeps going this way
I just might break your fuckin? face tonite

Give me something to break
Just give me something to break
How ?bout your fuckin? face?

I hope you know I pack a chainsaw, what?
I hope you know I pack a chainsaw, a mutherfuckin?
chainsaw, what?
Some and get it

It?s all about the he said she said bullshit.
I think you better quit lettin shit slip
Or you?ll be leavin with a fat lip
It?s all about the he said she said bullshit
I think you better quit talkin that shit
So come and get it
Вверх

Counterfeit

Main Riff:
----------------------------------------------------
----------------------------------------------------
----------------------------------------------------
----------------------------------------------------
----------------------------------------------------
---14-13-0-0----14-13-0-14---13-0-0----14-13-0------

Verse:
---------------------------------
---------------------------------
---------------------------------
--4-3------4-3---4--3-----4-3----
--4-3------4-3---4--3-----4-3----
--2-1-0-0--2-1-0-2--1-0-0-2-1-0--

Chorus:
------------------------------------------------
------------------------------------------------
------------------------------------------------
-1-------1-------1--------1/2-3\2---------------
-1-------1-------1--------1/2-3\2---------------
-0--x-x--0--x-x--0--x-x-------------------------

Live Chorus Riff:
-------------------------------
-------------------------------
-------------------------------
--13-13-13-------13/14--15\14--
--13-13-13-------13/14--15\14--
---0--0--0---------------------
Вверх

Dont Go Off Wandering

Try, to tune to the album, and then use a guitar
tuner.  It should say you runed to a C#,
if not just drop D tune.
( If not tuned properly, it might come out hacked.
It?s tuned drop D tuning from
standard tuning.  If you can you might wanna tune to
the album.)

*-" scary Fx intro this "


-(0:13)-
*-Intro Riff.
""
e||-----------------------------||
b||-----------------------------||
g||-----------------------------||
d||---666-------666-------------||
a||---444-------444-------------||
c||-------00000-----00000-------||


*-Play play this piece as is into the verse riff.


-(0:21)-
*-verse Riff.
"Everyday is nothing but stress to me.."
*- Play lightly flangered in the back ground.
e||----------------------------------------||
b||----------------------------------------||
g||--------------6---66--4-4-4-6-67-7------||
d||----6---6-6h7---7-----------------------||
a||--4---4---------------------------------||
c||----------------------------------------||

Play this riff thru to the chorus as needed.


-(0:52)-
*-Chorus Riff
"Because you, dont feel nothing at all."
e||----------------------------------------||
b||----------------------------------------||
g||----------------------------------------||
d||----666666--222222-666666--222222-------||
a||----444444--000000-444444--000000-------||
c||----------------------------------------||

*- Play this as is into the verse again..

-----------------------------------
-(1:07)-
*-Verse Riff

"There?s much more to life then it seems."

*-Play this again into this new bridge piece..
---------------------------

-(1:23)-
*-Bridge Riff
"Would you think any less of me now, that im gone.,,"
e||----------------4------------------||
b||-------6---------------------------||
g||-----------------------------------||
d||------------2----------------------||
a||----4------------------------------||
c||-----------------------------------||

*-Play this as needed until..

-----------------------------

-(1:39)-
*-chorus riff
"You don?t feel nothing at all."

*-Goes into this thingy..

---------------------

-(2:04)-
*-Thingy Riff
"You, me , nothing now?"
e||---------------------------------||
b||---------------------------------||
g||---------------------------------||
d||------6--5-----------------------||
a||---4--------3--4-----------------||
c||---------------------------------||

*-Play this into the intro riff, then the chorus riff,
and end it with the intro riff..
Вверх

Eat You Alive mp3

Tuning:  Db Ab Db Gb Bb Eb

intro
---------------------------------------------------------|
---------------------------------------------------------|
---------------------------------------------------------|
--0-2-2-2-3-0-3--0-2-2-2-3-0-3--0-2-2-2-3-0-3--0-2-2-2-3-|
--0-2-2-2-3-0-3--0-2-2-2-3-0-3--0-2-2-2-3-0-3--0-2-2-2-3-|
--0-2-2-2--------0-2-2-2--------0-2-2-2--------0-2-2-2---|

chorus
heavy distortion
-------------------------------------------------------------|
-------------------------------------------------------------|
-------------------------------------------------------------|
--0-2-2-2-3-0-3--0-2-2-2-3-0-3--0-2-2-2-3-0-3--0-2-2-2-3-0-3-|
--0-2-2-2-3-0-3--0-2-2-2-3-0-3--0-2-2-2-3-0-3--0-2-2-2-3-0-3-|
--0-2-2-2-3-0-3--0-2-2-2-3-0-3--0-2-2-2-3-0-3--0-2-2-2-3-0-3-|

verse
pm- - - - - - -  - - - -        - - - - - - -  - - - -
-------------------------------------------------------|
-------------------------------------------------------|
-------------------------------------------------------|
--0-2-2-2-3-0-2--0-2-2-2--------0-2-2-2-3-0-2--0-2-2-2-|
--0-2-2-2-3-0-2--0-2-2-2--------0-2-2-2-3-0-2--0-2-2-2-|
--0-2-2-2-3-0-2--0-2-2-2--------0-2-2-2-3-0-2--0-2-2-2-|

pre chorus
         /b/              /b/              /b/               /b/
--------------------------------------------------------------------|
--------------------------------------------------------------------|
--9-9-9-9-9^-9-9---9-9-9-9-9^-9-9---9-9-9-9-9^-9-9---9-9-9-9-9^-9-9-|
--x-x-x-x-x--x-x---x-x-x-x-x--x-x---x-x-x-x-x--x-x---x-x-x-x-x--x-x-|
--7-7-7-7-7^-7-7---7-7-7-7-7^-7-7---7-7-7-7-7^-7-7---7-7-7-7-7^-7-7-|
--------------------------------------------------------------------|

chorus

verse

prechorus

chorus

chorus 2
----------------------------------------------------|
----------------------------------------------------|
--------------------9-9-9---------------------------|
--5-5-5-5-5-5-7-7-7-x-x-x---------------------------|
--3-3-3-3-3-3-5-5-5-7-7-7---2-2-2-2-2-2-2-2-2-2-2-2-|
----------------------------2-2-2-2-2-2-2-2-2-2-2-2-|

chorus 2 end
-------------------------------------|
-------------------------------------|
--------------------9-9-9------------|
--5-5-5-5-5-5-7-7-7-x-x-x------------|
--3-3-3-3-3-3-5-5-5-7-7-7---2~~~~~~~-|
----------------------------2~~~~~~~-|

bass interlude

interlude
clean w/chorus
-----------------------------------------------------------|
--------13------------13-----------13------------13--------|
-----12----12------12-----------12----12------12-----------|
--10-------------------------------------------------10-12-|
---------------13-----------12------------13---------------|
-----------------------------------------------------------|

interlude
phaser & distortion
---------------------------------------------------------------------|
--------13----------------13--------------13----------------13-------|
-----12----------------12--------------12----------------12----------|
--10-------10-10h12-10--------10-12-10-------10-10h12-10-------10-12-|
---------------------------------------------------------------------|
---------------------------------------------------------------------|

chorus 2
----------------------------------------------------|
----------------------------------------------------|
--------------------9-9-9---------------------------|
--5-5-5-5-5-5-7-7-7-x-x-x---------------------------|
--3-3-3-3-3-3-5-5-5-7-7-7---2-2-2-2-2-2-2-2-2-2-2-2-|
----------------------------2-2-2-2-2-2-2-2-2-2-2-2-|

fill 1
--------------------------|
--------------------------|
--------------------9-9-9-|
--5-5-5-5-5-5-7-7-7-x-x-x-|
--3-3-3-3-3-3-5-5-5-7-7-7-|
--------------------------|

fill 2
---------------------------|
---------------------------|
---------------------------|
--0-2-2-2-3-0-3--0-2-2-2-3-|
--0-2-2-2-3-0-3--0-2-2-2-3-|
--0-2-2-2--------0-2-2-2---|

chorus

end
----------------------------------|
----------------------------------|
----------------------------------|
--0-2-2-2-3-0-3--0-2-2-2-3-0-3--2-|
--0-2-2-2-3-0-3--0-2-2-2-3-0-3--2-|
--0-2-2-2-3-0-3--0-2-2-2-3-0-3--2-|

lyrics

Hey you!
Mrs I dont know wot the *** ya name is
Im drawn to you
Somethings magnetic here
If I could aproach you
Or even get close to the scent that you left behind I?d be fine

No doubt that (no doubt)
You bring out (bring out)
The animal inside

I?d eat you alive!!
(I?d eat you aive)

I?d eat you alive!!
(I?d eat you aive)

Hey you!
Mrs too good to look my way
And thats cool you want nothin? at all to do with me
But I want you, ain?t nothin? wrong with wantin? you
Cause Im a man and I can think wot the hell I want
You got that straight!

No doubt that (no doubt)
I?d love to (I?d love)
Sniff on them
Panties now!

I?d eat you alive!!
(I?d eat you aive)

I?d eat you alive!!
(I?d eat you aive)

I?m sorry
So sorry (damn your so hott!!)
Your beauty is so vein! (damn your so hott!)
It drives me
Yes its drives (damn your so hott!)
Asolutley insane

I just wanna look at you
I just wanna look at you
Look at you all day
I just wanna look at you
I just wanna look at you all day
There ain?t nothin? wrong
no!
There ain?t nothin? wrong with that

Once you seep in (once you seep in)
under my skin (under my skin)
And there?s nothing (nothing)
And there?s nothing (nothing)
In this world that could wash you away (wash you away)

I?m sorry
So sorry (damn your so hott!!)
Your beauty is so vein! (damn your so hott!)
It drives me
Yes its drives (damn your so hott!)
Absolutley insane

I?d eat you alive!!
(I?d eat you aive)

I?d eat you alive!!
(I?d eat you aive)

I?d eat you alive!!

thats all!
Shoutouts to MuNkY & mcud wot up moites!
Вверх

Faith mp3

Intro:

 H(VII) (идёт такой проигрыш, не могу описать его, надо слушать)

Verse:


                           H(VII)
Well, I guess it would be nice,
            H(VII)
If I could touch your body,
                 A(V)
I know not everybody,
                    H(VII)
Has got a body like me,
But I gotta think twice,
Before I give my heart away,
And I know all the games you play,
Cause I play them too,

Prechorus:

e|-----------------------------------------------------------|
B|---------------------------------------------5-------------|
G|-----8-------6-------7-------4------6----------------4---3-|
D|-------9-------7-------8-------5------7--------6-------5---|
A|---9-------7-------8-------5------7--------6-------5-------|
E|-7-------5-------6-------3-------5-------4-------3---------|

E|----------|
B|---------5|
G|-3h4p3-4--|
D|----------|
A|----------|
E|----------|

Oh, but I need some time off from that emotion,
Time to pick my heart up off the floor,
When that love comes down without devotion,
Well it takes a strong man, baby, but I'm showing you that door


Chorus:

e|--------------------------|
B|--------------------------|
G|--------------------------|   x4
D|-9-9--9-9--9-9--9-9-------|
A|-9-9--9-9--9-9--9-9-------|
E|-7-7--7-7--7-7--7-7--7h9p7|

I gotta have faith

Verse:

Baby, I know you're asking me to stay,
Saying please please please don't go away,
Cause you're giving me the blues,
Baby, you remind me of the words you say,
Can't help but think of yesterday,
And I know you would tie me down to the loverboy blues,

Pre-Chorus:

Before this river becomes an ocean,
Before you pick my heart up off the floor,
When that love comes down without devotion,
Well, it takes a strong man baby but I'm showing you that door

Chorus:

I gotta have faith

N.C.
Get the fuck up!

Chorus:

I gotta have faith!
Вверх

Finger

VERSE
d#|-8-8-8-8-x--1-1-1-1-x-|
a#|-6-6-6-6-x--2-2-2-2-x-|
F#|-5-5-5-5-x--3-3-3-3---|
 im not sure if this is right but its close enuff 
 for me. if it isnt for you then a pox upon you and
 your firstborn. use a chorus pedal to soften it.

CHORUS
C#|-4h5-5-5-5-5-5--0-00-|
G#|-4h5-5-5-5-5-5--0-00-|
C#|-4h5-5-5-5-5-5--0-00-|

AND WE WONT STOP
F#|-----8-------|
C#|-------8-----|
G#|--6----------|
C#|-------------|

BRIDGE
G#|-9-3-4-5-4-3--9-3-4-5-4-|
C#|-9-3-4-5-4-3--9-3-4-5-4-|
Вверх

Full Nelson

INTRO 
C#|-------------------- 
G#|------------------ 
E |------------------ 
B |---8--7---8--7----- 
F |------------------- 
C#|------------------- 

chorus 
----------------------------|| 
----------------------------|| 
----------------------------|| 
---------------HARMONICS----|| 
-something----3--4--4--4----|| 
----------------------------|| 
              HARMONICS 

"burn this mopther fucker" 
-------------------|| 
-------------------|| 
--3-3-3-3---2-2----|| 
--3-3-3-3---2-2----|| 
--1-1-1-1---0-0----|| 
-------------------|| 
Вверх

Hate Me (Mission Impossible II theme song)

INTRO:

e|------------------------------------------|
B|------------------------------------------|
G|------------------------------------------| Repeat 8X
D|----------------4--6p4--------------------|
A|-6--6--6--6-6-----------6--6--6--6-6--4-5-|
E|------------------------------------------|

VERSE:

e|---14p11---14p11---14p11---14p11-------------------|
B|---------11----------------------12-12-12-11-11-11-|
G|-----------------14------13------------------------| Repeat 2X
D|---------------------------------------------------|
A|---------------------------------------------------|
E|-(0:39)--------------------------------------------|

Riff 1:

e|----------------------------------------------|
B|----------------------------------------------|
G|----------------------------------------------| Repeat 4X
D|--------------------4-6-----------------------|
A|---4h6-4h6-4h6-4h6-------4h6-4h6-4h6-4h6--4-5-|
E|-(1:26)---------------------------------------|

CHORUS:

e|-------------------------------------------------|
B|-----------------------7-9-----------------------|
G|---6/8--6/8--6/8--6/8--6-8-6/8--6/8--6/8-6/8-6-7-| Repeat 2X
D|---6/8--6/8--6/8--6/8--4-6-6/8--6/8--6/8-6/8-6-7-|
A|---4/6--4/6--4/6--4/6------4/6--4/8--4/6-4/6-4-5-|
E|-(1:46)------------------------------------------|

e|--------------------------------------------------|
B|------------------------7-9-----------------------|
G|-----8----8----8----8---6-8----8---8---8----8-6-7-| Repeat 2X
D|-----8----8----8----8---4-6----8---8---8----8-6-7-|
A|---X-6--X-6--X-6--X-6--------X-6-X-6-X-6--X-6-4-5-|
E|-(1:55)-------------------------------------------|

e|--------------------------|
B|----------7-9-------------|
G|----8-8---6-8---8-8---6-7-| Repeat 2X
D|----8-8---4-6---8-8---6-7-|
A|----6-6---------6-6---4-5-|
E|-(3:30)-------------------|

Riff 2:

e|---------------------------|            e|-------------------|
B|---------------------------|            B|-------------------|
G|---------------------------| Repeat 7X  G|-------------------|
D|------------4-6------------|            D|----------4-6------|
A|----6--6-6------6--6-6-4-5-|            A|----6--6-------6~~-|
E|-(3:49)--------------------|            E|-(4:11)------------|
      Now...  I... Know... Why...

[Repeat second verse 4X]
[Ending same as intro,repeat 4X]
Вверх

Hold On

e|---------------------|
B|---------------------|
G|---------------------|
D|---6---6---6---6-4-6-|
A|---------4---2-------|
E|-4---2---------------|


[Scott Weiland]
You keep your distance,
I can't deny you.
I got the feeling, can't satisfy you.
I got your picture on the wall.
I got the picture while I'm gone.
You keep your wishes, (keep you wishes)
I'll keep my feelings.
There goes along the one that kept me breathing.
[Duet] I'm waiting for you,
I know your leaving.
[Duet] I still adore you.
You never need me.
[chorus start]
[Duet]
Hold on.
I've found another way to let you go, away.
Hold on.
You've find another way to play my soul, away.
[chorus end]
[Fred Durst]
The things you told me,
To hear you speak.
I'm burning slowly,
I'm growing weak.
You bring me close to, yes, the day,
Yes the day's a million miles away.
Why can't you hear me?
Why can't I see you?
And I don't understand what keeps me breathing.
I'm waiting for you.
I know you're leaving,
I'll still adore you,
You never need me.
[chorus start]
[Duet]
Hold on.
I've found another way to let you go, away.
Hold on.
You've find another way to play my soul, away.
[chorus end]
[chorus start]
[Duet]
Hold on.
I've found another way to let you go, away.
Hold on.
You've find another way to play my soul, away.
Hold on.
I've found another way to let you go, away.
Hold on.
You've find another way to play my soul, away.
Hold on.
Hold on.
Hold on.
Hold on.
[chorus end]
Вверх

Hold On 2 вариант

[----------------------------------------------------------------------
[----------------------------------------------------------------------
[-----2-----2------2------2--2h--------2------2------2------2--2\-/---
[---------------0----------------------------------0-------------------
[--0-------------------3------------0--------------------3-------------
[--------3----------------------------------3--------------------------
Lyrics:


Verse#1:
You keep your didtance, I can't deny you
I got the feeling can't satisfy you
I got your picture on the wall
I got the picture long gone
you keep your wishes i'll keep my feelings
there goes another one that kept me breathing
I'm waiting for you I know your leaving
I'll still adore you you'll never need me


Chorus:
Hold on, I'll find another way to let you go away
Hold on, you'll find another way to bleed my soul away


Verse#2:
The things you told me to hear you speak
i'm burning slowly i'm growing weaK
you bring closer to yesterday
yesterday's a million miles away
why can't you hear me
why can't I sleep and I don't undersatand
what keeps me breathin
I'm waiting for you I know your leaving
I'll still adore you you'll never need me


Chorus: x4
Вверх

Hot Dog

BEGGINING INTRO 
C#|---------------------------| 
G#|---------------------------| 
E |---------------------------| 
B |-2--2-------2-----2------3-| 
F |-2-----------------------3-| 
C#|-0----0--0-----0----0--0-1-| 

Вверх

Im Broke

  Intro

   C#|------------------------|
   C#|------------------------|
   G#|o----------------------o|
   E |--3*--3*--3-3*--3*--3*--|
   B |o-2*--2*--2-2*--2*--2*-o|
   F#|--1*--1*--1-1*--1*--1*--|
   C#|--0*--0*--0-0*--0*--0*--|


   Chorus

   C#|-0--/0---0---0--0------0--/0--0---0---0---0--|
   C#|-6--/7--10---9--8------6--/7--0---0---0---0--|
   G#|------------------------------9--15--14--13--|
   E |-3--/4---7---6--5------3--/4-----------------|
   B |------------------------------6--12--11--10--|
   F#|---------------------------------------------|
   C#|---------------------------------------------|


   Breakdown/Outro

   C#|---------------------------------|
   C#|---------------------------------|
   G#|---------------------------------|
   E |---------------------------------|
   B |---------------------------------|
   F#|--8\3-------------8\3------------|
   C#|------0-0*-0-0--------0-0*-0-0---|


   C#|-------------0----------------------------0-----------------|
   C#|-------------6----------------------------6-----------------|
   G#|------------------------------------------------------------|
   E |-------------3----------------------------3-----------------|
   B |------------------------------------------------------------|
   F#|--8\3-------------8\3------------8\3----------8\3-----------|
   C#|--------0-------------0-0*-0-0---------0----------0-0*-0-0--|

Вверх

Itll Be OK

Intro,Verse 1 : Play 8x
 I just read your letter...
E|----------------------------------------|
B|----------------------------------------|
G|------0---------0------4-4-4-4-777-7766-|
D|----4---4-----4---4---------------------|
A|----------------------------------------|
E|-0---------0---------3------------------|

Verse 2,Pre-chorus : Play 2x
 What to do ? My life is through...
E|--------------------------------|
B|-----8b-----8b-----10b------10b-|
G|-9-9----9-9----9-9------9--9----|
D|--------------------------------|
A|--------------------------------|
E|--------------------------------|

Далее опять играется Verse 1 и Verse 2 по 4 раза.

Chorus 1 : Play 4x
(Distortion)
 ...fuckin? up my whole life
C|--------------------------|
G|--------------------------|
E|--------------------------|
B|--------------------------|
F|---------7-5--------------|
C|--0-0--------5-----0-0--1-|

Chorus 2 : Play 6x
(Distortion)
 So I?m on my way...
E|-----------------------------------------------|
B|-----------------------------------------------|
G|-----------------------------------------------|
D|--2-2---2-0--------3---------2-2---2-0-------3-|
A|--2-2-------2------3---------2-2-------2-----3-|
E|--0-0-0--------0-0-1---------0-0-0-------0-0-1-|

Далее опять Verse 1,Verse 2 по 4 раза,затем припевы
Chorus 1 - 4 раза,Chorus 2 - 6 раз

Bridge 1 Play 8x
E|----------------0-77-99-1111-1313-1414-|
B|--8h9-8-5h6----------------------------|
G|---------------------------------------|
D|---------------------------------------|
A|---------------------------------------|
E|-0-------------------------------------|

Bridge 2 : Play 4x
(Distortion)
...Better place you can take me
E|---------------------------------|
B|---------------------------------|
G|---------------------------------|
D|-3---3-3-3-3-----9--9----12---12-|
A|-3---3-3-3-3-----9--9----12---12-|
E|-1---1-1-1-1-----7--7----10---10-|

Затем опять идет Chorus 1 - 4 раза, Chorus 2 - 6 раз.
После этого следует Intro : 6x

i just read your letter
it says that you’ll be gone for a while
everything was gettin’ better
i guess i’m just a fool strung out
what to do?
life is through
just want to kill
myself for you
i wonder
just how sympathetic you’ll be you’ve come
to take me under and i’ve forgotten
all about me
what to do?
my life is through
just want to kill
myself for you
so tell me why
you say goodbye?
and tell me why
your fuckin’ up my whole life?
yeah,
fuckin’ up my whole life
so, i’m on my way
i leave today
if i get away
it’ll be ok
it’ll be ok
i’m looking out a window
into a world that’s taken you from me
and i’m feeling so disgusted
how pathet-ic can i possibly be?
what to do?
life is through
just want to kill
myself for you
so tell me why
you say goodbye
and tell me why
you’re fuckin’ up my whole life
fuckin’ up my whole life
so, i’m on my way i leave today if i get away
it’ll be ok
it’ll be ok
if there’s a better place you can take me
a better life you can give me
whatever place i can start all over
then i would never need what you gave me
never need you to save me
and never feel like this life is over
if there’s a better place you can take me
a better life you can give me
whatever place
i can start all over
then i would never need what you gave me
and never need you to save me
and never feel like this life is over
feel like this life is over
so, i’m on my way
i leave today
if i can get away
it’ll be ok
it’ll be ok
Вверх

Just Like This

   Intro

   C#|------------------------------------------------------------------|
   C#|------------------------------------------------------------------|
   G#|------------------------------------------------------------------|
   E |------------------------------------------------------------------|
   B |14---------------------------14-----------------------------------|
   F#|---------------------------------------------17-17-17-17-17/18-18-|
   C#|---0--16p0-0-0--16p0-16p0--0----0--16p0-0-0--15-15-15-15-15/16-16-|


   Chorus

   C#|----------------------------------------------------------|
   C#|----------------------------------------------------------|
   G#|----------------------------------------------------------|
   E |----------------------------------------------------------|
   B |--------------------------------------------5-5-5-5-5/6-6-|
   F#|-7----------------------------7-------------5-5-5-5-5/6-6-|
   C#|-0--0--4p0-0-0--4p0-4p0--0-0----0--4p0-0-0--3-3-3-3-3/4-4-|


   Verse

   C#|---------------------|
   C#|---------------------|
   G#|---------------------|
   E |---------------------|
   B |---------6--5~~~~~~--|
   F#|---7~~~--------------|
   C#|---------------------|


   Breakdown

   C#|-x-x--x--x-x--x--x-x--x--x-x-|
   C#|-x-x--x--x-x--x--x-x--x--x-x-| Bounce pick on the strings above the pickups
   G#|-----------------------------|
   E |-----------------------------|
   B |-----------------------------|
   F#|-----------------------------|
   C#|-----------------------------|


   Outro

   C#|------------------------------------------10--11--12-|
   C#|------------------------------------------10--11--12-|
   G#|------------------------------------------10--11--12-|
   E |-------------------------------------------7---8---9-|
   B |-----------------------------------------------------|
   F#|-7------------7-------------7------------------------|
   C#|----0--4p0--0-----0--4p0--0----0--4p0--0-------------|

Вверх

Leech

Intro 
C#------------------------------------------------------------- 
G#------------------------------------------------------------- 
E-------------------------------------------------------------- 
B-------------------------------------------------------------- 
F#------------------------------------------------------------- 
C#---14--13--0--0--14--13--0--14---13--0--0--14--13---0-------- 

Verse (0:20) 
C#------------------------------------------------------------- 
G#------------------------------------------------------------- 
E-------------------------------------------------------------- 
B----4--3--------4--3-----4----3--------4--3------------------- 
F#---4--3--------4--3-----4----3--------4--3------------------- 
C#---2--1--0--0--2--1--0--2----1--0--0--2--1--0---------------- 
P.M. - - - - - - - - - - - - - - - - - - - - - - - - - - - - - 

Chorus (0:37) 
C#------------------------------------------------------------- 
G#------------------------------------------------------------- 
E-------------------------------------------------------------- 
B----1---x--x---1---x--x---1---x--x---1-/-2---3-\-2------------ 
F#---1---x--x---1---x--x---1---x--x---1-/-2---3-\-2------------ 
C#---0---x--x---0---x--x---0---x--x---------------------------- 

Outro (1:41) 
C#------------------------------------------------------------- 
G#------------------------------------------------------------- 
E-------------------------------------------------------------- 
B----4-\-3--------4-\-3--------4-\-3------3-----3-------------- 
F#---4-\-3--------4-\-3--------4-\-3------3-----3-------------- 
C#---2-\-1--0--0--2-\-1--0--0--2-\-1--0---1-----1---0---------- 
P.M. - - - - - - - - - - - - - - - - - - - - - - - - - - - - - 

Outro 2 (1:51) 
C#------------------------------------------------------------- 
G#------------------------------------------------------------- 
E-------------------------------------------------------------- 
B------------------------4-\-3-----3------3-------------------- 
F#-----------------------4-\-3-----3------3-------------------- 
C#----0--0-/-12-\-0---0--2-\-1--0--1------1---1----------------
Вверх

Livin It Up

Intro & Verse (Clean w/ Heavy Delay) 
C#------------------------------------------------------------- 
G#------------14--17-14-17-14------------14--17--14-14-15------ 
E-------------------------------------------------------------- 
B-------------------------------------------------------------- 
F#------------------------------------------------------------- 
C#---14-----------------------------14------------------------- 

Chorus (Distortion) 
C#------------------------------------------------------------- 
G#------------------------------------------------------------- 
E-------------------------------------------------------------- 
B----4---4---------4---------4---4----------4---------4---4---- 
F#---4---4---------4---------4---4----------4---------4---4---- 
C#---2---2------0--2--0------2---2-------0--2--0------2---2---- 

Chorus 2 
C#------------------------------------------------------------- 
G#------------------------------------------------------------- 
E------------------------------4--4-4--4---2--2-2-2--2--2-2---- 
B----4---4-4-4--4--4-4-4-4--4--4--4-4--4---2--2-2-2--2--2-2---- 
F#---4---4-4-4--4--4-4-4-4--4--2--2-2--2---0--0-0-0--0--0-0---- 
C#---2---2-2-2--2--2-2-2-2--2---------------------------------- 

Interlude (w/ Slight P.M.) 
C#------------------------------------------------------------- 
G#------------------------------------------------------------- 
E-------------------------------------------------------------- 
B-------------------------------------------------------------- 
F#---4-----4----4---------4-----4----4------------------------- 
C#---2--0--2----2---------2--0--2----2------------------------- 

Breakdown 
C#------------------------------------------------------------- 
G#------------------------------------------------------------- 
E-------------------------------------------------------------- 
B----4---4--4---x--x----x--4--4----4---4--4---x--x----x--4--4-- 
F#---4---4--4---x--x----x--4--4----4---4--4---x--x----x--4--4-- 
C#---2p0-2--2---x--x----x--2--2----2p0-2--2---x--x----x--2--2-- 
Вверх

My Generation

Intro. Heavy grunge distortion.
E|---1--1---0-1-2-1--2-----|
A|---3--3---2-3-4-3--4-----|
D|---3--3---2-3-4-3--4-----|
G|-------------------------|
B|-------------------------|
e|-------------------------|

Verse #1 Heavy grunge distortion
     **      **      **
E|---11-(4)--11-(4)--11-(4)------|
A|-------------------------------|
D|-------------------------------|
G|-------------------------------|
B|-------------------------------|
e|-------------------------------|

Pre-Chorus. Heavy grunge distortion
E|---4-4---x---4-4-4x---4-4---х---4-4-(4)---|
A|---6-6---x---6-6-6x---6-6---х---6-6х------|
D|---6-6---x---6-6-6x---6-6---х---6-6х------|
G|------------------------------------------|
B|------------------------------------------|
e|------------------------------------------|

Chorus. Heavy grunge distortion
E|---4-4---0-222---1---|
A|---6-6---2-444---3---|
D|---6-6---2-444---3---|
G|---------------------|
B|---------------------|
e|---------------------|

Verse #2. Heavy grunge distortion.
Play verse #1.

Pre-chorus. Heavy grunge distortion.
E|---4-4---x---4-4-4x---4-4---х---4-4-(4)---|
A|---6-6---x---6-6-6x---6-6---х---6-6-(4)---|
D|---6-6---x---6-6-6x---6-6---х---6-6х------|
G|------------------------------------------|
B|------------------------------------------|
e|------------------------------------------|

Chorus 2 times.
Bridge.
Heavy grunge distortion.|Clean guitar.
         ***   * * * *    * * * *       * * * *    * * * *
E|-4-3-0-000-|-0-0-0-0-12-0-0-0-0-10h12-0-0-0-0-12-0-0-0-0-3-1-|
A|-6-5-2-222-|-------------------------------------------------|
D|-6-5-2-222-|-------------------------------------------------|
G|-----------|-------------------------------------------------|
B|-----------|-------------------------------------------------|
e|-----------|-------------------------------------------------|

Heavy grunge distortion.
     * * * *    * * * *       * * * *    * * * *
E|---0-0-0-0-12-0-0-0-0-10h12-0-0-0-0-12-0-0-0-0-3-1-|
A|---------------------------------------------------|
D|---------------------------------------------------|
G|---------------------------------------------------|
B|---------------------------------------------------|
e|---------------------------------------------------|

Pre-chorus. Heavy grunge distortion.
E|---4-4---x---4-4-4x---4-4---х---4-4-(4)-|
A|---6-6---x---6-6-6x---6-6---х---6-6-(4)-|
D|---6-6---x---6-6-6x---6-6---х---6-6-(4)-|
G|----------------------------------------|
B|----------------------------------------|
e|----------------------------------------|
Chorus 2 times.

Ending.
E|---3-333-33-3-333-33-0---|
A|---5-555-55-5-555-55-2---|
D|---5-555-55-5-555-55-2---|
G|-------------------------|
B|-------------------------|
e|-------------------------|
Вверх

My Way

Обычная настройка(standart tuning).
Intro.
e|--------4--------|
B|-2-------------5-|
G|-----------------|
D|--------2--------|
A|-0-------------3-|
E|-----------------|

Не знаю какие там эффекты,но на акустике только для себя,
слишком уж обломно.Кто хочет может на басы и не смотреть
(просто играть на 2-й и 1-ых струнах).

Solo(самый клёвый момент, было бы также его играть).

e|-------|-------|-------|-------|-------|-------|---------|
B|-------|-------|-------|-------|-------|-------|---------|
G|-------|-------|----6-6|-------|----8-8|-------|----11-11|
D|----8-8|----4-4|--4----|----6-6|--6----|----9-9|--9------|
A|--6----|--2----|2------|--4----|4------|--7----|7--------|
E|4------|0------|-------|2------|-------|5------|---------|

e|-----------|
B|-----------|
G|-----------|
D|-----11-11-|
A|---9-------|
E|-7---------|

End

B|-3--4--6---3--4--2-|

Вообще-то концовка должна играться аккордами, но на обычной
настройке не получится, поэтому на одной струне и написал.

Вот вариант для другой настройки.
с#|-4----------|-5----------7-|
G#|------------|--------------|
E |------------|-4----------4-|
B |-2----------|--------------|
F#|-2----------|-5----------5-|
C#|-0----------|-3----------3-|

c#|-4----------|-5----------0-|
G#|------------|------------0-|
E |------------|-4----------4-|
B |-2----------|------------5-|
F#|-2----------|-5----------5-|
C#|-0----------|-3----------3-|

Первые три аккорда,звучат неплохо и на обычной настройке.

Special
you think you?re special
you do
i can see it in your eyes
i can see it when you laugh at me
look down on me
and walk around on me

just one more fight about your leadership
and i will straight up leave your shit
cuz i?ve had enough of this
and now im pissed

yeah

this time im a let it all come out
this time im a stand up and shout
im a do things my way
it?s my way
my way or the highway

this time im a let it all come out
this time im a stand up and shout
im a do things my way
it?s my way
my way or the highway

just one more fight about a lot of things
and i will give up everything
to be on my own again
free again

yeah


this time im a let it all come out
this time im a stand up and shout
im a do things my way
it?s my way
my way or the highway

this time im a let it all come out
this time im a stand up and shout
im a do things my way
it?s my way
my way or the highway

Someday you?ll see things my way
cuz ya never know
no ya never know

someday you?ll see things my way
cuz ya never know
no ya never know
when you?re gonna go

just one more fight and ill be history
yes i will straight up leave your shit
and you?ll be the one who?s left
missing me

yeah

this time im a let it all come out
this time im a stand up and shout
im a do things my way
it?s my way
my way or the highway

this time im a let it all come out
this time im a stand up and shout
im a do things my way
it?s my way
my way or the highway

Someday you?ll see things my way
cuz ya never know
no ya never know
when you?re gonna go

someday you?ll see things my way
cuz ya never know
no ya never know
Вверх

My Way (2 вариант)

Tuning: c# G# E B F# C#

Intro & Verse part 1
с#|-0--|-4----3---0-|
G#|-1--|-6----4---1-|
E-|-0--|-6----3---0-|
B-|-2--|-6----3---2-|
F#|-3--|-4----6---3-|
C#|----|------------|

Verse part 2 (Played finger-style)
C#|----------1/5-5-5--3-3---------------------------|
G#|------------------------------5-----5------------|
E-|-2--2-------------------------------------4----4-|
B-|-2----2------------------5------5-------5----5---|
F#|-0--------------------3--------------------------|
C#|-------------------------------------3-----------|

Chorus
C#|-4--4-4-4--4-4-4--4-4-4-4-4-4-4--5--5-5-5--5-5-5--5-5-5-5-5-|
G#|------------------------------------------------------------|
E-|------------------------------------------------------------|
B-|-2--2-2-2--2-2-2--2-2-2-2-2-2-2--5--5-5-5--5-5-5--5-5-5-5-5-|
F#|-2--2-2-2--2-2-2--2-2-2-2-2-2-2--5--5-5-5--5-5-5--5-5-5-5-5-|
C#|-0--0-0-0--0-0-0--0-0-0-0-0-0-0--3--3-3-3--3-3-3--3-3-3-3-3-|


C#|-4--4-4-4--4-4-4--4-4-4-4-4-4-4--5--5-5-5--3-3-3--3-3-3-3-3-|
G#|------------------------------------------------------------|
E-|------------------------------------------------------------|
B-|-2--2-2-2--2-2-2--2-2-2-2-2-2-2--5--5-5-5--5-5-5--5-5-5-5-5-|
F#|-2--2-2-2--2-2-2--2-2-2-2-2-2-2--5--5-5-5--5-5-5--5-5-5-5-5-|
C#|-0--0-0-0--0-0-0--0-0-0-0-0-0-0--3--3-3-3--3-3-3--3-3-3-3-3-|

Post Chorus
C#|------------------------------------------------------------|
G#|------------------------------------------------------------|
E-|------------------------------------------------------------|
B-|-2-2--x-x--x-2-2--x-x--x-x-2-x-x-x-x-5-5-x---5----5---x---5-|
F#|-2-2--x-x--x-2-2--x-x--x-x-2-x-x-x-x-5-5-x---5----5---x---5-|
C#|-0-0--x-x--x-0-0--x-x--x-x-0-x-x-x-x-3-3-x-0-3-0--3---x-0-3-|

Interlude:

с#|-------|-------|-------|-------|--------|--------|----------|
G#|-------|-------|-------|-------|--------|--------|----------|
E-|-------|-------|-----9-|-------|-----11-|--------|-------14-|
B-|----11-|-----7-|---7---|-----9-|---9----|-----12-|----12----|
F#|--9----|---5---|-5-----|---7---|-7------|---10---|-10-------|
C#|7------|-3-----|-------|--5----|--------|-8------|----------|


c#|----------|
G#|----------|
E-|----------|
B-|-------14-|
F#|----12----|
C#|-10-------|

End

с#|-4-|-5----------7-|
G#|---|--------------|
E-|---|-4----------4-|
B-|-2-|-5----------5-|
F#|-2-|-5----------5-|
C#|-0-|-3----------3-|

c#|-4-|-5----------3-|
G#|---|--------------|
E-|---|-4------------|
B-|-2-|-5----------5-|
F#|-2-|-5----------5-|
C#|-0-|-3----------3-|
Вверх

No Sex

ВСТУПЛЕНИЕ:

e|-------------------|
B|-------------------|
G|---4-----4---2-----|  х2 - (Вступление играется два раза)
D|-------------------|        Затем играется на притяжении всего куплета
A|-2---2-----0---0---|        до припева.
E|-------3---------1-|

КУПЛЕТ:

Went too fast
Way too soon
I feel disgusted and you should too
It?s no good when all that?s left is the sex

Sex has become all I know about you
Memories of those filthy things that we do
There is not one single thought that is left after sex with you

ПРИПЕВ:

e|---------------------------------------------|
B|---------------------------------------------|
G|-6-6-----------------6-6-------4-4--5-5--6-6-| х2 - Играется два раза на
D|-6-6--6-6--4-4--2-2--6-6--6-6--4-4--5-5--6-6-|      протяжении всего припева.
A|-4-4--6-6--4-4--2-2--4-4--6-6--2-2--3-3--4-4-|
E|------4-4--2-2--0-0-------4-4----------------|

Should?ve left my pants on this time
But instead you had to let me dive right in
Should?ve left my pants on this time
You let me dive right in х2 - поёться два раза.

После чего идёт гитарный пройгрыш один раз.(а потом идёт куплет)

e|---------|
B|---------|
G|---------|
D|---------|
A|-2---0---|
E|---3---1-|

КУПЛЕТ:

e|-------------------|
B|-------------------|
G|---4-----4---2-----|  - играется на притяжении всего куплета
D|-------------------|    до припева.
A|-2---2-----0---0---|
E|-------3---------1-|

Wait... it?s my ass
Your perfume
It makes temptation hard to refuse
So I guess we undressed
To have sex
Dirty sex

Sex has become all I know about you
Memories of those filthy things that we do
There is not one single thought that is left after sex with you

ПРИПЕВ:

e|---------------------------------------------|
B|---------------------------------------------|
G|-6-6-----------------6-6-------4-4--5-5--6-6-| х2 - Играется два раза на
D|-6-6--6-6--4-4--2-2--6-6--6-6--4-4--5-5--6-6-|      протяжении всего припева
A|-4-4--6-6--4-4--2-2--4-4--6-6--2-2--3-3--4-4-|      до пройгрыша.
E|------4-4--2-2--0-0-------4-4----------------|

Should?ve left my pants on this time
But instead you had to let me dive right in
Should?ve left my pants on this time
You let me dive right in

ПРОЙГРЫШ:

e|---------------------------------------------|
B|---------------------------------------------|
G|-6-6-------6-6-------6-6-------4-4--5-5--6-6-|  - Играется один раз.
D|-6-6--6-6--6-6--6-6--6-6--6-6--4-4--5-5--6-6-|
A|-4-4--6-6--4-4--6-6--4-4--6-6--2-2--3-3--4-4-|
E|------4-4-------4-4-------4-4----------------|

ГИТАРНАЯ ПАРТИЯ ПОСЛО ПРОЙГРЫША ДО СЛОВ:"Realize I mean more than that"

e|-------------------|
B|-4-5-4-6-6-5-4-5-4-|
G|-------------------| х4 играется 4 раза со словами приведённые ниже.
D|-------------------|
A|-------------------|
E|-------------------|

You couldn?t respect yourself
I couldn?t respect myself
I realize that
I?m worth more than that

e|-------------------------|
B|-------------------------|
G|-6-6--2-2--4-4--5-5--6-6-|  х4 играеться четыре раза до припева.
D|-6-6--2-2--4-4--5-5--6-6-|
A|-4-4--0-0--2-2--3-3--4-4-|
E|-------------------------|

Realize I mean more than that х4 - эта строчка поёться четыре раза.

ПРИПЕВ:

e|---------------------------------------------|
B|---------------------------------------------|
G|-6-6-----------------6-6-------4-4--5-5--6-6-| х2 - Играется два раза на
D|-6-6--6-6--4-4--2-2--6-6--6-6--4-4--5-5--6-6-|      протяжении всего припева
A|-4-4--6-6--4-4--2-2--4-4--6-6--2-2--3-3--4-4-|      до пройгрыша.
E|------4-4--2-2--0-0-------4-4----------------|

Should?ve left my pants on this time
But instead you had to let me dive right in
Should?ve left my pants on this time
You let me dive right in

ПРОЙГРЫШ:

e|---------------------------------------------|
B|---------------------------------------------|
G|-6-6-------6-6-------6-6-------4-4--5-5--6-6-|  - Играется один раз.
D|-6-6--6-6--6-6--6-6--6-6--6-6--4-4--5-5--6-6-|
A|-4-4--6-6--4-4--6-6--4-4--6-6--2-2--3-3--4-4-|
E|------4-4-------4-4-------4-4----------------|

КУПЛЕТ:

Went too fast
Way too soon
I feel disgusted and you should too
It?s no good when all that?s left is the sex

Sex has become all I know about you
Memories of those filthy things that we do
There is not one single thought that is left after sex with you

ПРИПЕВ:

Should?ve left my pants on this time
But instead you had to let me dive right in
Should?ve left my pants on this time
You let me dive right in х2 - поёться два раза.

КУПЛЕТ:

Wait... it?s my ass
Your perfume
It makes temptation hard to refuse
So I guess we undressed
To have sex
Dirty sex

Sex has become all I know about you
Memories of those filthy things that we do
There is not one single thought that is left after sex with you

ПРИПЕВ:

Should?ve left my pants on this time
But instead you had to let me dive right in
Should?ve left my pants on this time
You let me dive right in

You couldn?t respect yourself
I couldn?t respect myself
I realize that
I?m worth more than that
Realize I mean more than that

ПРИПЕВ:

Should?ve left my pants on this time
But instead you had to let me dive right in
Should?ve left my pants on this time
You let me dive right in

КОНЕЦ.
Вверх

No Sex (2 вариант)

 Лучше с медиатором:
C#|---------------------------------------------------------|
G#|---------------------------------------------------------|
E-|------7----------------7--------------------5------------|
B-|---------------------------------------------------------|
F#|-5-------5-----------------------------3---------3-------|
C#|----------------6------------0-------------------------4-|

(0:50)
C#|-------------------------------------------------------|
G#|-------------------------------------------------------|
E-|-9--9--9--9--9--9--9-----------------------------------|
B-|----------------------------------5------------------4-|
F#|-7--7--7--7--7--7--7-----------------------------------|
C#|----------8--8--8--8----0----3---------3-----2---------|

C#|--------------------------------------------------------|
G#|--------------------------------------------------------|
E-|-9--9--9--9--9--9--9---------7--7--7--7--8----8---8---8-|
B-|--------------------------------------------------------|
F#|-7--7--7--7--7--7--7---------5--5--5--5--6----6---6---6-|
C#|----------8--8--8--8----0-------------------------------|

(2:16)
C#|-------------------------------------------|
G#|-------------------------------------------|
E-|-9---9---9---9---9---9---9---9---9---9---9-|
B-|-------------------------------------------|
F#|-7---7---7---7---7---7---7---7---7---7---7-|
C#|-----------------------------------------8-|

(2:23)
C#|---------------------------------------------------------|
G#|---------------------------------------------------------|
E-|-7--7--7--7--7--7--7--7--8--8--8--8--8--8--8--8--9----9b-|
B-|---------------------------------------------------------|
F#|-5--5--5--5--5--5--5--5--6--6--6--6--6--6--6--6--7----7b-|
C#|---------------------------------------------------------|

(2:30)
C#|------------------------|
G#|------------------------|
E-|-------------9--9br9br9-|
B-|------------------------|
F#|-7br7br7br7-------------|
C#|------------------------|

(2:36)
C#|----------------------------------------12--12--12---------|
G#|----------------7-------------------10-------------------8-|
E-|----------0----------------------0----------------------0--|
B-|-----------------------------------------------------------|
F#|-----------------------------------------------------------|
C#|-0---7----------------0----10-----------------------0-0----|

(2:55)
C#|--------------------------------------------------------|
G#|--------------------------------------------------------|
E-|--------------------------------------------------------|
B-|---9--9--9--9--9--9--9--9-9---7-7-7-7---8----8--8--8--8-|
F#|---7--7--7--7--7--7--7--7-7---5-5-5-5---6----6--6--6--6-|
C#|------------8--8--8--8--8-8-----------------------------|

(3:41)
C#|-----------------------------------------------|
G#|-----------------------------------------------|
E-|---7---7---7---7--/--8---8---8---8---8-------9-|
B-|---------------------------------------------9-|
F#|---5---5---5---5--/--6---6---6---6---6-------7-|
C#|---------------------------------------------0-|
Вверх

Nookie

Intro

e||---------------------||
B||---------------------||
G||---------------------||
D||---------5------5-4--||
A||---------------------||
E||--3h2p3-----2h3------||

Chorus
"i give it up for the nookie HEY the nookie HEY..."
e||-----------------------||
B||-----------------------||  use alot of feeback here so the bend
G||--------4^---------4^--||  sounds abit like a harmonic.
D||--22-4--5^--2-2--4-5^--||
A||--22-4------2-2--4-----||
E||--00-2------0-0--2-----||

Verse

e||-----------------------------------------||
B||-----------------------------------------||
G||-----------------------------------------||
D||-----4-5-4-----4-5-6------4-5p4-----4h6--||
A||-----------------------------------------||
E||--0-2------0-2--------0-2-------0-2------||

Fill 1
"Hey like a chump hey, like a chump hey..,"
e||-------------||
B||-------------||
G||-------------||
D||--5-4-2-6h7--||
A||--------x-x--||
E||--------x-x--||

Fill 2
(where fred uses some freaky pedal and makes his voice sound funny)
e||-------------------------------------------------||
B||-------------------------------------------------||
G||-------------------------------------------------||
D||-------------------------------------------------||
A||-------------------------------------------------||
E||-0h2-0h2-0h2---0-0-0-0-0-0-0-0--5-5-5-5-5-5h6-5--||

other part there
e||-------------3333-----------------------------------|| < lighly
B||----------------------------------------------------||   played
G||----------------------------------------------------||
D||-0-2-0-2-0-2-xxxx-0-0-0-0-0-0-0-0--5-5-5-5-5-5-5-5--||
A||-0-2-0-2-0-2-xxxx-0-0-0-0-0-0-0-0--5-5-5-5-5-5-5-5--||
E||-0-2-0-2-0-2-xxxx-0-0-0-0-0-0-0-0--5-5-5-5-5-5-5-5--||

thats all,heres the legend...
               p= pull off
               h= hammer
               x= notless picking
Вверх

Pollution

Intro (song 1)
(This is the synth thing that is behind "use your .." part)


|-------------------------------------------------|
|-11-11-11-11--12-12-12-12---16-16-16-16-16-16----|
|-16-16-16-16--17-17-17-17---21-21-21-21-21-21----|
|-------------------------------------------------|
|-------------------------------------------------|
|-------------------------------------------------|
|-------------------------------------------------|

Riff B (Intro / Chorus)
|----------------------------------------------------------|
|----------------------------------------------------------|
|----------------------------------------------------------|
|----------------------------------------------------------|
|----------------------------------------------------------|
|----------------------------------------------------------|
|--2~~~--0--3-----0--0--2--0--0--2~~~--0--3-----0--0--2^---|

Then play this riff but with powerchords...last time add A.H

Riff C (verse)
|----------------------------------------------|
|----------------------------------------------|
|----------------------------------------------|
|----------------------------------------------|
|----------------------------------------------|
|----------------------------------------------|
|---2--x--x--x--3^--x--2--2--x--x--3^-----|
       *  *  *  *   *        *  *      


Riff D (pre-chorus)
|------------------------------------------------------|
|------------------------------------------------------|
|------------------------------------------------------|
|------------------------------------------------------|
|------------------------------------------------------|
|------------------------------------------------------|
|--6--6--6--0--7--0--6--\--0--6--6--6--0--7--0--0--6---|

Riff E (interlude)
|-----------------------------------------------------------------|
|-----------------------------------------------------------------|
|---------------------(3)-----------------------------------------|
|------------5--4-------------------------------------------------|
|--7--6-----------------------------------------------------------|
|-----------------------------------------------------------------|
|-----------------------------------------------------------------|

Riff F (outro)
|--------------------------------------------------------------|
|--------------------------------------------------------------|
|--------------------------------------------------------------|
|--------------------------------------------------------------|
|-2--1--x--x-----------3--x--x----x--x--2--1-----------3--x--x-|
|-2--1--x--x--5--4-----1--x--x----x--x--2--1--5--4-----1--x--x-|
|-0--0--x--x--3--2--0-------------x--x--0--0--3--2--------x--x-|
Вверх

Re-Arranged

Вступление Басс:

G|-------------------------|
D|-----------------------2-|
A|-----7-5-5-7-4-4-5-2-0---|
E|-0-7---------------------|

Ритм гитара:

E|-------------------------|
B|-------------------------|
G|-9-6-6-6-9-6-6-6-9-6-6-9-|
D|-------------------------|
A|-------------------------|
E|-------------------------|

E|---------------|
B|-9-9-10-9-9-10-|
G|-6-6-6--6-6-6--|
D|---------------|
A|---------------|
E|---------------|

E|------------|
B|------------|
G|------------|
D|------------|
A|-11-9-13-14-|
E|-9--7-11-12-|

Just think about it (2x)
Lately I?ve been skeptical
Silent when I would used to speak
Distant from all around me
Who witness me fail and become weak
Life is overwhelming
Heavy is the head that wears the crown
I?d love to be the one to disappoint you
When I don?t fall down
But you don?t understand when
I?m attempting to explain
Because you know it all and I guess things will never change
But you might need my hand when
Falling in your hole
Your disposition I?ll remember
When im letting go of

(CHORUS)
You and me
We?re through
And re-arranged

It seems that your not satisfied
There?s too much on your mind
So you leave and I cant believe
All the bullshit that I find
Life is overwhelming
Heavy is the head that wears the crown
I?d love to be the one to disappoint you
When I don?t fall down
But you don?t understand when
I?m attempting to explain
Because you know it all and
I guess things will never change
But you might need my hand when
Falling in your hole
Your disposition I?ll remember
When im letting go of

(CHORUS)
You and me
We?re through
And re-arranged
You and me
We?re through
And re-arranged
You?re no good for me
Thank God it?s over

You make believe
That nothing is wrong until you?re cryin?
And you make believe
Life is so long until you?re dyin?
You make believe
That nothing is wrong until you?re cryin?, cryin? on me
You make believe
That life is so long until you?re dyin?, (dyin?) dyin? on me
You think everybody is the same
I don?t think that anybody is like you (2x)

(You ruin everything and you kept fuckin?
with me until its over and I won?t be the same) (2x)

Just think about
You?ll get it
Вверх

Stalemate mp3

1-й вариант(обычная настройка-e,B,G,D,A,E. Самый сложный вариант, так как,

            чтобы хорошо звучало приходится расстягивать пальцы).

                                                (пошибче,чем в MY WAY).





Intro

G(3)-----------------6----4h6-----------------6----------------------------

D(4)------------4----------------------4----------------4h5---------------------

A(5)--------4---------------------4-----------------------------------

E(6)----2---2-----2----2------2---2--------2-------2--------------------------

  6-я самая толстая.

                      (Что такое 4h6 или 4h5 думаю и так все знают.

        Comment:       Если же нет, то "песни из к/ф" на ссылку

                       "музыка из к/ф TERMINATOR", там объяснено).

           4

           2  надо играть не вместе,а проходя большим пальцем,сначала по

                  6-й струне, а затем по 5-й(желательно быстро).







2-й вариант заключается в НАТЯЖЕНИИ 6-й струны.Эта струна настраивается

в унисон с 9-м ладом 5-й или 4-м ладом 4-й струны. Главное ПЕРЕТЯГИВАЯ 6-ю её не порвать.

                       (Этот вариант играть легче всего).

Intro

G(3)------------------6------4h6---------------6----------------------------

D(4)------------4-----------------------4------------4h5---------------------

A(5)--------4-----------------------4-----------------------------------

F#(6)---0---0------0-----0------0---0------0------0--------------------------









3-й вариант,для тех,кто боится порвать 6-ю струну.Эта струна настраивается

 в унисон с 4-м ладом 5-й или 11-м ладом 4-й струны(т.е.струну в отличии от 2-ого

 варианта нужно РАССТРАИВАТЬ).В игре самый простой способ после 2-ого варианта.





Intro

G(3)--------------------6-------4h6-------------------6----------------------------

D(4)-------------4----------------------------4--------------4h5---------------------

A(5)--------4-----------------------------4------------------------------------

C#(6)---5---5-------5------5----------5---5-------5------5--------------------------









4-й вариант(сам его я не играл,но кому интересно и кто знает как настраивать,

            может попробовать).



Intro

E-------------------9--------------------------------9-----------------

B-------------------------12--/--14----------------------------------

F#--------7--12p0--------------------------7-12p0------------12--/--13---

F#---12--12-----------12-------------12---12------------12------------
Вверх

Stuck mp3

intro

  bass
D|-----32~-|-----3~2-| play 2
A|---1-----|---1-----| times
D|-3-------|-3-------|

 verse

 bass
D|-----32~-|-----3~2-|
A|---1-----|---1-----|
D|-3-------|-3-------|

 chorus

 Gtr.
|-2-0-3-0-2-0^3-2-3-2-| play 3
|-2-0-3-0-2-0^3-2-3-2-| times

|-2-0-3-0-2-0^3-2-3-2-|-6-5-(*)-(*)-|
|-2-0-3-0-2-0^3-2-3-2-|-6-5-(*)-(*)-|


|-2-0-3-0^2^3-2--6-5--(*)-(*)-| play 7
|-2-0-3-0^2^3-2--6-5--(*)-(*)-| times

|-2-0-3-0^2^3-2--6-5-|-3-3--3-3--3-3--5-|
|-2-0-3-0^2^3-2--6-5-|-3-3--3-3--3-3--5-|

 verse

 chorus

 vstavka

 bass
|---1-0-----------| play 8
|-3-----6-5-3-5-6-| times

  Gtr.
|-6-0-6-0-6-| play 4 times

|-6-0-6-0-6-0-6-5-6-| play 4 times

|-6-0-6-0-6-0-6-5-6-| play 8
|-6-0-6-0-6-0-6-5-6-| times?

 chorus
Вверх

Take A Look Around

intro:
                           (Fill.1)
(Gtr.1)(Acous.)
   Em             G             C                D
1|----------------------------|-----------------------------|
2|----------------------------|-----------------------------|
3|----------0-2^0-------------|-----------0-2^0-------------|
4|-2-2-2--2-------2-2-2-2-0-1-|2-2-2-2--2-------2-2-2-2-0-1-|
5|----------------------------|-----------------------------|
6|----------------------------|-----------------------------|
   Em                G             C                D
1|------------------------------|-------------------------------|
2|------------------------------|-------------------------------|
3|------------0-2^0-------------|-----------0-2^0---------------|
4|-2-2-2-2--2-------2-2-2-2-0-1-|2-2-2-2--2-------2-2-2-2-0-1-2-|
5|------------------------------|-------------------------------|
6|------------------------------|-------------------------------|

                          (Fill.2)

(Gtr.1)(Acous.)
  Em              G              C                D
1|----------------------------|-----------------------------|
2|----------------------------|-----------------------------|
3|----------0-2^0-------------|-----------0-2^0-------------|
4|-2-2-2--2-------2-2-2-2-0-1-|2-2-2-2--2-------2-2-2-2-0-1-|
5|----------------------------|-----------------------------|
6|----------------------------|-----------------------------|
Bass & Sintezator
3|----------------------------|--3----------------5---------|
4|-2--------------5-----------|-----------------------------|

(Gtr.1)(Acous.)
  Em                G              C                D
1|------------------------------|-------------------------------|
2|------------------------------|-------------------------------|
3|------------0-2^0-------------|-----------0-2^0---------------|
4|-2-2-2-2--2-------2-2-2-2-0-1-|2-2-2-2--2-------2-2-2-2-0-1-2-|
5|------------------------------|-------------------------------|
6|------------------------------|-------------------------------|
Bass & Sintezator
3|------------------------------|--3----------------5-----------|
4|-2----------------5-----------|-------------------------------|

Verse.1(Fill.3)

(Gtr.1)(Acous.)
          Em
           All the teachin? in da world today
       1|-15^12----|
       2|-------12-|
                     G
            All the little girls fillin? up da world today
                  1|-15^12----|
                  2|-------11-|
                     C
           When the good comes to bad, the bad comes to good
                  1|-15^12----|
                  2|-------10-|
                D
           But I?m a live my life like i should
            1|-15^12--------------|
            2|-------13--12-12-12-|

          Em
           Now da critics wanna hit it
       1|-15^12----|
       2|-------12-|
                 G
           This hit? How we did it, just because they don?t get it
             1|-15^12----|
             2|-------11-|
                 C
           But I?ll stay fitted, new era commited
             1|-15^12----|
             2|-------10-|
                 D
           Now this red cap gets a rap from these critics
             1|-15^12--------------|
             2|-------13--12-12-12-|

(Fill.2)
        But do we always gotta cry
        Do we always gotta live inside a lie
        Life?s just a blast cuz its movin? really fast
        So ya better stay on top or life?ll kick you in the ass
(Fill.3)
       Follow me into a solo
       Remember that, kid, so whatcha wanna do
       And where ya gonna run when your stari?n down the cable of my mic
       Pointed at yo grill like a gun

       Limp Bizkit is rockin? the set
       It?s like russian roulette when you?re placin? your bet
       So don?t be upset when you?re broke and you?re done
       Cuz I?m a be the one till I jet

Chorus:(fill.4)

Gtr.1(Distortion)
   know why you wanna hate me     know why you wanna hate me
5|------------------------------|------------------------------|                |
6|--0^2--0^2--0^2----0^2--5--7--|--0^2--0^2--0^2----0^2--0--1--|                |
                                                                                |x2
   know why you wanna hate me  Cuz hate is all the world has even seen lately   |
5|------------------------------|----------------------------------------------||
6|--0^2--0^2--0^2----0^2--5--7--|----0^2----0^2----0^2--------0^2----0----1----||

                             (Fill.5)

Gtr.1(Distortion)
 5|--0^2--0^2--0^2----0^2--5--7--|--0^2--0^2--0^2----0^2--0--1--|  |
 6|--0^2--0^2--0^2----0^2--5--7--|--0^2--0^2--0^2----0^2--0--1--|  | x2
Bass                                                               |
 4|--0^2--0^2--0^2----0^2--5--7--|--0^2--0^2--0^2----0^2--0--1--|  |

Gtr.1(Distortion)
 5|--x-2--x-2--x-2----x-2--5--7--|--x-2--x-2--x-2----x-2--0--1--|  |
 6|--x-2--x-2--x-2----x-2--5--7--|--x-2--x-2--x-2----x-2--0--1--|  | x2
Bass                                                               |
 4|--0^2--0^2--0^2----0^2--5--7--|--0^2--0^2--0^2----0^2--0--1--|  |


                              (Fill.2)

Verse.2(Fill.3)(no drums & Bass)Gtr.1 & Sintezator

           Does anybody really know the secret
           Or the combination for this life and where they keep it
           It?s kinda sad when you don?t know the meaning
           But everything happens for a reason
(Fill.3)
           I don?t even know what i should say
           Cuz I?m an idiot, a loserA microphone abuser
           I analyze every second I exist
           Beatin? up my mind every second with my fist

           And everybody wanna run
           Everybody wanna hide from da gun
           You can dig a rat through this life if you want
           But you can?t dig the edge off a knife (no sir)

           And now you want your money back
           But you?re denied, cuz your brain?s fried from the sack
           And there aint nothin? i could do
           Cuz life is a lesson, you?ll learn it when you?re through

Chorus:(fill.4)
       (Fill.5)

                            (Fill.6)
Gtr.1(Distortion)
 5|--2-2----5--7--2-2----0--1--|--2-2----5--7--2-2----0--1--|
 6|--2-2----5--7--2-2----0--1--|--2-2----5--7--2-2----0--1--|
Bass
 4|--2-2----5--7--2-2----0--1--|--2-2----5--7--2-2----0--1--|

                            (Fill.7)
Bass & Drums
 4|--2-2----5--7--2-2----0--1--|--2-2----5--7--2-2----0--1--| |x2

                            (Fill.8)

     Now...       I...            know...      why...
Bass
 4|--2-2----5--7--2-2----0--1--|--2-2----5--7--2-2----0--1--|
Gtr.1(Acous.)
 4|---------5-7^5--------------|---------5-7^5--------------|
 5|--7-7----------7-7----5--6--|--7-7----------7-7----5--6--|

     Now...       I...            know...      why (now I know why you wanna hate me)
Bass
 4|--2-2----5--7--2-2----0--1--|--2-2----5--7--2-2----0--1--|
Gtr.1
 4|---------5-7^5--------------|---------5-7^5--------------|
 5|--7-7----------7-7----5--6--|--7-7----------7-7----5--6--|

    Now...       I...            know...      why...
Bass
 4|--2-2----5--7--2-2----0--1--|--2-2----5--7--2-2----0--1--| |
Gtr.1(Distortion)                                             |x2
 4|---------5-7^5--------------|---------5-7^5--------------| |
 5|--7-7----------7-7----5--6--|--7-7----------7-7----5--6--| |

                            (Fill.9)
Gtr.1(Distortion)
     know why you wanna hate me     know why you wanna hate me
 5|--0^2--0^2--0^2----0^2--5--7--|--0^2--0^2--0^2----0^2--0--1--|
 6|--0^2--0^2--0^2----0^2--5--7--|--0^2--0^2--0^2----0^2--0--1--|
Bass
 4|--0^2--0^2--0^2----0^2--5--7--|--0^2--0^2--0^2----0^2--0--1--|

     know why you wanna hate me   Cuz hate is all the world has even seen lately
 5|--0^2--0^2--0^2----0^2--5--7--|----0^2----0^2----0^2--------0^2----0----1--|
 6|--0^2--0^2--0^2----0^2--5--7--|----0^2----0^2----0^2--------0^2----0----1--|
Bass
 4|--0^2--0^2--0^2----0^2--5--7--|----0^2----0^2----0^2--------0^2----0----1--|

Gtr.1(Distortion)
 5|--x-2--x-2--x-2----x-2--5--7--|--x-2--x-2--x-2----x-2--0--1--|  |
 6|--x-2--x-2--x-2----x-2--5--7--|--x-2--x-2--x-2----x-2--0--1--|  | x2
Bass                                                               |
 4|--0^2--0^2--0^2----0^2--5--7--|--0^2--0^2--0^2----0^2--0--1--|  |

outro:(Fill.2)

(*)примичание:

6-ая струна(нота "ми") у гитары опускается до ноты "ре" и так же на басу опускается
4-ая(или 5-ая или 6-ая) струна, и тогда аккорды на гитаре будут зажиматься вот так:

        Em      G      A      D     Eb
(E)  1|-----||-----||-----||-----||-----|
(H)  2|-----||-----||-----||-----||-----|
(G)  3|-----||-----||-----||-----||-----|
(D)  4|-(2)-||-(5)-||-(7)-||-(0)-||-(1)-|
(A)  5|--2--||--5--||--7--||--0--||--1--|
(D)  6|--2--||--5--||--7--||--0--||--1--|

 а не так как при обычном строе гитары:

        Em      G      A      D     Eb
(E)  1|-----||-----||-----||-----||-----|
(H)  2|-----||-----||-----||-----||-----|
(G)  3|-----||-----||-----||-(7)-||-(8)-|
(D)  4|-(2)-||-(5)-||-(7)-||--7--||--8--|
(A)  5|--2--||--5--||--7--||--5--||--6--|
(E)  6|--0--||--3--||--5--||-----||-----|
Вверх

Take A Look Around (2 вариант)

Intro Melody #1 - (Clean)
E------------------------------------------------------------------------
B------------------------------------------------------------------------
G------------------------------------------------------------------------
D------------5-7p5-------------------------------------------------------
A---7-7-7-7-7------7-7-7-7-75-6------------------------------------------
D------------------------------------------------------------------------


Intro Melody #2 - (Clean 2X and then Distorted 2X, as written in the order
below, Palm Muted)
E------------------------------------------------------------------------
B------------------------------------------------------------------------
G------------------------------------------------------------------------
D--------5-7p5-----------------------------------------------------------
A---7-7-7------7-7-75-6---(7)--------------------------------------------
D------------------------------------------------------------------------
**Bend the last note (7) when playing this one distorted for the last time.


Mission Impossible 2 Melody -
E---15-12------15-12------15-12------15-12-------------------------------
B---------12---------11---------10---------13-13-13-13-12-12-12----------
G------------------------------------------------------------------------
D------------------------------------------------------------------------
A------------------------------------------------------------------------
D------------------------------------------------------------------------


Chorus #1 - (Heavy Distortion)
E------------------------------------------------------------------------
B------------------------------------------------------------------------
G------------------------------------------------------------------------
D------------------------------------------------------------------------
A------------------------------------------------------------------------
D---0-2-0-2-0-2-0-2--5-7--0-2-0-2-0-2-0-2--0-1---------------------------


Chorus #2 - (Heavy Distortion)
E------------------------------------------------------------------------
B------------------------------------------------------------------------
G------------------------------------------------------------------------
D---0-2-0-2-0-2-0-2--5-7--0-2-0-2-0-2-0-2--0-1---------------------------
A---0-2-0-2-0-2-0-2--5-7--0-2-0-2-0-2-0-2--0-1---------------------------
D---0-2-0-2-0-2-0-2--5-7--0-2-0-2-0-2-0-2--0-1---------------------------
**When I say Palm Mute Chorus #2, only palm mute the open chords
(Only P.Mute the zero's!) ;)


Chorus #3 - (Heavy Distortion)
E------------------------------------------------------------------------
B------------------------------------------------------------------------
G------------------------------------------------------------------------
D---2-2--5-7--2-2--0-1---------------------------------------------------
A---2-2--5-7--2-2--0-1---------------------------------------------------
D---2-2--5-7--2-2--0-1---------------------------------------------------


The order in which to play all these tabs:

Intro Melody #1 - 8X
MI:2 Melody - 2X
Intro Melody #1 - 2X
MI:2 Melody - 2X

Chorus #1 - 4X
Chorus #2 - 2X
Chorus #2 - 2X (Palm Mute)

Intro Melody #1 - 2X
MI:2 Melody - 4X

Chorus #1 - 4X
Chorus #2 - 2X
Chorus #2 - 2X (Palm Mute)
Chorus #3 - 2X

Intro Melody #2 - 8X (Clean, Palm Muted)
Intro Melody #2 - 4X (Distorted, Bend last note)

Chorus #2 - 2X
Chorus #2 - 2X (Palm Mute)

MI:2 Melody - 4X


LYRICS:

All the teachin' in the world today
All the little girls fillin' up the world today
When the good comes to bad the bad comes to good
But I'm a live my life like I should (Like I should)
Now all the critics wanna hit it
The shit can't ever dig it
Just because they don't get it
But I'll stay fitted
New era committed
Now this Red Cap gets a rap from his critics

Do we always gotta cry (Always gotta cry)
Do we always gotta live inside a lie (Live inside a, live inside a lie)
Life's just a blast (Just a blast)
And it's movin' really fast (Really fast)
So you'd better stay on top
Or life will kick you in the ass

Follow me into a solo
Remember that, kid
So whatcha wanna do?
And where you gonna run
When you're starin' down the cable
Of my ... mic pointed at your grill like a gun
Limp Bizkit is rockin' the set
It's like russian roulette
When you're placin' your bet
So don't be upset
When you're broke and you're done
Cause I'm 'onna be the one 'til I jet (I'm 'onna be the one 'til I jet)

CHORUS:
I know why you wanna hate me
I know why you wanna hate me
I know why you wanna hate me
Cause hate is all the world has even seen lately
I know why you wanna hate me
I know why you wanna hate me
Now I know why you wanna hate me
Cause hate is all the world has even seen lately
And now you wanna hate me
Cause hate is all the world has even seen lately
And now you wanna hate me
Cause hate is all the world has even seen lately

Does anybody really know the secret
Or the combination for this life and where they keep it
It's kinda sad when you don't know the meaning
But everything happens for a reason (Everything happens for a reason)
I don't even know what I should say
Cause I'm an idiot, a loser, a microphone abuser
I analyse every second I exist
Beatin' up my mind every second with my fist

And everybody wanna run (Wanna run)
Everybody wanna hide from the gun (Hide from the gun)
You take a rap through this life if you want
But you can't take the edge of the knife (No, sir)
And now you want your money back (Money back)
But your denied cause your brains fried from the sack
And there ain't nothin' I can do
Cause life is a lesson
You learn it when you're through

CHORUS

(Now... I... know... why...)
Now I know why you wanna hate me
....

Now I know why you wanna hate me (3x)
Cause hate is all the world has even seen lately (3x)
Вверх

The One

  Verse/Intro             this leads to verse after intro
E|------------------------|---|
B|------------------------|---|
G|------9-xxxx----9-8---8-|-0-|
D|---11---xxxx-11-----9---|-9-|
A|-9------xxxx------------|-9-|
E|------------------------|-7-|

  Chorus                  leads to verse
E|------------------------|--------|
B|------------------------|--------|
G|-----------9-9-9-9/11---|-11-9-0-|
D|-9-7-6-----9-9-9-9/11---|-11-9-9-|
A|-------7-9-7-7-7-7/9----|-9--7-9-|
E|------------------------|------7-|

  Bridge (Play progression of three last chords a couple times)
E|------------|
B|------------|
G|-11--11-9---|
D|-11--11-9-9-|
A|-9---9--7-9-|
E|----------7-|

  Bridge continued (Play distorted without effects)
E|----------------------|
B|----------------------|
G|-----------9-9-9-9/11-|
D|-9-7-6-----9-9-9-9/11-|
A|-------7-9-7-7-7-7/9--|
E|----------------------|

Weird bit
E|------------------------------|
B|------------------------------|
G|------------------------------|
D|------------------------------|
A|-7---5--4---5----7---5--4---2-|
E|------------------------------|
Вверх
English songs 109

ABBA
AC-DC
Adams Bryan
Adriano Celentano
Aerosmith
A-Ha
Animals
Antonio Banderos
Apocalyptica
Armstrong Louis
Billy's Band
Bjork
Blink 182
Blondie
Blur
Bob Dylan
Boney M
Bon Jovi
Bowie David
Brainstorm
Braxton Toni
Butch
Celine Dion
Chris De Burgh
Chris Isaak
Chuck Berry
Clapton Eric
Cohen Leonard
Cranberries
Deep Purple
Depeche Mode
Dire Straits
Donovan Jason
Eagles
Electric Light Orchestra
Elton John
Elvis Presley
Era
Europe
Evanescence
Garbage
Gary Moore
Glen Wiston
Gorillaz
Green Day
Guano Apes
Guns N Roses
Hendrix Jimi
Iggy Pop
Iron Maiden
Joe Dassin
Kansas
King Crimson
Kiss
Led Zeppelin
Leonard Cohen
Limp Bizkit
Linkin Park
Louis Amstrong
Madonna
Marilyn Manson
Marley Bob
Metallica
Moby
Morricone Ennio
Muse
Nazareth
Nelly Furtado
Nick Cave
Nirvana
No Doubt
Oasis
Offspring
Ottawan
Outkast
Ozzy Osbourne
Pain
Para Bellum
Pink Floyd
Placebo
P.O.D.
Queen
RadioHead
Rainbow
Rammstein
Rea Chris
Red Hot Chili Peppers
Ritchie Blackmore
Rolling Stones
Roxette
Rufus Wainwright
Santana
Sarah Brightman
Scorpions
Sex Pistols
Simon & Garfunkel
Shocking Blue
Soul Asylumx
Status Quo
Sting
System of a down
Sum 41
The Beatles
The Doors
Tito & Tarantula
U2
UB 40
Uriah Heep
Van Halen

Українські пісні 109

Boom Box
Escape
Flit
Kapela Drewutnia
Lama
LЮK
Mad Heads (XL)
Motor' rolla
NEON
Ot Vinta
The Вйо
Абздольц
Аероплан
Акорд
Ані Лорак
Бандурна розмова
Білик Ірина
Борщ
Брати Гадюкіни
Вася Club
Вій
Воплі Відоплясова
Гайдамаки
Гончар Олесь
Гринжоли
Гроно
Гуляйгород
Дарка і Славко
Дивні
Друга Ріка
Другий подих
Дударик
Експампей
Євтушенко Андрій
Жарівка (Дяк Олесь)
Журбовіз
Зібров Павло
Зінкевич Василь
Злотник Олександр
Івасюк Володимир
Калєкція
Карна
Карпа Ірена
Клямка
Козловський Віталій
Кому вниз
Крихітка Цахес
Курінь
Лесик-Band
Лорд Юрія
Львівські музики
Мандри
Менестрелі
Мері
Мертвий Півень
Міпеніум
Монте Крісто
Морозов Віктор
Нахтіґаль
Не журись!
Неборак Віктор
НеДІля
НЕМО
Нічлава блюз
Океан Ельзи
ПереBANDя
Перкалаба
Петрович
Піккардійська Терція
Піпа Олександр
Плач Єремїі
Пономарьов Олександр
Пророк
Росава
Ротару Софія
Руслана
Рутенія
С.К.А.Й.
САД
Самі свої
Серцевий Напад
Скрябін
Смерічка
Сокира Перука
Соколи
Таліта Кум
Тартак
Тінь сонця
Ткач Михайло
ТНМК
Тостер
Тріо Мареничів
Фарбований лис
Фестиваль Снів
Хвилю тримай
Цісик Квітка
Черемош
Черемшина
Четвертий кут
Чорний вересень
Чорні черешні
Шевченко Тарас
Щастя
Юркеш
Юрченко Юрко
Юрчишин Ярослав
Явір
Яка існуЄ
Яремчук Назарій

   
 sait@i.ua



Рейтинг@Mail.ru