accordS-land.ru Аккорды и табулатуры к гитаре.
Главная | Песенник | Аккорды | Учебник
Руссике песни 180
5nizza
7Б
9-й Район
Animal ДжаZ
Billy's Band
Butch
Para Bellum
TequilaJazzz
Worms
Zdob Si Zdub
Автоматические удовлетворители
Агата Кристи
Агузарова Жанна
Агутин Леонид
Адо
Аквариум
Алиса
Алсу
Амирамов Е.
Антонов Ю.
Арефьева Ольга
Ария
АукцЫон
Барыкин
Башаков Михаил
Башлачев Александр
БекХан
Бернес М.
Би - 2
Бони неМ
Борзов Найк
Боярский Михаил
Браво
Братья Грим
Ва-Банкъ
Вертинский Александр
Визбор Юрий
Високосный год
Воскресенье
Восьмая Марта
Высоцкий В.С.
Високосный год
Газманов О.
Галич Александр
Герман А.
Городницкий Александр
Глызин А.
Градский Александр
Гражданская Оборона
Гребещенков
Данко
ДДТ
Дидюля
Диоды
Дискотека Авария
Дягилева Янка
Ёлка
Жуки
Заблудовский Андрей
Запрещенные Барабанщики
Звери
Земляне
Земфира
Зинчук Виктор
Зоопарк
Иван Кайф
Иванов А.
Иваси
ИЗ КИНО И МУЛЬТФИЛЬМОВ
Империя
Калинов мост
Кашин Павел
Кельми К.
КИНО
Кипелов
Конец Фильма
Контингент
Корни
Король и Шут
Коррозия металла
Крематорий
Крупнов Анатолий
Кузьмин Владимир
Куликов Е.
Кукрыниксы
Курехин Сергей
Лаэртский Александр
Ласковый май
Ленинград
Леонидов Максим
Лесоповал
Лещенко Л.
Линда
Лицей
Лоза Юрий
Любэ
Люмен
Ляпис Трубецкой
Мальчишник
Манго-манго
Мара
Маркин В.
Маршал Александр
Маша и медведи
Машина времени
Мечтать
Мистер Кредо
Митяев Олег
Многоточье
Монгол Шуудан
Моральный Кодекс
Мультfильмы
Мумий Тролль
Настя
Науменко Майк
Наутилус Помпилиус
Непара
Неприкасаемые
Несчастный случай
Никоваев И.
Никольский Константин
Ногу свело
Ноль
Носков Николай
Ночные Снайперы
Окуджава Булат
Оркрист
Осин Е.
Оскар
Отиева И.
Паперный Т.А.М.
Парк Горького (Gorky Park)
Пикник
Пилот
Пламя
Полковник и однополчане
Пугачева А.
ПЭХ
Приключения Электроников
Просто прикольные песни
Рада и Терновник
Римский-Корсаков
Розенбаум Александр
Рок-Острова
Рондо
Сансара
Саруханов
Сегодня Ночью
Секрет
Сектор газа
Сенчина Л.
СерьГа
Смысловые Галлюцинации
Сплин
Солодуха А.
Старые блатные песни
Сукачев Гарик
Сурганова и Оркестр
Сюткин Валерий
Тальков Игорь
Танцы минус
Тараканы
Тату
Технология
УмаТурман
Умка и Броневичок
Ундервудъ
Фабрика звезд
Х.З. (Хуй Забей)
Центр
ЧайФ
Черный кофе
Черный Лукич
Чиж и Ко
Чистяков Федор
Шанхай
Щербаков Михаил
Ю-Питер

Классика 22

Албениз Исаак
Албениз Матео
Бах Иоган Себостьян
Бетховен Людвиг ван
Бизе Жорж
Брамс Иоганнес
Вивальди Антонио
Гендель Георг Фридрих
Гершвин Джордж
Григ Эдвард
Дебюсси Клод
Камиль Сен-Санс
Мендельсон
Моцарт Вольфгант Амадей
Мусоргский Модест Пертрович
Норис Крис
Огинский Михал Клеофас
Паганини Никколо
Рахманинов Сергей Васильевич
Римский-Корсаков
Чайковский Пётр Ильич
Шуберт Франц
 

 

Linkin Park

By Myself
Crawling
Easier To Run
Faint
From The Inside
Hit The Floor
In The End
My December
Numb
One Step Closer
Paper Cut
Paper Cut (2 вариант)
Part Of Me
Points Of Authority
Points Of Authority (2 вариант)
Pushing Me Away
Runaway
Somewhere I Belong
With You
Вверх

By Myself

Intro: D5,D#5,D5

Pre Chorus: A5,D5,D#5,D5

Chorus: A5,F5,D5

Bridge: D#5,A5

Verse:

What do I do to ignore them behind me?
Do I follow my instincts blindly?
Do I hide my pride / from these bad dreams
And give in to sad thoughts that are maddening?
Do I / sit here and try to stand it?
Or do I / try to catch them red – handed?
Do I trust some and get fooled by phoniness,
Or do I trust nobody and live in loneliness?
Because I can’t hold on / when I’m stretched so thin
I make the right moves but I’m lost within
I put on my daily facade but then
I just end up getting hurt again
By myself [myself]
I ask why, but in my mind
I find I can’t rely on myself

I can’t hold on
To what I want when I’m stretched so thin
It’s all too much to take in
I can’t hold on
To anything watching everything spin
With thoughts of failure sinking in

If I
Turn my back I’m defenseless
And to go blindly seems senseless
If I hide my pride and let it all go on / then they’ll
Take from me ‘till everything is gone
If I let them go I’ll be outdone
But if I try to catch them I’ll be outrun
If I’m killed by the questions like a cancer
Then I’ll be buried in the silence of the answer
[by myself]

How do you think / I’ve lost so much
I’m so afraid / I’m out of touch
How do you expect / I will know what to do
When all I know / Is what you tell me to
Don’t you know
I can’t tell you how to make it go
No matter what I do, how hard I try
I can’t seem to convince myself why
I’m stuck on the outside
Вверх

Crawling

Intro (Hard Distortion)

E|---------|
B|---------|
G|-5-1---3-|
D|-7-3-1-5-|
A|-7-3-3-5-|
E|-----3---|

Version

E|---------|
B|---------|
G|-5-1---3-|
D|-7-3-1-5-|
A|-7-3-3-5-|
E|-----3---|

   ^^^^^^^ (Palm Muting)

Pre-Chorus

E|---------|
B|---------|
G|-1-3-5-5-|
D|-3-5-7-7-|
A|-3-5-7-7-|
E|---------|
   ^^^^^^^ (Palm Muting)

Chorus = Intro

Chorus = Version


Crawling in my skin
These wounds / they will not heal
Fear is how I fall
Confusing what is real

There’s something inside me that pulls beneath the surface
Consuming / confusing
This lack of self control I fear is never ending
Controlling / I can’t seem
To find myself again
My walls are closing in
[Without a sense of confidence / I’m convinced
there?s just too much pressure to take]
I’ve felt this way before
So insecure

Discomfort, endlessly has pulled itself upon me
Distracting / reacting
Against my will I stand beside my own reflection
It’s haunting how I can’t seem
To find myself again
My walls are closing in
[Without a sense of confidence / I’m convinced
there?s just too much pressure to take]
I’ve felt this way before
So insecure...
Вверх

Easier To Run

Intro:
E|-------------------|
B|-5-7-8~-8-10-8-7~~-|  x4
G|-------------------|
D|-------------------|
A|-------------------|
E|-------------------|

Intro,Chorus (Guitar with distortion)

   Em Cm Dm Hm
E|-7--8--10-7-|
B|-7--8--10-7-|
G|-9--8--10-7-|
D|-9--10-12-9-|
A|-7--10-12-9-|
E|-7--8--10-7-|

вообще в куплете гитары я не слышал - но по теме можете играть
вступление без дисторшена

и где-то на 2.18 минуте песни примерно это (interlude)

   Cm Dm Em Hm
E|-8--10-7--7-|
B|-8--10-7--7-|
G|-8--10-9--7-|
D|-10-12-9--9-|
A|-10-12-7--9-|
E|-8--10-7--7-|
Вверх

Faint

Вступление и припев (distortion)

  Dm Am Gm  Am Fm
E|-5-12-10--12-8--|
B|-5-12-10--12-8--|
G|-7-14-12--14-10-|
D|-7-14-12--14-10-|
A|-5-12-10--12-8--|
E|-5-12-10--12-8--|

I am a little bit of loneliness a little bit of disregard
Handful of complaints but I can’t
help the fact that everybody can see
these scars
I am what I want you to want what I want you to feel
But it?s like no matter what I do,
I can?t convince you, to just believe
this is real
So I let go, watching you, turn your back like you always do
Face away and pretend that I?m not
But I?ll be here cause you want what I?ve got

[Chorus]
(I can?t feel the way I did before)
(Don?t turn your back on me)
(I won?t be ignored)
(Time won?t heal this damage anymore)
(Don?t turn your back on me)
(I won?t be ignored)

I am a little bit insecure a little unconfident
Cause you don?t understand I do what
I can but sometimes I don?t make
sense
I say what you never wanna say but I?ve never had a doubt
It?s like no matter what I do
I can?t convince you for once just to hear
me out
So I let go watching you turn your back like you always do
Face away and pretend that I?m not
But I?ll be here ?cause you’re all that I?ve got

[Chorus]
(I can?t feel the way I did before)
(Don?t turn your back on me)
(I won?t be ignored)
(Time won?t heal this damage anymore)
(Don?t turn your back on me)
(I won?t be ignored)

(Now)
(Hear me out now)
(You?re gonna listen to me, like it or not)
(Right now)
(Hear me out now)
(You?re gonna listen to me, like it or not)
(Right now)

(I can?t feel the way I did before)
(Don?t turn your back on me)
(I won?t be ignored)

[Chorus]
(I can?t feel the way I did before)
(Don?t turn your back on me)
(I won?t be ignored)
(Time won?t heal this damage anymore)
(Don?t turn your back on me)
(I won?t be ignored)

[Chorus]
(I can?t feel the way I did before)
(Don?t turn your back on me)
(I won?t be ignored)
(Time won?t heal this damage anymore)
(Don?t turn your back on me)
(I won?t be ignored)

I can?t feel
I won?t be ignored
Time won?t heal
Don?t turn your back on me
I won?t be ignored
Вверх

From The Inside

Вступление и припев (distortion):

   Dm Fm Bm Gm Am
E|-5--8--6--10-12-|
B|-5--8--6--10-12-|
G|-7--10-6--12-14-|
D|-7--10-8--12-14-|
A|-5--8--8--10-12-|
E|-5--8--6--10-12-|

Куплет:

   Dm Cm Dm Gm Am
E|-5--3--5--3--5-|
B|-5--3--5--3--5-|
G|-7--5--7--3--5-|
D|-7--5--7--5--7-|
A|-5--3--5--5--7-|
E|-5--3--5--3--5-|

Все остальные навороты песни идут от припева

I don’t know who to trust your surprise
(Everyone feels so far away from me)
Happy thoughts sift through dust and the lies
(Trying not to break but I’m so tired of this deceit)
(Every time I try to make myself get back up on my feet)
(All I ever think about is this)
(All the tiring time between)
(And how trying to put my trust in you just takes so much out of me)

[Chorus]
Take everything from the inside and throw it all away
Cuz I swear for the last time I won’t trust myself with you

Tension is building inside steadily
(Everyone feels so far away from me)
Happy thoughts forcing their way out of me
(Trying not to break but I’m so tired of this deceit)
(Every time I try to make myself get back up on my feet)
(All I ever think about is this)
(All the tiring time between)
(And how trying to put my trust in you just takes so much out of me)

[Chorus]
Take everything from the inside and throw it all away
Cuz I swear for the last time I won’t trust myself with you

I won’t waste myself on you
You
You
Waste myself on you
You
You

I’ll take everything from the inside and throw it all away
Cuz I swear for the last time I won’t trust myself with you

Everything from the inside and just throw it all away
Cuz I swear for the last time I won’t trust myself with you
You
You
Вверх

Hit The Floor

IntroVerse:
E|-----------------|
B|-----------------|
G|-----------------|
D|-----------------|
A|----0-4-0-1-11-0-|
E|-----------------|

Chorus:
D|-0-888-7-0-6-0-3-33-0-|
A|-0-888-7-0-6-0-3-33-0-|
E|-0-666-5-0-4-0-1-11-0-|

And then it?s all gone
D|-222-3-|
A|-222-3-|
E|-000-1-|

There are just too many
Times hat people have tried to look inside of me
Wondering what I think of you
And I protect you out of courtesy
To many times that I?ve held on when I needed to push away
Afraid to say what was on my mind
Afraid to say what I need to say
Too many things that you?ve said about me when I?m not around
You think having the upperhand means you gotta keep putting me down
But I?ve had too many stand offs with you
Its about as much as I can stand
So I?m waiting until the upperhand is mine

[Chorus:]
One minute you?re on top
Next, you?re not, watch you drop
Making your heart stop
Just before you hit the floor
One minute you?re on top
Next, you?re not, missed a shot
Making you?re heart stop
You think you?ve won, and then its all gone

So many people like me put so much trust in all your lies
So concerned on what you think to just say what we feel inside
So many people like me walk on eggshells all day long
All I know is that all I want is to feel like I?m not stepped on
There are so many things you say that make me feel you?ve crossed the line
What goes up will surely fall
And I?m counting down the time
?Cause I?ve had so many stand offs with you
Its about as much as I can stand
So I?m waiting until the upperhand is mine

[Chorus]

And then its all gone [3x]
Now its all gone

I know I?ll never trust a single thing you say
You knew your lies would divide us, but you lied anyway
And all the lies have got you floating up above us all
But what goes up has got to fall

[Chorus]

And then its all gone [3x]
Now its all gone
Вверх

In The End

Intro, Versus

E|---------------------------|
B|---12-12--10-8--7-(77)-8-7-|
G|-9-------------------------|
D|---------------------------|
A|---------------------------|
E|---------------------------|

Chorus (Hard Distortion)

E|----------------|
B|----------------|
G|--7--10-5-3~2~3-|
D|--9--12-7-5~4~5-|
A|--9--12-7-5~4~5-|
E|----------------|

It starts with
one thing/I don?t know why
It doesn?t even matter how hard you try
keep that in mind/I designed this rhyme
to explain in due time
All I knoe
Time is a valuable thing
Watch it fly by as the pendulum swings
Watch it count down to the end of the day
The clock ticks life away
Its so unreal
Didn?t look out below
Watch the time go right out the window
Trying to hold on/But didn?t even know
Wasted it all just to
Watch it go
I kept everything inside and even tho I tried/It all fell apart
What it meant to me will evetually/be a memory/of a time when

I tried so hard
And got so far
But in the end
It doesn?t even matter
I had to fall
And lose it all
But in the end
It doesn?t even matter

One thing/i don?t know why
Doesn?t even matter how hard you try
Keep that in mind/I designed this rhyme
To remind myself How
I tried so hard
In spite of the way you were mocking me
Actin like I was a part of ur property
Remembering all the times you fought w/ me/I?m surprised
It got so (far)
Things aren?t the way they were before
You wouln?t even reconize me anymore
Not that you knew me back then
But it all comes bak to me
In the end
You kept evetyhing inside and even though I tried
it all fell apart
What it meant to me
will eventually
be a memory
of a time when I

Tried so hard
And got so far
But in the end
It doesn?t even matter
I had to fall
And lose it all
But in the end
It doesn?t even matter

Repeat 2x:
I put my trust in you
Pushed as far as i can go
For all this
Theres only one thing u should know

I tried so hard
And got so far
But in the end
It doesn?t even matter
I had to fall
And lose it all
But in the end
It doesn?t even matter
Вверх

My December

Повторяется всю песню:

E|------------------------------------------------|
B|------------------------------------------------|
G|------------------------------------------------|
D|---4-3-4--------4-3-4--------4-3-4--------4-3-4-|
A|-6------------6------------4------------4-------|
E|------------------------------------------------|

Примерно в 0:15-0:19; 1:00-1:15...

E|-----------------------------|
B|-5-5-3-5-8---------5-5-3-5-7-|
G|-----------------------------|
D|-----------------------------|
A|-----------------------------|
E|-----------------------------|

Give it all away...

E|-----------------------------------|
B|-----------------------------------|
G|-5-5-5------------5-5-5-----7-7----|
D|-------5-4--------------5-4-----78-|
A|-----------------------------------|
E|-----------------------------------|
Вверх

Numb

Intro,Chorus (distortion), Куплет :

   Gm Dm# Am# Fm
E|--3--6--6---8--|
B|--3--6--6---8--|
G|--3--8--6---10-|
D|--5--8--8---10-|
A|--5--6--8---8--|
E|--3--6--6---8--|

1 - Pre-chorus

   Dm# Fm# Gm Am#  Dm# Fm#
E|--6--8---3--6-----6---8--|
B|--6--8---3--6-----6---8--|
G|--8--10--3--6-----6---8--|
D|--8--10--5--8-----8---10-|
A|--6--8---5--8-----8---10-|
E|--6--8---3--6-----6---8--|

2- Pre-chorus

   Dm# Fm# Gm Am#   x2
E|--6--8---3---6-|
B|--6--8---3---6-|
G|--8--10--3---6-|
D|--8--10--5---8-|
A|--6--8---5---8-|
E|--6--8---3---6-|

после 2ого припева:

   Dm# Fm# Gm Am Am# Cm    Dm# Fm# D
E|-6---8---3--5--6---8-----6---8---10-|
B|-6---8---3--5--6---8-----6---8---10-|
G|-8---10--3--5--6---8-----8---10--10-|
D|-8---10--5--7--8---10----8---10--12-|
A|-6---8 --5--7--8---10----6---8---12-|
E|-6---8---3--5--6---8-----6---8---10-|

I?m tired of being what you want me to be
Feeling so faithless lost under the surface
Don?t know what you?re expecting of me
Put under the pressure of walking in your shoes
(Caught in the undertow just caught in the undertow)
Every step I take is another mistake to you
(Caught in the undertow just caught in the undertow)

[Chorus]
I?ve become so numb I can?t feel you there
I?ve become so tired so much more aware
I?ve becoming this all I want to do
Is be more like me and be less like you

Can?t you see that you?re smothering me
Holding too tightly afraid to lose control
Cause everything that you thought I would be
Has fallen apart right in front of you
(Caught in the undertow just caught in the undertow)
Every step that I take is another mistake to you
(Caught in the undertow just caught in the undertow)
And every second I waste is more than I can take

[Chorus]
I?ve become so numb I can?t feel you there
I?ve become so tired so much more aware
I?ve becoming this all I want to do
Is be more like me and be less like you

And I know
I may end up failing too
But I know
You were just like me with someone disappointed in you

[Chorus]
I?ve become so numb I can?t feel you there
I?ve become so tired so much more aware
I?ve becoming this all I want to do
Is be more like me and be less like you

[Chorus]
I?ve become so numb I can?t feel you there
Is everything what you want me to be
I?ve become so numb I can?t feel you there
Is everything what you want me to be
Вверх

One Step Closer

 Intro:
e|----------------------|
b|----------------------|
G|----------------------|
D|----------------------|
A|----5--0--7-----------|
E|-0---------8--7--0--3-|

 Then:

e|-------------------|
b|-------------------|
G|--------9--------5-|
D|--0-0-0-9--------5-|
A|--0-0-0-7-8-7--0-3-|
E|--0-0-0---8-7--0---|

 Break:

G----------|
D-5-5-xx-x-|
A-5-5-xx-x-|
E-5-5-xx-x-|

В припеве не уверен:
                                          На последний
                                             раз
D|-0--0--0-12--10-10-7-7--9-9-5-5--7-7-3333-|33333-|
A|-0--0--0-12--10-10-7-7--9-9-5-5--7-7-3333-|33333-|
E|-0--0--0-12--10-10-7-7--9-9-5-5--7-7-3333-|33333-|

I cannot take this anymore
I?m saying everything I?ve said before
All these words they make no sense
I find bliss in ignorance
Less I hear the less you?ll say
But you?ll find that out anyway
Just like before...
Everything you say to me
Takes me one step closer to the edge
And I?m about to break
I need a little room to breathe
Cause I?m one step closer to the edge
And I?m about to break
I find the answers aren?t so clear
Wish I could find a way to disappear
All these thoughts they make no sense
I find bliss in ignorance
Nothing seems to go away
Over and over again
shut up when I?m talking to you
Вверх

Paper Cut

  Intro:
Eb|--10----12----13----12----10----12----13----12-------|
Bb|-----10----10----10----10----10----10----10----10----|
F#|-----------------------------------------------------|
C#|-----------------------------------------------------|
G#|-----------------------------------------------------|
C#|-----------------------------------------------------|

   Chorus:
Eb|----------------------------------------------|
Bb|----------------------------------------------|
F#|----------10--9--5----------------------------|
C#|--0-0-0----x--x--x--------------------1-1-3---|
G#|--0-0-0----8--7--3--------------------1-1-3---|
C#|--0-0-0-------------------------------1-1-3---|

   Verses: (Palm mute for 2nd verse)
Eb|------------------------------------------|
Bb|------------------------------------------|
F#|------------------------------------------|
C#|--0-0-0----3-3-3-3-2-2-------------1-1-3--|
G#|--0-0-0----1-1-1-1-0-0-------------1-1-3--|
C#|--0-0-0----------------------------1-1-3--|

   Ending:
Eb|---------------------------------------------------------|
Bb|---------------------------------------------------------|
F#|---------------------------------------------------------|
C#|--8-8-8---8---8-8-10-10-10---5-5-5---5--5-5-5-5---5-5-5--|
G#|--8-8-8---8---8-8-10-10-10---5-5-5---5--5-5-5-5---5-5-5--|
C#|--8-8-8---8---8-8-10-10-10---5-5-5---5--5-5-5-5---5-5-5--|

Why does it feel like night today?
Something in here?s not right today.
Why am I so uptight today?
Paranoia?s all I got left
I don?t know what stressed me first
Or how the pressure was fed / but
I know just what it feels like
To have a voice in the back of my head
It?s like a face that I hold inside
A face that awakes when I close my eyes
A face watches every time I lie
A face that laughs every time I fall
[And watches everything]
So I know that when it?s time to sink or swim
That the face inside is hearing me / right underneath my skin

It?s like I?m / paranoid lookin? over my back
It?s like a / whirlwind inside of my head
It?s like I / can?t stop what I?m hearing within
It?s like the face inside is right beneath my skin

I know I?ve got a face in me
points out all my mistakes to me
You?ve got a face on the inside too and
Your paranoia?s probably worse
I don?t know what set me off first but I know what
I can?t stand
Everybody acts like the fact of the matter is
I can?t add up to what you can but
Everybody has a face that they hold inside
A face that awakes when I close my eyes
A face watches every time they lie
A face that laughs every time they fall
[And watches everything]
So you know that when it?s time to sink or swim
That the face inside is watching you too
right inside your skin

The sun goes down
I feel the light betray me
Вверх

Paper Cut (2 вариант)

Intro

e|-10--12-13-12-| x4

Intro 2,Chorus

   D Fm  E  Fm
e|-5--8--7---1~-|
B|-5--8--7---1~-|
G|-7--10-9---1~-|
D|-7--10-9---3~-|
A|-5--8--7---3~-|
E|-5--8--7---1~-|

Why does it feel like night today?
Something in here?s not right today.
Why am I so uptight today?
Paranoia?s all I got left
I don?t know what stressed me first
Or how the pressure was fed / but
I know just what it feels like
To have a voice in the back of my head
It?s like a face that I hold inside
A face that awakes when I close my eyes
A face watches every time I lie
A face that laughs every time I fall
[And watches everything]
So I know that when it?s time to sink or swim
That the face inside is hearing me / right underneath my skin

It?s like I?m / paranoid lookin? over my back
It?s like a / whirlwind inside of my head
It?s like I / can?t stop what I?m hearing within
It?s like the face inside is right beneath my skin

I know I?ve got a face in me
points out all my mistakes to me
You?ve got a face on the inside too and
Your paranoia?s probably worse
I don?t know what set me off first but I know what I can?t stand
Everybody acts like the fact of the matter is
I can?t add up to what you can but
Everybody has a face that they hold inside
A face that awakes when I close my eyes
A face watches every time they lie
A face that laughs every time they fall
[And watches everything]
So you know that when it?s time to sink or swim
That the face inside is watching you too
 right inside your skin

The sun goes down
I feel the light betray me
Вверх

Part Of Me

начиная со слов "Part of me won?t go away..."
E|-------------------------------------------------------------|
B|-------------------------------------------------------------|
G|-------------------------------------------------------------|
D|6--6---6---6---9---9---4---4---6---6---6---6---8---8---4---4-|
A|-6---6---6---6---7---7---4---4---6---6---6---6---6---6---4--4|
E|-------------------------------------------------------------|
Вверх

Points Of Authority

Основной риф:
E|-------------------------------------------|
B|-------------------------------------------|
G|--7--7----7-----8-8------7------5--------8-|
D|--7--7----7-----8-8------7------5--------8-|
A|--7--7----7-----8-8------7------5--------8-|
E|--------0-----0-------0------0--------0----|

(Перед припевом последние три аккорда икраются без баса Ми и
медиатора, только скольжением пальца по грифу.

Припев:
E|------------------------------------|
B|------------------------------------|
G|----7--8--7--8--7--8--7--8----7-5-8-|
D|----7--8--7--8--7--8--7--8----7-5-8-|
A|----7--8--7--8--7--8--7--8----7-5-8-|
E|------------------------------------|
(Припев длится 8 тактов, при этом на каждый новый такт играется
один из двух аккордов. Лишь в самом конце припева звучит
ключевая последовательность аккордов, вводящая нас в куплет.)

Forfeit the game / Before somebody else
Takes you out of the frame / Puts your name to shame
Cover up your face / You can?t run the race
The pace is too fast / You just can?t last
You love the way I look at you
While taking pleasure in the awful things you put me through
You take away if I give in
My life
My pride is broken
You love the things I say I?ll do-
The way I?ll hurt myself again just to get back at you
You take away when I give in / my life
My pride is broken
You like to think you?re never wrong
You want to act like you?re someone
You want someone to hurt like you
You want to share what you?ve been through
(You live what you learn)
Вверх

Points Of Authority (2 вариант)

Intro
D|-----7-------7--------7-------7--|
A|---8---8---8---8---8---8---8---8-|
F|-9--------9-------9-------9------|
C|---------------------------------|
G|---------------------------------|
C|---------------------------------|

Intro 2 and Verse
D|------------------------------------------------------|
A|------------------------------------------------------|
F|------------------------------------------------------|
C|-2-2---2h3---3---0h2---2h3---0h2-2---2h3--x-2-x-0-x-3-|
G|-2-2---2h3---3---0h2---2h3---0h2-2---2h3--x-2-x-0-x-3-|
C|-2-2---2h3---3---0h2---2h3---0h2-2---2h3--x-2-x-0-x-3-|

Chorus
D|--------------------------------------|
A|--------------------------------------|
F|-4----5----4----5----4----5----4----5-|
C|-2----3----2----3----2----3----2----3-|
G|-2----3----2----3----2----3----2----3-|
C|-2----3----2----3----2----3----2----3-|

Forfeit the game / Before somebody else
Takes you out of the frame / Puts your name to shame
Cover up your face / You can?t run the race
The pace is too fast / You just can?t last
You love the way I look at you
While taking pleasure in the awful things you put me through
You take away if I give in
My life
My pride is broken
You love the things I say I?ll do-
The way I?ll hurt myself again just to get back at you
You take away when I give in / my life
My pride is broken
You like to think you?re never wrong
You want to act like you?re someone
You want someone to hurt like you
You want to share what you?ve been through
(You live what you learn)
Вверх

Pushing Me Away

Intro 1 (акустика)

E|-12-10----0--15-14-12--------------------12--14-15-|
B|-------12-------------12-10--15-12--8-10-----------|

Intro 2

  Em Cm D Gm Am Bm
E|-0--3-5-3--5--7-|
B|-0--3-5-3--5--7-|
G|-0--5-7-3--5--7-|
D|-2--5-7-5--7--9-|
A|-2--3-5-5--7--9-|
E|-0--3-5-3--5--7-|

Version = Intro 1

Pre-Chorus

   Cm D Am Gm
E|--3-5-5--3-|
B|--3-5-5--3-|
G|--5-7-5--3-|
D|--5-7-7--5-|
A|--3-5-7--5-|
E|--3-5-5--3-|

Chorus

  Em Cm Gm Am Bm
E|-0--3-3--5--7-|
B|-0--3-3--5--7-|
G|-0--5-3--5--7-|
D|-2--5-5--7--9-|
A|-2--3-5--7--9-|
E|-0--3-3--5--7-|

I?ve lied to you
The same way that I always do
This is the last smile
That I?ll fake for the sake of being with you

Pre chorus:
(Everything falls apart, even the people who never frown
eventually break down)
The sacrifice of hiding in a lie
(Everything has to end, you?ll soon find we?re out of
time left to watch it all unwind)
The sacrifice is never knowing

Why I never walked away
Why I played myself this way
Now I see your testing me pushes me away

I?ve tried like you
To do everything you wanted too
This is the last time
I?ll take the blame for the sake of being with you

Pre chorus
Chorus (2x)

We?re all out of time, this is how we find how it all unwinds
The sacrifice of hiding in a lie
We?re all out of time, this is how we find how it all unwinds
The sacrifice is never knowing

Chorus (2x)

Pushes me away...(2x)
Вверх

Runaway

Intro:
E|--------------------|
B|--------------------|
G|--------------------|
D|-------0------------|
A|--2---------------0-|
E|---------------3----|

E|---------------------|
B|---------------------|
G|---4---7-------------|
D|---4---7-----5----7--|
A|---2---5-----5----7--|
E|---------------3---5-|

Можно ещё играть так:

E|---------------------|
B|---------------------|
G|---------------------|
D|---9--12------5----7-|
A|---9--12------5----7-|
E|---7--10-------3---5-|

Graffiti decorations
Underneath a sky of dust
A constant wave of tension
On top of broken trust
The lessons that you taught me
I learn were never true
Now I find myself in question
They point the finger at me again
Guilty by association
You point the finger at me again

Paper bags and angry voices
Under a sky of dust
Another wave of tension
Has more than filled me up
All my talk of taking action
These words were never true
Now I find myself in question
They point the finger at me again
Guilty by association
You point the finger at me again

I wanna run away
Never say goodbye
I wanna know the truth
Instead of wondering why
I wanna know the answers
No more lies
I wanna shut the door
And open up my mind

Gonna run away...
E|-----------------------|
B|-----------------------|
G|-----------------------|
D|---9--9--9--9--9--9p10-|
A|---9--9--9--9--9--9p10-|
E|---7--7--7--7--7--7p-8-|
Вверх

Somewhere I Belong

Бас и гитара настроены в ре(D).!!!!

Вступление:

Гитара и бас играют вместе. На 8раз бас замолкает.

Гитара:

E |---6-------|
B |-----6-9-6-|
G |-----------|
D |-8---------| x 8 раз
A |-----------|
D |-----------|

Бас:
  Bb                 F#                G#               Eb
G -----------------|-----------------|-----------------|-----------------|
D -----------------|-----------------|-----------------|-----------------|
A -1-1-1-1-1-1-1-1-|-----------------|-----------------|-----------------|
D -----------------|-4-4-4-4-4-4-4-4-|-6-6-6-6-6-6-6-6-|-1-1-1-1-1-1-1-1-|

  Bb                 F#               G#
G -----------------|-----------------|-----------------|
D -----------------|-----------------|-----------------|
A -1-1-1-1-1-1-1-1-|-----------------|-----------------|
D -----------------|-4-4-4-4-4-4-4-4-|-6-6-6-6-6-6-6-6-|

Рифф:

E ---------|---------|---------|---------|
B ---------|---------|---------|---------|
G -3-3-3-3-|-6-6-6-6-|-3-3-3-3-|-3-3-3-3-|
D -3-3-3-3-|-6-6-6-6-|-4-4-4-4-|-1-1-1-1-|
A -1-1-1-1-|-4-4-4-4-|-1-1-1-1-|-1-1-1-1-|
D ---------|---------|---------|---------|

E ---------|---------|---------|---------|
B ---------|---------|---------|---------|
G -3-3-3-3-|-6-6-6-6-|---------|-3-3-3-3-|
D -3-3-3-3-|-6-6-6-6-|-6-6-6-6-|-1-1-1-1-|
A -1-1-1-1-|-4-4-4-4-|-3-3-3-3-|-1-1-1-1-|
D ---------|---------|-6-6-6-6-|---------|

Бас:

  Bb                Db                F#                Eb
G -----------------|-----------------|-----------------|-----------------|
D -----------------|-----------------|-----------------|-----------------|
A -1-1-1-1-1-1-1-1-|-4-4-4-4-4-4-4-4-|-----------------|-----------------|
D -----------------|-----------------|-4-4-4-4-4-4-4-4-|-1-1-1-1-1-1-1-1-|
  Bb                Db                G#                Bb
G -----------------|-----------------|-----------------|-----------------|
D -----------------|-----------------|-----------------|-----------------|
A -1-1-1-1-1-1-1-1-|-4-4-4-4-4-4-4-4-|-----------------|-1-1-1-1-1-1-1-1-|
D -----------------|-----------------|-6-6-6-6-6-6-6-6-|-----------------|

Куплет:

Гитара: Тоже самое что и в вступлении.

Бас:
  Bb                 F#                G#               Eb
G -----------------|-----------------|-----------------|-----------------|
D -----------------|-----------------|-----------------|-----------------|
A -1-1-1-1-1-1-1-1-|-----------------|-----------------|-----------------| x 4 раза
D -----------------|-4-4-4-4-4-4-4-4-|-6-6-6-6-6-6-6-6-|-1-1-1-1-1-1-1-1-|

Припев :

E ---------|---------|---------|---------|
B ---------|---------|---------|---------|
G -3-3-3-3-|-6-6-6-6-|-3-3-3-3-|-3-3-3-3-|
D -3-3-3-3-|-6-6-6-6-|-4-4-4-4-|-1-1-1-1-|
A -1-1-1-1-|-4-4-4-4-|-1-1-1-1-|-1-1-1-1-|
D ---------|---------|---------|---------|

E ---------|---------|---------|---------|
B ---------|---------|---------|---------|
G -3-3-3-3-|-6-6-6-6-|---------|-3-3-3-3-|
D -3-3-3-3-|-6-6-6-6-|-6-6-6-6-|-1-1-1-1-|
A -1-1-1-1-|-4-4-4-4-|-3-3-3-3-|-1-1-1-1-|
D ---------|---------|-6-6-6-6-|---------|

Бас:

  Bb                Db                F#                Eb
G -----------------|-----------------|-----------------|-----------------|
D -----------------|-----------------|-----------------|-----------------|
A -1-1-1-1-1-1-1-1-|-4-4-4-4-4-4-4-4-|-----------------|-----------------|
D -----------------|-----------------|-4-4-4-4-4-4-4-4-|-1-1-1-1-1-1-1-1-|
  Bb                Db                G#                Bb
G -----------------|-----------------|-----------------|-----------------|
D -----------------|-----------------|-----------------|-----------------|
A -1-1-1-1-1-1-1-1-|-4-4-4-4-4-4-4-4-|-----------------|-1-1-1-1-1-1-1-1-|
D -----------------|-----------------|-6-6-6-6-6-6-6-6-|-----------------|

Куплет 1

(When this began)
I had nothing to say
And I get lost in the nothingness inside of me
(I was confused)
And I live it all out to find, but I?m not the only person with these things in mind
(Inside of me)
But all that they can see the words revealed
Is the only real thing that i got left to feel
(Nothing to lose)
Just stuck hollow and alone
And the fault is my own, and the fault is my own

Припев:

I wanna heal, I wanna feel, What I thought was never real
I wanna let go of the pain I?ve felt so long
Erase all the pain til? it?s gone
I wanna heal, I wanna feel, like I?m close to something real
I wanna find something I?ve wanted all along
Somewhere I belong

Куплет 2

And I got nothing to say I can?t believe I didn?t fall right down on my face
(I was confused)
Look at everywhere only to find
It is not the way I had imagined it all in my mind
(So what am I)
What do I have but negativity
Cuz I can?t trust no one by the way everyone is looking at me
(Nothing to lose)
Nothing to gain, hollow and alone
And the fault is my own, and the fault is my own

Припев:

Куплет 3

I will never know myself until I do this on my own
Cuz i will never feel anything else until my wounds are healed
I will never be anything til? I break away from me
I will break away. I?ll find myself today

Припев:
Вверх

With You

INTRO/opening to chorus (* means a harmonic)
D|---------------------------|
A|---------------------------|
F|---------------------------|
C|---------------------------|
G|---------------------------|
C|-0-0--0-13/0--0-0-0-0-0-4*-|

VERSE (High B string and G)
D|-20---19------------------------20--------19-|
A|------------19---16-------16--------12-------|
F|---------------------------------------------|
C|---------------------------------------------|
G|---------------------------------------------|
C|---------------------------------------------|

CHORUS/second part of intro
D|---------------------------------------------|
A|---------------------------------------------|
F|----------------------------7--------------4-|
C|-2--------------------------5--------------x-|
G|-0------------2-------------3--------------5-|
C|--------------0----------------------------3-|

I woke up in a dream today
To the cold of the static / and put my cold feet on the floor
Forgot all about yesterday
Remembering I’m pretending to be where I’m not anymore
A little taste of hypocrisy
And I’m left in the wake of the mistake / slow to react
Even though you’re so close to me
You’re still so distant / And I can’t bring you back
It’s true / the way I feel
Was promised by your face
The sound of your voice
Painted on my memories
Even if you’re not with me
I’m with you
You / Now I see/ keeping everything inside
You / Now I see / Even when I close my eyes
I hit you and you hit me back
We fall to the floor / the rest of the day stands still
Fine line between this and that
When things go wrong I pretend the past isn’t real
Now I?m trapped in this memory
And I’m left in the wake of the mistake / slow to react
Even though you’re close to me
You’re still so distant / And I can’t bring you back
no
No matter how far we?ve come
I can?t wait to see tomorrow
With you
Вверх
English songs 109

ABBA
AC-DC
Adams Bryan
Adriano Celentano
Aerosmith
A-Ha
Animals
Antonio Banderos
Apocalyptica
Armstrong Louis
Billy's Band
Bjork
Blink 182
Blondie
Blur
Bob Dylan
Boney M
Bon Jovi
Bowie David
Brainstorm
Braxton Toni
Butch
Celine Dion
Chris De Burgh
Chris Isaak
Chuck Berry
Clapton Eric
Cohen Leonard
Cranberries
Deep Purple
Depeche Mode
Dire Straits
Donovan Jason
Eagles
Electric Light Orchestra
Elton John
Elvis Presley
Era
Europe
Evanescence
Garbage
Gary Moore
Glen Wiston
Gorillaz
Green Day
Guano Apes
Guns N Roses
Hendrix Jimi
Iggy Pop
Iron Maiden
Joe Dassin
Kansas
King Crimson
Kiss
Led Zeppelin
Leonard Cohen
Limp Bizkit
Linkin Park
Louis Amstrong
Madonna
Marilyn Manson
Marley Bob
Metallica
Moby
Morricone Ennio
Muse
Nazareth
Nelly Furtado
Nick Cave
Nirvana
No Doubt
Oasis
Offspring
Ottawan
Outkast
Ozzy Osbourne
Pain
Para Bellum
Pink Floyd
Placebo
P.O.D.
Queen
RadioHead
Rainbow
Rammstein
Rea Chris
Red Hot Chili Peppers
Ritchie Blackmore
Rolling Stones
Roxette
Rufus Wainwright
Santana
Sarah Brightman
Scorpions
Sex Pistols
Simon & Garfunkel
Shocking Blue
Soul Asylumx
Status Quo
Sting
System of a down
Sum 41
The Beatles
The Doors
Tito & Tarantula
U2
UB 40
Uriah Heep
Van Halen

Українські пісні 109

Boom Box
Escape
Flit
Kapela Drewutnia
Lama
LЮK
Mad Heads (XL)
Motor' rolla
NEON
Ot Vinta
The Вйо
Абздольц
Аероплан
Акорд
Ані Лорак
Бандурна розмова
Білик Ірина
Борщ
Брати Гадюкіни
Вася Club
Вій
Воплі Відоплясова
Гайдамаки
Гончар Олесь
Гринжоли
Гроно
Гуляйгород
Дарка і Славко
Дивні
Друга Ріка
Другий подих
Дударик
Експампей
Євтушенко Андрій
Жарівка (Дяк Олесь)
Журбовіз
Зібров Павло
Зінкевич Василь
Злотник Олександр
Івасюк Володимир
Калєкція
Карна
Карпа Ірена
Клямка
Козловський Віталій
Кому вниз
Крихітка Цахес
Курінь
Лесик-Band
Лорд Юрія
Львівські музики
Мандри
Менестрелі
Мері
Мертвий Півень
Міпеніум
Монте Крісто
Морозов Віктор
Нахтіґаль
Не журись!
Неборак Віктор
НеДІля
НЕМО
Нічлава блюз
Океан Ельзи
ПереBANDя
Перкалаба
Петрович
Піккардійська Терція
Піпа Олександр
Плач Єремїі
Пономарьов Олександр
Пророк
Росава
Ротару Софія
Руслана
Рутенія
С.К.А.Й.
САД
Самі свої
Серцевий Напад
Скрябін
Смерічка
Сокира Перука
Соколи
Таліта Кум
Тартак
Тінь сонця
Ткач Михайло
ТНМК
Тостер
Тріо Мареничів
Фарбований лис
Фестиваль Снів
Хвилю тримай
Цісик Квітка
Черемош
Черемшина
Четвертий кут
Чорний вересень
Чорні черешні
Шевченко Тарас
Щастя
Юркеш
Юрченко Юрко
Юрчишин Ярослав
Явір
Яка існуЄ
Яремчук Назарій

   
 sait@i.ua



Рейтинг@Mail.ru