accordS-land.ru Аккорды и табулатуры к гитаре.
Главная | Песенник | Аккорды | Учебник
Руссике песни 180
5nizza
7Б
9-й Район
Animal ДжаZ
Billy's Band
Butch
Para Bellum
TequilaJazzz
Worms
Zdob Si Zdub
Автоматические удовлетворители
Агата Кристи
Агузарова Жанна
Агутин Леонид
Адо
Аквариум
Алиса
Алсу
Амирамов Е.
Антонов Ю.
Арефьева Ольга
Ария
АукцЫон
Барыкин
Башаков Михаил
Башлачев Александр
БекХан
Бернес М.
Би - 2
Бони неМ
Борзов Найк
Боярский Михаил
Браво
Братья Грим
Ва-Банкъ
Вертинский Александр
Визбор Юрий
Високосный год
Воскресенье
Восьмая Марта
Высоцкий В.С.
Високосный год
Газманов О.
Галич Александр
Герман А.
Городницкий Александр
Глызин А.
Градский Александр
Гражданская Оборона
Гребещенков
Данко
ДДТ
Дидюля
Диоды
Дискотека Авария
Дягилева Янка
Ёлка
Жуки
Заблудовский Андрей
Запрещенные Барабанщики
Звери
Земляне
Земфира
Зинчук Виктор
Зоопарк
Иван Кайф
Иванов А.
Иваси
ИЗ КИНО И МУЛЬТФИЛЬМОВ
Империя
Калинов мост
Кашин Павел
Кельми К.
КИНО
Кипелов
Конец Фильма
Контингент
Корни
Король и Шут
Коррозия металла
Крематорий
Крупнов Анатолий
Кузьмин Владимир
Куликов Е.
Кукрыниксы
Курехин Сергей
Лаэртский Александр
Ласковый май
Ленинград
Леонидов Максим
Лесоповал
Лещенко Л.
Линда
Лицей
Лоза Юрий
Любэ
Люмен
Ляпис Трубецкой
Мальчишник
Манго-манго
Мара
Маркин В.
Маршал Александр
Маша и медведи
Машина времени
Мечтать
Мистер Кредо
Митяев Олег
Многоточье
Монгол Шуудан
Моральный Кодекс
Мультfильмы
Мумий Тролль
Настя
Науменко Майк
Наутилус Помпилиус
Непара
Неприкасаемые
Несчастный случай
Никоваев И.
Никольский Константин
Ногу свело
Ноль
Носков Николай
Ночные Снайперы
Окуджава Булат
Оркрист
Осин Е.
Оскар
Отиева И.
Паперный Т.А.М.
Парк Горького (Gorky Park)
Пикник
Пилот
Пламя
Полковник и однополчане
Пугачева А.
ПЭХ
Приключения Электроников
Просто прикольные песни
Рада и Терновник
Римский-Корсаков
Розенбаум Александр
Рок-Острова
Рондо
Сансара
Саруханов
Сегодня Ночью
Секрет
Сектор газа
Сенчина Л.
СерьГа
Смысловые Галлюцинации
Сплин
Солодуха А.
Старые блатные песни
Сукачев Гарик
Сурганова и Оркестр
Сюткин Валерий
Тальков Игорь
Танцы минус
Тараканы
Тату
Технология
УмаТурман
Умка и Броневичок
Ундервудъ
Фабрика звезд
Х.З. (Хуй Забей)
Центр
ЧайФ
Черный кофе
Черный Лукич
Чиж и Ко
Чистяков Федор
Шанхай
Щербаков Михаил
Ю-Питер

Классика 22

Албениз Исаак
Албениз Матео
Бах Иоган Себостьян
Бетховен Людвиг ван
Бизе Жорж
Брамс Иоганнес
Вивальди Антонио
Гендель Георг Фридрих
Гершвин Джордж
Григ Эдвард
Дебюсси Клод
Камиль Сен-Санс
Мендельсон
Моцарт Вольфгант Амадей
Мусоргский Модест Пертрович
Норис Крис
Огинский Михал Клеофас
Паганини Никколо
Рахманинов Сергей Васильевич
Римский-Корсаков
Чайковский Пётр Ильич
Шуберт Франц
 

 

Metallica

2x4
Ain't my bitch
Am I Evil
And Justice For All
And Justice For All Full Album
And Justice For All Intro
Astronomy
Attitude
Attitude (2 вариант)
Battery
Better Than You
Blackened
Blackened (2 вариант)
Bleeding Me
Bleeding Me (2 вариант)
Blues Jam
Breadfan
Breadfan (2 вариант)
Carpe Diem Baby
Crash Course In Brain Surgery
Crash Course In Brain Surgery (2 вариант)
Creeping Death
Cunning Stunts Bass Solo
Cure
Cure (2 вариант)
Devils Dance
Die Die My Darling
Dirty Window
Don`t Tread On Me
Dyers Eve
Enter Sandman
Enter Sandman (2 вариант)
Escape
Eye Of The Beholder
Fade To Black
Fight Fire With Fire
Fight Fire With Fire (2 вариант)
Fixxxer
For Whom The Bell Tolls
For Whom The Bell Tolls (2 вариант)
Frantic
Free Speech For The Dumb
Fuel
God Of Thunder
Green Hell
Green Hell (2 вариант)
Harvester of Sorrow
Harvester of Sorrow (2 вариант)
Helpless
Helpless (2 вариант)
Hero of the day
Hit The Lights
Hit The Lights (2 вариант)
Holier Than Thou
Holier Than Thou (2 вариант)
Human
Invisible Kid
It`s Electric
Jump In The Fire
Jump In The Fire (2 вариант)
Killing Time
King nothing
King Nothing (2 вариант)
Last Carress
Linus And Lucy
Live Shit
Live Shit (2 вариант)
London Dungeon
Loverman
Low Mans Lyric
Mama said
Master Of Puppets
Master Of Puppets Solo
Metal Militia
Mexico City Bass Solo
Minus Human
Motorbreath
My Friend Of Misery
No Leaf Clover
No Remorse
Nothing else matters
Nothing Else Matters (2 вариант)
One
Orion
Orion (2 вариант)
Phantom Lord
Phantom Lord (2 вариант)
Poor twisted me
Ride The Lighting
Ride The Lightning
Ride The Lightning (2 вариант)
Ronnie
Run To The Hills
Sabbra Cadabra
Sad But True
Sad But True (2 вариант)
Sanitarium
Sanitarium
Seek And Destroy
Seek & Destroy
Small Hours
So What
So What (2 вариант)
St. Anger
Stone Dead Forever
Struggle Within
Sucking My Love
Sweet Amber
The Call Of Ktulu
The Call Of The Ktulu
The Cure
The Four Horsemen
The Frayed Ends Of Sanity
The God That Failed
The God That Failed (2 вариант)
The God That Failed Solo
The House That Jack Built
The House That Jack Built (2 вариант)
The Memory Remains
The More I See
The Outlaw Torn
The Outlaw Torn (2 вариант)
The Shortest Straw
The Small Hours
The Small Hours (2 вариант)
The Struggle Within
The Thing That Should Not Be
The Unforgiven
The Unforgiven (2 вариант)
The Unforgiven II
The Wait
Thorn within
Through The Never
Trapped Under Ice
Trapped Under Ice (2 вариант)
Tuesdays Gone
Turn The Page
Until it sleeps
Wasting my hate
Where The Wild Things Are
Where The Wild Things Are (2 вариант)
Wherever I May Roam
Whiplash
Вверх

2x4

    P A T T E R N    O F    2  x  4

Проигрыш           R1 repeat four times
                        R2 w/R3 repeat four times
Версия  1                 R4 repeat four times
                        R2 w/R3 repeat two times
Версия  2                 R4 repeat four times
Retribution!    R5 repeat four times
Припев:          R1 repeat six times
                        R2 w/R3 repeat four times
Версия  3                 R4 repeat four times
Retribution!    R5 repeat three times
Припев:                  R1 repeat six times
Solo            R1 repeat four times w/S1
Interlude & Solo        R6 w/F1
                        R7 repeat four times w/S2
                        R7 repeat four times w/S3
Проигрыш                   R1 repeat two times
Retribution!    R5 repeat three times
Припев:          R1 repeat six times

TUNE DOWN HALF A STEP OR TO E FLAT
  (Проигрыш - R1)

E|---------------------------------------------|
B|---------------------------------------------|
G|---------------------------------------------|
D|-2-5~7-8-----2-5~7-8-----2-5~7-2-----2-5~7-2-|
A|-2-5~7-8-----2-5~7-8-----2-5~7-2-----2-5~7-2-|
E|-0-3~5-6-----0-3~5-6-----0-3~5-0-----0-3~5-0-|

   (R2)
E|-------------------------------------------------|
B|-------------------------------------------------|
G|-------------------------------------------------|
D|-2---2-5---2-7~8-9-------7~8-9-------8-----7---5-|
A|-2---2-5---2-7~8-7-------7~8-7-------8-----7---5-|
E|-0---0-3---0-5~6-------0-5~6-------0-6---0-5---3-|

(R3w/R2 - Played with wah and semi-artificial Harmonics)

E|-------------------------------------------------------|
B|-------------------------------------------------------|
G|-------------------------------------------------------|
D|-----------------------9-----------9-------------------|
A|-------------5-----7~8---------7~8---------8-----7---5-|
E|-7---7-----7-----------7-----------7-----7-------------|

  (Версия s - R4)

E|-----------------------------------------------|
B|-----------------------------------------------|
G|-----------------------------------------------|
D|-2---2-5---2-7---2-----8~7---5-----8~7---5-----|
A|-2---2-5---2-7---2-----8~7---5-----8~7---5-----|
E|-----0---0-3---0-5---0-----6~5---3-----6~5---3-|

(Retribution - R5)

E|-------------------|
B|-------------------|
G|-------------------|
D|-2-5~7-8---2-5~7-2-|
A|-2-5~7-8---2-5~7-2-|
E|-0-3~5-6---0-3~5-0-|

  (Припев: - R1)

E|-------------------------------------------------------|
B|-------------------------------------------------------|
G|-------------------------------------------------------|
D|-----------2-5~7-8-----2-5~7-8-----2-5~7-2-----2-5~7-2-|
A|-----------2-5~7-8-----2-5~7-8-----2-5~7-2-----2-5~7-2-|
E|-----------0-3~5-6-----0-3~5-6-----0-3~5-0-----0-3~5-0-|

(Solo - S1w/wah)

E|---------------12-------------------------------|
B|-15---15----------12----------------------------|
G|-14---14/------------14-12----12-14^12-14----12-|
D|------------------------------------------------|
A|------------------------------------------------|
E|------------------------------------------------|

  (Solo - S1w/wah)

E|-------------------------------------------------|
B|------------15/----------------------------------|
G|---------------16/^^^^^^^14^12-14----12-14^12----|
D|----------------------------------14----------14-|
A|-------------------------------------------------|
E|-------------------------------------------------|

(Solo - S1w/wah)

E|------------------------------------------------|
B|------------------------------------------------|
G|------------------------------------------------|
D|---------------------------------------14-15-17-|
A|---------------12-14-15-14-15-17----------------|
E|----12 13-15------------------------------------|

  (Solo - S1w/wah)

E|------19P15----19P15----19P15-19P15----19P15------19P15-|
B|------------17-------17-------------17--------17--------|
G|--------------------------------------------------------|
D|--------------------------------------------------------|
A|--------------------------------------------------------|
E|--------------------------------------------------------|

(Solo - S1w/wah)

E|------19P15----19P15----19P15-19P15----19P15----19P15-|
B|------------17-------17-------------17-------17-------|
G|------------------------------------------------------|
D|------------------------------------------------------|
A|------------------------------------------------------|
E|------------------------------------------------------|

(Solo - S1w/wah)

E|------19^17-15-17-15----15---------------------------|
B|---------------------19----19-17-19-15-15/-15/15/15/-|
G|-----------------------------------------------------|
D|-----------------------------------------------------|
A|-----------------------------------------------------|
E|-----------------------------------------------------|

  (Interlude - R6)

E|---------------------------------------------------------|
B|---------------------------------------------------------|
G|---------------------------------------------------------|
D|-2---5-----7---3---3-3-3-3-3-3-3-3-3-3-3-3-3-3-3---3---3-|
A|-2---5-----7---3---3-3-3-3-3-3-3-3-3-3-3-3-3-3-3---3---3-|
E|-0---3-----5---1---1-1-1-1-1-1-1-1-1-1-1-1-1-1-1---1---1-|

(Interlude - F1w/R6)

E|-----------------------------|
B|-----------------------------|
G|-9--------9-------9----------|
D|---9--------9-------9--------|
A|-----12-10----12-10---12-10--|
E|---------------------------\-|

  (R7)
E|--------------------------------|
B|--------------------------------|
G|--------------------------------|
D|------2-------5-------7-------5-|
A|------2-------5-------7-------5-|
E|------0-------3-------5-------3-|

(Solo - S2w/wah)

E|------------------------------------------------------|
B|-15---------------------------------------------------|
G|-14/--14/-14-12--14-12--14-12-11---12-11--------------|
D|------------------------------------------14-14Н16P14-|
A|------------------------------------------------------|
E|------------------------------------------------------|

(Solo - S2w/wah)

E|-----------------------------------------------------|
B|-----------------------------------------------------|
G|-----------------------------------------------------|
D|----12-14-12-----------------------------------------|
A|--------------12-14-12----12-14-12-------------------|
E|-----------------------------------15-14-12-10-10~12-|

(Solo - S2w/wah)

E|---------------------------------------------12------|
B|---15-15-15-15-------15-15-15----------15/15/--15-12-|
G|---14/14/14/14-12-14-14/14/14-12-14------------------|
D|-----------------------------------------------------|
A|-----------------------------------------------------|
E|-----------------------------------------------------|

  (Solo - S2w/wah)

E|---------------------------12-12-12------12-15/15-12-|
B|------------------------15-----------15--------------|
G|--14/12-14-------------------------------------------|
D|------------12~14-12---------------------------------|
A|-----------------------------------------------------|
E|-----------------------------------------------------|

(Solo - S2w/wah)

E|---12-15-12-15-17/-15----|
B|-------------------------|
G|-------------------------|
D|-------------------------|
A|-------------------------|
E|-------------------------|

  (Solo - S3w/wah)

E|----------------------------------------------|
B|---15--15---12Н15P12--------------------------|
G|---14/-14/------------12Н14P12----12Н14P12-11-|
D|----------------------------------------------|
A|----------------------------------------------|
E|----------------------------------------------|

 (Solo - S3w/wah)

E|-----------------------------------------------------|
B|-----------------------------------------------------|
G|----12-11Н12P11--12-11----12 ------------------------|
D|-----------------------14----12----------------------|
A|--------------------------------12-12~14---14 141414-|
E|-----------------------------------------------------|

   (Solo - S3w/wah)

E|-------------------------------------------------------|
B|-------------------------------------------------------|
G|------------------------------121212121212121212121212-|
D|------------------------12-14--------------------------|
A|-12--15-1515-12-151515---------------------------------|
E|-------------------------------------------------------|

(Solo - S3w/wah)

E|------------------12--------------------------|
B|--15/-15^12-----12---15-12----12--------------|
G|-------------14/-----------14--------14----12-|
D|---------------------------------14-----14----|
A|----------------------------------------------|
E|----------------------------------------------|

  (Solo - S3w/wah)

E|--17/-17/17/17^15----15-----------------------12-|
B|------------------17--------15/-15^12------12----|
G|---------------------------------------14/-------|
D|-------------------------------------------------|
A|-------------------------------------------------|
E|-------------------------------------------------|

(Solo - S3w/wah)

E|--15-12-12Н15P12-----12-------------|
B|------------------15----12-15-12-15-|
G|------------------------------------|
D|------------------------------------|
A|------------------------------------|
E|------------------------------------|

  (Solo - S3w/wah)
E|----------14----14-19----19-22/-|
B|-12----12----15-------20--------|
G|----12--------------------------|
D|--------------------------------|
A|--------------------------------|
E|--------------------------------|

TWO BY FOUR
(hetfield/Ulrich/hammett)

Yeah
I'm gonna make you, shake you, take you
I'm gonna be the one who breaks you
Put the screws into ya, my way
Yeah, c'mon, c'mon come and make my day
Make my day

Yeah
Got some hell to pay you, steal your thunder
The joy of violent movement, pulls you under
Ooh bite the bullet, well hard
Yea, but I bite harder, so go too far
Too far

Friction, fusion, retribution
I can't hear ya... talk to me
I can't hear ya... so talk to me
I can't hear ya are you talking to me
I can't hear ya are you talking to me
I can't hear ya trying to be my lord
I can't hear ya talking two by four

Yeah
I'm gonna make you, shake you, take you
I'm gonna be that one who breaks you
Put the screws into ya, my way
hhy c'mon, c'mon, come and make my day
Make my day

Friction, fusion, retribution
I can't hear ya... talk to me
I can't hear ya... talk to me
I can't hear ya are you talking to me
I can't hear ya while your talking to me
I can't hear ya trying to be my lord
I can't hear ya talking two by four

Talking two by four
Talking two by four

Friction, fusion, retribution
I'm going to make you... talk to me
I'm going to trick you... so talk to me
I can't hear ya are you talking to me
I can't hear ya are you talking to me
I can't hear ya trying to be my lord
I can't hear ya talking two by four
Yeah!
Вверх

Ain't my bitch

             Opening Riff      Main Riff (riff 1)
e|-------------------------------------------------------------|
B|-------------------------------------------------------------|
G|-------------------------------------------------------------|
D|----------------------------------------------5--------------|
A|-5-7----5-----5--6--7--7--7--7----5--7--7--7-----7--7--5--7--|
E|-0-0-0--3-----0--0--0--0--0--0----0--0--0--0--------0--0--0--|
          pm
        end of Riff 1     Fill 1 (play 3 times)|then play this |
e|---------------------------------------------|---------------|
B|----------------------------------------1/4--|---------------|
G|-----------------------------------------^---|---------------|
D|-----------------------------5-----7-----5---|--------5-----5|
A|-7--7--7---5--7-----5--5--7-----7-----7-----7|--5--7-----7---|
E|-0--0--0---0--0--0--3------------------------|---------------|
                     pm
       Riff 2
e|-------------------------------------------------------------|
B|-------------------------------------------------------------|
G|-----------------------------5-------------------------------|
D|5--6--7--7--7--7--7--5--7--7---7--7--5--7--7--7--7--5--7-----|
A|0--0--0--0--0--0--0--0--0--0---0--0--0--0--0--0--0--0--0--0-5|
E|---------------------------------------------------------pm-3|

e|-------------------------------------------------------------|
B|-------------------------------------------------------------|
G|-------------------------------------------------------------|
D|--2----------------------------------------------------------|
A|--2---------------------------2-2-2-2-2-2-2-2-2-2-2-2-2-2-2-2|
E|--0---------------------------0-0-0-0-0-0-0-0-0-0-0-0-0-0-0-0|
You've arrived,but now it's time to kiss your ass goodbye!

     Припев: Riff
e|--------------------------------------------------------0---0|
B|------------------------------------------------------0---0--|
G|-4-2------------------------------------------------4---2----|
D|-4-2-5----------------------------------------------4---2----|
A|-2-0-5-5-4-3----------------------------------------2---0----|
E|-----3-3-2-1-0000-3p000-00-3p000-3p000-00-3p000-3p0----------|
               pm...........................
     ... ain't my bitch!           Solo's rhythm part

e|----0-----------|-------------------------------|------------|
B|--0-------------|-------------------------------|------------|
G|----------------|--------------2-----4-----2----|------2---2-|
D|5-------------2-|--------2-----2-----4-----2--4-|-2----2---2-|
A|5----5--4--3--2-|--------2--4-----4-----4-----4-|-2--4---4---|
E|3----3--2--1--0-|-------------------------------|------------|
       pm.....               repeat this part 3 times then this

Now change all the 2s to 4s and 4s to 6s for the rythm part
   of the solo.

Solo:w/slide on pinky  (Transcribed by:Jeff Jacobson)
E|-------------------------------------------------------------|
B|--------------~~~~~-----------11-(11)--(11)\-/11--12--13--/14|
G|-/11-11\9-----11----(11)\9/11----(11)--(11)\-----------------|
D|-/11------11-------------------------------------------------|
A|-------------------------------------------------------------|
E|-------------------------------------------------------------|

E|------------14--|
B|--14\12/14------|
G|----------------| 5 раз
D|----------------|
A|----------------|
E|----------------|
             ~~~~~               ~~~ ~~~~   ~~~~ ~~~  ~~~ ~~
E|--14----14/17-(17)\------16----16----------16-----16-----/19-|
B|--------14/----------/16----16-----16---16----16-----16\-----|
G|-------------------------------------------------------------|
D|-------------------------------------------------------------|
A|-------------------------------------------------------------|
E|-------------------------------------------------------------|
                                              ~~~~
E|-(19)\--------~~~~-------------------------------11/14-(14)\-|
B|--19\--------/12----(12)---(12)\--/7\5-9\7-12\11-------------|
G|--------/9\--------------------------------------------------|
D|-------------------------------------------------------------|
A|-------------------------------------------------------------|
E|-------------------------------------------------------------|
                                             ~~~~~~~~~
E|----------------11/14-14\/19\-/19--(19)-------/19\-/12\------|
B|-/7\5-9\7-12\11------------------------------------------/12\|
G|-------------------------------------------------------------|
D|-------------------------------------------------------------|
A|-------------------------------------------------------------|
E|-------------------------------------------------------------|

E|-------------------------------------------------------------|
B|-7--(7)/9--------(9)-------(9)------(9)----------------------|
G|-7--(7)/9--------(9)-------(9)------(9)----------------------|
D|-------------------------------------------------------------|
A|-------------------------------------------------------------|
E|-------------------------------------------------------------|

Extra Riff:
E|-------------------------------------------------------------|
B|-------------1/2----------Full-------------------------------|
G|---------------^-----------^----^--------------------------~~|
D|-----5---7----5-------5-7-7--7-5-------5---7---5-------5---5-|
A|-5-7---7---7----7-5-7------------7-5-7---7---7---7-5-7---7---|
E|-------------------------------------------------------------|

Ending Riff:Guitar1:      Guitar2:
E|-----------------------|-------------------------------------|
B|.---------------------.|.------------------------------------|
G|--4------2-------------|-------------------------------------|
D|--4------2------5----2-|--/9--9\7----7\5----5\2--2/----------|
A|.-2------0------5----2.|.------------------------------------|
E|----------------3----0-|-------------------------------------|


Ending Riff:
E|-------------------------------------------------------------|
B|-------------------------------------------------------------|
G|-------------------------------------------------------------|
D|---5---5--5--4--3--2--5--4--3--2--5--4--3---2--5--4--3-------|
A|---5---5--5--4--3--2--5--4--3--2--5--4--3---2--5--4--3-------|
E|---3---3--3--2--1--0--3--2--1--0--3--2--1---0--3--2--1-------|

(Repeat Beginning Riff at end)

Well that's pretty much the whole song.

AIN'T MY BITCH
(Hetfield/Ulrich)

Out of my way
Out of my day
Out of your mind and into mine
It's no more
It's not born
Into your step but out of time

It's strong
What's wrong
I've already heard this song before
You're right but now it's time to kiss your ass good-bye

Dragging me down
While you were round
So useless
It ain't my fault
It ain't my call
It ain't my bitch
Ain't my bitch

Down on the sun
Down on your fun
Down and out where the hell you've been
Damn it all down
Damn it unbound
Damn it all down ta hell again

Stand tall
They fall
Never even meant it all before
You're right but now it's time to kiss your ass good-bye

Dragging me down
While you were round
So useless
It ain't my fault
It ain't my call
It ain't my bitch

Out of my way

Out of my way

Out of my day
Out of your mind and into mine
It's no more
It's not born
Into your step but out of time

It's strong
What's wrong
I've already heard this song before
You're right but now it's time to kiss your ass good-bye
And now it's time to kiss your ass good-bye

Dragging me down
While you were round
So useless
It ain't my fault
It ain't my call
It ain't my bitch

No way but down
While you were round
No foolin'
It ain't my smile
It ain't my style
It ain't my bitch

Ain't mine
Ain't mine
Your kind
Your stepin' out of time

Dragging me down
While you were round
No foolin'
It ain't my fault
It ain't my call
It ain't my bitch
Ain't my
Вверх

Am I Evil

Gtr 1 : Distorted

E||---||----------------|----------------|---------------------|
B||-4-||----------------|----------------|---------------------|
G||---||-9----------7-9-|-10----------12-|-9---9-9-9-9---9-9-9-|
D||-4-||-9----------7-9-|-10----------12-|-9---9-9-9-9---9-9-9-|
A||---||-7----------5-7-|-8-----------10-|-7---7-7-7-7---7-7-7-|
E||---||----------------|----------------|---------------------|

E|---------------------|-----------------|---------------------|
B|---------------------|-----------------|---------------------|
G|-9-9-9-9-7-7-7-7-7-7-|-9-9-9-9-9-9-9-9-|-9-9-9-9-7-7-7-7-7-7-|
D|-9-9-9-9-7-7-7-7-7-7-|-9-9-9-9-9-9-9-9-|-9-9-9-9-7-7-7-7-7-7-|
A|-7-7-7-7-5-5-5-5-5-5-|-7-7-7-7-7-7-7-7-|-7-7-7-7-5-5-5-5-5-5-|
E|---------------------|-----------------|---------------------|

Gtr 2 : Distorted
( Trem Strum )
E|----|
B|----|
G|----|
D|-14-|
A|-14-|
E|-12-|

Gtr 1 doubles Gtr 2

E|---|-------------|---|
B|---|-------------|---|
G|*--|-------------|---|
D|-2-|-9-9-9-9-9-9-|-8-|
A|*2-|-9-9-9-9-9-9-|-8-|
E|-0-|-7-7-7-7-7-7-|-6-|

E|-------------|---|-------------|
B|-------------|---|-------------|
G|------------*|---|-------------|
D|-3-3-3-3-3-3-|-2-|-9-9-9-9-9-9-|
A|-3-3-3-3-3-3*|-2-|-9-9-9-9-9-9-|
E|-1-1-1-1-1-1-|-0-|-7-7-7-7-7-7-|

E|---|-------------------|---|
B|---|-------------------|---|
G|---|-10-10-10-10-10-10-|-9-|
D|-8-|-10-10-10-10-10-10-|-9-|
A|-8-|-8--8--8--8--8--8--|-7-|
E|-6-|-------------------|---|

E|-------------|---|-------------|
B|-------------|---|-------------|
G|-------------|---|-------------|
D|-9-9-9-9-9-9-|-8-|-3-3-3-3-3-3-|
A|-9-9-9-9-9-9-|-8-|-3-3-3-3-3-3-|
E|-7-7-7-7-7-7-|-6-|-1-1-1-1-1-1-|

E|---|-------------|----------------------|
B|---|-------------|----------------------|
G|---|-------------|*---------------------|
D|-2-|-7-7-7-7-7-7-|-/9---9-9-9-9---9-9-9-|
A|-2-|-5-5-5-5-5-5-|*/7---7-7-7-7---7-7-7-|
E|-0-|-------------|----------------------|

Gtr 1 : Grad rit.
	(Repeat 3 times)
E|-----------------------|---------------|----------------|
B|-----------------------|---------------|----------------|
G|----------------------*|---------------|-------------10-|
D|-9---9-9-9-7-7-7-7-7-7-|---------------|-----9---8------|
A|-7---7-7-7-5-5-5-5-5-5*|-------------8-|-7--------------|
E|-----------------------|-0---7---6-----|----------------|

E|----------------------------|
B|----------------------------|
G|-9---10---/12---/14-----/16-|
D|----------------------------|
A|----------------------------|
E|----------------------------|

Gtr 2 : Intro solo. (See comments at end)
E|---------------------------------|
B|-058-058-058-058-058-058-058-058-|
G|---------------------------------|
D|---------------------------------|
A|---------------------------------|
E|---------------------------------|

E|---------------------------------|
B|-047-047-047-047-047-047-047-047-|
G|---------------------------------|
D|---------------------------------|
A|---------------------------------|
E|---------------------------------|

E|-----------------------------------|
B|-058-058-058-058-0710-0710-058-058-|
G|-----------------------------------|
D|-----------------------------------|
A|-----------------------------------|
E|-----------------------------------|

	(Hold last note..)
E|-----------------------------|
B|-047-047-047-047-047-047-047-|
G|-----------------------------|
D|-----------------------------|
A|-----------------------------|
E|-----------------------------|

E|-----------------------|
B|-----------------------|
G|-----------------------|
D|-----5-----------------|
A|-5-----------5-------7-|
E|---------5-------7-----|

"One, Two"		(Repeat Main Riff 8 times before verse)

Main Riff :
E|------------------------------|
B|------------------------------|
G|*----------------------------*|
D|---------------2---------3--2-|
A|*2-2-2-2-5-2-2-0-2-2-2---1--0*|
E|-0-0-0-0-3-0-0---0-0-0--------|

(Main Riff with verse 1)

Verse 1 : (Lyrics)

My mother was a witch, she was burned alive.
Thankless little bitch, for the tears i`ve cried.
Take her down now, don`t want to see her face.
All blistered and burned, can`t hide my disgrace.

Pre-Chorus riff :
E|------------------------------|
B|------------------------------|
G|*----------------------------*|
D|---------7-----9---------10-9-|
A|*7-7-7-7-5-7-7-7-7-7-7---8--7*|
E|-5-5-5-5---5-5---5-5-5--------|

(Pre-Chorus riff x 4 with Pre-Chorus)

Pre-Chorus : (Lyrics)

Twenty-seven, every one is nice,
Gotta see `em, make `em pay the price,
See the bodies out on the ice,
Take my time.......

(Main Riff x 4 with Chorus)

Chorus : (Lyrics)

Am I Evil?
Yes I am,
Am I Evil?
I am that, yes I am....

*Main Riff x 2*

(Main Riff x 8 with verse 2)

Verse 2 : (Lyrics)

As i watched my mother die, I lost my head,
Revenge now I sought, to break with my bread,
Taking no chances, you come with me,
I split you to the bone, help set you free.

(Pre-chorus riff x 4 with pre-chorus)

(Main Riff x 4 with chorus)

Bridge :

E|------------------|------------------------------|
B|------------------|------------------------------|
G|*9-----7-----5---*|------------------------------|
D|-9-----7-----5----|---------------2---------3--2-|
A|*7-----5-----3---*|-2-2-2-2-5-2-2-0-2-2-2---1--0*|
E|------------------|-0-0-0-0-3-0-0---0-0-0--------|

               (Repeat 3 times)
E|------------------|-----------------|----|
B|------------------|-----------------|----|
G|*9-----7-----5---*|-9-----11-----12-|----|
D|-9-----7-----5----|-9-----11-----12-|----|
A|*7-----5-----3---*|-7-----9------10-|-/7-|
E|------------------|-----------------|----|

Double Time feel :

Fast Riff 1:
E|---------------|------------|---------------|-------------|
B|---------------|------------|---------------|-------------|
G|*--------------|------------|---------------|------------*|
D|---------------|----------7-|---------------|--------5----|
A|*7-7777-7-7777-|-7-7777-5-5-|-7-7777-7-7777-|-7-7777-3-5-*|
E|-5-5555-5-5555-|-5-5555-3---|-5-5555-5-5555-|-5-5555---3--|

Fast Riff 2 : (Note : Lyrics)
E|--------------|----------------|--------------|-----------|
B|--------------|----------------|--------------|-----------|
G|--------------|----------------|*-------------|-----------|
D|--------------|----------------|--------------|----------7|
A|-7-7777-7-7777|----------------|*2-2222-2-2222|-2-2222-2-5|
E|-5-5555-5-5555|-555-555-555-532|-0-0000-0-0000|-0-0000-0--|

E|---------------|---------------|
B|---------------|---------------|
G|---------------|--------------*| Repeat whole sequence again.
D|---------------|----------7-7--|
A|-2-2222-2-2222-|-2-2222-2-5-5-*|
E|-0-0000-0-0000-|-0-0000-0------|

(With Fast Riff 2 [First repeat])

Lyrics :

(With Fast Riff 2 [Second repeat])

Lyrics :

*Then Fast Riff 1 x 1*
E|---|-----------|
B|---|-----------|
G|---|-----------|
D|-2-|-5-------7-|
A|-2-|-5-------7-|
E|-0-|-3-------5-|

GUITAR SOLO:

For the solo, the rhythm follows the following `feel`:

    X       X         X       X
|-X--XXXX-X-XXXX--|-X--XXXX-X-XXXX--|

Chord changes are noted above tab lines, and are 2 or 3
fingered power chords, depending on what you feel like. For the
`XX` notes, strike the full chord, on the others just play the
lowest note (Usually the E string)

   B5
E|-----------7-------|----------------11-12-|
B|------------10-7-7/|/12-----------12------|
G|-9^^^^^^^^^--------|----------------------|
D|-------------------|----------------------|
A|-------------------|----------------------|
E|-------------------|----------------------|

E|-11-12-11---11-12-14-14-14-12-11-12-11----|--------7-|
B|---------12----------------------------12-|-10--/7---|
G|------------------------------------------|----------|
D|------------------------------------------|----------|
A|------------------------------------------|----------|
E|------------------------------------------|----------|

E|-10-9-7-7-9-7----7------|------------------------|
B|--------------10---10-7-|-10-7---7---------------|
G|------------------------|------9---9-7-9-7---7-7-|
D|------------------------|------------------9-----|
A|------------------------|------------------------|
E|------------------------|------------------------|

E|-----7------------------|-----7------------------|
B|-----7-10-7---7---------|-----7-10-7---7---------|
G|-9^^--------9---9-7-7-7-|-9^^--------9---9-7-7-7-|
D|------------------------|------------------------|
A|------------------------|------------------------|
E|------------------------|------------------------|

 (Full)
E|-----7-----------------------|-/19--/20---/22---/24-|
B|-----7-10-7---7--------------|----------------------|
G|-9^^--------9---9-7-7------7-|----------------------|
D|-----------------------------|----------------------|
A|-----------------------------|----------------------|
E|-----------------------------|----------------------|

   E5
E|-15-14-12----12-14-15-14-12----12-14-|
B|----------15----------------15-------|
G|-------------------------------------|
D|-------------------------------------|
A|-------------------------------------|
E|-------------------------------------|

E|-15-14-12----12-14-15-14-12----12-14-|
B|----------15----------------15-------|
G|-------------------------------------|
D|-------------------------------------|
A|-------------------------------------|
E|-------------------------------------|

E|-15---14---12--------12------|-------------------------|
B|----------------15--------15-|-14---12---14------------|
G|-----------------------------|----------------12======-|
D|-----------------------------|-------------------------|
A|-----------------------------|-------------------------|
E|-----------------------------|-------------------------|

   B5
  (Full)
E|------7-0-0-9-0-0-10-0-0-|-12-0-0-10-0-0-9-0-0-7-0-0-|
B|----7--------------------|---------------------------|
G|-9^----------------------|---------------------------|
D|-------------------------|---------------------------|
A|-------------------------|---------------------------|
E|-------------------------|---------------------------|

E|-10---9---7--------7------|---------------------|
B|--------------10-------10-|-9---7---9-----------|
G|--------------------------|-------------7======-|
D|--------------------------|---------------------|
A|--------------------------|---------------------|
E|--------------------------|---------------------|

E|-----------------|-----------------|
B|-047-047-047-047-|-058-058-058-058-|
G|-----------------|-----------------|
D|-----------------|-----------------|
A|-----------------|-----------------|
E|-----------------|-----------------|

E|-----------------|-047-047-047-047-|
B|-047-047-047-047-|-----------------|
G|-----------------|-----------------|
D|-----------------|-----------------|
A|-----------------|-----------------|
E|-----------------|-----------------|

                                       A5
E|-058-058-058-058-|-047-047-047-047-|-1285-1285-1285-1285-|
B|-----------------|-----------------|---------------------|
G|-----------------|-----------------|*-------------------*|
D|-----------------|-----------------|---------------------|
A|-----------------|-----------------|*-------------------*|
E|-----------------|-----------------|---------------------|

   F5                    A#5
E|-1385-1385-1385-1385-|-1396-1396-1396-1396-|
B|---------------------|---------------------|
G|*-------------------*|*-------------------*|
D|---------------------|---------------------|
A|*-------------------*|*-------------------*|
E|---------------------|---------------------|

 F#5
E|-1496-1496-1496-1496-|
B|---------------------|
G|---------------------|
D|---------------------|
A|---------------------|
E|---------------------|

   B5
E|-14107-14107-14107-14107-|-047-----047-----|-047-----047-----|
B|-------------------------|-----047-----047-|-----047-----047-|
G|*-----------------------*|-----------------|-----------------|
D|-------------------------|-----------------|-----------------|
A|*-----------------------*|-----------------|-----------------|
E|-------------------------|-----------------|-----------------|

E|-----------------|     E|-----------------|
B|-047-----047-----|     B|-----------------|
G|-----047-----047-| x2  G|-047-----047-----| x2
D|-----------------|     D|-----047-----047-|
A|-----------------|     A|-----------------|
E|-----------------|     E|-----------------|

E|-----------------|-------------------|
B|-----------------|----------------12-|
G|-----------------|-------------/14---|
D|-047-----047-----|-------------------|
A|-----047-----047-|-------------------|
E|-----------------|-7-----------------|

  E5
E|-------------------------------------|
B|-1514-0-0-1715-0-0-1514-0-0-1715-0-0-|
G|-------------------------------------|
D|-------------------------------------|
A|-------------------------------------|
E|-------------------------------------|

E|-------------------------------------|
B|-1514-0-0-1715-0-0-1514-0-0-1715-0-0-|
G|-------------------------------------|
D|-------------------------------------|
A|-------------------------------------|
E|-------------------------------------|

E|---------------------------------|
B|-1514-0-1412-0-1210-0-109-0-97-0-|
G|---------------------------------|
D|---------------------------------|
A|---------------------------------|
E|---------------------------------|

               B5
E|-----------|----------------------|------------10^====|
B|-7---------|-10^------107---7-----|-------------------|
G|-7-9-7---7-|--------------9---9-7-|-9-7---7-----------|
D|-----------|----------------------|-----9-------------|
A|-----------|----------------------|-------------------|
E|-----------|----------------------|-------------------|

(END SOLO)
E|-9----12-------------------|-----------------|
B|-----------10-12-10-8-10-8-|-7-8-7-5-6-5--3=-|
G|---------------------------|-----------------|
D|---------------------------|-----------------|
A|---------------------------|-----------------|
E|---------------------------|-----------------|

*Fast Riff 1 x 2 ( Note : Only repeat the first section )*

On fourth repeat, Gtr 2 plays:

E|------------------|
B|------------------|
G|------------------|
D|-/777-777-777-75--|
A|----------------7-|
E|------------------|

*Fast Riff 2 x 4*
*Fast Riff 1 x 4*

(Triplet feel - not strict time)

E|-------------|----------------------|-------|
B|-------------|----------------------|-------|
G|-------------|---------------------*|-------|
D|-----9---7-7-|-7-7------------------|-7-----|
A|-----7---5-5-|-5-5---------5-7-5---*|-5---7-|
E|-0-0---------|---------5-7-------7--|-----5-|

              (Repeat 6 times)
E|----------------------------|---------------|
B|----------------------------|---------------|
G|*--------------------------*|---------------|
D|---------------2--------3-2-|-------------2-|
A|*2-2-2-2-5-2-2-0-2-2-2--1-0*|---------5---2-|
E|-0-0-0-0-3-0-0---0-0-0------|-5---5---3---0-|
Вверх

And Justice For All

Bass Riff1
G|---------------------------|
D|---------------------------|
A|-2-2-2-2-2-2-1-1-1-1-1-0-1-|
E|---------------------------|

Bass Riff2
G|-------------------------------------------4-------------3---|
D|---------------------7------------------4--------------3-----|
A|-7-7-7-7-5h7-5-5-5-5---5-3-3-3-3-3h5-2-2--2--2-1-1-3-1-----1-|
E|-------------------------------------------------------------|

Bass Riff3
G|-------------------------------------------------------------|
D|---------------------------------------------------------3-2-|
A|-------------------------------------------------------0-----|
E|-6----6-5----6-5-4----6-5-4-3----6-5-3-1-5-3-1-0-3-1-0-------|

Bass Riff3 (cont.)
G|-------------------------------|
D|-------------------------------|
A|-3--2--0-----2-0-----0---------|
E|----------3------3-2---3-2-1-0-|

Bass Riff4
G|-------------------------------------------------------------|
D|-------------------------------------------------------------|
A|----------------------5h7--7-5------------------5h7--7-5-----|
E|-6--6--5---6--6--5--0------------7---6--6--5--0------------7-|

Bass Riff5
G|-------------------------------------------------------------|
D|-------------------------------------------------------------|
A|---------------7-----7-----------------------0----------0----|
E|-6-6-5-6-6-5-0----0------0--0---2--3--0---0------3--5------0-|

Bass Riff5 (cont.)
G|-------------------------------------------------------------|
D|-------------------------------------------------------------|
A|-----0-0-----0-0---7---7-----------------------0--------0----|
E|-0-3-----0-3-----0---0-----0--0---2--3--0---0-----3--5-----0-|

Bass Riff5 (cont.)
G|-------------------|
D|-------------------|
A|-------0---8--8--7-|
E|-0--3--------------|

Bass Riff6
G|-------------------------------------------------------------|
D|-------------------------------------------------------------|
A|---5h7--7-5-----------------5h7--7-5-------------------------|
E|-0-----------7---6--6--5--0------------7---6--6--5---6--6--5-|

Bass Riff6 (cont.)
G|-------------------------------------------------------------|
D|-------------------------------------------------------------|
A|---5h7--7-5-----------------5h7--7-5-------------------------|
E|-0-----------7---6--6--5--0------------7---6--6--5---3--3--2-|

Bass Riff7
G|---------------------------------------------------------|
D|---------------------------------------------------------|
A|---7----7--7---------------7----7--7---------------------|
E|-0----0----0---0--0--1---0----0----0---6--6--5---6--6--5-|

Bass Riff8
G|------------------------|
D|------------------------|
A|----7--7--------5--5----|
E|-0--------0--0--------3-|

Bass Riff9
G|---------------------------------|
D|---------------------------------|
A|---------------------------------|
E|-2---2-2-2-2-2-2-3-2-0-2h3---2h3-|

Bass Riff10
G|-----------------|
D|-----------------|
A|-----------------|
E|-2---2-2-2-2-2-2-|

Bass Riff11
G|----------------------------|
D|-5--------------------------|
A|---------3--3-----------5h7-|
E|--------------------5h7-----|

Bass Riff12
G|------------------------------------------------------------|
D|------------------------------------------------------------|
A|-7----------------------------------------------------------|
E|-0--0-0-0-0-0-0--1-0-0-0h1--0h1---5---5-5-3-5-7---7-7-5-7-8-|

Bass Riff12 (cont.)
G|------------------------------------------------------------|
D|------------------------------------------------------------|
A|--------------------------------------------------------7-8-|
E|-7-5-3-1-0-0-0-0-0-0-0-1-0-0-0h1-0h1--5--5-5-3-5-7--10------|

Bass Riff12 (cont.)
G|------------------------------------------------------------|
D|------------------------------------------------------------|
A|-7----------------------------------------------------------|
E|-0-0-0-0-0-0-0-1-0-0-0h1---0h1---5---5-5-3-5-7---7-7-8-7-5--|

Bass Riff12 (cont.)
G|-----------------------------------------------------|
D|-----------------------------------------------------|
A|---------5--3--3-3-2---------------------------------|
E|-3-3-5-3-------------3-2-1----1----6--6--5---6--6--5-|

Bass Riff13
G|---------------------------------------------------|
D|---------------------------------------------------|
A|---5h7--7-5------------------5h7-7-5---------------|
E|-0------------7---6--6--5--0---------7-6-6-5-6-6-5-|

Bass Riff13 (cont.)
G|--------------------------------------------|
D|--------------------------------------------|
A|----5h7--7-5------------------5h7--7-5------|
E|--0------------7---6--6--5--0------------7--|

Bass Riff14
G|------------------------------------|
D|------------------------------------|
A|------------------------------------|
E|--0---0-0-0-0-0-0--1-0-0-0h1---0h1--|

Bass Riff15
G|---------------------|
D|---------------------|
A|--3--3--2---3--3--2--|
E|---------------------|

Bass Riff16
G|----------------------|
D|----------------------|
A|----------------------|
E|--0-2--0-2--2--0-2-3--|

Bass Riff17
G|-----------------------------------------------------|
D|-----------------------------------------------------|
A|-----5--5--------3--3--------4--4--------2--2--------|
E|--0--------3--0--------1--0--------2--0--------0--0--|

Bass Riff18
G|-------------------------------------------------------------|
D|----------------------------------------------------------4--|
A|------------------------------------------------4------------|
E|--5--5--3---5--5--3---3--3--2---3--3--2---2--2------2--2-----|

Bass Riff18 (cont.)
G|--------------------|
D|--------3-----------|
A|--------------3-----|
E|--1--1-----1-----1--|

Bass Riff19
G|-----------------------------------------4-------------3---|
D|----------9-------7------------5-----4---------------3-----|
A|-7---9-7-7-5---7-5-5-3---5-3-3---2-2---2---2-1-1-3-1-----1-|
E|--0-0-------0-0-------0-0----------------------------------|

Bass Riff19 (cont.)
G|-----------3--------------------------------------------|
D|-----3---3----------------------------------------------|
A|-1-1---1-----1-7------7-5-----5-3-----3-2-----2-1-----1-|
E|---------------0--x-x-0---x-x-----x-x-----x-x-----x-x---|

Bass Riff19 (cont.)
G|------------------------|
D|------------------------|
A|-1------1---1------1----|
E|----x-x--------x-x----0-|

Bass Riff20
G|-------------------|
D|-------------------|
A|-------------------|
E|-6--6--5---3--3--2-|

Bass Riff21
G|---------------------------------------------------|
D|---------------------------------------------------|
A|----7------7-----------------------0----------0----|
E|-0------0------0--0---2--3--0---0------3--5------0-|

Bass Riff21 (cont.)
G|------------------------------------------------|
D|------------------------------------------------|
A|-----0-0-----0-0---7----7-------------0-----0---|
E|-0-3-----0-3-----0---0----0-0-2-3-0-0---3-5---0-|

Bass Riff21 (cont.)
G|-------------------|
D|-------------------|
A|-------0---8--8--7-|
E|-0--3--------------|

Bass Riff22
G|------------------------------------------------------|
D|------------------------------------------------------|
A|---7---7--7---------------------------------------5-3-|
E|-0---0----0-0-2-3-0-5-5-5-3-5-7-7-7-8-7-5-3-3-5-3-----|

Bass Riff22 (cont.)
G|------------------------------------------|
D|------------------------------------------|
A|-3--3--2----------------------------------|
E|-----------3--2--1------6--6--5---6--6--5-|

Bass Riff23
G|---------------9-----------------------------|
D|-9-------9----------------------------12-----|
A|-7----------7-----7--12-------12-------------|
E|---------------------10-----------10------10-|

Bass Riff24
G|-------------------------------------|
D|---------------9-----7---------------|
A|-9-------9-----------0---------------|
E|-7----------7-----7----------3--3--2-|

Bass Riff25
G|----------------------------------------------------|
D|------------------7---------------------------------|
A|-9----------------0---------------------------------|
E|-7-------6--6--5----------3--3--2-----------3--3--0-|

How it goes:
Bass Riff1 x 2
Bass Riff2 x 2
Bass Riff3 x 1
Let last note ring during drum bit
Bass Riff4 x 4
Bass Riff5 x 1
Bass Riff6 x 1
Bass Riff7 x 6
Bass Riff8 x 1
Bass Riff9 x 3
Bass Riff10 x 1
Pause for quick guitar bit
Bass Riff9 x 3
Bass Riff10 x 1 (No pause after here)
Bass Riff11 x 1
Bass Riff12 x 1
Bass Riff6 x 1
Bass Riff7 x 6
Bass Riff8 x 1
Bass Riff9 x 3
Bass Riff10 x 1
Pause for quick guitar bit
Bass Riff9 x 3
Bass Riff 10 x 1 (No pause after here)
Bass Riff11 x 1
Bass Riff12 x 1
Bass Riff13 x 1
Bass Riff3 x 1
Bass Riff14 x 3
Pause for quick guitar bit
Bass Riff14 x 3
Pause for quick guitar bit
Bass Riff15 x 1
Bass Riff16 x 3
Bass Riff15 x 1
Bass Riff16 x 3
Bass Riff15 x 1
Bass Riff8 x 2
Bass Riff17 x 1
Bass Riff7 x 4
Bass Riff18 x 1
Bass Riff2 x 4
Bass Riff19 x 1
Let last note ring during drum bit
Bass Riff4 x 2
Bass Riff20 x 1
Bass Riff7 x 4
Bass Riff8 x 2
Bass Riff9 x 3
Bass Riff10 x 1
Pause for quick guitar bit
Bass Riff9 x 3
Bass Riff10 x 1 (No pause after here)
Bass Riff11 x 1
Bass Riff12 x 1
Bass Riff21 x 1
Bass Riff22 x 1
Bass Riff21 x 1
Bass Riff23 x 1
Bass Riff24 x 1
Bass Riff23 x 1
Bass Riff25 x 1
Вверх

And Justice For All Full Album

 Intro: (clean)
E|----------------------------------------------|
B|----------------------------------------------|
G|.---------------------------------------------|
D|.-6-7-9---7-6h7p6-4-5-5-4-7-4-2-3-5---3-2h3p2-|
A|--7-----7---------5-----5---5-3-----3---------|
E|--0-------------------------------------------|

                        (x 5)
E|----------------------------|
B|----------------------------| 3rd and 4th times
G|-----------------------2---.|     play this with distortion
D|-0-2-2-0-2-0-0-2-2-0-2---3-.| I can`t remember how Gtr. 2 goes
A|-2-----2---2-1-----1-----1--| 5th time play all distorted
E|----------------------------|

 Riff 1:
E|------------------------------|-------------------------|
B|-.----------------------------|-------------------------|
G|-3----.-.----.-.-.----.-.-.-.-|-5-3-2---3-2-----2-------|
D|-3----8-7----8-7-6----8-7-6-5-|-5-3-2-5-3-2-5-3-2-5-3-2-|
A|-1----8-7----8-7-6----8-7-6-5-|-------5-----5-3---5-3-2-|
E|------6-5----6-5-4----6-5-4-3-|-------------------------|

E|---------------------------------|
B|---------------------------------|
G|--2------------------------------|
D|--2--5--3--2----5-3-2---2--------|
A|-----5--3--2----5-3-2-5-2-5-3-2--|
E|----------------------5---5-3-2--|

 Riff 2                      (x 4)
E|---------------|-----------------|
B|---------------|-----------------|
G|---------------|.---------------.|
D|-2---------(2)-|.-(2)-------(2)-.|
A|-2---------(2)-|--(2)-------(2)--|
E|-0---------(0)-|--(0)-------(0)--|

 Riff 3: (x 4)
E|-----------------------------------------------|
B|-----------------------------------------------|
G|-.-.----.-.------------------.-.---------------|
D|-8-8-7--8-8-7---------------8-8-7--------------|
A|-8-8-7--8-8-7----5h7-7-5----8-8-7----5h7-7-5---|
E|-6-6-5--6-6-5--0---------7--6-6-5--0---------7-|

 Riff 4:
E|-----------------|---|---|---|
B|-----------------|---|---|---|
G|-.-.----.-.------|-2-|---|-2-|
D|-8-8-7--8-8-7--2-|-2-|-2-|-2-|
A|-8-8-7--8-8-7--2-|-0-|-2-|-0-|
E|-6-6-5--6-6-5--0-|---|-0-|---|

Riff 3 (x 2)

 Riff 5:
E|-------------------------------------------------|
B|-------------------------------------------------|
G|-.-.----.-.------.----.--------------.----.------|
D|-8-8-7--5-5-4----2--x-2-2-------3----2--x-2--2---|
A|-8-8-7--5-5-4--.-2--x-2-2---.-.-3--.-2--x-2--2---|
E|-6-6-5--3-3-2--0-0--x-0-0---0-0-1--0-0--x-0--0---|

E|-------------------------------------------------------------|
B|-------------------------------------------------------------|
G|-.-.----.-.------.----.-------------.----.------.-.----.-.---|
D|-8-8-7--8-8-7----2--x-2-2------3----2--x-2--2---8-8-7--8-8-8-|
A|-8-8-7--8-8-7--.-2--x-2-2--.-.-3--.-2--x-2--2---8-8-7--8-8-8-|
E|-6-6-5--6-6-5--0-0--x-0-0--0-0-1--0-0--x-0--0---6-6-5--6-6-6-|

Verse 1

 Riff 6: (x 4)
E|------------------------------------------------|
B|------------------------------------------------|
G|--------.-------------------.------.-.----.-.---|
D|---2--x-2-2-------3----2--x-2--2---8-8-7--8-8-7-|
A|-.-2--x-2-2---.-.-3--.-2--x-2--2---8-8-7--8-8-7-|
E|-0-0--x-0-0---0-0-1--0-0--x-0--0---6-6-5--6-6-5-|

 Fill 1:

 Riff 7:                  (x 3)
E|------------------------------|
B|------------------------------|
G|.----------------------------.|
D|.-3-------------43---4/5-4/5-.|
A|--3-------------43---4/5-4/5--|
E|--1-1-1-1-1-1-1-21-0-2/3-2/3--|

E|------------------------------------|
B|------------------------------------|
G|--------------0h5h7-----------------|
D|-3-----------------0h5h7------------|
A|-3----------------------0h5h7-0h2h3-|
E|-1-1-1-1-1-1-1----------------------|

                          (x 3)
E|------------------------------|
B|------------------------------|
G|.----------------------------.|
D|.-3-------------43---4/5-4/5-.|
A|--3-------------43---4/5-4/5--|
E|--1-1-1-1-1-1-1-21-0-2/3-2/3--|

E|------------------------------------|
B|------------------------------------|
G|--------------0h5h7-----------------|
D|-3-----------------0h5h7------------|
A|-3----------------------0h5h7-0h2h3-|
E|-1-1-1-1-1-1-1----------------------|

E|-----------------------------------------------------|
B|-----------------------------------------------------|
G|-0h5h7-----------------------------------------------|
D|------0h5h7------------4-2--------------43---4/5-4/5-|
A|-----------0h5h7-0h2h3-4-2--------------43---4/5-4/5-|
E|-----------------------2-0--0-0-0-0-0-0-21-0-2/3-2/3-|

Chorus

 Riff 8:
E|-----------------------------------------------|
B|-----------------------------------------------|
G|--2----4----5----------------------------------|
D|--2----4----5----4-2--------------43---4/5-4/5-|
A|--0----2----3----4-2--------------43---4/5-4/5-|
E|-----------------2-0--0-0-0-0-0-0-21-0-2/3-2/3-|

E|-------------------------------------|-----------|
B|-------------------------------------|-----------|
G|-2--4--------------------------------|-2-4-0-5---|
D|-2--4--4-2--------------43---4/5-4/5-|-2-4-0-5-2-|
A|-0--2--4-2--------------43---4/5-4/5-|-0-2---3-2-|
E|-------2-0--0-0-0-0-0-0-21-0-2/3-2/3-|-----3---0-|

Riff 3 (x 2)
Riff 5
Verse
Chorus

Riff 3 (x 2)
Riff 1
Riff 2

Solo
====

Riff 7
Riff 6

Fill 2:

Riff 6 (x 3)
E|-----------------------------------------------------------|
B|-----------------------------------------------------------|
G|-----------------------------------------------------------|
D|-8-8-7-8-8-7-7-7-6-7-7-6-6-6-5-6-6-5-5-5-4-5-5-4-3-4-4-4-4-|
A|-8-8-7-8-8-7-7-7-6-7-7-6-6-6-5-6-6-5-5-5-4-5-5-4-3-4-4-4-4-|
E|-6-6-5-6-6-5-5-5-4-5-5-4-4-4-3-4-4-3-3-3-2-3-3-2-1-2-2-2-2-|

Intro (x 5) w/distortion
                                                    (x 3)
E|-----------------------------------------|-------------|
B|-----------------------------------------|-------------|
G|---.-.---.---.-.---.---.-.---.---.-.---.-|.---.-.---.-.|
D|-6-6-6-6-6-4-4-4-4-4-2-2-2-2-2-0-0-0-0-0-|.-0-0-0-0-0-.|
A|-7-7-7-7-7-5-5-5-5-5-3-3-3-3-3-2-2-2-2-2-|--1-1-1-1-1--|
E|-----------------------------------------|-------------|

                      (x 2)
E|----------|--------------|
B|----------|--------------|
G|----------|.------------.|
D|-2----(2)-|.-(2)----(2)-.|
A|-2----(2)-|--(2)----(2)--|
E|-0----(0)-|--(0)----(0)--|

Riff 3 (x 2)

 Fill 3:
E|--------------|
B|--------------|
G|-.-.----.-.---|
D|-8-8-7--2-2-3-|
A|-8-8-7--2-2-3-|
E|-6-6-5--0-0-1-|

Verse
Chorus
Riff 4 (repeat last bar)
Riff 8 (last bar only)
Riff 4

E|---|-------|---|-------|-------|
B|---|-------|---|-------|-------|
G|-7-|-5-----|---|-------|-.-.-.-|
D|-7-|-5-----|-7-|-5-----|-5-4-2-|
A|-5-|-3-----|-7-|-5-----|-5-4-2-|
E|---|-------|-5-|-3-----|-3-2-0-|

E|---|-------|---|-------|
B|---|-------|---|-------|
G|---|-5-----|---|-.-.-.-|
D|-5-|-5-----|-7-|-5-4-2-|
A|-5-|-3-----|-7-|-5-4-2-|
E|-3-|-------|-5-|-3-2-0-|

E|---|-------|---|-------|
B|---|-------|---|-------|
G|---|-.-.-.-|---|-.-.-.-|
D|-5-|-5-4-2-|---|-5-4-2-|
A|-5-|-5-4-2-|---|-5-4-2-|
E|-3-|-3-2-0-|---|-3-2-0-|
Вверх

And Justice For All Intro

E|-------------------------------------------------------------|
B|-------------------------------------------------------------|
G|-----------/-t------------------------/-t--------------------|
D|-6-7-9---7-6-7-6-4-5-5-4-7-4-2-3-5---3-2-3-2-0-2-2-0-2-0-0-2-|
A|-7-----7---------5-----5---5-3-----3---------2-----2---2-1---|
E|-0-----------------------------------------------------------|

E|-----------|
B|-----------|
G|-----3-----|
D|-2-0-2---2-|
A|---1-----4-|
E|-----------|
Вверх

Astronomy

1)
Eb|-0-0-0-0-0-------|
Bb|-0-0-0-0-0-0-----|
Gb|-0-0-0-0-0---2-0-|
Db|-2---2---2-------|
Ab|-2---------------|
Eb|-0---------------|
2)
Eb|-0--2--0--2--0-|
Bb|-0--3--1--4--0-|
Gb|-0--2--0--4--0-|
Db|-2--0--2--4--2-|
Ab|-2-----3--2----|
Eb|-0-------------|
Clock strikes twelve
3)
Eb|-0--3--0--2-|
Bb|-1--3--1--4-|
Gb|-0--0--0--4-|
Db|-2--0--2--4-|
Ab|-3--2--3--2-|
Eb|----3-------|
Like something on a folding chair?
4a) James
Eb|------------------------------------------------------------|
Bb|------------------------------------------------------------|
Gb|------------------------------------------------------------|
Db|-9-7----7-------9-7----7-------9-7----7-------9-7----7------|
Ab|-----10---10-9~~----10---10-7~~----10---10-9~~----10---10-7-|
Eb|------------------------------------------------------------|
4b) Kirk
Eb|------------------------------------------------------------|
Bb|-5-----------------------------5----------------------------|
Gb|---7-5-7-5-5h7~~5-4----5----5~~--7-5-7-5-5h7~~5-4----5~~7~~-|
Db|--------------------7----7------------------------7---------|
Ab|------------------------------------------------------------|
Eb|------------------------------------------------------------|
5)
Gb|-9------9-----9---5-5~-----7--7-7---9-9-|
Db|-9------9-----9---5-5~-----7--7-7---9-9-|
Ab|-7------7-----7---3-3~-----5--5-5---7-7-|
Eb|-0--0-0-0-0-0-0-0------0-0----------0-0-|
pm.. ... . ...
"Call me casanova"
6)
Gb|-7-5-7--7-5-7--7-5-7-|
Db|-7-5-7--7-5-7--7-5-7-|
Ab|-5-3-5--5-3-5--5-3-5-|
Eb|---------------------|
"Never warms"
7)
Eb|19-17--17---------------------------------------------------|
Bb|-----20--20-17--12-10----10---------------------------------|
Gb|----------------------12----12-9----------------------------|
Db|----------------------------------9-7----7------------------|
Ab|--------------------------------------10---10-7--2-0---0----|
Eb|-----------------------------------------------------3---3-0|
after never warms part
8a) Kirk
Eb|15-----12----------------------------12-14-12-14-15-17-19-17|
Bb|--13-15-----10-12----10-12~-12-13-15------------------------|
Gb|---------12-------12----------------------------------------|
Db|------------------------------------------------------------|
Ab|------------------------------------------------------------|
Eb|------------------------------------------------------------|
8b) James *****************************
Eb|-15---------------------------------------------------------|
Bb|----------12------------------------------------------------|
Gb|----12-14-------11-12-------9~------------------------------|
Db|-------------14-------10--9---------------------------------|
Ab|------------------------------7-7-6-6-5-5-4-3-2-2-3-3-4-5-6-|
Eb|------------------------------------------------------------|
*= similar to artificial harmonics, rest finger above the
string while picking and sliding down the neck before going
into riff 5 pre solo
Вверх

Attitude

free time
3/4       harm       152 bpm
  o                  4/4
|--------|----------||------10-14----10-14----10-|-14----10-14----10-14-----|
|-0--0-0-|-12--/19-||-o-12-------12-------12----|----12-------12-------12-|
|--------|----------||-o-------------------------|--------------------------|
|--------|----------||---------------------------|--------------------------|
  q. e q   l    q        e  e  e  e  e  e  e  e    e  e  e  e  e  e  e  e

                                            2 times
|-------9-12----9-12----9-|-12----9-12----9-12---||----10-14----10-14----10-|
|-(10)------10------10---|----10------10------o-||-12-------12-------12----|
|-------------------------|--------------------o-||-------------------------|
|-------------------------|----------------------||-------------------------|
    e   e e  e  e e  e  e   e  e  e e  e  e q       e  e  e  e  e  e  e  e

                                                                     rit.
|-14----10-14----10-14-|----12-16----12-16----12-|-16----12-16----12-16----|
|----12-------12-------|-14-------14-------14----|----14-------14-------14-|
|----------------------|-------------------------|-------------------------|
|----------------------|-------------------------|-------------------------|
  e  e  e  e  e  e  q    e  e  e  e  e  e  e  e    e  e  e  e  e  e  e  e

a tempo
|----14-17----14-17----17-|----12-16----12-16----16-|---------------||
|-15-------15-------15----|-14-------14-------14----|-14--12--12-12-||
|-------------------------|-------------------------|-12--10--------||
|-------------------------|-------------------------|---------------||
  e  e  e  e  e  e  e  e    e  e  e  e  e  e  e  e    h   l    s  s

132 bpm                   +  o                           +  o
|----14----10----|-------12----|----14----10----|-------------|
|-12----12----12-|-14-10-10----|-12----12----12-|-14-10-14----|
|----------------|-------------|----------------|-------12----|
|----------------|-------------|----------------|-------------|
  q  e  e  e  e    q  q  q       q  e  e  e  e    q  q  q

                          +  o
|----14----10----|-------12----|----14----10----|-------------|
|-12----12----12-|-14-10-10----|-12----12----12-|-14-10/------|
|----------------|-------------|----------------|--------0-13-|
|----------------|-------------|----------------|-------------|
  q  e  e  e  e    q  q  q       q  e  e  e  e    q   e  e q


|------------------|-------14-15---|------------------|-------14-15p14----|
|------13-12-------|----15---------|------13-12-------|----15----------15-|
|-12---------15-12-|-13----------0-|-12---------15-12-|-13----------------|
|------------------|---------------|------------------|-------------------|
  q +q e  e  e  e    q  e  e  e  e   q +q e  e  e  e    q  e. s  e  e  e
     [3]  [  3  ]                       [3]  [  3  ]             [  3  ]

                                 + o
|------------------|-------14-15-----|------------------|-------14-15p14----|
|------13-12-------|----15-----------|------13-12-------|----15----------15-|
|-12---------15-12-|-13----------0---|-12---------15-12-|-13----------------|
|------------------|-----------------|------------------|-------------------|
  q +q e  e  e  e    q  e  e  e  e     q +q e  e  e  e    q  e. s  e  e  e
     [3]  [  3  ]                         [3]  [  3  ]             [  3  ]

5/8                 3/4                 5/8
||---------16-------|-------14----14----|-------13-------|
||-o----16----16----|----14----14----14-|----11----11----|
||-o-14----------14-|-12----------------|-11----------11-|
||------------------|-------------------|----------------|
     e  e  e  e  e    e  e  e  e  e  e    e  e  e  e  e

3/4            2 times 5/8              3/4
|-------14----14------||-------16-------|-------17----17----|
|----12----12----12-o-||----16----16----|----17----17----17-|
|-12----------------o-||-14----------14-|-15----------------|
|---------------------||----------------|-------------------|
  e  e  e  e  e  e       e  e  e  e  e    e  e  e  e  e  e

                    5/8                                3/4
|-------19----------|----19----19----|-------/12-------|-------12----------|
|----17----17-------|-19----19----19-|----14-----14----|----14----14----14-|
|-17----------17-17-|----------------|-15-----------15-|-14----------14----|
|-------------------|----------------|-----------------|-------------------|
  e  e  e  e  e  e    e  e  e  e  e    e  e   e  e  e    e  e  e  e  e  e
                                                                  |    |
                                                                 let ring

                    5/4
|-------11----12----|----14-12h14p12----12----------------------|
|----12----12----12-|----------------16----16-14-12-------------|
|-12----------------|-12----------------------------15-14-12-14-|
|-------------------|-------------------------------------------|
  e  e  e  e  e  e    e  q  s  s  s  e  e  s  s  e  s  s  s  s
                            [  3  ]

3/4
|-------12---------|-17-19-17h19p17-16-17-16h17p16-|----16-------------|
|----14----14----0-|-------------------------------|-17----17----17-17-|
|-15----------15---|-------------------------------|----------17-------|
|------------------|-------------------------------|-------------------|
  e  e  e  e  e  e   e  e  s  s  s  e  e  s  s  s    e  e  e  e  e  e
                           [  3  ]        [  3  ]

5/8                                          3/4
|----------------------16---|-------12-------|-------12----------|
|-17-17-17-19-19-19-19------|----14----14----|----14----14----14-|
|-------------------------0-|-15----------15-|-14----------14----|
|---------------------------|----------------|-------------------|
  s  s  s  e  s  s  s  e  e   e  e  e  e  e    e  e  e  e  e  e
  [  3  ]     [  3  ]                                   |    |
                                                       let ring

                    5/4
|-------11----12----|----14-12h14p12----12----------------------|
|----12----12----12-|----------------16----16-14-12-------------|
|-12----------------|-12----------------------------15-14-12-14-|
|-------------------|-------------------------------------------|
  e  e  e  e  e  e    e  q  s  s  s  e  e  s  s  e  s  s  s  s
                            [  3  ]

5/8              6/4
|-------12-------|---19-b1-r-17h19p17-16-17-16h17p16----16----------|
|----14----14----|-0---------------------------------19----17----17-|
|-15----------15-|--------------------------------------------17----|
|----------------|--------------------------------------------------|
  e  e  e  e  e    e e   (e) s  s  s  e  e  s  s  s  e  e  e  e  e
                             [  3  ]        [  3  ]

3/4                             5/8            3/4
|-------------------------16---|--------------|--------------------|
|-17-17-17-17-19-19-19-19-----0-|------10------|-------14----14-----|
|-------------------------------|---10----10---|----14----14----14/-|
|-------------------------------|-8----------8-|-12-----------------|
  e  s  s  s  e  s  s  s  e   e   e e  e  e  e   e  e  e  e  e  e
     [  3  ]     [  3  ]

                               +o                               +o
|------------------|---------|------10----10----|-----7/(9)-9/(12)-|
|------14----14----|---------|---10----10----10-|---7--------------|
|-0-12----12----12-|-12-10-7-|-8----------------|-5----------------|
|------------------|---------|------------------|------------------|
  e e  e  e  e  e    q  q  q   e e  e  e  e  e    e e e  e  e  e

                            5/8           3/4 +
|-------12----12----|-------|--------------|--------------------|
|----12----12----12-|-------|------10------|-------14----14-----|
|-10----------------|-------|---10----10---|----14----14----14/-|
|-------------------|-3-5-7-|-8----------8-|-12-----------------|
  e  e  e  e  e  e    q q q   e e  e  e  e   e  e  e  e  e  e

  o                                                    +o
|------------------|---------------------------------|------10----10----|
|------14----14----|---------------------------------|---10----10----10-|
|-0-12----12----12-|-12-12-12-12-10-10-10-10-7-7-7-7-|-8----------------|
|------------------|---------------------------------|------------------|
  e e  e  e  e  e    e  s  s  s  e  s  s  s  e s s s   e e  e  e  e  e
                        [  3  ]     [  3  ]    [ 3 ]

                                       5/4
|-----7/(9)-9/(12)-|-------12----12----|-------------------||
|---7--------------|----12----12----12-|-------------------||
|-5----------------|-10----------------|----------------0--||
|------------------|-------------------|-3-5-7-b1/2-r-5----||
  e e e  e  e  e     e  e  e  e  e  e    q q q.       l q

200 bpm
 4/4
||-----------------------------|-----------------|
||-o-7-7---9-9---10-10---9-9---|-7-7---6-6---7---|
||-o-----0-----0-------0-----0-|-----0-----0---0-|
||-----------------------------|-----------------|
     e e e e e e e  e  e e e e   e e e e e e q q
     [ 3 ] [ 3 ] [  3  ] [ 3 ]   [ 3 ] [ 3 ]

                            |1.                        |2. 2/4
|---------------------------|-------------------------||-----------------|
|-7-7---9-9---10-10---9-9---|-10-10---14-14---13---o-||-10-10---14-14---|
|-----0-----0-------0-----0-|-------0-------0-----0-o-||-------0-------0-|
|---------------------------|-------------------------||-----------------|
  e e e e e e e  e  e e e e   e  e  e e  e  e q   q      e  e  e e  e  e
  [ 3 ] [ 3 ] [  3  ] [ 3 ]   [  3  ] [  3  ]            [  3  ] [  3  ]

4/4                                                       +
|------------------|----------------|-------18----19----|-18-18-18----18----|
|-13---14--13---14-|-13---14-13-/19-|-19-19-19-19-19-19-|-19-19-19-19-19-19-|
|----0--------0----|----0-----------|-0--0--0-----0-----|-0--0--0-----0-----|
|------------------|----------------|-------------------|-------------------|
  q  e q   q  e q    q  e q  q   q    q  q  e  e  e  e    q  q  e  e  e  e
  [ 3]     [ 3]      [ 3]
     |   |    |   |      let ring    let A-string ring ---------------------
   let ring  let ring

                                               o            +
|-19----18----19-18----|-19----18----19----19-----|--------------||
|-19-19-19-19-19-19-19-|-19-19-19-19-19-19-19-----|--------------||
|-0-----0-----0--0-----|-0-----0-----0-----0--(0)-|-(0)----------||
|----------------------|--------------------------|---------/X--||
  e  e  e  e  q  e  e    e  e  e  e  e  e  e  (e)   (l)      q

-------------------------------------------------------------|

Drums enter
 o                                   +                                   o
|----------------|---------------|------------------|---------------------|
|----------------|---------------|---------5---5-7-b1/2-r-b/12-r-b1/2-r-5-|
|-----2-0--------|------5----5-7-|---5-5-7---7------|---------------------|
|-0-3-----3-3-5/-|-/(7)----7-----|-0----------------|---------------------|
  q e e e e e e      q  q. e e e   q e s s e e e e  + (h.)              q

        +                          o    +
|-------7-b1-r---|------------------|-----14-b1-14-14-|
|-----5--------5-|---5-7-b1-r-5---5-|-----------------|
|---x------------|-7------------7---|-----------------|
|-0--------------|------------------|-0---------------|
  q e e q.     e   e e q      e e q   h+e q     s   s

                          o
|-14-b1-14-14-14-b1-14-14-|-----12---11-|-12---11-12-12-12-11---|
|--------------------------|--------0----|----0----------------0-|
|--------------------------|-------------|-----------------------|
|--------------------------|-0-0---------|-----------------------|
  q     s  s  q     e  q     q q e  e q    e  e q  e  s  s  e  e
                                    |  |      |  |
                                 let ring  let ring

  T     T     T     T     T       T     T     T     T        +o    +o
|-------------------------------|----------------------|-16-12-16-12-16-|
|-17p14-19p14-19p14-21p14-19p14-|-17p14-19p14-21p14-17-|----------------|
|-------------------------------|----------------------|----------------|
|-------------------------------|----------------------|----------------|
  e  e  s  e  t  t  e  e  e  e    e  e  e  e  e  e  q    q  e  q  e  q

   +o    +o                                                  +
|-12-16-12-16-16-|-16p12----12-16p12----12-16p12-12-12-12-12-14-|
|----------------|-------14----------14-------------------------|
|----------------|----------------------------------------------|
|----------------|----------------------------------------------|
  e  q  e  q  q    s  s  s  s  s  s  s  s  s  s  s  s  s  s  e.
                                                 [  3  ]

                     o                      +
|-b1-r-12----12-b1/2-----|-------------------------|
|---------14---------14-|-----21-17-17----20-b1/2-|
|------------------------|--------------19---------|
|------------------------|-0-0---------------------|
 (q)   e  e  q       q     q e q  s  s  e  e

|---------------------R--------|----19----------19---------19---------19-|
|-20-20-b1/2-20-19-17----19-b1-|-------19-b1/2-----19-b1/2----19-b1/2----|
|------------------------------|-----------------------------------------|
|------------------------------|-----------------------------------------|
  e  e       e  e  q  e. s      (e) e  e        e  e       e  e       e

                                o                 +o  +o
|---------19-19-19-b1---r-----|-------------|-----------|-------------|
|-19-b1/2-----------------17-|-------------|-----------|-------2-0---|
|-----------------------------|-------------|-----------|-----------3-|
|-----------------------------|-0-0-0-0-0-0-|-0-0-0-0-0-|-0-0-0-------|
  e       e  e  q.        q     q e q e e e   e e q q q   q e q e e e

                                   +
|------------|-------------|------------|-15-14-12-14p12----12-15-14-12-|
|------------|-------5-----|-5-----5/-0-|----------------14-------------|
|-2-1-0------|---5-7---5-7-|---5-7------|-------------------------------|
|-------3--0-|-0-----------|------------|-------------------------------|
  e e e q. q   q e e e q e   q q q q  q   e  e  e  e  e  e  q  e  e  e
                             [ 3 ]        [  3  ]  [  3  ]     [  3  ]

|-14p12----12-15-14-12-14p12----|-12-------------------------------|
|-------14-------------------14-|----14-12-14p12----12-------------|
|-------------------------------|----------------14----14-12-13-14-|
|-------------------------------|----------------------------------|
  e  e  e  q  e  e  e  e  e  e    e  e  e  s  s  s  e. e  s  s  e
  [  3  ]     [  3  ]  [  3  ]    [  3  ]

                     o
|-----------------------|-----------------|-----------------|-------------|
|-12-14p12-12----12-12-|-----------------|---------------2-|-------------|
|-------------14--------|-----------------|-----------2-----|-------------|
|-----------------------|-0-0-0-0-0-0-0-0-|-(0)-0-0-0---0---|-0-0-0-0-0-0-|
  e  s  e. e  e  e  q     e e e e e e e e   (e) e e e e e q   q e q e e e

                                                      Harm
|-------------|-12----11----------11-|-12----14-14-12---|--------------|
|-------14-14-|-11-11----11-14-11----|----11------------|------------6-|
|-------------|-0--------------------|----------------9-|-7-0-9-10-0---|
|-0-0-0-------|----------------------|------------------|--------------|
  q q q e  e    e  e  e  e  e  e  q    e  e  e  e  q  q   e e q e  e q
                let A-string ring

|--------------------|----------------|----------------------------|
|-6-6-6-10-7-7-7-7-7-|-8-11-9-9-12-10-|-10-11-11-14-14-11-11-14-12-|
|--------------------|----------------|----------------------------|
|--------------------|----------------|----------------------------|
  e s s e. s s e s q   q e  e q e  e    h  s  s  s  s  s  s  s  s
                   /   /      /         /
                   /   /      /         /
                   /   /      /         /

|------------------------------------------|-------16-15-16-17-19-19-b1-|
|-(12)-15-12-14-16-14-16-15-17-17-16-17-19-|-17-19----------0-----------|
|------------------------------------------|----------------------------|
|------------------------------------------|----------------------------|
  (s)  e  s  s  s  s  s  e  e  e  e  e  e    e  e  e  e  e  e  e  q
                         [  3  ]  [  3  ]    [  3  ]

|-(19)-19-19-19-19-|-19-b1-r-16----16-19-16-|
|------------------|------------17----------|
|------------------|------------------------|
|------------------|------------------------|
  (h.) s  s  s  s    q       e  e  e  e  q

|-19p16----16h19p16----16h19p16----16h19p16----|-16h19---19-b1-r-16----|
|-------17----------17----------17----------17-|--------------------17-|
|----------------------------------------------|-----------------------|
|----------------------------------------------|-----------------------|
  s  s  s  s  s  s  s  s  s  s  s  s  s  e  s    s  e.+e q.       e  e

                                                    o
|-16----------------------|---------------------------|
|----17----17----------17-|-19-b1/2-r-b1/2-r-b1/2-19-|
|-------19----19-17-19----|---------------------------|
|-------------------------|---------------------------|
  e  e  e  e  e  e  e  e    h.                    q
       let ring

                  +o  +o
|-------------|---------|----------------|---------------|-----------------|
|-------------|---------|----------------|---------------|-----------------|
|-------------|---------|---------5-b1-r-|-b1-r-b1-r-2---|---------0-----0-|
|-0-0-0-0-0-0-|-0-0-0-0-|-0-0-0-0--------|-------------0-|-0-0-0-0---3-0---|
  q e q e e e   q q q q   e e e q q.       (h)       q q   e e e e e e e e

                                + o                 +o      Harm --
|-----------------|-----------------|-----------------|-----------|
|-----------------|-----------------|-----------------|-----5-5-5-|
|-0-0-4h5-0-4h5-0-|-4h5-0-4h5-0-4h5-|-0-0-0-0-0-0-0-0-|-----------|
|-----------------|-----------------|-----------------|-0-0-------|
  e e e e e e e e   e e e e e e e e   e e e e e e e e   q q q e e

                  A.H.------------------------------------------------
---------------|  T      T      T       T     T      T     T      T
|---------------|-12(19)-10(17)-9(16)-|-9(16)---------------------9(16)-|
|-(5)-5-------5-|---------------------|-------10(17)-9(16)-10(17)-------|
|---------------|---------------------|---------------------------------|
|-------4-4-4---|---------------------|---------------------------------|
  (e) e q e e q   q.     q.      q      q     q      e     e      q

                                                    A.H.----------------|
----------------------------------------------|  Harm             +   +o
  T      T     T      T     T      T     T           T      T     T
|-----------------------------------------------|-------------------------|
|-10(17)-9(16)---------------------9(16)-10(17)-|----10(17)-9(16)---------|
|--------------10(17)-9(16)-10(17)--------------|-19--------------12(19)-|
|-----------------------------------------------|-------------------------|
  e      e     e      e     q      e     e        q  q      q     q

                    +           o
|---------|------------|----------|   end by sliding over the strings and
|---------|---------16-|-(16)-----|   then tapping the open D and G strings
|---------|---14-14-14-|-(14)-----|   against your pickup.
|-0-0-0-0-|-0-0--0--0--|-(0)------|
  q q q q   q q q q q    (l)
Вверх

Attitude (2 вариант)

Intro Part 1

Gtr 1
       * Very quick hammer on and very slow bend.
e|-------------------------------------------------------------|
B|-------------------------------------------------------------|
G|-------------------------------------------------------------|
D|-5h7bbbbbb9--7-5-7-5-------------5h7bbbbbb9--7-5-7-5---------|
A|---------------------7~~~~~---------------------------7~~~~~-|
E|-------------------------------------------------------------|

Gtr 2

e|---------------|
B|---------------|
G|---------------|
D|---5--5--5-5s7-|
A|---5--5--5-5s7-|
E|-0-3--3--3-3s5-|

Intro Part 2

   Gtr 1 Only   Both
e|--------------{--------------|
B|--------------5--------------|
G|--------------7bb9-7-5-7-7-9-|
D|-7bb9-7-5-7-5------------7-9-|
A|-------------------------5-7-|
E|-----------------------------|


			x4
e|----------------------------------------------------|
B|----------------------------------------------------|
G|-----------9------------9-----------------------7-9-|
D|-----4h5---9------4h5---9-----4h5---------------7-9-|
A|-----5-----7------5-----7-----5-----5----7----5-5-7-|
E|-0-0-----0-----0-0-----0----0-0-----0-3--0-5--0-3---|
PM(E only------------------------)

Verse

e|---------------------------------------|
B|---------------------------------------|
G|---------------------------------------|
D|---------------------------------------|
A|-7s5-2-2---7-7-7-5---7s5-2-2---5-5-5-7-|
E|-5s3-0-0---5-5-5-3---5s3-0-0---3-3-3-5-|

e|-----------------------------------------------|
B|-----------------------------------------------|
G|-----------------------------------------------|
D|-----------------------------------------------|
A|-7s5-2-2---7-7-7-5---7s5-2-2---2-2-2-2-2-2-2-2-|
E|-5s3-0-0---5-5-5-3---5s3-0-0---0-0-0-0-0-0-0-0-|
                               PM--------------)

Pre-Chorus
       x 3
e|---------------|
B|-------5-----3-|
G|---------------|
D|---7-----------|
A|-7---------5---|
E|---------------|

       x 3
e|----------------------|
B|----------------------|
G|----------------------|
D|-7---------5------5-5-|
A|-7---------5------5-5-|
E|-5---------3----0-3-3-|

Chorus

e|--------------------------------|
B|--------------------------------|
G|--------------------------------|
D|--------------------------------|
A|-5s7----8---5---2-2-2-2-2-2-2-2-|
E|-3s5--0-6-0-3---0-0-0-0-0-0-0-0-|
                PM--------------)

Riffs played in this order-

INTRO 1  .   INTRO 2  .    VERSE    .  PRE-CHORUS  .  CHORUS  .
INTRO 2  .    VERSE   .  PRE-CHORUS .    CHORUS    .   SOLO   .
 VERSE   . PRE-CHORUS .    CHORUS   .    CHORUS    .

The lyrics are below

Suppose I say, I`m never satisfied
Suppose I say, he cuts the roots
To make the tree survive

Just let me kill you for a while
Just let me kill you for a smile
Just let me kill you once
I`m oh so born to die

Oh, I hunger
I hunger
I eat

Born into attitude
Asleep at the wheel
Throw all your bullets in the fire
And run like hell
I get a fever, what ever happened to sweat?

Suppose I say, the vultures smile at me
Suppose I say, I set them down they plan to pick you clean

And satisfaction this way comes
And satisfaction this way comes
And satisfactions here and gone
Gone, yeah, gone again

Oh, I hunger
Oh, I hunger
I eat

Born into attitude
Asleep at the wheel
Throw all your bullets in the fire
And stand there

Born into attitude
Twist mother tongue
Throw all your bullets in the fire
And run like hell
I get a fever, what ever happened to sweat?

Just let me kill you for a while
Just let me kill you for a smile
Just let me kill you once for me
I`m born to die

And satisfaction this way comes
And satisfaction this way comes
And satisfactions here and gone
Gone, gone again

Yeah, I hunger
Oh, I hunger
I eat

Born into attitude
Asleep at the wheel
Throw all your bullets in the fire
And stand there

Born into attitude
Twist mother tongue
Throwing all your bullets in the fire
And run like hell
I get a fever, what ever happened to sweat?
Вверх

Battery mp3

Acoustic Riff 1
e|----------------------|----------------------|
B|----------------------|----------------------|
G|----------------------|----------------------|
D|-3--2-----------2-(2)-|-2-----------0--0-(0)-|
A|-2--------------0-(0)-|-0--------------5-(5)-|
E|-0--------------1-(1)-|-2--------------3-(3)-|

Acoustic Riff 2
e|-----------------------------|-------------------------------|
B|-----------------------------|-------------------------------|
G|--4--5--------4------4--5----|--4--5--------------------5--4-|
D|--------7--------------------|--------7-----5----------------|
A|-----------------------------|-------------------------------|
E|-----------------------------|-------------------------------|

Acoustic Riff 2b
e|-------------------------------|-----------------------------|
B|-------------------------------|-----------------------------|
G|--4--5--------4-h5-p4-----4--5-|--4--5------------------5--4-|
D|--------7----------------------|--------7-----5--------------|
A|-------------------------------|-----------------------------|
E|-------------------------------|-----------------------------|

Start with Acoustic Riff 1 once and then while that keeps
playing Gtr II plays

 Riff 2  Riff 2b Riff2  Riff2

Then the electrics come crashing in:-

    E5                E5 E5 F5         Gmaj7           G5
e|----------------------------------|--------------------|
B|----------------------------------|--------------------|
G|----------------------------------|--------------------|
D|--2-----------------2--2--3-------|--5---------5--5--5-|
A|--2-----------------2--2--3-------|--5---------5--5--5-|
E|--0-----------------0--0--1-------|--2---------2--2--3-|

While 2 other electrics play Riffs 2 and 2b
This continues for several bars and then

    E5    B5    G5   F#/Eb
e|----------------------|
B|----------------------|
G|--------4-------------|
D|--2-----4-----5-----4-|
A|--2-----2-----5-----6-|
E|--0-----------3-------|

Verse:
Riff 3                  Bb5    A5                     Em  F#/Eb
e|-------------------------------|-----------------------------|
B|-------------------------------|-----------------------------|
G|-------------------------------|-----------------------------|
D|-----------------------8--8--7-|---------------------5--5--4-|
A|-----------------------8--8--7-|---------------------7--7--6-|
E|--0--0--0--0--0--0--0--6--6--5-|-0--0--0--0-0--0--0----------|

    Em                        Bb5    A5   F#5    G5         Ab5
e|-------------------------------------|----------------------|
B|-------------------------------------|----------------------|
G|-------------------------------------|----------------------|
D|--5--------------------------8--8--7-|--4-----5-----5-----6-|
A|--7--------------------------8--8--7-|--4-----5-----5-----6-|
E|--------0--0--0-----0--0--0--6--6--5-|--2-----3-----3-----4-|

Play this twice but on the second time at the % play this
    A#5      A5       A5       A5
e|-------------------------------|
B|-------------------------------|
G|-------------------------------|
D|--8--------7--------7--------7-|
A|--8--------7--------7--------7-|
E|--6--------5--------5--------5-|

Then Fill 1 and into the verse

Fill 1 E5    G5    A5       F5 F5 F#/Eb??
e|----------------------------------|
B|----------------------------------|
G|----------------------------------|
D|-----2-----5-----7--------------4-|
A|-----2-----5-----7--------3--3--6-|
E|-----0-----3-----5--------1--1----|

Riff 3
e|------------------------------|------------------------------|
B|------------------------------|------------------------------|
G|------------------------------|------------------------------|
D|----------------------8--8--7-|----------------------5--5--4-|
A|----------------------8--8--7-|----------------------7--7--6-|
E|-0--0--0--0--0--0--0--6--6--5-|-0--0--0--0--0--0--0----------|
 Lashing out  the action	    Returning   the   reaction

e|-------------------------------------|----------------------|
B|-------------------------------------|----------------------|
G|-------------------------------------|----------------------|
D|--4--------------------------8--8--7-|--4-----5-----5-----6-|
A|--6--------------------------8--8--7-|--4-----5-----5-----6-|
E|--------0--0--0-----0--0--0--6--6--5-|--2-----3-----3-----4-|
     Weak are ripped  and  torn   away

Lashing out the action, returning the reaction
Weak are ripped and torn away
Hipnotizing power, crushing all that cower
Battery is here to stay

With Fill 1

E5     			       C5
Smashing through the boundrys, lunacy has found me
	     F5 F5 F#/Eb
Cannot stop the battery

Riff 3

With Fill 1

E5			C5
Pounding out agression, turned into obsession
	     F5 F5 F#/Eb
Cannot stop the battery

Riff 3 (first 2 bars)

E5              B5      G5	    F#/Eb
Cannot kill the family, battery has grounded me

Riff 3 (first 3 bars)|
		     |
Bb5 F5 E5	     |  	Play this several
Bat-ter-y 	     |      times and then back to the next verse

Outro:
	Repeat lots		Last time
e|--------------------|----------------------------------------|
B|--------------------|----------------------------------------|
G|-3-4--3--4--3-------|-3--4--3--4--3--4--3--4-----------------|
D|-3-4--3--4--3--4--3-|-3--4--3--4--3--4--3--4--4--3--3--3-3-2-|
A|-1-2--1--2--1--4--3-|-1--2--1--2--1--2--1--2--4--3--3--3-3-2-|
E|---------------2--1-|-------------------------2--1--1--1-1-0-|

verses

Crushing all decievers, mashing non-believers
Never ending potency
Hungry violence seeker, feeding off the weaker
Breeding on insanity

Chorus

Circle of destruction, hammer comes crushing
Powerhouse of energy
Whipping up a fury, dominating flurry
We create the battery

Chorus
Вверх

Better Than You

tune all guitars down 1/2 step

G|-------------|-------------|---------------|-----------------|
D|----REST-----|----REST-----|----REST-------|------REST-------|
A|-------------|-------------|---------------|-----------------|
E|-------------|-------------|---------------|-----------------|

G|--------------|----------|-----------------|-----------------|
D|o-------REST--|--REST---o|-----------------|-----------------|
A|o-------------|---------o|-----------------|-----------------|
E|--------------|----------|-0-0-0-0-0-0-0-0-|-0-0-0-0-0-0-0-0-|

G|---------------------|-----------------|-----------------||
D|o--------------------|-----------------|-----------------||
A|o-10----(10)7--------|-7-------5-6-7---|-7-------7-5-----||
E|--0--0-0-0---0-0-0-0-|-0-0-0-0-0-0-0-0-|-0-0-0-0-----7-5-||

G|----------------|-------------|------------|-----------------|
D|o---------------|-------------|------------|-----------------|
A|o---------------|-------------|------------|-7---------------|
E|--3---3---3---3-|-5---5--5--0-|-3--0-0-0-0-|-0-0-0-0-3-4-5-0-|

G|-------------|---------------|-------------|-----------------|
D|-------------|---------------|-------------|-----------------|
A|-------------|---------------|-------------|-7---------------|
E|-3--3--3---3-|-5---5---5---0-|-3---0-0-0-0-|-0-0-0-0-3-4-5-0-|

G|------------|------------|-----------------|-----------------|
D|------------|------------|-----------------|-----------------|
A|------------|------------|-3-----3---3-3-3-|-5-5-5-5-5-5-5-2-|
E|-3--3--3--3-|-5--5--5--0-|-----------------|-----------------|

G|-----------------|----------------|-----------------|---|
D|-----------------|----------------|-----------------|---|
A|-----------------|----------------|-----------------|---|
E|-3---3-3---3-3-3-|-5-5-5-5---5-5-3|-1---1-1-1---1---|-3-|

G|-----------|-----------------|-------------|-----------------|
D|-----------|-----------------|-------------|-----------------|
A|----7------|-7-------5-6-7---|-----7-------|-7-------5-6-7---|
E|-3-0-0-0-0-|-0-0-0-0-0-0-0-0-|-3---0-0-0-0-|-0-0-0-0-0-0-0-0-|

G|---------|-------------|--------|------------|---------------|
D|---------|-------------|--------|------------|---------------|
A|---7-----|7-------567--|-7------|5-----5-----|7-------7------|
E|3-0-0-0-0|0-0-0-0-000-0|30-0-0-0|-7-5-0-7-5-0|0-0-0-0-0-0-0-0|

G|-----------------|-----------------|-------------|-----------|
D|-----------------|-----------------|-------------|-----------|
A|-0---------------|-----------------|-0-----------|-----------|
E|---2-----0-2-----|-2-2---2-2-2-2-2-|---2-----0-2-|-0-------1-|

G|-----------------|-----------------|-------------|-----------|
D|-----------------|-----------------|-------------|-----------|
A|-0---------------|-----------------|-0-----------|-----------|
E|---2-----0-2-----|-2-2---2-2-2-2-2-|---2-----0-2-|-0-------1-|

G|-----------------|-----------------|-----------------|-------|
D|-----------------|-----------------|-----------------|-------|
A|-2---------------|-----------------|-2---------------|-------|
E|---4-4-4-4-4---4-|-4-4-4-4-4-4-4-4-|---4-4-4-4-4---4-|-2---3-|

G|-------------|------------|-----------------------|----------|
D|-------------|------------|-----------------------|----------|
A|2------------|------------|-----------------------|----------|
E|--4-4-4-4-4-4|3-2-1-1-1-1/|16-16-16-16-16-16-16-16|-16-3-4-5-|

G|-----------|-----------------|-------------|-----------------|
D|-----------|-----------------|-------------|-----------------|
A|-----------|-----------------|-------------|-----------------|
E|-3-0-0-0-0-|-0-0-0-0-3-4-5-0-|-3---0-0-0-0-|-0-0-0-0-3-4-5-0-|

G|-----------|-----------------|-------------|-----------------|
D|-----------|-----------------|-------------|-----------------|
A|-----------|-----------------|-------------|-----------------|
E|-3-0-0-0-0-|-0-0-0-0-3-4-5-0-|-3---0-0-0-0-|-0-0-0-0-0-5-7-5-|

G|----------|--------------|----------------|------------------|
D|o---------|--------------|----------------|-----------------o|
A|o---------|--------------|----------------|-----------------o|
E|--3-3-3-3-|-5--5---5---0-|-3------0-0-0-0-|-0-0-0-0-0-5-7-5--|

G|-----------------|------------|------------|-----------------|
D|-----------------|------------|------------|-----------------|
A|-----------------|------------|------------|-3-----3---3-3-3-|
E|-0-0-0-0-0-3-5-0-|-3--3-3-3-3-|-5-5--5-5-5-|-----------------|

G|-----------------|-----------------|-----------------|
D|-----------------|-----------------|-----------------|
A|-5-5-5-5-5-5-5-2-|-----------------|-----------------|
E|-----------------|-3-3-3-3-3-3-3-3-|-5-5-5-5-5-5-5-0-|

G|---------------|---|
D|---------------|---|
A|---------------|---|
E|-1-1-1-1-1-1-2-|-3-|

G|-----------------|-----------------|-----------------|-------|
D|-----------------|-----------------|-----------------|-------|
A|-0---------------|-----------------|-0---------------|-------|
E|---2-----0-2-----|-2-2---2-2-2-2-2-|---2-----0-2-----|-0---1-|

G|-----------------|-----------------|-----------------|-------|
D|-----------------|-----------------|-----------------|-------|
A|-0---------------|-----------------|-0---------------|-------|
E|---2-----0-2-----|-2-2---2-2-2-2-2-|---2-----0-2-----|-0---1-|

G|-----------------|-----------------|-----------------|-------|
D|-----------------|-----------------|-----------------|-------|
A|-2---------------|-----------------|-2---------------|-------|
E|---4-4-4-4-4---4-|-4-4-4-4-4-4-4-4-|---4-4-4-4-4---4-|-2---3-|

G|---------|------------|-----------------------|--------------|
D|---------|------------|-----------------------|--------------|
A|2--------|------------|-----------------------|--------------|
E|--4-4-2-4|3-2-1-1-1-1/|16-16-16-16-16-16-16-16|16-16-14-3-4-5|

G|------------|-----------------|-----------|------------------|
D|o-----------|-----------------|-----------|-----------------o|
A|o----7------|-7-------5-6-7---|----7------|-7-------5-6-7---o|
E|--3-0-0-0-0-|-0-0-0-0-0-0-0-0-|-3-0-0-0-0-|-0-0-0-0-0-0-0-0--|

G|---|-----|-----|---------------|
D|---|-----|-----|---------------|
A|---|-----|-----|---------------|
E|-3-|-(3)-|-(3)-|-(3)-----3-4-5-|

G|------------|-----------------|-----------|------------------|
D|o-----------|-----------------|-----------|-----------------o|
A|o----7------|-7-------5-6-7---|----7------|-7-------5-6-7---o|
E|--3-0-0-0-0-|-0-0-0-0-0-0-0-0-|-3-0-0-0-0-|-0-0-0-0-0-0-0-0--|
Вверх

Blackened

INTRO         *backwards bass guitar
G|-----------------------------------------------------------|
D|-----------------------------------------------------------|
A|--------------------7------------------------------------7-|
E|---7--------8-------0--------7--------8--------10--------0-|

G|-------------------------------------------------------------|
D|-------------------------------------------------------------|
A|-9--10----------------7----------------------------------7---|
E|--------7--8--10------0--------7-------8-------10--------0---|

G|-----------------------------------|-----|
D|-----------------------------------|-----|
A|--1------2--3-3--------------------|-----|
E|----2--3--------1-0----------0-----|-----|

G|--------------------|---|------------------------------|
D|--------------------|---|------------------------------|
A|--------------------|---|---7---7---7-8-7---7---7---7--|
E|--3--3-3-3--0--2--2-|---|-0---0---0-------0---0---6----|

G|-------------------------------------------------------------|
D|-------------------------------------------------------------|
A|---7---7---7-8-7-1-----2--3-3-----------------1------2--1----|
E|-0---0---0---------2-3--------1---0-0-0-0-0-0---2--3------3--|

 1,2,3 VERSES                   2X`s
G|-------------------------------------------------------------|
D|-------------------------------------------------------------|
A|-------------1-----2-1---------------1-----2-1---------------|
E|-0-0-0-0-0-0---2-3-----3-0-0-0-0-0-0---2-3-----3-0-0-0-0-0-0-|

G|---------------|  G|-------------------------|
D|---------------|  D|-------------------------|
A|--1-----1------|  A|-------------1-----1-----|
E|----2-3---2-3--|  E|-0-0-0-0-0-0---2-3---2-3-|

G|------------------------------------------------------------|
D|------------------------------------------------------------|
A|-------------1-----2-3-3----------7---7---7-8-7---7---7---7-|
E|-3-3-3-3-3-3---2-3-------1------0---0---0-------0---0---6---|

G|-------------------------------------------------------------|
D|-------------------------------------------------------------|
A|--7---7---7-8-7-1-----2-3-3-----7---7---7-8-7---7---7---7----|
E|0---0---0---------2-3-------1-0---0---0-------0---0---6--0000|

  CHORUS
G|-------------------------------------------------------------|
D|-------------------------------------------------------------|
A|--7-------5--------3-----------------------------------------|
E|--0---5-5----3--3------3-3---2---2-2-2-2-0--3-3-3------3-3-3-|

G|-------------------------------------------------------------|
D|-------------------------------------------------------------|
A|-7-----5--------3--3-----------------------------------------|
E|-0-5-5---3--3-------3--2--------2-2-2-2-0-3----3-3-3-0---2--2|

G|-----|----------------------------------------------------|
D|-----|----------------------------------------------------|
A|-----|----------------------------------------------------|
E|-----|-3-3-3-3--0--2-2-----1--1----0------(0)---------(0)-|

G|-------------------------------------------------------------|
D|-------------------------------------------------------------|
A|------------------------------------------------6--6----6--6-|
E|-0--0-0-0-0-0-0-0--0-0-0-0-0-0-0--0-0-0-0--5--6--------------|

G|-----------------------------------------------------|
D|-----------------------------------------------------|
A|-------7----------------8-7----------------7---------|
E|-0-5-6---0-0-0-0---5-6------0-0-0-0--0-5-6---0-0-0-0-|

G|-------------------------------------------------------------|
D|-----------------------------8-------------------------------|
A|----6-6-6------7---------7-----7---------------7-------------|
E|-5-6------0-5-6--0-0-0-0---6-----0-0-0-0-0-5-6---0-0-0-0-6-0-|

G|-----------------|
D|-----------------|
A|-6-6-6-6-6-6---7-|
E|-------------0---|

G|-------------------------------------------------------------|
D|-------------------------------------------------------------|
A|----7-7-7---------7-7-7----7-----7-7-7---7-5---6-6-6-5-7-----|
E|-0--------5-7-6-0-------5----6-0-------0------------------6--|

G|-------------------------------------------------------------|
D|-------------------------------------------------------------|
A|---7-7-7---------7-7-7----7-------7-7-7---7-5-6-6-6-6-6-----2|
E|-0-------5-7-6-0-------5----6--0--------0---------------0-2--|

G|-------------------------------------------------------------|
D|---4---------------5-4---------------4-----------------------|
A|-3---------------2---------------2-3---------3-2-------------|
E|-----2-2-2-2-0-2-------2-2-2-0-2-------2-2-2-----3-1-1-1-1-1-|

G|----------------------------------------------------------|
D|----------------------------------------------------------|
A|-------7--------------8-7----------------7--------------7-|
E|-0-5-6---0-0-0-0--5-6-----0-0-0-0-0-5-6----0-0-0-0--5-6---|

G|-------------------------------------------------------------|
D|----------------8--------------------------------------------|
A|------7-------7--7-------------7-------------6---6---6-----7-|
E|-0-5-6-0-0-0-0-6--0-0-0-0-0-5-6--0-0-0-0-6-0---4---4---4-0---|

G|-------------------------------------------------------------|
D|-------------------------------------------------------------|
A|---7-7-7---------7-7-7---7-------7-7-7---7-5-6-----6-6-5-7---|
E|-0-------5-7-6-0-------5---6--0--------0-------------------6-|

G|-------------------------------------------------------------|
D|-------------------------------------------------------------|
A|----7-7-7---------7-7-7---7-----7-7-7---7-5-6---6-6-6------2-|
E|-0--------5-7-6-0-------5---6-0-------0---------------0-2----|

G|-----------------------------------------------------------|
D|---4-------------5-4---------------4-----------------------|
A|-3-------------2---------------2-3---------3-2-----------8-|
E|-----2-2-2-0-2-------2-2-2-0-2-------2-2-2-----3-1---------|

G|--------------------------------------------------------|
D|----9-----7---------------------------------------------|
A|-7-----7--5--3--3--2----------7--0--5--3--3--2--2-------|2X`s
E|----------------------3-2--0-----------------------3--2-|

  GUITAR SOLO       6X`s
G|---------------------------------|---------------------------|
D|---------------------------------|---------------------------|
A|-----------------------------9-10|---------------------------|
E|0-3-0-2-0-3-0-2-0-3-0-2-0-3-7-8--|0-3-0-2-0-3-0-2-0-3-0-2-0-3|

G|----------------|--|------------|
D|----------------|--|------------|
A|----------------|--|---------19-|
E|-3--3-3-3-0-2-2-|--|-1-1--------|

G|-------------------------------------------------------------|
D|-------------------------------------------------------------|
A|--8--8--8--8---7---7-----5H7---7---7---7---7---5---5---5---5-|
E|-0--0--0--0--0---0---0-0-----0---0---0---0---0---0---0---0---|

G|-------------------------------------------------|
D|-------------------------------------------------|
A|---8---8---8---8---7---7-----5H7-----------------|
E|-0---0---0---0---0---0---0-0-----0-0-0-0-0-0-0-0-|

G|---------------------------------------------------|
D|---------------------------------------------------|
A|-7----------5-----3--------------------------------|2X`s
E|-0------5-5---3-3---3-3-2--2-2-2-2-0--3-3-3--3-3-3-|
                                2X`s
G|-------------------------------------------------------------|
D|-------------------------------------------------------------|
A|--7--7--7--7--7--7---7---7---5---5---5---5---10---10---5---5-|
E|-0--0--0--6--5--5--5---5---3---3---3---3---8----8----3---3---|

G|------------| |----------------------------------------------|
D|------------| |----------------------------------------------|
A|------------| |-7--7--7-8-7--7--7--7--7---7---7-8-7-1----2---|
E|-3-3-3-3-3/-| |0--0--0-----0--0--6--0---0---0---------2-3--1-|
                                         2X`S
G|-------------| |---------------------------------------------|
D|-------------| |---------------------------------------------|
A|-------------| |7-----5------3-------------------------------|
E|-3-3-3-3-0-2-| |0-5-5----3-3---3-3--2--2-2-2-2-0--3-3-3-3-3-3|

G|-------------------------------------------------------------|
D|-------------------------------------------------------------|
A|----------------------------------7---7---7-8-7---7---7------|
E|-0--2--2---3-3-3-3-0-2-2-1--1---0---0---0-------0---0----6-0-|
Вверх

Blackened (2 вариант)

Intro (two gtrs.):                      (Gtr. II shown on right)
E|-14-15h17p15-17b(18)r(17)-17b(18)r(17)-1715-15-1715-15-97-7-|
B|-16-17h19p17-19b(20)r(19)-19b(20)r(19)-1917-17-1917-17------|
G|------------------------------------------------------------|
D|--------------------------------------------------------119-|
A|------------------------------------------------------------|
E|------------------------------------------------------------|

E|---------|
B|--1210|7-|
G|---------|
D|-9-------|
A|---------|
E|---------|

E|----------------------------------------------------------|
B|-8-10|7-12-10|78|5-8|5-10|78|5-8|5-/12-12-12-1210|7-8-10--|
G|-9-------9---------------------------------------------9--|
D|---------------------------------------9-10--9------------|
A|----------------------------------------------------------|
E|----------------------------------------------------------|

E|--------------------------------|
B|7-12|8--10|78|5-8|5-10|78|5-8|5-|
G|--------------------------------|
D|--------------------------------|
A|--------------------------------|
E|--------------------------------|
Вверх

Bleeding Me mp3

Проигрыш:         Tune Guitars down 1/2 step

E|-------------------------------------------------------------|
B|-------------------------------------------------------------|
G|--------p-----------------------------p----------------------|
D|-------5-0------------------5--------5-0---------------------|
A|----/7------7------7------5---7---/7------7----7\--Н--4--5\2-|
E|-0--------------0----0--5-------0------------0----0-5----4\3-|
        sl.                           sl.                   sl.

E|-------------------------------------------------------------|
B|-------------------------------------------------------------|
G|---------p-----------------------------p---------------------|
D|--------5-0------------------5--------5-0--~~~---------------|
A|-----/7------7------7------5---7---/7------5------5------5---|
E|--0--------------0----0--5-------0-------------3----3\2----2-|
        sl.                                  sl.            sl.
Fill 1:

E|--------------------------------------|
B|--------------1/2---------------------|
G|-----------Н---^----------------------|
D|----------5-7--7----------------------|
A|-----/7---------------5--------5--~~~-|
E|--0----------------3-----3\2------2---|
       sl.

RiffA: Sounds something like this

E|-------------------------------|
B|.12-----------10--------8---10-|
G|-------------------------------|
D|--9------------7--------5----7-|
A|.------------------------------|
E|-------------------------------|

RiffB: Slowly,Let Ring.9 on 4th string is optional.

E|--0----0----0----0---0---0---|
B|.-8----8----8----8---7---8---|
G|--9----9----9----9---9---9---|
D|-----9----9----9-----------9-|
A|.----------------------------|
E|-----------------------------|

E|-----------------------------12---------------------------7--|
B|.----------------------------12-----------------------8---7-.|
G|-------------------------12------------------------9------9--|
D|---------------------14--------------------------------------|
A|.-----------------------------------------------------------.|
E|-------------------------------------------------------------|

I'm Diggin' My Way.......     I'm Diggin My Way to something...

E|--------------------------------------------12-|
B|.-------------------------------------------12-|
G|----------------------------------------12-----|
D|------------------------------------14---------|
A|.----------------------------------------------|
E|-----------------------------------------------|

I'm Diggin My Way to Something Better...

Pre-Припев:Guitar1

E|--------Full-------------------------------------------------|
B|----------^-------------------------Full----Full-------------|
G|---------12----------7------------7--^--------^---p----------|
D|-----12----------/9-----7-------5----7--------7--7-5------Н--|
A|-14-------------------------/7------------------------7--5-7-|
E|-------------------------------------------------------------|

Pre-Припев:Guitar2     Stop here on repeat and play 2nd part

E|-------------------------------------------------------------|
B|--------------------------8----------------------8-----------|
G|------------------7--7----7---7----------7--7----7---7-------|
D|-2-2-x-2-2-x--x---7--7-x--7---7---x--x---7--7-x--7---7--x--x-|
A|-2-2-x-2-2-x--x---5--5-x--5---5---x--x---5--5-x--5---5--x--x-|
E|-0-0-x-0-0-x--x--------x----------x--x--------x---------x--x-|

Skip this 2nd time|     (2nd part)Play seconed time:

E|-----------------------|----------------------------|
B|----------------------.|----------------------------|
G|--2--2--x--2---2-------|--2--2-----2----------------|
D|--2--2--x--2---2-----5.|--2--2--x--2--2-------------|
A|--0--0--x--0---0---7---|--0--0--x--0--2-----~~~~~~~-|
E|-----------------------|--------x-----0---0--3------|

Припев:

E|-------------------------------------------------------------|
B|------------------------------------------------------------.|
G|--------------Н---------------Н------------------------------|
D|-/9-9-9\-x-5-5-7-7--7\-x--5--5-7---7--7\--x------Н---------x-|
A|-/7-7-7\-x-5---7-5--5\-x--5----5---5--5\--x--5--5-7--7--7\-x.|
E|---------x-------------x------------------x--5----5--5--5\-x-|

Every time except 1st,Play this after each Припев: line:


E|------------|
B|------------|
G|------------|
D|------------|
A|-----~~~~---|
E|--0--3------|

Seconed Main Riff:

E|-------------------------------------------------------------|
B|-------------------------------------------------------------|
G|---Н--------------------------------------------p----Н-------|
D|--7-9--------9----------9----------9-----Н----10-9--7-9------|
A|--7----------7----------7----------7----7-10----------7------|
E|--0---0--0---0---0--0---0---0--0---0--0----------------------|
       pm...    pm...      pm...

*Here's That Kick Ass Solo!:
E|--^-----^----^----^----^------^--^-~~~|----------------------|
B|--5-----8---10---12---15-----15-15----|----------------------|
G|--7----10---12---14---17-----17-17----|-------------12-12----|
D|-Full-Full-Full-Full-Up&Down----------|-------------12-12-~~~|
A|--------------------------------------|-12-12-14-14-------14-|
E|--------------------------------------|----------------------|

*Only bend bottoms Notes Full                  pm..

E|-------------------------------------------------------------|
B|-------------------------------------------------------------|
G|-12-------Н---~~~~-14-12-------x-x-x----~~~~-----------------|
D|----12-(12)14-14---------14-12-x-x-x-12-14---14-12---(12)----|
A|-------------------------------------------------------------|
E|-------------------------------------------------------------|

E|-------------1/4---------------------------------------------|
B|--------------^---------1/2----------------------------------|
G|-------------12---x--x---^---~~~--12--~~~~~--------~~~-14----|
D|-14-14-14-12-12---x--x--12---14---14--12--(12)-14-14---14----|
A|----------------------------------------------------------12-|
E|----------------12-------------------------------------------|

E|--------------^-------------^--------------------------------|
B|----------x--14---------x--14--12----------------------------|
G|--12-~~~~-x--14---12----x--14--12-------------Н--------------|
D|-----14------1/2-----14----1/2----14--12----12-14--12--------|
A|-----------------------------------------14-----------14-----|
E|-------------------------------------------------------------|

E|15-12----12-------------------------Full---------------------|
B|------15----15-12----12---------------^-------------------p--|
G|------------------14----14-12----12--14-----14(Br.Dow.Her.-14|
D|------------------------------14---Hold Bend-----------------|
A|-------------------------------------------------------------|
E|-------------------------------------------------------------|
                                 Н  p
E|---------------------12-15-12---12--^--12--------^--12---p---|
B|-----------------------------15----15-----15-12-15-----15-12-|
G|---12-14-------12-~~~-------------Full---------Full----------|
D|14-------14-12----14-----------------------------------------|
A|-------------------------------------------------------------|
E|-------------------------------------------------------------|

E|--^-12---p-----------p-----------p------------p-----------p--|
B|-15----15-12-12-12-15-12-12-12-15-12-12-12--15-12----12-15-12|
G|--------------------------------------------------14---------|
D|-------------------------------------------------------------|
A|-------------------------------------------------------------|
E|-------------------------------------------------------------|

E|------p-------Н--p-------Н--p-------p------Н--p------Н--p----|
B|--12-15-12---12-15-12--12-15-12---15-12--12-15-12--12-15-12--|
G|14--------14---------14---------14-----14--------14--------14|
D|-------------------------------------------------------------|
A|-------------------------------------------------------------|
E|-------------------------------------------------------------|

                                         Tremolo Pick this part
E|---Н--p----------Н--p--------p-----^----^--|----------15-----|
B|-12-15-12--12--12-15-12----15-12--15---15--|--12--14--15-----|
G|------------------------14-------Full--Full|--12--14--15--14-|
D|-------------------------------------------|-----------------|
A|-------------------------------------------|-----------------|
E|-------------------------------------------|-----------------|

E|-------------------------^------------------------^----------|
B|-12--14--14--15--14-12--15--15-12----------------15--15-12---|
G|-12--14--14--15--14-12-Full-------14-12-----~~~~Full-------14|
D|----------------------------------------14-12----------------|
A|-------------------------------------------------------------|
E|-------------------------------------------------------------|

E|---------------^----^-----^---------^------------^-----------|
B|--------------15---15----15-----0--15--0--12----15-----------|
G|-12------~~~-Full--Full--Full---0-Full-0--12---Full----------|
D|----14--12-----------------------------------14--------------|
A|-------------------------------------------------------------|
E|-------------------------------------------------------------|

Half Time Feel:
E|-----------------------------------------------------------^-|
B|------------------------------------------------------14--14-|
G|--Н---------12--12/14-(14)-12--12--12/14-12-11-----12-14--14-|
D|-7-9--9--9-------------------------------------/14-------1/2-|
A|---7--7--7--10--10/12-(12)-10--10--10/12-10-9----------------|
E|-------------------------------------------------------------|

E|-------------------------------------------------------------|
B|---p-----------^--15-12--^-----------------------------------|
G|-14-12----12--14--------14----12--~~-------9-9-12--12/14--12-|
D|-------14----Full-----Up&Down----14-(14)\--------------------|
A|-------------------------------------------7-7-10--10/12--10-|
E|-------------------------------------------------------------|

E|--------------------------------------------------^----------|
B|------------~~~--------------------------12--14--14----------|
G|-12/14-12--11---/12--12/14--14/16--------12--14--14----14-12-|
D|-----------------------------------12-14---------Full--------|
A|-10/12-10---9---/10--10/12--12/14----------------------------|
E|-------------------------------------------------------------|

E|----------------------------|
B|---------^---12-------------|
G|----12--14---12---(12)\-----|
D|-14----Full-----------------|
A|----------------------------|
E|----------------------------|

WHEW!Thank God that's over with.That was
one major pain doing that solo,so Enjoy!


BLEEDING ME
(Hetfield/Ulrich/Hammett)

I'm diggin' my way
I'm diggin' my way to somethin'
I'm diggin' my way to somethin' better
I'm pushin' to stay
I'm pushin' to stay with somethin'
I'm pushin' to stay with somethin' better

I'm sowing the seeds
I'm sowing the seeds I take
I'm sowing the seeds I take for granted
This thorn in my side
This thorn in my side is from the tree
This thorn in my side is from the tree I've planted
It tears me and I bleed
And I bleed

Caught under wheels roll
I take the leash
I'm bleeding me
Can't stop to save my soul
I take the leash that's bleeding me
I'm bleeding me
I can't take it
Caught under wheels roll
Oh, the bleeding of me
Of me

Caught under wheels roll
I take the leash
I'm bleeding me
Can't stop to save my soul
I take the leash that's bleeding me
I'm bleeding me
I can't take it
Caught under wheels roll
Oh, the bleeding of me
Oh, the bleeding of me

I am the beast that bleeds the feast
I am the blood
I am release

Come make me pure
Bleed me a cure
I'm caught, I'm caught, I'm caught under
Caught under wheels roll
I take that leash
I'm bleeding me
Can't stop to save my soul
I take the leash that's bleeding me
I'm bleeding me
I can't take it
I can't take it
I can't take it
Oh, the bleeding of me

I'm diggin' my way
I'm diggin' my way to somethin'
I'm diggin' my way to somethin' better
I'm pushin' to stay
I'm pushin' to stay with somethin'
I'm pushin' to stay with somethin' better
With somethin' better
Вверх

Bleeding Me (2 вариант) mp3

Intro: Em7 DEm7 DEm7 DEm7 Em7 G D9  2x

Verse 1:
Em5                 D5 Em5                         D5
 I?m diggin? my way      I?m diggin? my way to something
Em5                    D5        Em5    G D9
 I?m diggin? my way to somethin? better
Em5                 D5 Em5                          D5
 i?m pushin? my stay     I?m pushin? my stay to something
Em5                     D5        Em5    D5
 I?m pushin? my stay to something better

Bridge : Em5 D5 D5 Em5 Em5 D5 D5 Em5

Verse 2:
Em5                  D5 Em5                          D5
 I?m sowing the seeds    I?m sowing the seeds I?ve taken
Em5                     D5        Em5    G D9
 I?m sowing the seeds I take for granted
Em5                   D5 Em5                        D5
 This thorn in my side    This thorn in my side is from the tree
Em5                        D5                 Em5    D5
 This thorn in my side is from the tree I?ve planted

Chorus :
Em                D                      Am
 Caught under the wheels roll I take the leech I?m bleeding me
Em             D                       Am
 Can?t stop to save my soul I take the leash that?s leading me
Em            D          Am
 I?m bleeding me Who ooh   I can?t take it
Em                D                         Am
 Caught under the wheel?s roll The bleeding of me

Bridge 2:
D|-9--------9--------9---------------10--9--|
A|-7--------7--------7--------7--10---------|
E|-0--0--0--0--0--0--0--0--0----------------|

I am the beast that feeds the beast
I am the blood, I am release
Come make me pure Bleed me a cure
I?m caught I?m caught I?m caught under

Chorus :
Em                D                      Am
 Caught under the wheels roll I take the leech I?m bleeding me
Em             D                       Am
 Can?t stop to save my soul I take the leash that?s leading me
Em            D          Am
 I?m bleeding me Who ooh   I can?t take it
Em                D                         Am
 Caught under the wheel?s roll The bleeding of me

Verse 1:

Chorus :
Вверх

Blues Jam

Bass:
1)
G|---------------------|
D|---------------------|  4 times
A|-//------------------|
E|-//5-5-10-10-8-8-5-5-|

2)
G|-------------------|
D|-------------------|
A|-5-5-10-10-8-8-5-5-|  2 times; then riff 1
E|-------------------|

3)
G|------------------------------|
D|-------9-7------------7-5-----|
A|-7-7-7-----9-7--5-5-5-----7-5-|
E|------------------------------|

4)
G|-----------------------5-|
D|-------------------5-7---|
A|---------5-5-6-6-7-------|
E|-5-5-8-8-----------------|

Guitar:
1)
e|------------------------------|
B|------------------------------|
G|-----------7-5------------7-5-|
D|-7p5-------7-5--7p5-------7-5-|
A|-----7--------------7---------|
E|-------5-5------------5-5-----|

2)
e|------------------------------|
B|------------------------------|
G|-7p5-------7-5--7p5-------7-5-|
D|-----7--------------7---------|
A|-------5-5------------5-5-----|
E|------------------------------|

3)
e|-------------------------------------|
B|-----10-8-10p8h10p8------8-6-8p6h8p6-|
G|------9-7----------------7-5---------|
D|-------------------------------------|
A|-7-7-----------------5-5-------------|
E|-------------------------------------|

4)
e|-------------------------|
B|-------------------------|
G|-----------------------5-|
D|-------------------5-7---|
A|---------5-5-6-6-7-------|
E|-5-5-8-8-----------------|

Then Kirk goes into soloing, which follows the basic blues
pattern, start in
A, then D, A, E, D, A.
Вверх

Breadfan

E||------------------------|------------------------|
B||------------------------|------------------------|
G||------------------------|------------------------|
D||------------------------|------------------------|
A||-5h-7--7--5h-7--7--5h-7-|-7--5h-7--7--5h-7--7--7-|
E||------------------------|------------------------|

E|---------------------|-------------|------------------------|
B|---------------------|-------------|------------------------|
G|---------------------|-------------|------------------------|
D|---------------------|-------------|------------------------|
A|-5h-7-7-5h-7-7-5h7-7-|-7-5---------|-5h-7--7--5h-7--7--5h-7-|
E|---------------------|----7-5-3b-0-|------------------------|

E|-------------------|---------------------|----------------|
B|-------------------|---------------------|----------------|
G|-------------------|---------------------|----------------|
D|-------------------|---------------------|----------------|
A|-7-5h-7-7-5h-7-7-7-|-5h-7-7-5h-7-7-5h7-7-|-7-5------------|
E|-------------------|---------------------|-----7-5-3b---0-|

E|------------------------|------------------------|
B|------------------------|------------------------|
G|------------------------|------------------------|
D|------------------------|------------------------|
A|-5h-7--7--5h-7--7--5h-7-|-7--5h-7--7--5h-7--7--7-|
E|------------------------|------------------------|

E|---------------------|--------------|------------------------|
B|---------------------|--------------|------------------------|
G|---------------------|--------------|------------------------|
D|---------------------|--------------|------------------------|
A|-5h-7-7-5h-7-7-5h7-7-|-7-5----------|-5h-7--7--5h-7--7--5h-7-|
E|---------------------|-----7-5-3b-0-|------------------------|

E|-------------------|---------------------|-------------------|
B|-------------------|---------------------|-------------------|
G|-------------------|---------------------|-------------------|
D|-------------------|---------------------|-------------------|
A|-7-5h-7-7-5h-7-7-7-|-5h-7-7-5h-7-7-5h7-7-|-7-5---------------|
E|-------------------|---------------------|------7--5--3b---0-|

E|------------------------|------------------------|
B|------------------------|------------------------|
G|------------------------|------------------------|
D|------------------------|------------------------|
A|-5h-7--7--5h-7--7--5h-7-|-7--5h-7--7--5h-7--7--7-|
E|------------------------|------------------------|

E|---------------------|--------------|------------------------|
B|---------------------|--------------|------------------------|
G|---------------------|--------------|------------------------|
D|---------------------|--------------|------------------------|
A|-5h-7-7-5h-7-7-5h7-7-|-7-5----------|-5h-7--7--5h-7--7--5h-7-|
E|---------------------|-----7-5-3b-0-|------------------------|

E|-------------------|---------------------|-------------------|
B|-------------------|---------------------|-------------------|
G|-------------------|---------------------|-------------------|
D|-------------------|---------------------|-------------------|
A|-7-5h-7-7-5h-7-7-7-|-5h-7-7-5h-7-7-5h7-7-|-7-5---------------|
E|-------------------|---------------------|------7--5--3b---0-|

E|------------------------|------------------------|
B|------------------------|------------------------|
G|------------------------|------------------------|
D|------------------------|------------------------|
A|-5h-7--7--5h-7--7--5h-7-|-7--5h-7--7--5h-7--7--7-|
E|------------------------|------------------------|

E|---------------------|--------------|------------------------|
B|---------------------|--------------|------------------------|
G|---------------------|--------------|------------------------|
D|---------------------|--------------|------------------------|
A|-5h-7-7-5h-7-7-5h7-7-|-7-5----------|-5h-7--7--5h-7--7--5h-7-|
E|---------------------|-----7-5-3b-0-|------------------------|

E|---------------------|-------------------------|
B|---------------------|-------------------------|
G|---------------------|-------------------------|
D|---------------------|-------------------------|
A|-7-5h-7-7-5h-7--7--7-|-5h-7--7--5h-7--7--5h7-7-|
E|---------------------|-------------------------|

E|--------------------|----------------|----------------------|
B|--------------------|----------------|----------------------|
G|--------------------|----------------|----------------------|
D|--------------------|----------------|----------------------|
A|-7--5--------5-4--3-|---7-5--7--7--5-|-7----7----5--7--7--5-|
E|-------7--5--3-2--1-|-0-0-0--0--0--0-|-0----0----0--0--0--0-|

E|------------------|----------------|---------|
B|------------------|----------------|---------|
G|------------------|----------------|---------|
D|------------------|----------------|-7--7--7-|
A|-7--7--5--7--7--5-|-7-----5h--7--5-|-5--5--5-|
E|-0--0--0--0--0--0-|-0--0--0------0-|---------|

E|---------------|----------------------|----------------------|
B|---------------|----------------------|----------------------|
G|---------------|----------------------|----------------------|
D|-7------7----8-|----------------------|----------------------|
A|-5------5----6-|------7----5--7--7--5-|-7----7----5--7--7--5-|
E|---------------|-0----0----0--0--0--0-|-0----0----0--0--0--0-|

E|----------------------|-------------------|-----------------|
B|----------------------|-------------------|-----------------|
G|----------------------|-------------------|-----------------|
D|----------------------|-------------------|-7------7------7-|
A|-7----7----5--7--7--5-|-7-------5h---7--5-|-5------5------5-|
E|-0----0----0--0--0--0-|-0----0--0-------0-|-----------------|

E|---------------|----------------------|----------------------|
B|---------------|----------------------|----------------------|
G|---------------|----------------------|----------------------|
D|-7------7----8-|----------------------|----------------------|
A|-5------5----6-|------7----5--7--7--5-|-7-------5----7--7--5-|
E|---------------|-0----0----0--0--0--0-|-0----0--0----0--0--0-|

E|----------------------|--------------------|-----------------|
B|----------------------|--------------------|-----------------|
G|----------------------|--------------------|-----------------|
D|----------------------|---------------5----|-7------7------7-|
A|-7-------5----7--7--5-|-7-------5h-7-----7-|-5------5------5-|
E|-0----0--0----0--0--0-|-0----0-------------|-----------------|

E|---------------|----------------------|----------------------|
B|---------------|----------------------|----------------------|
G|---------------|----------------------|----------------------|
D|-7------7----8-|----------------------|----------------------|
A|-5------5----6-|------7----5--7--7--5-|-7-------5----7--7--5-|
E|---------------|-0----0----0--0--0--0-|-0----0--0----0--0--0-|

E|----------------------|-----------------------|--------------|
B|----------------------|-----------------------|--------------|
G|----------------------|-----------------------|--------------|
D|----------------------|---------------5-------|-7----7-----7-|
A|-7-------5----7--7--5-|-7-------5h-7-----7p-5-|-5----5-----5-|
E|-0----0--0----0--0--0-|-0----0----------------|--------------|

E|-----------|------------------------|------------------------|
B|-----------|------------------------|------------------------|
G|-----------|------------------------|------------------------|
D|-7---7---8-|------------------------|------------------------|
A|-5---5---6-|-5h-7--7--5h-7--7--5h-7-|-7--5h-7--7--5h-7--7--7-|
E|-----------|------------------------|------------------------|

E|---------------------|--------------|------------------------|
B|---------------------|--------------|------------------------|
G|---------------------|--------------|------------------------|
D|---------------------|--------------|------------------------|
A|-5h-7-7-5h-7-7-5h7-7-|-7-5----------|-5h-7--7--5h-7--7--5h-7-|
E|---------------------|-----7-5-3b-0-|------------------------|

E|-------------------|---------------------|-------------------|
B|-------------------|---------------------|-------------------|
G|-------------------|---------------------|-------------------|
D|-------------------|---------------------|-------------------|
A|-7-5h-7-7-5h-7-7-7-|-5h-7-7-5h-7-7-5h7-7-|-7-5---------------|
E|-------------------|---------------------|------7--5--3b---0-|

E|------------------------|------------------------|
B|------------------------|------------------------|
G|------------------------|------------------------|
D|------------------------|------------------------|
A|-5h-7--7--5h-7--7--5h-7-|-7--5h-7--7--5h-7--7--7-|
E|------------------------|------------------------|

E|---------------------|--------------|------------------------|
B|---------------------|--------------|------------------------|
G|---------------------|--------------|------------------------|
D|---------------------|--------------|------------------------|
A|-5h-7-7-5h-7-7-5h7-7-|-7-5----------|-5h-7--7--5h-7--7--5h-7-|
E|---------------------|-----7-5-3b-0-|------------------------|

E|-----------------------|-------------------------|
B|-----------------------|-------------------------|
G|-----------------------|-------------------------|
D|-----------------------|-------------------------|
A|-7-5h-7--7--5h-7--7--7-|-5h-7--7--5h-7--7--5h7-7-|
E|-----------------------|-------------------------|

E|-----------------|--------------------|----------------------|
B|-----------------|--------------------|----------------------|
G|-----------------|--------------------|----------------------|
D|-----------------|--------------------|----------------------|
A|-7-5-----5--4--3-|----7----5--7--7--5-|-7----7----5--7--7--5-|
E|-----7-5-3--2--1-|-0--0----0--0--0--0-|-0----0----0--0--0--0-|

E|--------------------|---------------------|-----------------|
B|--------------------|---------------------|-----------------|
G|--------------------|---------------------|-----------------|
D|--------------------|---------------------|-7------7------7-|
A|-7--7----5--7--7--5-|-7-------5h---7--5---|-5------5------5-|
E|-0--0----0--0--0--0-|-0----0--0-------0---|-----------------|

E|---------------|----------------------|----------------------|
B|---------------|----------------------|----------------------|
G|---------------|----------------------|----------------------|
D|-7------7----8-|----------------------|----------------------|
A|-5------5----6-|------7----5--7--7--5-|-7----7----5--7--7--5-|
E|---------------|-0----0----0--0--0--0-|-0----0----0--0--0--0-|

E|----------------------|-------------------|-----------------|
B|----------------------|-------------------|-----------------|
G|----------------------|-------------------|-----------------|
D|----------------------|-------------------|-7------7------7-|
A|-7----7----5--7--7--5-|-7-------5h---7--5-|-5------5------5-|
E|-0----0----0--0--0--0-|-0----0--0-------0-|-----------------|

E|---------------|----------------------|----------------------|
B|---------------|----------------------|----------------------|
G|---------------|----------------------|----------------------|
D|-7------7----8-|----------------------|----------------------|
A|-5------5----6-|------7----5--7--7--5-|-7-------5----7--7--5-|
E|---------------|-0----0----0--0--0--0-|-0----0--0----0--0--0-|

E|----------------------|--------------------|-----------------|
B|----------------------|--------------------|-----------------|
G|----------------------|--------------------|-----------------|
D|----------------------|---------------5----|-7------7------7-|
A|-7-------5----7--7--5-|-7-------5h-7-----7-|-5------5------5-|
E|-0----0--0----0--0--0-|-0----0-------------|-----------------|

E|---------------|----------------------|----------------------|
B|---------------|----------------------|----------------------|
G|---------------|----------------------|----------------------|
D|-7------7----8-|----------------------|----------------------|
A|-5------5----6-|------7----5--7--7--5-|-7-------5----7--7--5-|
E|---------------|-0----0----0--0--0--0-|-0----0--0----0--0--0-|

E|--------------------|-----------------------|----------------|
B|--------------------|-----------------------|----------------|
G|--------------------|-----------------------|----------------|
D|--------------------|---------------5-------|-7------7-----7-|
A|-7-----5----7--7--5-|-7-------5h-7-----7p-5-|-5------5-----5-|
E|-0--0--0----0--0--0-|-0----0----------------|----------------|

E|---------------|---|
B|---------------|---|
G|---------------|---|
D|-7------7----8-|-2-|
A|-5------5----6-|-2-|
E|---------------|-0-|

E|---|---|---|
B|---|---|---|
G|---|---|---|
D|-2-|-1-|-2-|
A|-2-|-1-|-2-|
E|-0-|---|-0-|

E|--------|------------------|------------------|
B|--------|------------------|------------------|
G|--------|------------------|------------------|
D|-0----1-|-2--------------1-|-2--------------1-|
A|-0----1-|-2--------------1-|-2--------------1-|
E|--------|-0----------------|-0----------------|

E|----------------|---------------------|----------------------|
B|----------------|---------------------|----------------------|
G|----------------|---------------------|----------------------|
D|-2----1--2------|---------------------|----------------------|
A|-2----1--2----2-|-4--2----2----2----2-|-4/-5--5--5----5----5-|
E|-0-------0----0-|-2--0----0----0----0-|-2/-3--3--3----3----3-|

E|------------------|-------------------|----------------------|
B|------------------|-------------------|----------------------|
G|------------------|-------------------|----------------------|
D|------------------|-------------------|----------------------|
A|-4/-5--5--5--5--5-|-4/-5--5--5--5---5-|-4/-5--5--5----5----5-|
E|-2/-3--3--3--3--3-|-2/-3--3--3--3---3-|-2/-3--3--3----3----3-|

E|--------------------|--------------------|-------------------|
B|--------------------|--------------------|-------------------|
G|--------------------|--------------------|-------------------|
D|--------------------|--------------------|-------------------|
A|-6/-7--7--7---7---7-|-6/-7--7--7---7---7-|-6/-7--7--7---7--7-|
E|-4/-5--5--5---5---5-|-4/-5--5--5---5---5-|-4/-5--5--5---5--5-|

E|-----------------------|-------------------|-----------------|
B|-----------------------|-------------------|-----------------|
G|-----------------------|-------------------|-----------------|
D|-----------------------|-------------------|-----------------|
A|-6/-7--7--7----7--7----|-7------5------7---|---5------7----5-|
E|-4/-5--5--5----5--5--0-|-5------3------5---|---3------5----3-|

E|--------------------|------------------|---------------------|
B|--------------------|------------------|---------------------|
G|--------------------|------------------|---------------------|
D|-------5------------|-------3----------|---------------------|
A|--5h-7-----7---x--x-|-3h-5-----5--x--x-|-------5-------------|
E|---------------x--x-|-------------x--x-|-5h-7-----7--------0-|

E|---------------|----------------------|----------------------|
B|---------------|----------------------|----------------------|
G|---------------|----------------------|----------------------|
D|---------------|-------5--------------|-------3--------------|
A|----2----------|-5h-7-----7------x--x-|-3h-5-----5------x--x-|
E|-2-----2--3--4-|-----------------x--x-|-----------------x--x-|

E|---------------|------------------------|--------------------|
B|---------------|------------------------|--------------------|
G|---------------|------------------------|--------------------|
D|---------------|------------------------|-------5------------|
A|-------5-------|----2-------------------|-5h-7-----7----x--x-|
E|-5h-7-----7--0-|-2-----2--3--3--3--4--4-|---------------x--x-|

E|--------------------|--------------------|-------------------|
B|--------------------|--------------------|-------------------|
G|--------------------|--------------------|-------------------|
D|-------3------------|--------------------|-------------------|
A|-3h-5-----5----x--x-|-------5------------|----2--------------|
E|---------------x--x-|-5h-7-----7-------0-|-2-----2--3------4-|

E|--------------------|--------------------|-------------------|
B|--------------------|--------------------|-------------------|
G|--------------------|--------------------|-------------------|
D|-------5------------|-------3------------|-------------------|
A|-5h-7-----7----x--x-|-3h-5-----5----x--x-|-------5-----------|
E|---------------x--x-|---------------x--x-|-5h-7-----7-----0--|

E|-------------------|-----------------|-----------------|
B|-------------------|-----------------|-----------------|
G|-------------------|-----------------|-----------------|
D|-------------------|-----------------|-----------------|
A|----2--------------|-7------5------7-|---5------7----5-|
E|-2-----2--3------4-|-5------3------5-|---3------5----3-|

E|---|
B|---|
G|---|
D|---|
A|-2-|
E|-0-|

E|---------------|---------------|----------------|
B|---------------|---------------|----------------|
G|---------------|---------------|----------------|
D|---------------|---------------|----------------|
A|-7-7-7-7--5----|-7-7-7-7--5--7-|-7-7-7-7--5h7-7-|
E|-------------7-|---------------|----------------|

E|--------------------|---------------------------------|
B|--------------------|---------------------------------|
G|--------------------|---------------------------------|
D|--------------9-----|---------------------------------|
A|-10-10-10-10-----10-|-2-2-2-2-2-2-2-2-2-2-2-2-2-2-2-2-|
E|--------------------|-0-0-0-0-0-0-0-0-0-0-0-0-0-0-0-0-|

E|-----------------|---------------|------------------------|
B|-----------------|---------------|------------------------|
G|-----------------|---------------|------------------------|
D|-----------------|---------------|------------------------|
A|-7------5------7-|-5------7----5-|-5h-7--7--5h-7--7--5h-7-|
E|-5------3------5-|-3------5----3-|------------------------|

E|-------------------|---------------------|-------------------|
B|-------------------|---------------------|-------------------|
G|-------------------|---------------------|-------------------|
D|-------------------|---------------------|-------------------|
A|-7-5h-7-7-5h-7-7-7-|-5h-7-7-5h-7-7-5h7-7-|-7-5---------------|
E|-------------------|---------------------|------7--5--3b---0-|

E|------------------------|------------------------|
B|------------------------|------------------------|
G|------------------------|------------------------|
D|------------------------|------------------------|
A|-5h-7--7--5h-7--7--5h-7-|-7--5h-7--7--5h-7--7--7-|
E|------------------------|------------------------|

E|---------------------|--------------|------------------------|
B|---------------------|--------------|------------------------|
G|---------------------|--------------|------------------------|
D|---------------------|--------------|------------------------|
A|-5h-7-7-5h-7-7-5h7-7-|-7-5----------|-5h-7-7--5h-7--7--5h-7--|
E|---------------------|-----7-5-3b-0-|------------------------|

E|-------------------|---------------------|-------------------|
B|-------------------|---------------------|-------------------|
G|-------------------|---------------------|-------------------|
D|-------------------|---------------------|-------------------|
A|-7-5h-7-7-5h-7-7-7-|-5h-7-7-5h-7-7-5h7-7-|-7-5---------------|
E|-------------------|---------------------|-----7-5-3b---0----|

E|--------------------|-------------------|--------------------|
B|--------------------|-------------------|--------------------|
G|--------------------|-------------------|--------------------|
D|--------------------|-------------------|--------------------|
A|-5h-7-7-5h-7-7-5h-7-|-7-5h-7-7-5h-7-7-7-|-2--2--2--2---2--2--|
E|--------------------|-------------------|-0--0--0--0---0--0--|

E|--------------|----------------------|-----------------------|
B|--------------|----------------------|-----------------------|
G|--------------|----------------------|-----------------------|
D|-------0--0---|----------------------|-----------------------|
A|-2--2--2--2---|------7----5--7--7--5-|-7----7----5--7--7--5--|
E|-0--0--0--0---|-0----0----0--0--0--0-|-0----0----0--0--0--0--|

E|------------------|---------------------|--------------------|
B|------------------|---------------------|--------------------|
G|------------------|---------------------|--------------------|
D|------------------|---------------------|-7------7------7----|
A|-7--7--5--7--7--5-|-7-------5h---7--5---|-5------5------5----|
E|-0--0--0--0--0--0-|-0----0--0-------0---|--------------------|

E|--------------|----------------------|-----------------------|
B|--------------|----------------------|-----------------------|
G|--------------|----------------------|-----------------------|
D|-7---7----8---|----------------------|-----------------------|
A|-5---5----6---|------7----5--7--7--5-|-7----7----5--7--7--5--|
E|--------------|-0----0----0--0--0--0-|-0----0----0--0--0--0--|

E|------------------|---------------------|--------------------|
B|------------------|---------------------|--------------------|
G|------------------|---------------------|--------------------|
D|------------------|---------------------|-7------7------7----|
A|-7--7--5--7--7--5-|-7-------5h---7--5---|-5------5------5----|
E|-0--0--0--0--0--0-|-0----0--0-------0---|--------------------|

E|-----------------|---------------------|---------------------|
B|-----------------|---------------------|---------------------|
G|-----------------|---------------------|---------------------|
D|---7------7----8-|---------------------|---------------------|
A|---5------5----6-|-----7----5--7--7--5-|-7------5----7--7--5-|
E|-----------------|-0---0----0--0--0--0-|-0---0--0----0--0--0-|

E|----------------------|--------------------|-----------------|
B|----------------------|--------------------|-----------------|
G|----------------------|--------------------|-----------------|
D|----------------------|---------------5----|-7------7------7-|
A|-7-------5----7--7--5-|-7-------5h-7-----7-|-5------5------5-|
E|-0----0--0----0--0--0-|-0----0-------------|-----------------|

E|---------------|----------------------|----------------------|
B|---------------|----------------------|----------------------|
G|---------------|----------------------|----------------------|
D|-7------7----8-|----------------------|----------------------|
A|-5------5----6-|------7----5--7--7--5-|-7-------5----7--7--5-|
E|---------------|-0----0----0--0--0--0-|-0----0--0----0--0--0-|

E|----------------------|-----------------------|--------------|
B|----------------------|-----------------------|--------------|
G|----------------------|-----------------------|--------------|
D|----------------------|---------------5-------|-7----7-----7-|
A|-7-------5----7--7--5-|-7-------5h-7-----7p-5-|-5----5-----5-|
E|-0----0--0----0--0--0-|-0----0----------------|--------------|

E|-----------|------------------------|------------------------|
B|-----------|------------------------|------------------------|
G|-----------|------------------------|------------------------|
D|-7---7---8-|------------------------|------------------------|
A|-5---5---6-|-5h-7--7--5h-7--7--5h-7-|-7--5h-7--7--5h-7--7--7-|
E|-----------|------------------------|------------------------|

E|---------------------|--------------|------------------------|
B|---------------------|--------------|------------------------|
G|---------------------|--------------|------------------------|
D|---------------------|--------------|------------------------|
A|-5h-7-7-5h-7-7-5h7-7-|-7-5----------|-5h-7--7--5h-7--7--5h-7-|
E|---------------------|-----7-5-3b-0-|------------------------|

E|-------------------|---------------------|------------------|
B|-------------------|---------------------|------------------|
G|-------------------|---------------------|------------------|
D|-------------------|---------------------|------------------|
A|-7-5h-7-7-5h-7-7-7-|-5h-7-7-5h-7-7-5h7-7-|-7-5--------------|
E|-------------------|---------------------|-----7--5--3b---0-|

E|------------------------|------------------------|
B|------------------------|------------------------|
G|------------------------|------------------------|
D|------------------------|------------------------|
A|-5h-7--7--5h-7--7--5h-7-|-7--5h-7--7--5h-7--7--7-|
E|------------------------|------------------------|

E|---------------------|--------------|------------------------|
B|---------------------|--------------|------------------------|
G|---------------------|--------------|------------------------|
D|---------------------|--------------|------------------------|
A|-5h-7-7-5h-7-7-5h7-7-|-7-5----------|-5h-7--7--5h-7--7--5h-7-|
E|---------------------|-----7-5-3b-0-|------------------------|

E|-------------------|---------------------|-------------------|
B|-------------------|---------------------|-------------------|
G|-------------------|---------------------|-------------------|
D|-------------------|---------------------|-------------------|
A|-7-5h-7-7-5h-7-7-7-|-5h-7-7-5h-7-7-5h7-7-|-7-5---------------|
E|-------------------|---------------------|------7--5--3b---0-|

E|---|
B|---|
G|---|
D|---|
A|-2-|
E|-0-|

E|--------------------|--------------|-------------------------|
B|--------------------|--------------|-------------------------|
G|--------------------|--------------|-------------------------|
D|--------------------|--------------|-------------------------|
A|-2--2--2--2----2--2-|-2--2----2--2-|-5h-7--7--5h-7--7--5h-7--|
E|-0--0--0--0----0--0-|-0--0----0--0-|-------------------------|

E|---|
B|---|
G|---|
D|---|
A|-2-|
E|-0-|
Вверх

Breadfan (2 вариант)

Intro: This riff is played after the guitar plays it 4x

G|----------------------------------------|
D|-02202202202222222022022022222----------|
A|-------------------------------020------|
E|-----------------------------------^3-0-|

Verse: There are a few slight variations of this riff
             But this will sound fine.

G|----------------------------------|
D|----------------------------------|
A|-7-7---7---7-7---7-----75-5-5-567-|
E|-----0---0-----0----00------------|

Guitar Solo Backing: These notes are strongly accented

G|--------------------------------------------|
D|--------------------------------------------|
A|--------------------------------------------|
E|-3-23---345---35-355555-23333-233333-355555-|

Post solo Riff:

G|---------------------------------------|
D|------5--------3-----------------------|
A|-57-7----35-5-----5--------------------|
E|-----------------------57-------2223/5-|

Note: after playing that 4x play:

E|-5-3-5-3-53-0-|
Вверх

Carpe Diem Baby

1)
Db|--5-5-----5-5-----5-5-----5-5
Ab|--7-7-----7-7-----7-7-----7-7
Eb|------0-0-----0-0-----0-0----

intro fade in

2)
Eb|--------------------------------------------------|
Bb|------/12-------------------/12-------------------|
Gb|------/12-------------------/12-------------------|
Db|--------------------------------------------------|
Ab|-------------5---5---5------------5---5---5-------|
Eb|--0-0------7---5---3----0-0-----7---5---3---5-3-0-|

3)
Db|--7/9-----7/9/109-----7--5-5-4-|
Ab|--5/7-----5/7/8-7-----5--3-3-2-|
Eb|------0-0----------0-0---------|

verse

"Hit dirt, shoot trees."

4)
Gb|-----4-----3---------------------       ----------|
Db|---4-----3-------5-----4-2-2-2-2- twice -7--5-5-4-|
Ab|-2-----1-------5-----4---2-2-2-2- then  -5--3-3-2-|
Eb|-------------3-----2-----0-0-0-0-       ----------|

bridge

"They make me miss you"

5)
Db|--------------    -------------    -----------------5
Ab|--2--4--5--7-2 1) -2--4--5--7-2 1) -2--4--5--7--7-7-3
Eb|--0--2--3--5-0    -0--2--3--5-0    -0--2--3--5--5-5--

chorus

"So wash your face away with dirt."

6)            ^           ^
Gb|-----12----13----12----13-|
Db|-----12----13----12----13-|
Ab|--------------------------|
Eb|-0-0---0-0---0-0---0-0----|

pre solo

7a)
Db|-------9----------9-----------7---5-----|
Ab|-------7----------7-----------5-7-3-5-4-|
Eb|-0-0-0---0-0--0-0---0-0--0-0----5---3-2-|

7b)
Db|---------5----------5----------5-4--5-4-2-|
Ab|-2-2-2-2-3-2-2--2-2-3-2-2--2-2-3-2--3-2-0-|
Eb|------------------------------------------|

7c)
Db|-----9-----11----12-----14-|
Ab|-----7-----9-----10-----12-|
Eb|-0-0---0-0---0-0----0-0----|

solo backing
Вверх

Crash Course In Brain Surgery

Intro
E|---------|--------------------------|-----------------------|
B|---------|--------------------------|-----------------------|
G|---------|--------------------------|-----------------------|
D|---------|--------------------------|-----------------------|
A|---------|--------------------3--4--|--5--------------------|
E|---------|--0--1--2--5--6--7--------|-----5--6--7--5--6--7--|

E|------------------------|----------------------|
B|------------------------|----------------------|
G|------------------------|-------------------2--|
D|------------------------|-------------------2--|
A|-------------------3--4-|-5-----------------0--|
E|-0--1--2--5--6--7-------|----5--6--7--5--6-----|

                                                   (x4)
E|---------------||-------------------------------------|
B|---------------||-------------------------------------|
G|---------------||*-----------------------------------*|
D|---------------||*--h--------------------------------*|
A|---------------||--/2--------2--------2-----------2---|
E|---------------||---2/-------2--------2-----------2---|

E|-----------------|-----------------------|
B|-----------------|-----------------------|
G|-----------------|-----------------------|
D|--2--0-----------|-----------------------|
A|-----------2--0--|------~~~-----0--1-----|
E|-----------------|--5--2--------0--1-----|

                                    (x4)
E||--------------------------------------||-----------------|
B||--------------------------------------||-----------------|
G||*------------------------------------*||-----------------|
D||*--h---------------------------------*||--2--0-----------|
A||--/2--------2--------2------------2---||-----------2--0--|
E||---2/-------2--------2------------2---||-----------------|

E|------------------|----------------------------------|
B|------------------|----------------------------------|
G|------------------|----------------------------------|
D|------------------|----------------------------------|
A|-----~~~--------0-|-1--------------------------------|
E|-5--2-----------0-|-1-----------------------x--x--17-|

                                (x4)
E||----------------------------------||
B||----------------------------------||
G||*--------------------------------*||
D||*--h-----------------------------*||
A||--/2--------2--------2--------2---||
E||---2/-------2--------2--------2---||

              Start of verses 1 & 2 (see below)
E|----------||------------------------------------|
B|----------||------------------------------------|
G|----------||*-----------------------------------|
D|----------||*--h--------------------------------|
A|----------||--/2------------2--------2--------2-|
E|----------||---2/-----------2--------2--------2-|

E|-------------------------|-------------------------|
B|-------------------------|-------------------------|
G|-------------------------|-------------------------|
D|--h----------------------|--h----------------------|
A|-/2------2------2------2-|-/2------2------2------2-|
E|--2/-----2------2------2-|--2/-----2------2------2-|

E|-------------------------|-------------------------|
B|-------------------------|-------------------------|
G|-------------------------|-------------------------|
D|--h----------------------|--h----------------------|
A|-/2------2------2------2-|-/2------2------2------2-|
E|--2/-----2------2------2-|--2/-----2------2------2-|

E|-------------------------|-------------------------|
B|-------------------------|-------------------------|
G|-------------------------|-------------------------|
D|--h----------------------|--h----------------------|
A|-/2------2------2------2-|-/2------2------2------2-|
E|--2/-----2------2------2-|--2/-----2------2------2-|

E|-------------------------|-------------------------|
B|-------------------------|-------------------------|
G|-------------------------|-------------------------|
D|--h----------------------|--h----------------------|
A|-/2------2------2------2-|-/2------2------2------2-|
E|--2/-----2------2------2-|--2/-----2------2------2-|

E|-------------------------|-------------------------|
B|-------------------------|-------------------------|
G|-------------------------|-------------------------|
D|--h----------------------|--h----------------------|
A|-/2------2------2------2-|-/2------2------2------2-|
E|--2/-----2------2------2-|--2/-----2------2------2-|

E|--------------------------------|
B|--------------------------------|
G|--------------------------------|
D|--h-----------------------------|
A|-/2--------2--------2--------2--|
E|--2/-------2--------2--------2--|

E|-------------------------------------|
B|-------------------------------------|
G|-------------------------------------|
D|-----h-------------------------------|
A|---3-/-5--------5--------5--------5--|
E|---3-/-5--------5--------5--------5--|

E|----------------------------|--------------------------|
B|----------------------------|--------------------------|
G|----------------------------|--------------------------|
D|---h------------------------|---h----------------------|
A|-3-/-5------5------5------5-|-3-/-5------5-----5-----5-|
E|-3-/-5------5------5------5-|-3-/-5------5-----5-----5-|

E|--------|------|---------------------------------------|
B|--------|------|---------------------------------------|
G|--------|------|---------------------------------------|
D|--------|------|---------------------------------------|
A|--3--0--|------|---------------------------------------|
E|--3--0--|--12--|--12---12--------12--12--12--12-----12-|

E|-------------------------|-----------------------------|
B|-------------------------|-----------------------------|
G|-------------------------|-----------------------------|
D|--h----------------------|--h--------------------------|
A|-/2------2------2------2-|-/2---------2------2------2--|
E|--2/-----2------2------2-|--2/--------2------2------2--|

E|-------------------------|-----------------------------||
B|-------------------------|-----------------------------||
G|-------------------------|----------------------------*||
D|--h----------------------|--h-------------------------*||
A|-/2------2------2------2-|-/2------2--------2------2---||
E|--2/-----2------2------2-|--2/-----2--------2------2---||

 Interlude
E|-----------------------|-----------------------|
B|-----------------------|-----------------------|
G|-----------------------|-----------------------|
D|-----2--0--------------|-----------------------|
A|--------------2--0-----|---------~~~-----0--1--|
E|-----------------------|-----5--2--------0--1--|

                                    (x4)
E||--------------------------------------|
B||--------------------------------------|
G||*------------------------------------*|
D||*--h---------------------------------*|
A||--/2------------2--------2--------2---|
E||---2/-----------2--------2--------2---|

E|---------------------|------------|---|---|
B|---------------------|------------|---|---|
G|---------------------|------------|---|---|
D|-2-----0-------------|------------|---|---|
A|-------------2-----0-|--------~~~-|-0-|-1-|
E|---------------------|-5-----2----|-0-|-1-|

E|----|-----|
B|----|-----|
G|----|-----|
D|----|-----|
A|--2-|--2--|
E|--2-|--2--|

E|-----------|
B|-----------|
G|-----------|
D|-----------|
A|--0-----2--|
E|--0-----2--|

E|--------|------|
B|--------|------|
G|--------|------|
D|--------|------|
A|--2--2--|--2/--|
E|--2--2--|--2/--|

 Guitar Solo
E|----------------------------|----------------------------|
B|----------------------------|----------------------------|
G|----------------------------|----------------------------|
D|---h------------------------|---h------------------------|
A|-3-/-5------5------5------5-|-3-/-5------5------5------5-|
E|-3-/-5------5------5------5-|-3-/-5------5------5------5-|

E|----------------------------|----------------------------|
B|----------------------------|----------------------------|
G|----------------------------|----------------------------|
D|---h------------------------|---h------------------------|
A|-3-/-5------5------5------5-|-3-/-5------5------5------5-|
E|-3-/-5------5------5------5-|-3-/-5------5------5------5-|

E|----------------------------|----------------------------|
B|----------------------------|----------------------------|
G|----------------------------|----------------------------|
D|---h------------------------|---h------------------------|
A|-3-/-5------5------5------5-|-3-/-5------5------5------5-|
E|-3-/-5------5------5------5-|-3-/-5------5------5------5-|

E|----------------------------|----------------------------|
B|----------------------------|----------------------------|
G|----------------------------|----------------------------|
D|---h------------------------|---h------------------------|
A|-3-/-5------5------5------5-|-3-/-5------5------5------5-|
E|-3-/-5------5------5------5-|-3-/-5------5------5------5-|

E|--------------------|--------------------|
B|--------------------|--------------------|
G|------~~~-----------|--------------------|
D|--5--3---------~~~--|--------------------|
A|-----------5--3-----|------~~~------~~~--|
E|--------------------|--0--5-----0--1-----|

E|-------------------------|-------------------------|
B|-------------------------|-------------------------|
G|-------------------------|-------------------------|
D|--h----------------------|--h----------------------|
A|-/2------2------2------2-|-/2------2------2------2-|
E|--2/-----2------2------2-|--2/-----2------2------2-|

E|-------------------------|-------------------------|
B|-------------------------|-------------------------|
G|-------------------------|-------------------------|
D|--h----------------------|--h----------------------|
A|-/2------2------2------2-|-/2------2------2------2-|
E|--2/-----2------2------2-|--2/-----2------2------2-|

E|-------------------------|-------------------------|
B|-------------------------|-------------------------|
G|-------------------------|-------------------------|
D|--h----------------------|--h----------------------|
A|-/2------2------2------2-|-/2------2------2------2-|
E|--2/-----2------2------2-|--2/-----2------2------2-|

E|-------------------------|-------------------------|
B|-------------------------|-------------------------|
G|-------------------------|-------------------------|
D|--h----------------------|--h----------------------|
A|-/2------2------2------2-|-/2------2------2------2-|
E|--2/-----2------2------2-|--2/-----2------2------2-|

E|---------------|------------------------|
B|---------------|------------------------|
G|---------------|------------------------|
D|-2--0----------|------------------------|
A|----------2--0-|--------~~~~~~--------0-|
E|---------------|-5-----2--------------0-|

  Bass Solo
E||---|
B||---|
G||---|
D||---|
A||-0-|
E||-0-|

E|----------------------|-----------------------|
B|----------------------|-----------------------|
G|----------------------|-----------------------|
D|---------5----------0-|---------5-----------0-|
A|-5---7-------0---2----|-5---7-------0---2-----|
E|----------------------|-----------------------|

 Verse 3
E|-------------------------|--------------------------|
B|-------------------------|--------------------------|
G|-------------------------|--------------------------|
D|--h----------------------|--h-----------------------|
A|-/2------2------2------2-|-/2------2------2------2--|
E|--2/-----2------2------2-|--2/-----2------2------2--|

E|-------------------------|-------------------------|
B|-------------------------|-------------------------|
G|-------------------------|-------------------------|
D|--h----------------------|--h----------------------|
A|-/2------2------2------2-|-/2------2------2------2-|
E|--2/-----2------2------2-|--2/-----2------2------2-|

E|---------------|------------------|
B|---------------|------------------|
G|---------------|------------------|
D|-2--0----------|------------------|
A|----------2--0-|-----~~~----0---1-|
E|---------------|-5--2-------0---1-|

E|-------------------------------|-------------------------|
B|-------------------------------|-------------------------|
G|-------------------------------|-------------------------|
D|--h----------------------------|--h----------------------|
A|-/2--------2--------2--------2-|-/2------2------2------2-|
E|--2/-------2--------2--------2-|--2/-----2------2------2-|

E|-------------------------|--------------------------|
B|-------------------------|--------------------------|
G|-------------------------|--------------------------|
D|----h--------------------|--------------------------|
A|-/2-----2------2------2--|-0--2-----2------2------2-|
E|--2/----2------2------2--|-0--2-----2------2------2-|

E|--------------|-----------|-----|-----|-----------------||
B|--------------|-----------|-----|-----|-----------------||
G|--------------|-----------|-----|-----|-----------------||
D|--2--0--------|------~~~--|-----|-----|-----------------||
A|--------2--0--|--5--2-----|--0--|--1--|--2--2-----------||
E|--------------|-----------|--0--|--1--|--2--2-------(2)-||

Verse 1
Look inside and you will see the words
are cutting deep inside my brain.
Thunder burning, quickly burning.
Knife of words is driv`n me insane.
Insane!
Yeah!

Verse 2
Raven black is on my back.
He showed me how to neutralise the knife
Show to me, in surgery, the art of fighting
words to conquer life.
Conquer life!
Yeah!

Verse 3
Now the wicked lance of fear is drivn` from
my heady mountain brain.
Crash course in brain surgery has stopped
the bloddy knife of words again.
Yeah!	Yeah!	Yeah!

Also when ever you come across Figure
A as depicted below, it should be
replaced with Figure 1A (below)

Figure A
E|-------------------------------|
B|-------------------------------|
G|-------------------------------|
D|----h--------------------------|
A|-/2-------2--------2--------2--|
E|--2/------2--------2--------2--|

Figure 1A
E|----------------------------------|
B|----------------------------------|
G|----------------------------------|
D|---h------------------------------|
A|-0-/-2-------2--------2--------2--|
E|-0-/-2-------2--------2--------2--|
Вверх

Crash Course In Brain Surgery (2 вариант)

Intro play 4 times

G||---------------------5--6--|--7---------------------||
D||*-----------5--6--7--------|-----5--6--7--5--6--7--*||
A||*--5--6--7-----------------|-----------------------*||
D||---------------------------|------------------------||

                             4x
G||----------------------------||-----------------|------------|
D||*--------------------------*||-----------------|------------|
A||*--------------------------*||--7--5-----2--0--|------------|
D||---0--2-----2-----2-----2---||-----------------|-5--2--0--1-|

G||----------------------------||-----------------|------------|
D||*--------------------------*||-----------------|------------|
A||*--------------------------*||--7--5-----2--0--|------------|
D||---0--2-----2-----2-----2---||-----------------|-5--2--0--1-|

                             4x    1st and 2nd verses      12x
G||----------------------------||----------------------------||
D||*--------------------------*||*--------------------------*||
A||*--------------------------*||*--------------------------*||
D||---0--2-----2-----2-----2---||----0h2-----2-----2-----2---||

G|-----------------|-----------------|-----------------|
D|-----------------|-----------------|-----------------|
A|-----------------|-----------------|-----------------|
D|-3h5---5---5---5-|-3h5---5---5---5-|-3h5---5---5---5-|

G|------|-----------------------------|
D|------|--12--12--12--12--12--12--12-|
A|------|-----------------------------|
D|-3--0-|-----------------------------|

                             4x
G||------------------------------||
D||*----------------------------*||
A||*----------------------------*||
D||------0h2-----2-----2-----2---||

Repeat for 2nd verse

  Interlude
G|-----------------|
D|-----------------|
A|---7--5-----2--0-|
G|-----------------|

                                           4x
G|-------------||----------------------------||----------------|
D|-------------||*--------------------------*||----------------|
A|-------------||*--------------------------*||--7--5----------|
D|-5--2--0--1--||---0--2-----2-----2-----2---||-----------9--7-|

G|----------|-----|-----|-----|-----|--------|-------|
D|----------|-----|-----|-----|-----|--------|-------|
A|----------|-----|-----|-----|-----|--------|-------|
D|-5--2-----|--0--|--1--|--2--|--2--|--0--2--|--2--2-|

     guitar solo             8x
G||----------------------------||--------------|-------------|
D||*--------------------------*||--5--3--------|-------------|
A||*--------------------------*||--------5--3--|--1----------|
D||----3h5-----5-----5-----5---||--------------|-----5--0--1-|

                            8x
G||---------------------------||-----------------|-------------|
D||*-------------------------*||-----------------|-------------|
A||*-------------------------*||--7--5-----2--0--|-------------|
D||---0h2-----2-----2-----2---||-----------------|--5--2-----0-|

bass solo

G|-------------------------|----------------------|
D|-------------------------|----------------------|
A|-------------------------|----------------------|
D|-5--7--5--7--5--7-----5--|--0--2--0--2--0--5--0-|

G|---------------------|-----------------|---------------------|
D|---------------------|---0--2--0-------|---------------------|
A|---------------------|------------2----|---------------------|
D|-5--7--5--7--5--7--5-|-2-------------2-|-5--7--5--7--5--7--5-|

G|-------------------|---------------------|-------------------|
D|-------------------|-2--1--0-------------|-------------------|
A|-----------------2-|----------2--1--0--0-|-------------------|
D|-0-2-0--2--0--2----|---------------------|--0--2--0--2--0--5-|

G|-------------------|----------------------|
D|-------5-----------|--------5-------------|
A|-5--7-----0--2--5--|--5--7-----7--0--2--5-|
D|-------------------|----------------------|
Вверх

Creeping Death

1a)
D|-----------9------------97-|             |------------|
A|-----------7------------75-| 4times then |-7--5--4--2-|
E|-0-0-0-0-0----0-0-0-0-0----|             |-5--3--2--0-|

1b)
D|------------9------------97-|
A|-----------10-----------109-| (last 2 times on lead guitar)
E|-0-0-0-0-0----0-0-0-0-0-----|

2)
D|-----2-----2---2-----2---2h3p2h3p2p0-|  |-5-7-5-|
A|-----2-----2---2-----2---2h3p2h3p2p0-|  |-3-5-3-|
E|-0-0---0-0---0---0-0---0-------------|  |-------|
                    right before the verse then back into first
Slaves, Hebrews born..                part

3)
D|---------------------------------------|
A|-------5--------5----------------------|
E|-0--0--3--0--0--3--0--0--2-2-2-2-2-2-2-|
400 years

4)
D|-2---5-7---10-9---5-7---10-12-9----5-7--10-9--5-7---------|
A|-2---3-5---8--7---3-5---8--10-7----3-5--8--7--3-5---5-7-5-|
E|-0--------------------------------------------------3-5-3-|
So let it be written                       I?m creeping death

5)
G|-----------------------------------------2-----2---2---2-2-5-|
D|-----2-----2---2-----2---2h3p2h3p2p0-----2-----2---2---2-2-5-|
A|-----2-----2---2-----2---2h3p2h3p2p0-0-0---0-0---0---0---0-3-|
E|-0-0---0-0---0---0-0---0-------------------------------------|
solo riff (first part, then into riffs 3 and 4)

6)
D|-9---------10-7-9---------12-10-9---------10-7-9-|
A|-7---------8--5-7---------10-8--7---------8--5-7-|
E|---0-0-0-0--------0-0-0-0---------0-0-0-0--------|
Die by my hand

7a) ^V        ^V         ^V         ^V
e--------------------------------------------|
B--15-13-12---12----13---15-13-12---12----13-|
G----------------14--------------------14----|
D--------------------------------------------|
A--------------------------------------------|
E--------------------------------------------|

7b) ^V    ^V      ^V      ^V
e|-------------------------------------------------------------|
B|-10-8-7-7---8-10-8-7--7---8----------------------------------|
G|----------9-------------9------------------------------------|
D|-----------------------------9-7-5-4-5-4-2-5-9-7-5-4-5-4-2-5-|
A|-----------------------------7-5-3-2-3-2-0-3-7-5-3-2-3-2-0-3-|
E|-------------------------------------------------------------|
right before end

solo

E|-------------------------------------------------|
B|--12--13--15--17p-15--13--14--15--17--19p-17--15-|
G|-------------------------------------------------|
D|-------------------------------------------------|
A|-------------------------------------------------|
E|-------------------------------------------------|

E|---------------------------------19h-20h-22-|-22b--22b--22b-|
B|-15-17-19-17-19--20--19--20--22-------------|---------------|
G|--------------------------------------------|---------------|
D|--------------------------------------------|---------------|
A|--------------------------------------------|---------------|
E|--------------------------------------------|---------------|

E|-22r----22b--22b-22b-22-19-|
B|---------------------------|
G|---------------------------|
D|---------------------------|
A|---------------------------|
E|---------------------------|

E|--22-20-1917-21-19-1715-19-17-1514-17-15-1412-|
B|----------------------------------------------|
G|----------------------------------------------|
D|----------------------------------------------|
A|----------------------------------------------|
E|----------------------------------------------|

E|-15p14-------------------------------|-----------------------|
B|-------17p15-15p14p12h15-1210-10-----|-10-15--15-12----------|
G|---------------------------------12b-|----14b-14-12----12-14-|
D|-------------------------------------|--------------14-------|
A|-------------------------------------|-----------------------|
E|-------------------------------------|-----------------------|

E|----------------------|--------------------------------------|
B|----------------------|-12-15p12-15p12--------12-15p12-15p12-|
G|-14r-14-12b----12-14b-|----------------14b-16----------------|
D|------------14--------|--------------------------------------|
A|----------------------|--------------------------------------|
E|----------------------|--------------------------------------|

E|-------------------------------12-|
B|-----12--15p12-15p12-15b---15-----|
G|-14b------------------------------|
D|----------------------------------|
A|----------------------------------|
E|----------------------------------|

E|-15p-12------12------------------------------14-|
B|---------15------15--12--15p-12------12---------|
G|---------------------------------14------14-----|
D|------------------------------------------------|
A|------------------------------------------------|
E|------------------------------------------------|

E|-17p-15--14--15p-14------14----------12---------|
B|---------------------17------17p-15------15p-14-|
G|------------------------------------------------|
D|------------------------------------------------|
A|------------------------------------------------|
E|------------------------------------------------|

E|-------------------------------------|-------17--19/-22~-22~-|
B|-15p-14--12--14--12------------------|----18-----------------|
G|---------------------14-12----12-14/-|-19--------------------|
D|---------------------------14--------|-----------------------|
A|-------------------------------------|-----------------------|
E|-------------------------------------|-----------------------|

E|---------12--17p-12----------------12--17p-12--------|
B|-----13--------------13--------13--------------13----|
G|-14---------------------14-14---------------------14-|
D|-----------------------------------------------------|
A|-----------------------------------------------------|
E|-----------------------------------------------------|

E|---------12--17p-12------------------12--17p-12-----|
B|-----13--------------13----------13--------------13-|
G|-14---------------------14-14-14--------------------|
D|----------------------------------------------------|
A|----------------------------------------------------|
E|----------------------------------------------------|

E|-12h15p12------------------------------------|---------------|
B|----------15-12----12-15p-12-----------------|-15---15---15--|
G|----------------14------------14--12------12-|-14b--14b--14b-|
D|--------------------------------------14-----|---------------|
A|---------------------------------------------|---------------|
E|---------------------------------------------|---------------|

E|--------------------------------|
B|--------------------------------|
G|--------------------------------|
D|--------------------------------|
A|-7--7-7-8-8-8-8-9-9-9-9-9-9-9-9-|
E|--------------------------------|

E|----------------------------------------------|
B|----------------------------------------------|
G|----------------------------------------------|
D|----------------------------------------------|
A|-10-9-10-9-10-9-11-10-12-11-12-11-12-11-13-12-|
E|----------------------------------------------|

E|-------------------------------------------------|
B|-------------------------------------------------|
G|-------------------------------------------------|
D|----------------------------------------------11-|
A|-14-13-14-13-14-14-15-15-14-14-15-14-14-14-15----|
E|-------------------------------------------------|

E|--------------------------------------------------------|
B|--------------------------------------------------------|
G|--------------------------------------------------12/14-|
D|-11-12-11-12-11-12-12-12-12-13-12-14-15-15--15-15-------|
A|--------------------------------------------------------|
E|--------------------------------------------------------|

E|-----------------------------------------14-|
B|------------------14-17--14------14--17-----|
G|-17--14--13-14-16------------16-------------|
D|--------------------------------------------|
A|--------------------------------------------|
E|--------------------------------------------|

E|-17p14----------------------------------|
B|-------17-14-----14--17p14--------------|
G|-------------16------------16-14-----14-|
D|---------------------------------16-----|
A|----------------------------------------|
E|----------------------------------------|

E|------------------------------------------------|
B|------------------------------------------------|
G|-16p-14------14---------------------------------|
D|---------16------16p-14--16p-14------14---------|
A|---------------------------------16------16--14-|
E|------------------------------------------------|

E|----------------------------------------|--------------------|
B|----------------------------------------|--------------------|
G|----------------------------------------|---------11--12--14-|
D|---------------------------------12--12-|-14--14-------------|
A|-16p-14--12--14p-12------12--14---------|--------------------|
E|---------------------14-----------------|--------------------|

E|------------------|--------------------------|
B|------------------|--------------------------|
G|-12----12h-14p-12-|---------------11--12--14-|
D|------------------|-12--------14-------------|
A|------------------|--------------------------|
E|------------------|--------------------------|

E|----------------|-12--------12/-14--15--17-|-15----14-----|
B|-12----13----15-|--------------------------|-----------17-|
G|----------------|--------------------------|--------------|
D|----------------|--------------------------|--------------|
A|----------------|--------------------------|--------------|
E|----------------|--------------------------|--------------|

E|-17-17-17-17-17-17-17-17-17-17-17-17-17--19----20-|
B|--------------------------------------------------|
G|--------------------------------------------------|
D|--------------------------------------------------|
A|--------------------------------------------------|
E|--------------------------------------------------|

E|19-17-15-14h-15|-15p-14p-12-15p-14p-12-15p-14p-12-15p-14p-12-|
B|---------------|---------------------------------------------|
G|---------------|---------------------------------------------|
D|---------------|---------------------------------------------|
A|---------------|---------------------------------------------|
E|---------------|---------------------------------------------|

E|-15p-14p-12--15p-14p-12--15p-14p-12--15p-12/-14-|
B|------------------------------------------------|
G|------------------------------------------------|
D|------------------------------------------------|
A|------------------------------------------------|
E|------------------------------------------------|

E|-17p-15p-14--17p-15p-14--17p-15p-14--17p-15p-14-|
B|------------------------------------------------|
G|------------------------------------------------|
D|------------------------------------------------|
A|------------------------------------------------|
E|------------------------------------------------|

E|-17p-15p-14--17p-15p-14--17p-15p-14--17--15--15-|
B|------------------------------------------------|
G|------------------------------------------------|
D|------------------------------------------------|
A|------------------------------------------------|
E|------------------------------------------------|

E|-19p-17p-15--19p-17p-15--19p-17p-15--19--15--16-|
B|------------------------------------------------|
G|------------------------------------------------|
D|------------------------------------------------|
A|------------------------------------------------|
E|------------------------------------------------|

E|-20p-19p-17--20p-19p-17--22p-20p-19--22p-20p-19-|-22b--22b-|
B|------------------------------------------------|----------|
G|------------------------------------------------|----------|
D|------------------------------------------------|----------|
A|------------------------------------------------|----------|
E|------------------------------------------------|----------|

E|-22b-------22b---22b-|-----|
B|---------------------|-----|
G|---------------------|-----|
D|---------------------|--14-|
A|---------------------|--14-|
E|---------------------|--12-|

Bass

   intro
G||--------------------|---------------------|-----------||
D||o-------------------|---------------------|----------o||
A||o-----------------7-|----------------7--5-|----------o||
E||---0--0--0--0--0----|-0--0--0--0--0-------|-----------||

G||-------------------|----------------------|---------------||
D||o------------------|----------------------|--------------o||
A||o----------------7-|----------------7--5--|------5-------o||
E||--0--0--0--0--0----|-0--0--0--0--0--------|---------------||

                                                    play 4x->
G|---------|---|------|-16--17--16-||-------------------------|
D|---------|---|-----|-------------||o------------------------|
A|---------|---|-----|-------------||o------------------------|
E|-5--3--2-|-0-|-----|-------------||---0--0--0--0--0--0--0--0|

G|-------------------------||
D|------------------------o||
A|-------------2--3--2--0-o||
E|-0--0--0--0--------------||

                    play 4x
G||---------------------|-------------------------||
D||o--------------------|------------------------o||
A||o--------------------|------------------------o||
E||---0--0--3--0--0--3--|-0--0--2--2--2--2--2--2--||

G||--------------------------|--------------------------||
D||o-------------------------|-------------------------o||
A||o-------------------------|-------------2--3--2--0--o||
E||---0--0--0--0--0--0--0--0-|-0--0--0--0---------------||

Verses
G||--------------------------|------------------------|
D||o-------------------------|------------------------|
A||o-------------------------|-------------2--3--2--0-|
E||---0--0--0--0--0--0--0--0-|-0--0--0--0-------------|

G|------------------|------------------------|
D|------------------|------------------------|
A|------------------|------------------------|
E|-0--0--3--0--0--3-|-0--0--2--2--2--2--2--2-|

Chorus
G|-------------|---------------|------------------|------------|
D|-------------|---------------|------------------|------------|
A|-------------|----------3--5-|-5--5--5--5--5--5-|------------|
E|-0-0-0-0-0-0-|-0-0-0--0------|------------------|-1--1--1--1-|

G|-------|-------------|------------------|--------------------|
D|-------|-------------|------------------|--------------------|
A|-------|-------------|-------------3--5-|-5--5--5--5--5--5---|
E|-3-3-3-|-0-0-0-0-0-0-|-0--0--0--0-------|--------------------|

G|-------------|-------------|------------------|--------------|
D|-------------|-------------|------------------|--------------|
A|-5-5-5-5-8-8-|-7-7-7-7-7-7-|-7--7--7--7--8--8-|-5--5--5--5-5-|
E|-------------|-------------|------------------|--------------|

G|---|---------|----------------------|------------------------|
D|---|---------|----------------------|------------------------|
A|-5-|-5-2-4---|----------------------|-------------2--3--2--0-|
E|---|-------2-|-0-0-0--0--0--0--0--0-|-0--0--0--0-------------|

G|----------------------|------------------------|-------------|
D|----------------------|------------------------|-------------|
A|----------------------|-------------2--3--2--0-|---7-----7---|
E|-0-0-0--0--0--0--0--0-|-0--0--0--0-------------|-0---0-0---0-|

G|------------------|---------------------|---------------||
D|------------------|---------------------|--------------o||
A|-7--5----7--5--7--|-5--7--5-----4----0--|-2--2--4------o||
E|------------------|---------------------|----------2----||

Bridge
G||--------------|------------|-------------|-----------------||
D||o-------------|------------|-------------|----------------o||
A||o--7--7--7--7-|-8--8--8--5-|-7-----------|----------------o||
E||-0------------|------------|---0-0--0--0-|-3--3--3--1--1---||

Die...           play 4x
G||-----------------|------------|-----------|----------------||
D||o----------------|------------|-----------|---------------o||
A||o-----7--7--7--7-|-8--8--8--5-|-7---------|---------------o||
E||---0-------------|------------|---0-0-0-0-|-3--3--3--1--1--||

G|---|---------------|
D|---|---------------|
A|---|----------5--5-|
E|-0-|-0--1--3-------|

G||-------------------|------------------|---------------------|
D||o----------------2-|------------------|--------------------3|
A||o----------------2-|------------------|--------------------3|
E||---0-0-0-0-0-0-0---|-0--0--0--0--3--2-|-0--0--0--0--0--0--0-|

G|--------------------||
D|-------------------o||
A|-3--3--3--3--5--5--o||
E|--------------------||

Slaves
Hebrews born to serve, to the pharaoh
Heed
To his every word, live in fear
Faith
Of the unknown one, the deliverer
Wait
Something must be done, four hundred years
So let it be written
So let it be done
I?m sent here by the chosen one
So let it be written
So let it be done
To kill the first born pharaoh son
I?m creeping death
Now
Let my people go, land of goshen
Go
I will be with thee, bush of fire
Blood
Running red and strong, down the nil
Plague
Darkness three days long, hail to fire
Die by my hand
I creep across the land
Killing first born man
Die by my hand
I creep across the land
Killing first born man
I
Rule the midnight air the destroyer
Born
I shall soon be there, deadly mass
I
Creep the steps and flood final darkness
Blood
Lambs blood painted door, I shall pass
Вверх

Cunning Stunts Bass Solo

G||--------14--16--14--13|-14--16--14--13----13h14-13-----|
D||*---------------------|-----------------------------16-|
A||*---------------------|--------------------------------|
E||---0------------------|--------------------------------|

G|----------------------------|----------------------||
D|-14----------19-------------|-------19------------*||
A|-----16------------16-------|-16----------16------*||
E|---------17--------------17-|-------------------0--||

G|-----------11-----------11-|--------11---------11--------|
D|----12-----------12--------|-12---------12---------12----|
A|-0------0------------0-----|-----0----------0----------0-|
E|---------------------------|-----------------------------|

G|------------12-----|------------12-|-----------11---------11-|
D|-------9---------9-|-------9-------|---------------12--------|
A|-10----------------|-10------------|-0--0--------------0-----|
E|-------------------|---------------|-------------------------|

G|--------11---------11--------|------------12------|
D|-12---------12---------12----|-------9----------9-|
A|-----0----------0----------0-|-10-----------------|
E|-----------------------------|--------------------|

G|------------12------||--------14--16--14--13-|
D|-------9----------9-||*----------------------|
A|-10-----------------||*----------------------|
E|--------------------||--0--0-----------------|

G|-14--16--14--13----13h14-13-----|----------------------------|
D|-----------------------------16-|-14----------19-------------|
A|--------------------------------|-----16------------16-------|
E|--------------------------------|---------17--------------17-|

G|----------------------||-----------11-----------11-|
D|-------19------------*||----12-----------12--------|
A|-16----------16------*||-0------0------------0-----|
E|-------------------0--||---------------------------|

G|--------11---------11--------|------------12------|
D|-12---------12---------12----|-------9----------9-|
A|-----0----------0----------0-|-10-----------------|
E|-----------------------------|--------------------|

G|------------12-|-----------11---------11-|
D|-------9-------|---------------12--------|
A|-10------------|-0--0--------------0-----|
E|---------------|-------------------------|

G|--------11---------11--------|------------12------|--12-|
D|-12---------12---------12----|-------9----------9-|--9--|
A|-----0----------0----------0-|-10-----------------|--10-|
E|-----------------------------|--------------------|-----|

G|----10---------10---------10-|-14---------12---------10----|
D|--------12---------12--------|-----12---------12-----------|
A|-0----------0----------0-----|---------0----------0------0-|
E|-----------------------------|-----------------------------|

G|----9---------9---------9-|-12---------10---------9----|
D|-------10--------10-------|-----10---------10----------|
A|-0---------0---------0----|---------0----------0-----0-|
E|--------------------------|----------------------------|

G|----10---------10---------10-|-14---------12---------10----|
D|--------12---------12--------|-----12---------12-----------|
A|-0----------0----------0-----|---------0----------0------0-|
E|-----------------------------|-----------------------------|

G|----9---------9---------9-|-12---------10---------9----|
D|-------10--------10-------|-----10---------10----------|
A|-0---------0---------0----|---------0----------0-----0-|
E|--------------------------|----------------------------|

G|----10---------10---------10-|-14---------12---------10----|
D|--------12---------12--------|-----12---------12-----------|
A|-0----------0----------0-----|---------0----------0------0-|
E|-----------------------------|-----------------------------|

G|----9---------9---------9-|-12---------10---------9----|
D|-------10--------10-------|-----10---------10----------|
A|-0---------0---------0----|---------0----------0-----0-|
E|--------------------------|----------------------------|

G|----10---------10---------10-|-14---------12---------10----|
D|--------12---------12--------|-----12---------12-----------|
A|-0----------0----------0-----|---------0----------0------0-|
E|-----------------------------|-----------------------------|

G|----9---------9---------9-|-12---------10---------9----|
D|-------10--------10-------|-----10---------10----------|
A|-0---------0---------0----|---------0----------0-----0-|
E|--------------------------|----------------------------|

G|-----7---4-----5-|------5------5----|-------7-----4--------5-|
D|---5---5---5-----|-7------7-------7-|----5-----5-----5-------|
A|-0-----------0---|----0-----0-------|-0-----------------0----|
E|-----------------|------------------|------------------------|

G|-----5-----5---|-----7---4-----5-|------5--------5----|
D|-7-----7-----7-|---5---5---5-----|-7-------7--------7-|
A|---0-----0-----|-0-----------0---|---0--------0-------|
E|---------------|-----------------|--------------------|

G|-------7-----4--------5-|-------7--------9-----||
D|----5-----5-----5-------|-7--------9--------10-||
A|-0-----------------0----|----0--------0--------||
E|------------------------|----------------------||
Вверх

Cure

Verse 1: The first chord starts on an upbeat, play first time
         only.
         Repeat 10 times.

Eb|------||-------------------------|-------------------------||
Bb|------||-------------------------|-------------------------||
Gb|------||-------------------------|-------------------------|o
Db|------||-------------------------|-------------------------|o
Ab|--(2)-||-----2--------2----------|----5~----------5~----2--||
Eb|--(0)-||-----0--3~----0-----x--5-|-6--------5--6--------0--||

Pre-Chorus 1:

Eb|--------------------------|--------------------------|
Bb|--------------------------|--------------------------|
Gb|--------------------------|-----------3--3-----------|
Db|--3-----------------------|--3--3--3--3--3-----------|
Ab|--3--3--3--3--3--3--3--3--|--3--3--3--3--3-----3--2--|
Eb|--1--1--1--1--1--1--1--1--|--1--1--1--1--1-----1--0--|

Eb|--------------------------|--------------------------|
Bb|--------------------------|--------------------------|
Gb|--------------------------|--------------------------|
Db|--------------------------|--------------------------|
Ab|-----0--1-----3--2-----1--|--0--1--0-----3--2-----2--|
Eb|--------------1--0--------|-----------0--1--0-----0--|

Eb|--------------------------|-------------------------------|
Bb|--------------------------|-------------------------------|
Gb|--------------------------|--------------15--15-----------|
Db|--3-----------------------|-/15--15--15--15--15-----------|
Ab|--3--3--3--3--3--3--3--3--|-/15--15--15--15--15-----3--2--|
Eb|--1--1--1--1--1--1--1--1--|-/13--13--13--13--13-----1--0--|

Eb|--------------------------|--------------------------|
Bb|--------------------------|--------------------------|
Gb|--------------------------|--------------------------|
Db|--------------------------|--------------------------|
Ab|-----0--1-----3--2-----1--|--0--1--0-----3--2-----2--|
Eb|--------------1--0--------|-----------0--1--0-----0--|

Eb|--------------------------|--------------------------||
Bb|--------------------------|--------------------------||
Gb|--------------------------|--------------------------||
Db|--------------------------|--------------------------||
Ab|-----0--1-----3--2-----1--|--0--1--0-----3--2-----2--||
Eb|--------------1--0--------|-----------0--1--0-----0--||

Bridge:
Eb|--------------------------|---------------------------|
Bb|--------------------------|---------------------------|
Gb|--------------------------|---------------------------|
Db|--------------------------|---------------------------|
Ab|-----2-----2-----2--x-x-x-|-----2-----2-----2--x-x-x--|
Eb|--3--0-/6--0-----0--------|--3--0-/6--0-----0---------|

Eb|------------------------|-------------------------|--------||
Bb|------------------------|-------------------------|--------||
Gb|------------------------|-------------------------|--------||
Db|------------------------|-------------------------|--------||
Ab|----2-----2----2--x-x-x-|----2-----7--6--5~-------|--------||
Eb|-3--0-/6--0----0--------|-3--0-/6--------------7--|--6--5--||

Verse 2: Play first chord first time only, this time it
         lands on the down beat?! Repeat 8 times.
Eb|-------------------------|-------------------------||
Bb|-------------------------|-------------------------||
Gb|-------------------------|-------------------------|o
Db|-------------------------|-------------------------|o
Ab|-(2)-2--------2----------|----5~----------5~----2--||
Eb|-(0)-0--3~----0-----x--5-|-6--------5--6--------0--||

Pre-Chorus 2:
Eb|--------------------------|--------------------------|
Bb|--------------------------|--------------------------|
Gb|--------------------------|-----------3--3-----------|
Db|--3-----------------------|--3--3--3--3--3-----------|
Ab|--3--3--3--3--3--3--3--3--|--3--3--3--3--3-----3--2--|
Eb|--1--1--1--1--1--1--1--1--|--1--1--1--1--1-----1--0--|

Eb|--------------------------|--------------------------|
Bb|--------------------------|--------------------------|
Gb|--------------------------|--------------------------|
Db|--------------------------|--------------------------|
Ab|-----0--1-----3--2-----1--|--0--1--0-----3--2-----2--|
Eb|--------------1--0--------|-----------0--1--0-----0--|

Eb|--------------------------|-------------------------------|
Bb|--------------------------|-------------------------------|
Gb|--------------------------|--------------15--15-----------|
Db|--3-----------------------|-/15--15--15--15--15-----------|
Ab|--3--3--3--3--3--3--3--3--|-/15--15--15--15--15-----3--2--|
Eb|--1--1--1--1--1--1--1--1--|-/13--13--13--13--13-----1--0--|

Eb|--------------------------|--------------------------|
Bb|--------------------------|--------------------------|
Gb|--------------------------|--------------------------|
Db|--------------------------|--------------------------|
Ab|-----0--1-----3--2-----1--|--0--1--0-----3--2-----2--|
Eb|--------------1--0--------|-----------0--1--0-----0--|

Eb|--------------------------|--------------------------||
Bb|--------------------------|--------------------------||
Gb|--------------------------|--------------------------||
Db|--------------------------|--------------------------||
Ab|-----0--1-----3--2-----1--|--0--1--0-----3--2-----2--||
Eb|--------------1--0--------|-----------0--1--0-----0--||

Bridge:
Eb|--------------------------|---------------------------|
Bb|--------------------------|---------------------------|
Gb|--------------------------|---------------------------|
Db|--------------------------|---------------------------|
Ab|-----2-----2-----2--x-x-x-|-----2-----2-----2--x-x-x--|
Eb|--3--0-/6--0-----0--------|--3--0-/6--0-----0---------|

Eb|-------------------------|-------------------------|-------||
Bb|-------------------------|-------------------------|-------||
Gb|-------------------------|-------------------------|-------||
Db|-------------------------|-------------------------|-------||
Ab|----2-----2-----2--x-x-x-|-----2-----7--6--5~------|-------||
Eb|-3--0-/6--0-----0--------|--3--0-/6--------------7-|-6--5--||

Chorus 1: Finally!

Eb|--------------------------|---------------------------|
Bb|--------------------------|---------------------------|
Gb|--------------------------|---------------------------|
Db|--------------------------|---------------------------|
Ab|-----2-----2--2--2--2-----|-----7--6--5~--------------|
Eb|-/6--0-----0--0--0--0-----|-/6--------------7--6--5---|

Eb|--------------------------|---------------------------|
Bb|--------------------------|---------------------------|
Gb|--------------------------|---------------------------|
Db|--------------------------|---------------------------|
Ab|-----2-----2--2--2--2-----|-----7--6--5~--------------|
Eb|-/6--0-----0--0--0--0-----|-/6--------------7--6--5---|

Eb|--------------------------|---------------------------|
Bb|--------------------------|---------------------------|
Gb|--------------------------|---------------------------|
Db|--------------------------|---------------------------|
Ab|-----2-----2--2--2--2-----|-----7--6--5~--------------|
Eb|-/6--0-----0--0--0--0-----|-/6--------------7--6--5---|

Eb|--------------------------|---------------------------|
Bb|--------------------------|---------------------------|
Gb|--------------------------|---------------------------|
Db|--------------------------|---------------------------|
Ab|-----2-----2--2--2--2-----|-----7-----------7---------|
Eb|-/6--0-----0--0--0--0-----|-/6-----6--5~-------6--5---|

Eb|--------------------------|---------------------------|
Bb|--------------------------|---------------------------|
Gb|--------------------------|---------------------------|
Db|--------------------------|-----2---------------------|
Ab|-----7-----------7--------|-----2---------------------|
Eb|-/6-----6--5~-------6--5--|--3--0---------------------|

Eb|--------------------------|--------------------------||
Bb|--------------------------|--------------------------||
Gb|--------------------------|--------------------------||
Db|--------------------------|--------------------------||
Ab|--------------------------|-----7-----------7--------||
Eb|--------------------------|-/6-----6--5~-------6--5--||

Solo : Play first chord first time only, this time it
       lands on the down beat?! Sound familar? ;)
Eb|-------------------------|-------------------------||
Bb|-------------------------|-------------------------||
Gb|-------------------------|-------------------------|o
Db|-------------------------|-------------------------|o
Ab|-(2)-2--------2----------|----5~----------5~----2--||
Eb|-(0)-0--3~----0-----x--5-|-6--------5--6--------0--||

Eb|-------------------------|--------------------------|
Bb|-------------------------|--------------------------|
Gb|-------------------------|--------------------------|
Db|-------------------------|--------------------------|
Ab|--2--2--------2--2-------|--2--2--------2--2--------|
Eb|--0--0--3~----0--0--3~---|--0--0--3~----0--0--3~----|

Eb|-------------------------|--------------------------|
Bb|-------------------------|--------------------------|
Gb|-------------------------|--------------------------|
Db|-------------------------|--------------------------|
Ab|--2--2--------2----------|----5~----------5~----2---|
Eb|--0--0--3~----0-----x--5-|-6--------5--6--------0---|

Eb|--------------------------|-------------------------|
Bb|--------------------------|-------------------------|
Gb|--------------------------|--------------15--15--15-|
Db|--3-----------------------|-/15--15--15--15--15--15-|
Ab|--3--3--3--3--3--3--3--3--|-/15--15--15--15--15--15-|
Eb|--1--1--1--1--1--1--1--1--|-/13--13--13--13--13--13-|

Eb|--------------------------||
Bb|--------------------------||
Gb|--------------------------||
Db|--------------------------||
Ab|-----7-----------7--------||
Eb|-/6-----6--5~-------6--5--||

Chorus 2:

Eb|--------------------------|---------------------------|
Bb|--------------------------|---------------------------|
Gb|--------------------------|---------------------------|
Db|--------------------------|---------------------------|
Ab|-----2-----2--2--2--2-----|-----7--6--5~--------------|
Eb|-/6--0-----0--0--0--0-----|-/6--------------7--6--5---|

Eb|--------------------------|---------------------------|
Bb|--------------------------|---------------------------|
Gb|--------------------------|---------------------------|
Db|--------------------------|---------------------------|
Ab|-----2-----2--2--2--2-----|-----7--6--5~--------------|
Eb|-/6--0-----0--0--0--0-----|-/6--------------7--6--5---|

Eb|--------------------------|---------------------------|
Bb|--------------------------|---------------------------|
Gb|--------------------------|---------------------------|
Db|--------------------------|---------------------------|
Ab|-----2-----2--2--2--2-----|-----7--6--5~--------------|
Eb|-/6--0-----0--0--0--0-----|-/6--------------7--6--5---|

Eb|--------------------------|---------------------------|
Bb|--------------------------|---------------------------|
Gb|--------------------------|---------------------------|
Db|--------------------------|---------------------------|
Ab|-----2-----2--2--2--2-----|-----7-----------7---------|
Eb|-/6--0-----0--0--0--0-----|-/6-----6--5~-------6--5---|

                              Hold this chord for the
                              next 4 measures.
Eb|--------------------------|---------------------------|
Bb|--------------------------|---------------------------|
Gb|--------------------------|---------------------------|
Db|--------------------------|-----9---------------------|
Ab|-----7-----------7--------|-----7---------------------|
Eb|-/6-----6--5~-------6--5--|--3--0---------------------|

                              Rotate volume knob rhythmically.
Eb|--------------------------|--------------------------|
Bb|--------------------------|--------------------------|
Gb|--------------------------|--------------------------|
Db|--------------------------|--------------------------|
Ab|--------------------------|--------------------------|
Eb|--------------------------|--------------------------|

Interlude: "I do believe..."
Eb|--------------------------|---------------------------|
Bb|--------------------------|---------------------------|
Gb|--------------------------|---------------------------|
Db|--------------------------|--8-7~--------------7/87/8-|
Ab|-----------------2-----2--|--8-7~--------------7/87/8-|
Eb|-----------------0--3--0--|--6-5~--------------5/65/6-|

Eb|--------------------------|---------------------------|
Bb|--------------------------|---------------------------|
Gb|--------------------------|---------------------------|
Db|-/7-----9-----------------|--8-7~--------------7/87/8-|
Ab|-/7-----9--------2-----2--|--8-7~--------------7/87/8-|
Eb|-/5-----6--------0--3--0--|--6-5~--------------5/65/6-|

Eb|--------------------------|---------------------------|
Bb|--------------------------|---------------------------|
Gb|--------------------------|---------------------------|
Db|-/7-----9-----------------|--8-7~--------------7/87/8-|
Ab|-/7-----9--------2-----2--|--8-7~--------------7/87/8-|
Eb|-/5-----6--------0--3--0--|--6-5~--------------5/65/6-|

Eb|--------------------------|---------------------------|
Bb|--------------------------|---------------------------|
Gb|--------------------------|---------------------------|
Db|-/7-----9-----------------|--8-7~--------------7/87/8-|
Ab|-/7-----9--------2-----2--|--8-7~--------------7/87/8-|
Eb|-/5-----6--------0--3--0--|--6-5~--------------5/65/6-|

Eb|--------------------------|--------------------------|
Bb|--------------------------|--------------------------|
Gb|--------------------------|--------------------------|
Db|--7b8---------------------|--------------------------|
Ab|--7b8---------------------|-----------------7~-------|
Eb|--5b6------------------0--|--3---5b6~-------------0--|

Eb|--------------------------|--------------------------|
Bb|--------------------------|--------------------------|
Gb|--------------------------|--------------------------|
Db|--------------------------|--------------------------|
Ab|-----------------5~-------|-----------------4~-------|
Eb|--3---5b6~-------------0--|--3---5b6~-------------0--|

Eb|--------------------------|--------------------------|
Bb|--------------------------|--------------------------|
Gb|--------------------------|--------------------------|
Db|--------------------------|--------------------------|
Ab|-----------------2--------|-----------------7~-------|
Eb|--3---5b6-----3--0-----0--|--3---5b6~-------------0--|

Eb|--------------------------|--------------------------|
Bb|--------------------------|--------------------------|
Gb|--------------------------|--------------------------|
Db|--------------------------|--------------------------|
Ab|-----------------5~-------|-----------------4~-------|
Eb|--3---5b6~-------------0--|--3---5b6~-------------0--|

Eb|--------------------------|--------------------------|
Bb|--------------------------|--------------------------|
Gb|--------------------------|--------------------------|
Db|--------------------------|--------------------------|
Ab|-----------------2--------|-----------7--------------|
Eb|--3---5b6-----3--0-----0--|--3--5--6-----6--5~----0--|

Eb|--------------------------|--------------------------|
Bb|--------------------------|--------------------------|
Gb|--------------------------|--------------------------|
Db|--------------------------|--------------------------|
Ab|-----------5--------------|-----------4--------------|
Eb|--3--5--6-----6--5~----0--|--3--5--6-----6--5-----0--|

Eb|--------------------------|--------||
Bb|--------------------------|--------||
Gb|--------------------------|--------||
Db|--------------------------|--------||
Ab|-----------------2-----2--|-----2--||
Eb|--3---5b6-----3--0-----0--|--3--0--||

Chorus 3:
Eb|--------------------------|---------------------------|
Bb|--------------------------|---------------------------|
Gb|--------------------------|---------------------------|
Db|--------------------------|---------------------------|
Ab|-----2-----2--2--2--2-----|-----7--6--5~--------------|
Eb|-/6--0-----0--0--0--0-----|-/6--------------7--6--5---|

Eb|--------------------------|---------------------------|
Bb|--------------------------|---------------------------|
Gb|--------------------------|---------------------------|
Db|--------------------------|---------------------------|
Ab|-----2-----2--2--2--2-----|-----7--6--5~--------------|
Eb|-/6--0-----0--0--0--0-----|-/6--------------7--6--5---|

Eb|--------------------------|---------------------------|
Bb|--------------------------|---------------------------|
Gb|--------------------------|---------------------------|
Db|--------------------------|---------------------------|
Ab|-----2-----2--2--2--2-----|-----7--6--5~--------------|
Eb|-/6--0-----0--0--0--0-----|-/6--------------7--6--5---|

Eb|--------------------------|---------------------------|
Bb|--------------------------|---------------------------|
Gb|--------------------------|---------------------------|
Db|--------------------------|---------------------------|
Ab|-----2-----2--2--2--2-----|-----7--6--5~--------------|
Eb|-/6--0-----0--0--0--0-----|-/6--------------7--6--5---|

Eb|--------------------------|---------------------------|
Bb|--------------------------|---------------------------|
Gb|--------------------------|---------------------------|
Db|--------------------------|---------------------------|
Ab|-----2-----2--2--2--2-----|-----7--6--5~--------------|
Eb|-/6--0-----0--0--0--0-----|-/6--------------7--6--5---|

Eb|--------------------------|---------------------------|
Bb|--------------------------|---------------------------|
Gb|--------------------------|---------------------------|
Db|--------------------------|---------------------------|
Ab|-----2-----2--2--2--2-----|-----7--6--5~--------------|
Eb|-/6--0-----0--0--0--0-----|-/6--------------7--6--5---|

Eb|--------------------------|---------------------------|
Bb|--------------------------|---------------------------|
Gb|--------------------------|---------------------------|
Db|--------------------------|---------------------------|
Ab|-----2-----2--2--2--2-----|-----7--6--5~--------------|
Eb|-/6--0-----0--0--0--0-----|-/6--------------7--6--5---|

Eb|--------------------------|---------------------------|
Bb|--------------------------|---------------------------|
Gb|--------------------------|---------------------------|
Db|--------------------------|---------------------------|
Ab|-----2-----2--2--2--2-----|-----7-----------7---------|
Eb|-/6--0-----0--0--0--0-----|-/6-----6--5~-------6--5---|

                              Hold this chord for the
                              next 4 measures.
Eb|--------------------------|-------|
Bb|--------------------------|-------|
Gb|--------------------------|-------|
Db|--------------------------|-----2-|
Ab|-----7-----------7--------|-----2-|
Eb|-/6-----6--5~-------6--5--|--3--0-|

Eb|--------------------------|---------------------------|
Bb|--------------------------|---------------------------|
Gb|--------------------------|---------------------------|
Db|--------------------------|---------------------------|
Ab|--------------------------|-----7-----------7---------|
Eb|--------------------------|-/6-----6--5~-------6--5---|

Eb|--------------------------|-----------------||
Bb|--------------------------|-----------------||
Gb|--------------------------|-----------------||
Db|-----9-----------9--------|-----------------||
Ab|--8-----8--7~-------8--7--|--2-----------2--||
Eb|--------------------------|--0-----3~----0--||
Вверх

Cure (2 вариант)

 DRUMS         GUITAR IN            1st VERSE
|------------|--------------------|----------------------------|
|------------|--------------------|----------------------------|
|------------|--------------------|----------------------------|
|------------|--------------------|----------------------------|

 BASS FILL 1                         END FILL 1
|-------------------------------------------------|
|-------------------------------------------------|
|-------------------------------------------------|
|-1--1--1--1--1--1--1--1--1--1--1--1--1------0--1-|

 PRE-CHORUS  (BASS FIG 1)
|-----------------------------------------------------------------------
|-----------------------------------------------------------------------
|-----0--1---------------------1-------------------------------------1-1
|-(1)-------0--1--0--0--0-0--0---3--0--1--0--0--1--1--1-1--1--1--1--1---

---------------------------------------------------------------------
---------------------------------------------------------------------
-/8-8-8-8-8-----------0-1----------------1------------------0-1-----
--------------0-1--(1)-----0-1-0-0--0-0-0---3-0-1-0-0-1--(1)-----0-1-

----------------------------------------------------------------------
----------------------------------------------------------------------
-------------1--------------------------------------------------------
-0--0--0-0--0--3-0-1-0-0-0--0-0-X--0-0-0-0--X--0--0-0-X--0-0-0-0-0--X-

                                 END FIG 1
----------------------------------------------|
----------------------------------------------|
--------------------------------7-6-5---------|
-0--0--0--X--0-0-0-0-0--X--0--0---------7-6-5-|

|------------------------------------------------------------------|
|------------------------------------------------------------------|
|------------------------------------------------------------------|
|--3-0-3---0-0-0-0-0-0-0-0-0-0-0-0-0-0-3--0-0-0-0--0-0-0-0-0-0-0-0-|

  BASS FIG 2              END FIG 2
|-----------------------------------|
|-----------------------------------|
|-----------------------------------|
|-0----3----0-0-0-0-0-0-0-0-0-0-0-0-|

   W/BASS FIG 2  3x`S
                        W/BASS FILL 1
   PRE-CHORUS W/FIG 1


   CHORUS (BASS FIG 3)
|--------------------------------------------------------------------
|--------------------------------------------------------------------
|------------------7------7-6-5-----------------------7------7-6-5---
|-3-0----0-0-0-0-0---0-/6-------7-6-5-3-0---0-0-0-0-0---0-/6---------

-----------------------------------------------------------------------
-----------------------------------------------------------------------
----------------------7------7------7----------7------7----------------
-7-6-5--3-0---0-0-0-0-0-0-/6---6-5----6-5--5H6---6-5----6--5--3-0--0-0-
         END FIG 3       GUITAR SOLO
---------------------|-------------------------------------------------
---------------------|-------------------------------------------------
---------------------|----7-------7------------------------------------
---0--0----0-0---0-0-|-0----6-5-----6-5--0-0-3---0-0-0-0-0-0-0-0-0-0-0-

---------------------------------------------------------------------
---------------------------------------------------------------------
---------------------------------------------------------------------
-0--0-0-3--0-0-0-0-0-0-0-0-0-0-0-0--0-0-3--0-0-3--0--3-3-3-3-0-0-3-0-

----------------------------------------------------------------------|
----------------------------------------------------------------------|
----------------------------------------------------------7-----7-----|
-3-0-3----0-0-0-0-0-0-0-0-0-0-0-0--1-1-1-1-1-1-1-1-1-1-1/---6-5---6-5-|


              BASS FIG 4                        END FIG 4
|-----------|------------------------------------------------|
|-----------|------------------------------------------------|
|-----------|-7---7-------------7---7-----7-------------7----|
|-0--0-0--0-|-0-0-0--0-0-0-0-0--0-0-0--0--0--0-0-0-0-0--0--0-|


   INTERLUDE W/ BASS FIG 4  8x`s


|--------------------------------------------------------------|
|--------------------------------------------------------------|
|---7----------------5---------------4-------------------------|
|-0---6-5---0-3-5--6---6-5--0-3-5--6---6-5--0-3-5-6-5-3-0-0--3-|


  CHORUS W/ BASS FIG 3  4x`s
                              W/ BASS FIG 3


|----------------------------------------------------|
|----------------------------------------------------|
|----7-------7------------------7--------------------|
|-/6---6-5-----6-5--5H6-0-6-5-----6-5--0--3--0-------|
Вверх

Devils Dance

F|------------------------------------|
C|------------------------------------|
G|------------------------------------|
D|-6-0---0---0---0-3-0----0-5-3-0-3-5-|

F|----------------------------------|
C|----------------------------------|
G|----------------------------------|
D|-0---0---0---0-3-0----0-5-3-0-3-5-|
intro and similar

F|----------------    --------------------|
C|---------------- 4x --------------------| 2x then back to the
G|----------------    --------------------| first part
D|-0-0-0-0-3-0-0-0    -6-5-3-3-3-3-3-3-3-3|

F|--------------------------------|
C|--------------------------------|
G|--------------------------------|
D|-3-3-3-3-3-3-3--2-2-2-2-2-2-2-2-|
verse (follows guitar)

F|---------------------------------------------|
C|---------------------------------------------|
G|-1-1-1-1-1-0-------------1-1-1-1-1-0---------|
D|-------------0-0-3-3-0-3-------------0-0-3-3-|
chorus(follows guitar)
Вверх

Die Die My Darling

Intro:
G|---------------------------------------|PLAY 3 X
D|---------------------------------------|PLAY 3 X
A|-2-2-2-2-2-2-2-2-----------------------|PLAY 3 X
E|------------------3-3-3-3-3--2-2-2-2-2-|PLAY 3 X

FIG B
G|----------------------------------------------------|
D|----------------------------------------------------|
A|---------------------------2-2--2-2-2--2-2-2--2-2-2-|
E|-0-0--0-0-0--0-0-0--0-0-0---------------------------|

G|-------------------------------|PLAY FIG B X1
D|-------------------------------|PLAY FIG B X1
A|-------------------------------|PLAY FIG B X1
E|-0-0--0-0-0--3-3-3-3-3-3-3-3-2-|PLAY FIG B X1

FIG C
G|----------------------------------------------------|PLAY 7 X
D|----------------------------------------------------|PLAY 7 X
A|-2-2--2-2-2--2-2-2--2-2-2--------------5-5-5--4-4-4-|PLAY 7 X
E|---------------------------3-3--3-3-3---------------|PLAY 7 X

REPEAT INTRO - FIG C  NOTE: ONLY PLAY INTRO 2 X
THEN, PLAY INTRO 2X, AND FIG B 1X

G|---------------|
D|---------------|
A|-2-2-2-2-2-2-2-|lET THE LAST -2- RING OUT
E|---------------|
Вверх

Dirty Window

Играется вместе с ритмом ударных
(Играть 2 раза)
Eb|----------------------|
Bb|----------------------|
Gb|----------------------|
Db|-x-x-x-x-x--x--x-x--x-|
Ab|-x-x-x-x-x--x--x-x--x-|
Db|-x-x-x-x-x--x--x-x--x-|

(Играть 2 раза)
Eb|--------------------------|-----------------------|
Bb|--------------------------|-----------------------|
Gb|--------------------------|-----------------------|
Db|--x-x-x-x-x--x---x-x--x---|-x-x-x-x-x--x---x-x--x-|
Ab|--x-x-x-x-x--x---x-x--x---|-x-x-x-x-x--x---x-x--x-|
Db|--x-x-x-x-x--x---x-x--x---|-x-x-x-x-x--x---x-x--x-|

Основной риф (Играть 5 раз)
Eb|--------------------------|----------------------|
Bb|--------------------------|----------------------|
Gb|--------------------------|----------------------|
Db|--------------------------|----------------------|
Ab|--------------------------|-------------/5-------|
Db|--0---3---5--0---3---5----|--0---3---5------6--5-|

Eb|--------------------------|------------------------|
Bb|--------------------------|------------------------|
Gb|--------------------------|------------------------|
Db|--3---------------(3)--3--|-/5---------5----5----5-|
Ab|--3---------------(3)--3--|-/5---------5----5----5-|
Db|--3---------------(3)--3--|-/5---------5----5----5-|

Повторить основной риф 4 раза
(вокал появляется на 2-м разе)

Eb|-----------------------|-----------------------|
Bb|-----------------------|-----------------------|
Gb|-----------------------|-----------------------|
Db|--3----------------(3)-|-/5----------------(5)-|
Ab|--3----------------(3)-|-/5----------------(5)-|
Db|--3----------------(3)-|-/5----------------(5)-|
this house is clean baby...

Heavy Palm Mute
(Играть 2 раза)
Eb|----------------------|---------------------|
Bb|----------------------|---------------------|
Gb|----------------------|---------------------|
Db|-0---3---5--0---3---5-|-0---3---5------6--5-|
Ab|-0---3---5--0---3---5-|-0---3---5---5--6--5-|
Db|-0---3---5--0---3---5-|-0---3---5---0--6--5-|

(Играть 3 раза)
Eb|-----------------------|-----------------------|
Bb|-----------------------|-----------------------|
Gb|-----------------------|-----------------------|
Db|-----------------------|-----------------------|
Ab|-----------------------|-----------------------|
Db|-0---3---5--0-x--x-x-x-|-0---3---5---6^6~~~~~~-|
am i who i think i am?...

Eb|-----------------------|---------------------|
Bb|-----------------------|---------------------|
Gb|-----------------------|---------------------|
Db|-3---6---8--3------x-x-|-3---6---8-----------|
Ab|-3---6---8--3------x-x-|-3---6---8--9~~~~~~~-|
Db|-3---6---8--3------x-x-|-3---6---8--9~~~~~~~-|
look out my window...

Eb|--------------|----------------------|
Bb|--------------|----------------------|
Gb|--------------|----------------------|
Db|-3---6---8--3-|-3---6---8--3---6---8-|
Ab|-3---6---8--3-|-3---6---8--3---6---8-|
Db|-3---6---8--3-|-3---6---8--3---6---8-|
...and i slam my gavel down

Основной риф 2X

Light distortion
(Играть 2 раза)
Eb|-----------------------|---------------------|
Bb|-----------------------|---------------------|
Gb|-----------------------|---------------------|
Db|-7 ~~~-----------7---7-|--5 ~~~ ----/8-----7-|
Ab|-----------------8---0-|--3------------------|
Db|-----------------------|---------------------|

Eb|-----------------------|----------------------|
Bb|-----------------------|----------------------|
Gb|-----------------------|----------------------|
Db|-----------------------|----------------------|
Ab|-----------------------|-------------/5-------|
Db|-0---3---5--0---3---5--|--0---3---5------6--5-|
 i?m judge and i?m jury and i?m executioner too...

Heavy Distortion
Eb|---------------|---------------|
Bb|---------------|---------------|
Gb|---------------|---------------|
Db|-0---3---5---0-|-0---3---5---0-|
Ab|-0---3---5---0-|-0---3---5---0-|
Db|-0---3---5---0-|-0---3---5---0-|
        projector!!     protector!!

Eb|-----------------------|---------------|
Bb|-----------------------|---------------|
Gb|-----------------------|---------------|
Db|-0---3---5-------6---5-|-0---3---5---0-|
Ab|-0---3---5---5---6---5-|-0---3---5---0-|
Db|-0---3---5---0---6---5-|-0---3---5---0-|
               rejector!!

Eb|---------------|---------------|
Bb|---------------|---------------|
Gb|---------------|---------------|
Db|-0---3---5---0-|-0---3---5---0-|
Ab|-0---3---5---0-|-0---3---5---0-|
Db|-0---3---5---0-|-0---3---5---0-|

Eb|-----------------------|-----------------------|
Bb|-----------------------|-----------------------|
Gb|-----------------------|-----------------------|
Db|-0---3---5-------6---5-|-0---3---5-------6---5-|
Ab|-0---3---5---5---6---5-|-0---3---5---5---6---5-|
Db|-0---3---5---0---6---5-|-0---3---5---0---6---5-|

Eb|-----------------------|-----------------------|
Bb|-----------------------|-----------------------|
Gb|-----------------------|-----------------------|
Db|-x-x-x-x-x--x---x-x--x-|-x-x-x-x-x--x---x-x--x-|
Ab|-x-x-x-x-x--x---x-x--x-|-x-x-x-x-x--x---x-x--x-|
Db|-x-x-x-x-x--x---x-x--x-|-x-x-x-x-x--x---x-x--x-|

Eb|-----------------------|---------------------|
Bb|-----------------------|---------------------|
Gb|-----------------------|---------------------|
Db|-----------------------|---------------------|
Ab|-----------------------|------------/5-------|
Db|-0---3---5--0---3---5--|-0---3---5------6--5-|
Вверх

Don`t Tread On Me

G||------------|-----|-----|----------------|------------------|
D||------------|--%--|--%--|----------------|------------------|
A||------------|-----|-----|-----------2--2-|-----------5--5---|
E||-0-0-0-0--0-|-----|-----|-0-0-0----------|-3-3-3------------|

(6/8)       (12/8)
G|-------|   |-------------|-------------|----------------|
D|-------|   |-------------|-------------|----------------|
A|-3-3-3-|   |-7-----------|-------------|----------------|
E|-------|   |-----0--0--0-|-0--0---0--0-|-0-0-0-----0--0-|

G|----------------|-----|-----|-----|------------------------|
D|----------------|--%--|--%--|--%--|------------------------|
A|----------------|-----|-----|-----|------------------------|
E|-0-0-0-----0--0-|-----|-----|-----|-0-0-0---1-0---1-1/3--1-|

Bass fig.1                                     (end Bass fig.1)
G|---------------------------|--------------------------------|
D|---------------------------|--------------------------------|
A|-------1/2----------1/2----|-------1/2----------------------|
E|-0-0-0------1--0--0------1-|-0-0-0-------1--0----1--1/3---1-|

Play Bass fig.1 (3 times)

1st, 2nd verses
Bass fig.2
G||----------------|----------------|----------------------|
D||o---------------|----------------|----------------------|
A||o---------------|----------------|----------------------|
E||--0-0-0----0--0-|-0-0-0-----1--1-|-2-2-2--1-2-3--3--2-3-|

         (end Bass fig.2)
G|-------------------------||
D|------------------------o||
A|--------------------5---o||
E|-4-4-4--3-4-5---6/7---7--||

"Say don`t tread on me...|
G|-----------------------------|------------------------------||
D|-----------------------------|------------------------------||
A|-----------------------------|------------------------------||
E|-0-0-0-0-1-0-0-0-0-0-0-3-0-0-|-0-0-0-0-5--0--0--6-0-5-0-3-0-||

Bass fig.3
G|--------------------|--------------------|-------------------|
D|--------------------|--------------------|-------------------|
A|--------------------|--------------------|5-5---5---5-5-5-5--|
E|-0-0-1-0-0-0-0-0-0-0|0-0-1-0-0-0--0-2-3-3|----5---5---------5|

           (end bass fig.3)
G|-----------------|---------------------|---------------------|
D|-----------------|---------------------|---------------------|
A|-----------------|---------------------|---------------------|
E|-3-3-0-3-3/4-5-6-|-0-0-1-0-0-0-0-0-0-0-|-0-0-1-0-0-0-0-2-3-3-|

G|-------------------|---------------|-------------------------|
D|-------------------|---------------|-------------------------|
A|5-5---5---5---5-5--|---------------|-------------------------|
E|----5---5---5-----5|3-3-0-3-3-3-3-3|0-0-0-1-0-0-0-0-0-0-3-0-0|

 1. w/ Bass fig.1 (2 times)

2.
G|----------------------------|----||
D|----------------------------|----||
A|-------------------1--------|----||
E|-3--3-3-3--3--3--3-----3--1-|-10-||

Guitar solo

Play Bass fig.1 (4 times)

G|------------------|-------|-------|
D|------------------|-------|-------|
A|------------------|-------|-------|
E|-0-0-0--0-0-0---0-|-0-0-0-|-1---1-|

G|-------------------|----------------------||
D|-------------------|----------------------||
A|-------------------|------------------5---||
E|-2-2-2-----3--3----|-4-4-4-----5--6/7---7-||

G||-----------------------------|------------------------------|
D||-----------------------------|------------------------------|
A||-----------------------------|------------------------------|
E||-0-0-0-0-1-0-0-0-0-0-0-3-0-1-|-0-0-0-0-1-0-0-0-0-0-0--3-0-0-|

G|---------------------------|---------------------------------|
D|---------------------------|---------------------------------|
A|---------------------------|---------------------------------|
E|-0-0-0-0-5-0-0-6-0-0-5-0-0-|-0-0-0-0-1-0-0-0--0-0-0--3--0--0-|

G|--------------------------------------||
D|--------------------------------------||
A|--------------------------------------||
E|-0--0-0-0--1--0--0--0--0-0-0--3--0--0-||
Вверх

Dyers Eve

Intro:

G|-------------------------------------------------|
D|-------------------------------------------------|
A|-2-3-2-3-2-3-2-3---------------------------------|
E|-----------------0---1---0---3-0---1---0---0-1-0-|

G|------------------------|
D|------------------------|
A|--------------2-3-2-3---|
E|-1---0---3-0----------0-|

Riff 1:
              1,2,3,                   4,
G|------------------|--------------------|
D|------------------|----------------3-2-|
A|-2h33333333-2-0h2-|-2h33333333-3-2-----|
E|------------------|--------------------|

Verse (Dear Mother, Dear Father):

G|-------------------------------------------------|
D|-------------------------------------------------|
A|---------0-----32-------------0---------5------3-|
E|-2---3-------0------2---3---0----3-2-0------3----|

At the end of Verses, there are often little Bridge
bars. Examples follow.

G|-----------|
D|-----------|
A|-----------|
E|-xxx-x-xxx-|

G|-----------|
D|-----------|
A|-----------|
E|-000-0-000-|

G|--------|
D|--------|
A|---5-7--|
E|--------|
Вверх

Enter Sandman mp3

intro
1)
D|-------5-------------5-----|
A|----7--------7----7--------|
E|-0-------6-5---0-------6-5-|
clean (yes, there are other ways to play this riff, but this is
how James plays it on "A Year and a half...pt1"

2a)
D|----------------------------------|
A|-2--------------7---------------7-|
E|-0--0-0-0-0-0-0---0-0-0-0-0-0-0---|
distorted

2b)
D|------------------|
A|-----7----------3-|
E|-0-0---6--0-0-0-1-|

2c)
D|-------------------|
A|-----7-----------3-|
E|-0-0---6-5-0-0-0-1-|

3)Main riff
D|---------------          ------------------------|
A|-2--2-/7------- 3 times  ----5-----4-----4-5-4-2-|
E|-0--0----6--5~~          -0--3--0--2--0--2-3-2-0-|

4)
D|-----------------|
A|-2-------------3-|  twice then end with riff above^
E|-0-0-0-0-0-0-0-1-|
Say your prayers...

5)
G|-------2--------------2-------|
D|----4--------4-----4--------4-|
A|---------3-2------------3-2---|
E|-2--------------2-------------|
Sleep with one eye...

6)
D|-----5--4-----5--4-----5--4----|
A|--4--3--2--4--3--2--4--3--2--2-|
E|-/2--------2--------2--------0-|
Exit light
Вверх

Enter Sandman (2 вариант) mp3

Intro.(When the drums come in)

G|----------------------------------|
D|----------------------------------|
A|----------------------------------|
E|-0-0-0-0-0-0-0-0-0-0-0-0-0-0-0-0-0| etc.

First bridge bit(bridge bit, bit after intro)

G|---------------------|
D|---------------------|
A|------------------/7-|
E|-0-0-0-0-0-0-0-------|

Second bridge bit

G|------------------|
D|------------------|
A|-------/7---------|
E|--0-0---6-0-0-0-1-|

Third damn bridge bit

G|-----------------|
D|-----------------|
A|-----/7----------|
E|-0-0-6-5-0-0-0-0-|

Cool main riff

G|--------------|  times 3
D|--------------|
A|--------/7----|
E|-0--0-----6-5-|

then:

G|-----------------|
D|-----------------|
A|-----------------|
E|-3-0-2-0-2-3-2-0-|

Verse

G|-------------------------------------------------------------|
D|-------------------------------------------------------------|
A|-------------------------------------------------------------|
E|-0-0-0-0-0-0-0-1-0-0-0-0-0-0-0-1-0-0-0-0-0-0-3-0-2-0-2-3-2-0-|
Say your prayers…

pre-chorus

G|----------------------------------------|
D|----------------------------------------|
A|---------2--------2---------2---------2-|
E|-2---------2---------2--------2---------|
Sleep with one eye open..

Chorus
G|-------------------------------------------------------------|
D|--4------4------4--------------------4----------------(rest)-|
A|----3-2----3-2----3-2-----------2----3-2---------------------|
E|-2------2------2------0-3-0-5-0--3-2----0-3-0-3-0-5-0--------|
                     (improvisation crap)   (improvisation crap)

Other prechorus.
G|---------------------------|
D|---------------------------|
A|---------------------------|
E|-2-2-2-2-2-2-2-2-2-2-2 etc.|
Hush little baby…

"This is note a quote"
Вверх

Escape

Riff A
e|----------------------------|
B|------------1-0--1-1p0------|
G|------------2-0--2-2p0-2-2--|
D|-7---------------------3-3--|
A|-0-0-0-0-0-0----------------|
E|----------------------------|

Riff B
e|------------------|
B|------------------|
G|---------------4--|
D|(7)------------5--|
A|-0-0-0-0-0-0-0----|
E|------------------|
This is played several times in a row near the start, the 7th
ret note is only played the first time.

Riff C
e|--------------------------------|
B|--------------------------------|
G|---------------4---------87-5/7-|
D|---------------5---------87-5/7-|
A|-0-0-0-0-0-0-0---0-0-0-0-65-3/5-|
E|--------------------------------|

Riff D
e|--------------------------------|
B|--------------------------------|
G|--------------------------------|
D|--------------------------------|
A|-4-4-4-4-4-4-4-4-4-4-4-4-4-555--|
E|-2-2-2-2-2-2-2-2-2-2-2-2-2-333--|
   . . . . pm. . . . . . . .

Riff E
e|---------------------------------|
B|---------------------------------|
G|---------------------------------|
D|---------------------------------|
A|-4-4-4-4-4-4-4-4-5---6---22-33---|
E|-2-2-2-2-2-2-2-2-3---4---00-11---|
   . . . pm. . . .

Riff F
e|---------------------------------|
B|---------------------------------|
G|------------------------------2--|
D|----------------------------4----|
A|-7---------5--------4-----4------|
E|-5-----0-5-3----0-3-2---2--------|
This is the chorus riff; the last time you play this (the
fourth time in the second chorus), don`t play the "scale" -
hold the Gb for an extra moment and then go on to Riff H.

Riff G
e|-----------------------------------|
B|-----------------------------------|
G|-----------------------------------|
D|-9--7--5-----9--7--9--10---10-9-7--|
A|---------7-------------------------|
E|-----------------------------------|
This is played at the chorus over Riff F, following the vocal
line.

Riff H
e|---------------------------|
B|---------------------------|
G|---------------------------|
D|-----4---2-------4---------|
A|---4---4-0-----4---4-5-----|
E|-2-----------2-------3-----|

Riff I
e|-------------------|
B|-------------------|
G|-------------------|
D|-------------------|
A|-4-4-9-7-4-4-5-5---|
E|-2-2-7-5-2-2-3-3---|

Riff J
e|-------------------------------------------|
B|-------------------------------------------|
G|-------------------------------------------|
D|-----4---2222-----4-----------4------------|
A|---4---4-0000---4--4-5555---4--4-22222222--|
E|-2------------2------3333-2------00000000--|

Riff K1                         Riff K2
e|-----------------------------|------------------------------|
B|-----------------------------|------------------------------|
G|-----------------------------|------------------------------|
D|-----4-----------4-------4---|-----2-----------2-------2----|
A|---4---4-5-----4---4---4---4-|---2---2-5-----2---2---2---2--|
E|-2-------3---2-------2-------|-0-------3---0-------0--------|
This is played about four times towards the end of the solo-
It`s difficult to hear this bit so I don`t know which, if
either, is correct -let me know what you think.

The riffs are played _roughly_ in this order

Riff A x 4
Riff B x 4  }Intro.
Riff C x 2 /

Riff D x 3 Verse-
Riff E x 1 /Play this twice.

Riff F x 4 Chorus-
Riff G x 4 /Played simultaneously.

Riff C x 2

Repeat Verse.

Repeat Chorus.

Riff H x 2
Riff I x 4  }Bridge.
Riff J x 1 /

Riff C x ? Solo backing.
Riff K x 4 /

Riff C x ? Outro.
Riff G x ? /Played simultaneously.
Вверх

Eye Of The Beholder

Intro:
   s s s s s s s s  e  e  s s  e
E|-0-0-0-0-0-0-0-0--0--0--0-0--0-|
A|-------------------------------|
D|-------------------------------|
G|-------------------------------|

Verse:
   e  e  s s e  s s s s s s s s  e  e  s s e  s s s s s s s s
E|-3--3--3-3-3--2-2-2-2-2-2-2-2--2--2--2-2-2--0-0-0-0-0-0-0-0-|
A|------------------------------------------------------------|
D|------------------------------------------------------------|
G|------------------------------------------------------------|
I don`t remeber the rest off the top of my head,
i`ll try to send it in soon
Вверх

Fade To Black

    Bm(flat 6)     Bm/A            Bm(flat 6)       A/C#

     Rhy. Fig 1 (acoustic guitar)                      end Rhy Fig 1
e |----------------|---------------|---------------|---------------|
B |----------------|---------------|---------------|---------------|
G |-----0----------|----0----------|----0----------|----2----------|
D |---4---4---4---4|--4---4---4---4|--4---4---4---4|--2---2---2---2|
A |-2-------2---5--|0-------0---5--|2-------2---5--|4-------4---0--|
E |----------------|---------------|---------------|---------------|
  |                                                   		   |
  | 				 Elec Gtr. w/flanger or chorus     |
e |----------------------------------------------------------------|
B |---------------------------------------------------------------7|
G |-------------------------------------------------------------7--|
D |----------------------------------------------------------/9----|
A |----------------------------------------------------------------|
E |----------------------------------------------------------------|




         w/Rhy Fig 1 (4 times)
    Bm(flat 6)        Bm/A            Bm(flat 6)
                                            .--------------.
          sl                      .---.    ?  P  P  sl H  P `
e |-----------------|---------------|------------------------------|
B |---7--8/10--8--10|-12--10--8--10-|(10)--12--10--87--8--7-----7-|
G |-----------------|---------------|-------------------------9----|
D |-9---------------|---------------|------------------------------|
A |-----------------|---------------|------------------------------|
E |-----------------|---------------|------------------------------|



    A/C#                 Bm(flat 6)    Bm/A       Bm(flat 6)       A/C#
      H                     .---.    sl     P                    sl  vibrato
e |---------------------|-------------|----------|----------------|-----------|
B |-7--8--7-----7-------|-------------|---------8|-7------------8/|10^^^^^^^^-|
G |----------9-----9--7-|-----------7|6--7--6---|----------------|-----------|
D |---------------------|7--9--(9)---|----------|----------------|-----------|
A |---------------------|-------------|----------|----------------|-----------|
E |---------------------|-------------|----------|----------------|-----------|


                                                                Bm/A
            Bm(flat 6)                                   full )
                               P                             /      vibrato
e |-----14-|19--14----------15--14-----------------------------|--------------|
B |-16-----|--------15--------------15------17--15--14---------|--------------|
G |--------|------------16--------------14--------------16--14-|(14)^^^^^^^^--|
D |--------|---------------------------------------------------|--------------|
A |--------|---------------------------------------------------|--------------|
E |--------|---------------------------------------------------|--------------|

                                Bm(flat 6)                              A/C#
       H      vibrato      H                       H   P           H
e |----------------------------|---------------------------------------|------|
B |----------------------------|--------14--15--14--15--14------14--15-|14----|
G |-14--16---------------------|14--16----------------------16---------|------|
D |---------14^^^^^^^^--14--16-|---------------------------------------|------|
A |----------------------------|---------------------------------------|------|
E |----------------------------|---------------------------------------|------|


                            Bm(flat 6_                 Bm/A
                                     vibrato
e |-19--17---15---15---17-|14------------------14--15-|14----------14--15-----|
B |-----------------------|----15---------------------|----15-----------------|
G |-----------------------|--------16^^^^^^^^---------|--------14-------------|
D |-----------------------|---------------------------|-----------------------|
A |-----------------------|---------------------------|-----------------------|
E |-----------------------|---------------------------|-----------------------|


    Bm(flat 6)     A/C#   F6              E/G#            E/B

e |-14------17--15-|14---|---------------|---------------|------------12--13--|
B |-----16---------|-----|---------------|---------------|12--13--15----------|
G |----------------|-----|---------------|--------12--14-|--------------------|
D |----------------|-----|------------12-|14--15---------|--------------------|
A |----------------|-----|12--14--15-----|---------------|--------------------|
E |----------------|-----|---------------|---------------|--------------------|


           H   P
e |-15--13--15--13-----||
B |-----------------15-||
G |--------------------||
D |--------------------||
A |--------------------||
E |--------------------||


  Am                          C                         G
                       H                         T   T      T
e| -17------------------------|-------------------------|---------------12----|
B|.------------------0--1-----|-------------------------|3(15)----------------|
G| -2-------------------------|-0-----------------4(16)-|---------------------|
D|.---------------------------|----------------5(17)----|---------------------|
A| ---------------------------|-------------------------|---------------------|
E| ---------------------------|-------------------------|---------------------|
 |
 | Rhy. Fig. 2
 |    H                 H                         H
e| -------------0-------------|-----------0-------------|-----------3-----3--3|
B|.-0--1--------------------1-|(1)--1-----------------0-|(0)--3---------------|
G| -2-----2-----------0--2----|-0---------------0--2----|-0---------------2--0|
D|.-2--------2-----2----------|-2------2-----2----------|--------0-----0------|
A| -0-------------------------|-3-----------------------|---------------------|
E| ---------------------------|-------------------------|-3-------------------|


    Em                  Am                           C
                                                                       T   T
e |-10----------------|----------------------------|--------------------------|
B |--8----------------|--------------------------1-|--------------------------|
G |--9----------------|-2--------------------------|-0------------------4(16)-|
D |-------------------|----------------------------|-----------------5(17)----|
A |-------------------|----------------------------|--------------------------|
E |-------------------|----------------------------|--------------------------|
  |
  |
  |               sl      H                  H                         H
e |-------------------|-------------0--------------|-----------0--------------|
B |----------0--(1)/3-|-0--1---------------------1-|(1)--1-----------------0--|
G |-0--------0--(2)/4-|-2-----2------------0--2----|-0---------------0--2-----|
D |----2--------------|-2--------2-----2-----------|-2------2-----2-----------|
A |-------2-----------|-0--------------------------|-3------------------------|
E |-0-----------------|----------------------------|--------------------------|


    G                           Em
       T                    T      T
e |---------------------------|-3(15)------------------ ||
B |-3(15)----------------5(17)|------------------------.||
G |---------------------------|------------------------ ||
D |---------------------------|------------------------.||
A |---------------------------|------------------------ ||
E |---------------------------|------------------------ ||
  |

  |                   H P                         sl
e |------------3--------------|-0---------------------- ||
B |-(0)--3--------------------|-0-----------0--(1)/3---.||
G |--0---------------0-2-0--0-|-0-----------0--(2)/4--- ||
D |---------0-----0-----------|-2-----2----------------.||
A |---------------------------|----------2------------- ||
E |--3------------------------|----0------------------- ||



FILL 2                       FILL 3
e |------------3----------|  |-------|
B |-(0)--3-----------3----|  |-------|
G |--0------------------2-|  |-0-----|
D |---------0-----0-------|  |-------|
A |-----------------------|  |-------|
E |--3--------------------|  |-3-----|

1st,2nd verses
w/Rhy. Fig. 2

   Am			C		G		   Em

1. Life it seems will fade away,	drifting further every day.
2. Things not what they used to be,	missing one inside of me.


   Am			C		G		   Em

1. Getting lost within myself,		nothing matters, no one else.
2. Deathly lost, this can?t be real,	cannot stand this hell I feel.


W/Rhy. Fig 2 (1st 7 bars only)
   Am			C		G		   Em

1. I have lost the will to live,	simply nothing more to give.
2. Emptiness is filling me,		to the point of agony.


   Am			C		G

1. There is nothing more for me.	Need the end to set__
2. Growing darkness taking dawn,	I was me, but now__


  w/Fill 3
    E+5                        A                     C
  |
1.|__me free
2.|__     he?s 		 gone____________.
  |
e |------------------------|| ---------------------|----------------------|
B |-5--5--5--5--5--5--5--5-||.-0--2--2-------------|-5--5--5--------------|
G |-5--5--5--5--5--5--5--5-|| -2--2--2-------------|-5--5--5--------------|
D |-2--2--2--2--2--2--2--2-||.-2--2--2-------------|-5--5--5--------------|
A |------------------------|| -0--0--0-----------5-|-3--3--3-----------5--|
E |-0--0--0--0--0--0--0--0-|| ----------0--0--3----|----------0--0--3-----|



    A        D5  E            (C5      A                     C
                                  G/B)
e |------------|---------------------|---------------------|------------------|
B |-2--2--2----|-9--9--9-------------|-0--2--2-------------|-5--5--5----------|
G |-2--2--2--7-|-9--9--9-------------|-2--2--2-------------|-5--5--5----------|
D |-2--2--2--7-|-9--9--9--------5--5-|-2--2--2-------------|-5--5--5----------|
A |-0--0--0--5-|-7--7--7--------3--2-|-0--0--0-----------5-|-3--3--3---------5|
E |------------|----------0--0-------|----------0--0--3----|---------0--0--3--|



    A               E

e |---------------|---- ||
B |-2--2--2-------|----.||
G |-2--2--2-------|-1-- ||
D |-2--2--2-------|-2--.||
A |-0--0--0--5--4-|-2-- ||
E |----------4--2-|-0-- ||



 Interlude
 w/Rhy. Fig. 2
    Am                  C                         G
                                   sl                       sl
	e |------------------|-------------------------|-----------------|
Gtr 1	B |-10^^^^^^--10--12-|-13^^^^^^--13/15--13--12-|-----------------|
Gtr 2 G |--9^^^^^^---9--11-|-12^^^^^^--12/14--12--11-|-12^^^^^^--12/14-|
	D |------------------|-------------------------|-12^^^^^^--12/14-|
	A |------------------|-------------------------|-----------------|
	E |------------------|-------------------------|-----------------|

    Em                     Am                     C    full  )
              sl     sl      sl                             /
e |----------------------|---------------------|-------------------------|
B |----------------------|------------------12-|-13^^^^^^--15------13----|
G |-9^^^^^^--9/11--11/12-|-12/14^^^^^^--14--11-|-12^^^^^^--14------12----|
D |-9^^^^^^--9/11--11/12-|-12/14^^^^^^--14-----|-------------------------|
A |----------------------|---------------------|-------------------------|
E |----------------------|---------------------|-------------------------|

        full (Gtr I + II)
    G  )   )   )   )
      /   /   /   /
e |----------------|----------------------|
B |-15--15--15--15-|-(15)^^^^^^-----------|
G |-14--14--14--14-|-(14)^^^^^^-----------|
D |----------------|----------------------|
A |----------------|----------------------|
E |----------------|----------------------|


  Rhy. Fig. 3
  Faster 144 bpm

    D5 E5       D5 E5   G5  F#5  D5
     sl                sl
e |-----------|----------------|----------------------------------------------|
B |-----------|----------------|----------------------------------------------|
G |-7/9--9--9-|-7--9--9/12--11-|-7--7--7-------------------------------------4|
D |-7/9--9--9-|-7--9--9/12--11-|-7--7--7--9--9--9--7--7--7--5--5--5--4--4--4--|
A |-5/7--7--7-|-5--7--7/10---9-|-5--5--5--------------------------------------|
E |-----------|----------------|----------------------------------------------|



    D5 E5       D5 E5   G5  F#5  D5
     sl                sl
e |-----------|----------------|----------------------------------------------|
B |-----------|----------------|----------------------------------------------|
G |-7/9--9--9-|-7--9--9/12--11-|-7--7--7--------------------------------------|
D |-7/9--9--9-|-7--9--9/12--11-|-7--7--7--9--9--9--7--7--7--5--5--5--4--4--4-5|
A |-5/7--7--7-|-5--7--7/10---9-|-5--5--5--------------------------------------|
E |-----------|----------------|----------------------------------------------|


  Bridge
  w/Rhy. Fig. 3

   D5 E5                        D5  E5      G5  F#5          D5

1. No one but me		can save myself but it?s too late
2. Yesterday seems     		as though it never existed

   D5  E5      			D5    E5       G5  F#5   D5

1. Now I can?t think, 		think why I should even try.
2. Death greats me warm, 	now I will just say goodbye.


	  w/Rhy. Fig. 3
	   D5 E5             D5 E5    G5  F#5        D5
	     sl                sl
	e |-----------------|----------------------|-----------------------|
Gtr I	B |-7/8--9--8^^^^^^-|-7/8--8--12--10^^^^^^-|-7--7-----------12--12-|
	G |-----------------|----------------------|-------7^^^^^^---------|
Gtr II	D |-7/9--9--9^^^^^^-|-7/9--9--12--11^^^^^^-|-7--7--7^^^^^^--12--12-|
	A |-----------------|----------------------|-----------------------|
	E |-----------------|----------------------|-----------------------|


    N.C. (no chord)                      D5 E5             D5 E5    G5  F#5
                                           sl                sl
e |-------------------------------------|-----------------|-------------------|
B |-12--10--10--10--8--8--8--7--7--7----|-7/8--8--8^^^^^^-|-7/8--8--12--10^^^^|
G |-------------------------------------|-----------------|-------------------|
D |-12--11--11--11--9--9--9--7--7--7--9-|-7/9--9--9^^^^^^-|-7/9--9--12--10^^^^|
A |-------------------------------------|-----------------|-------------------|
E |-------------------------------------|-----------------|-------------------|


	    D5                       N.C.

	e |------------------------|-----------------------------------------||
	B |-------------------7--7-|-7----5--5--5----3--3--3----2--2--2----3-||
Gtr I	G |-11--11--11^^^^^^--7--7-|-7----6--6--6----4--4--4----2--2--2----4-||
Gtr IID |--7---7---8^^^^^^-------|-----------------------------------------||
Gtr IIA |--9---9---9^^^^^^-------|-----------------------------------------||
	E |------------------------|-----------------------------------------||



     N.C.       E5     N.C.         G5  F#5  N.C.        D

e | ------------------|--------------------|----------------------------------|
B |.------------------|--------------------|-------------7--------------------|
G | -------------9--9-|-------------12--11-|-------------7--------------------|
D |.-------------9--9-|-------------12--11-|-------------7--------------------|
A | -------------7--7-|-------------10---9-|-------------5--9--9--9--7--7--7--|
E | -0--0--0--0-------|-0--0--0--0---------|-0--0--0--0-----------------------|




e |----------------------------------- ||
B |-----------------------------------.||
G |--------------------------------4-- ||
D |-9--7--7--7--5--5--5--4--4--4--(5)-.||
A |----------------------------------- ||
E |----------------------------------- ||


  Rhy. Fig. 4
  Two Gtrs. Gtr II to left of !
  Riff A Gtr I                                A5
         sl                                      sl
e |--------------|--------------------------|------------|--------------------|
B |--------------|--------------------------|------------|--------------------|
G |--------------|--------------------------|------------|--------------------|
D |------/4--2!5-|-(2/5)--4--2--------------|----/4--2!5-|-(2!5)--4--2--------|
A |-2!5----------|--------5--4--2!5--4------|-4----------|--------5--4--2/5---|
E |--------------|-------------------5--2!5-|-5----------|--------------------|

             G5                                     A5
                sl                                      sl
e |--------|------------|--------------------------|------------|
B |--------|------------|--------------------------|------------|
G |--------|------------|--------------------------|------------|
D |--------|----/4--2!5-|-(2!5)--4--2--------------|----/4--2!5-|
A |-4------|-2----------|--------5--4--2!5--4------|-4----------|
E |-5--2/5-|-3----------|-------------------5--2!5-|-5----------|


                             w/Rhy. Fig. 4 & Riff A (till fade)
                             B5                         )  )  )  ) <- all full
                                 lead gtr.   sl        /  /  /  /
e |----------------------||-------|-------------------------------|-----------|
B |----------------------||-------|-------------------------------|-----------|
G |----------------------||-------|-----------------7--9--9--9--9-|-----------|
D |-(2!5)--7--5--4--2--4-||-------|----------/9--9----------------|-----------|
A |--------5--4--2-------||-------|-------------------------------|-----------|
E |-----------------5--2-||-------|-------------------------------|-----------|

           ) full               G5
          /       P               H     H  P        H            H
e |----------------------------|------------------------------|---------------|
B |--------------------------7-|-7--8--7--8--7-----7--8--7----|-7--8--7----10-|
G |-(9)--9--(9)--7--9--9--9----|----------------7-----------7-|----------7----|
D |----------------------------|------------------------------|---------------|
A |----------------------------|------------------------------|---------------|
E |----------------------------|------------------------------|---------------|


                                                           B5
              sl            H
e |-----------|-----------------------|-------------------|-------------------|
B |-10--8--10/|12--10--8--8--10--8--7-|-8--10-----8-------|-------------------|
G |-----------|-----------------------|--------9-----9--7-|-------------7--9--|
D |-----------|-----------------------|-------------------|-7--9--9--9--------|
A |-----------|-----------------------|-------------------|-------------------|
E |-----------|-----------------------|-------------------|-------------------|

                                  A5
     ) full                       ) f        ) f        ) f       ) f
    /                            /      P   /      P   /     P   /       P
e |-----------------------------|----7----------7---------7-------------------|
B |-----------------------------|------10-7-------10-7------10-7-----7--10-7--|
G |-9--(9)--7--9--7--7-----7--9-|-9----------9----------9---------9-----------|
D |---------------------9-------|---------------------------------------------|
A |-----------------------------|---------------------------------------------|
E |-----------------------------|---------------------------------------------|


     )f           )f          )f          )f
    /        P   /       P   /       P   /        P            P     P
e |-----------------7-----------7-----------7-|-10-7------7--10-7--10-7-------|
B |----7--10--7--------10-7--------10-7-------|-------10-----------------10---|
G |-9------------9-----------9-----------9----|-------------------------------|
D |-------------------------------------------|-------------------------------|
A |-------------------------------------------|-------------------------------|
E |-------------------------------------------|-------------------------------|



         P     P             P            P     P            P     P
e |-7--10-7--10-7------7-|-10-7------7--10-7--10-7------7--10-7--10-7------7--|
B |----------------10----|-------10-----------------10-----------------10-----|
G |----------------------|----------------------------------------------------|
D |----------------------|----------------------------------------------------|
A |----------------------|----------------------------------------------------|
E |----------------------|----------------------------------------------------|


      )f  )f
     /   /
e |-10--10--10--8--7--8--7-----|-7--------------------------------------------|
B |-------------------------10-|----10--8--10--8--7--8--7-----7---------------|
G |----------------------------|---------------------------9-----9--7---------|
D |----------------------------|----------------------------------------------|
A |----------------------------|----------------------------------------------|
E |----------------------------|----------------------------------------------|


   B5                                               A5
               P                                              P
e |---------------------|-------7----------------|----------------------------|
B |----------8--7-----7-|-8-10----10--8--7-------|----------8--7-----7--------|
G |----------------9----|-------------------9--7-|----------------9-----------|
D |-7--9--9-------------|------------------------|-7--9--9--------------------|
A |---------------------|------------------------|----------------------------|
E |---------------------|------------------------|----------------------------|



                                G5

e |--------7--8--7^^^^^^--7--8-|-10--8--7--8--7------7------------------------|
B |-8--10----------------------|-----------------10-----10--8--10--8--7-------|
G |----------------------------|----------------------------------------------|
D |----------------------------|----------------------------------------------|
A |----------------------------|----------------------------------------------|
E |----------------------------|----------------------------------------------|


                                        A5

e |------------------------------------|--------------------------7-----------|
B |-8--7-----7-------------------------|----------------7--8--10-----10--8--7-|
G |-------9-----9--7--9--7--6--7--6----|-------6--7--9------------------------|
D |----------------------------------9-|-7--9---------------------------------|
A |------------------------------------|--------------------------------------|
E |------------------------------------|--------------------------------------|


                                               )f )f )f )f
                                      P       /  /  /  /
e |--------------------7--------------------|------------|
B |-8--7-----7--8--10-----10--8--7--8--7--9-|------------|
G |-------9---------------------------------|-9--9--9--9-|
D |-----------------------------------------|------------|
A |-----------------------------------------|------------|
E |-----------------------------------------|------------|

      full                  3/4       1/2   1/4
     )----------------------............_____              A5
    /      (gradual release)                 ----. P
e |------------------------------------------------------|----------10--10--10|
B |------------------------------------------------------|-----------7---7---7|
G |-9--9--9--9---9--9--9--9--9---9--9--9--9--9---9--7----|-7---------7---7---7|
D |----------------------------------------------------9-|----x--x------------|
A |------------------------------------------------------|----x--x------------|
E |------------------------------------------------------|--------------------|


                                              )f  )f   )f
                                             /   /    /          P
e |----------10--10--10-------|-10--10--10---------|--------------------------|
B |-----------7---7---7-------|--7---7---7--10--10-|-10^^^^^^--10-7-----7--8--|
G |-----------7---7---7-------|--7---7---7---------|-----------------9--------|
D |-x--x--x--------------x--x-|--------------------|--------------------------|
A |-x--x--x--------------x--x-|--------------------|--------------------------|
E |---------------------------|--------------------|--------------------------|


                                     A5
      H  P
e |---------------------------------|-----------------------------------------|
B |-7--8--7-------------------------|-----------------------------------------|
G |----------9--7-----7^^^^^^-----7-|-9--7-----7------------------------------|
D |----------------9-----------9----|-------9-----9--7--9--7-----7------------|
A |---------------------------------|-------------------------9-----9--7------|
E |---------------------------------|-----------------------------------------|


                                           B5

                                   sl         P               P       P
e |--------------------------------------|-15--12------12--15--12--14--12-----|
B |-----------------------------------12-|---------12----------------------12-|
G |--------------------------------------|------------------------------------|
D |--------------------------------------|------------------------------------|
A |-9--7--5--7--5-----5--5--5--5--7/-----|------------------------------------|
E |----------------7---------------------|------------------------------------|




           P       P                P               P       P
e |-12--15--12--14--12------12-|-15--12------12--15--12--14--12------12--15---|
B |---------------------12-----|---------12----------------------12-----------|
G |----------------------------|----------------------------------------------|
D |----------------------------|----------------------------------------------|
A |----------------------------|----------------------------------------------|
E |----------------------------|----------------------------------------------|


                         A5
    P      P                P
e |-12--14--12------12-|-17--14------14--------------------|------------------|
B |-------------12-----|---------15------------------------|--------,  -------|
G |--------------------|-------------------//----//----//--|-------- / -------|
D |--------------------|-----------------------------------|--------  ?-------|
A |--------------------|-----------------------------------|------------------|
E |--------------------|-----------------------------------|------------------|



    G5
       P               P       P               P       P
e |-19--15------15--19--15--17--15------15--19--15--17--15------15-|
B |---------17----------------------17----------------------17-----|
G |----------------------------------------------------------------|
D |----------------------------------------------------------------|
A |----------------------------------------------------------------|
E |----------------------------------------------------------------|



       P               P       P               P       P
e |-19--15------15--19--15--17--15------15--19--15--17--15------15-|
B |---------17----------------------17----------------------17-----|
G |----------------------------------------------------------------|
D |----------------------------------------------------------------|
A |----------------------------------------------------------------|
E |----------------------------------------------------------------|


    A5                                                 B5 )f  )f  )f  )f
       P                                                 /   /   /   /
e |-21--17------17-------------------|---------------|--22--22--22--22--|
B |---------19-----------------------|------,  ------|------------------|
G |------------------//----//----//--|------ / ------|------------------|
D |----------------------------------|------  ?------|------------------|
A |----------------------------------|---------------|------------------|
E |----------------------------------|---------------|------------------|


                                         A5
      )f  )f  )f  )f        ) f
     /   /   /   /         /
e |-22--22--22--22^^^^^^--22--(22)--19-|-22--20--19--20--19--17--19--17--15---|
B |------------------------------------|--------------------------------------|
G |------------------------------------|--------------------------------------|
D |------------------------------------|--------------------------------------|
A |------------------------------------|--------------------------------------|
E |------------------------------------|--------------------------------------|


                                                               G5

e |-17--15--14-|-15--14--12--14--12--10--12--10--9--10--9--7-|-9--7------7----|
B |------------|---------------------------------------------|-------10-----10|
G |------------|---------------------------------------------|----------------|
D |------------|---------------------------------------------|----------------|
A |------------|---------------------------------------------|----------------|
E |------------|---------------------------------------------|----------------|


                                               )f  )---... f    )f
                                              /   /           /
e |----------------------|------------------|---------------------------|
B |-8--10--8--7--8--7----|-7-----7--7--7--7-|---------------------7--7--|
G |--------------------9-|----9-------------|-9---9--(9)--(9)--9--------|
D |----------------------|------------------|-----/---/-----------------|
A |----------------------|------------------|-----/---/-----------------|
E |----------------------|------------------|---------------------------|


    B5
      )f     ) f                       ) f         ) f         )f      )f
     /      /      P                  /      P    /      P    /       /
e |-----7---------------------------|-----------------------------------------|
B |-10-----10--(10)--7--------------|-10--(10)--7--10--(10)--7--10--10--10--10|
G |----------------------//----//---|-----------------------------------------|
D |---------------------------------|-----------------------------------------|
A |---------------------------------|-----------------------------------------|
E |---------------------------------|-----------------------------------------|


    A5
       P      P             P                                    P
e |-10--7----------------------------------------------|----------------------|
B |--------10--7------7--10--7-------------------------|----------------------|
G |---------------10------------9--7-----7--9--7-----7-|----------------------|
D |-----------------------------------9-----------9----|-7--7--9--7-----------|
A |----------------------------------------------------|-------------9--8--7--|
E |----------------------------------------------------|----------------------|


                         G5
              sl                 sl              P
e |--------------------|----------------------------------------------12--15--|
B |--------------------|--------------11--12--13--12------12--14--15----------|
G |--------------------|-7--9--11/14------------------14----------------------|
D |---------------7--9-|------------------------------------------------------|
A |-5-----5--7/9-------|------------------------------------------------------|
E |----7---------------|------------------------------------------------------|




         P               P       P               P       P
e |-(15)--12------12--15--12--15--12------12--15--12--15--12------12-|
B |-----------15----------------------15----------------------15-----|
G |------------------------------------------------------------------|
D |------------------------------------------------------------------|
A |------------------------------------------------------------------|
E |------------------------------------------------------------------|


    A5
      )f  )f  )f  )f   fade out.
     /   /   /   /
e |-----------------------------||
B |-15--15--15--15--------------||
G |-14--14--14--14--------------||         The End!!!
D |-----------------------------||
A |-----------------------------||
E |-----------------------------||




From: telliott@silver.ucs.indiana.edu (Ted Elliott)


                              Fade to Black
                              by Mettalica

Tab Explanation
---------------
12/13   slide from 12th fret to 13th
1312   slide from 13th down to 12th
 /13    slide up to 13th fret
P.M.    palm mute
12h13   hammer-on from 12th to 13th
13p12   pull-off from 13th to 12th
12b(14) whole-step bend
(14)r12 reverse bend from whole-step



Gtr. 1 (Acoustic)
Rhythm fig. 1                                                    End fig. 1
|------------------|------------------|-----------------|
|------------------|------------------|-----------------|
|------0-----------|------0-----------|-----0-----------|
|----4---4---4-0-4-|----4---4---4-0-4-|---4---4---4-0-4-|
|--2-------2-------|--0-------0-------|-2-------2-------|
|------------------|------------------|-----------------|

                                    Gtr. 2 (Electric)
                 (Gtr. 2)           w/Rhythm fig. 1 4x
                                     Bm                         A
|----------------------------------|--------------------------|--------------|
|----------------------------------|--------------------------|--------------|
|--------2---------------2---------|---------11-12-14---12-14-|-/16-14-12-14-|
|-----2----2-------2---(12)-(14)2--|--------------------------|--------------|
|--4----------4--(/14)-------------|--14----------------------|--------------|
|----------------------------------|--------------------------|--------------|


 Bm                         A/C#               Bm                A
|-------------------------|------------------|-----------------|-------------|
|-------------------------|------------------|-----------------|-------------|
|-16-14-1211-12-11----11h|12-11----11-------|-----------------|----------12|
|-------------------14----|------14----14-12-|--------------12|11--1211----|
|-------------------------|------------------|-12/14-----------|-------------|
|-------------------------|------------------|-----------------|-------------|


 Bm        A/C#         Bm
|--------|------------|-19----------15p14---------------------------|
|--------|------15h19-|----19p15----------15----17-15-14------------|
|-11-12/|14----------|----------16----------16----------16-(14)b16-|
|--------|------------|---------------------------------------------|
|--------|------------|---------------------------------------------|
|--------|------------|---------------------------------------------|

 A                      Bm                              A/C#
|---------------------|-------------------------------|----19-17-15--15-17-|
|---------------------|-------14-15-14h15p14----14-15-|-14-----------------|
|-14---14h16----------|-14-16----------------16-------|--------------------|
|------------14-14h16-|-------------------------------|--------------------|
|---------------------|-------------------------------|--------------------|
|---------------------|-------------------------------|--------------------|

 Bm                  A                 Bm                A/C#
|--14--------14-15-|-14--------14-15-|-14----17---15---|--14---------------|
|-----15-----------|----15-----------|----15-----------|-------------------|
|--------16--------|-------14--------|-----------------|-------------------|
|------------------|-----------------|-----------------|-------------------|
|------------------|-----------------|-----------------|-------------------|
|------------------|-----------------|-----------------|-------------------|

 Gtr. 2
|-----------------------------------12-13-15-13h15p1312--|/17-----------------
|--------------------------12-13-15-----------------------|--------------------
|--------------------12-14--------------------------------|--------------------
|-----------12-14-15--------------------------------------|--------------------
|--12-14-15-----------------------------------------------|--------------------
|---------------------------------------------------------|--------------------
|
| Gtr. 1                                              Begin Rhy. Fig. 2
|---------0-----------0-----------0----------0------------|-0--(0)-----0-------
|------0-----0-----0-----0-----0-----0----0--------0------|-0-h-1--------1-----
|---------------------------------------------------------|-2--(2)-2-------0h2-
|---------------------------------------2-----------------|-2--(2)---2---------
|---------------------------2-----------------------------|-0--(0)-------------
|---1-----------4-----------------------------------------|--------------------

Gtr. 1                                End Rhy. Fig. 2
---|-------0---------|-------3-------|-------------|
-1-|-1-------1-----1-|-0-------0-----|-------0--/3-|
---|---0-------0h2---|---0-------2-0-|---0---0--/4-|
---|-----2-----------|-----0---------|-2---2-------|
---|-3---------------|---------------|-------------|
---|-----------------|-3-------------|-2-----------|


Gtr. 1 Rhy. fig. 2 5x
Life it seems to fade away...........

Gtr. 2 & 3(distortion) [Gtr. 1 Out]
|-----------------|----------------|--------------|------------------|
|-----------------|----------------|--------------|------------------|
|-----------------|----------------|--------------|------------------|
|--2--2-2-------7-|-5--5-5-------7-|------------7-|-9--9-9-------5-4-|
|--0--0-0-------5-|-3--3-3-------5-|-7--7-7-x-x-5-|-7--7-7---0-0-3-2-|
|---------0-0-3---|--------0-0-3---|-5--5-5-------|------------------|
         P.M.--            P.M.-                           P.M.--
                                                                   2x
|-----------------|----------------|------------------|----------------|
|-----------------|----------------|------------------|----------------|
|-----------------|----------------|------------------|----------------|
|--2--2-2-------7-|-5--5-5-------7-|------------------|-2--------------|
|--0--0-0-------5-|-3--3-3-------5-|-7--7-7-------5-4-|-2--------------|
|---------0-0-3---|--------0-0-3---|-5--5-5---0-0-3-2-|-0--------------|
         P.M.--            P.M.-


Gtr. 1 Rhy. Fig. 2 2x
Gtr. 2
|--------------|----------------|------------|-------------------|------------|
|-----------12-|-13---h15p13-12-|------------|-------------------|--------12--|
|--14----14----|----------------|-12---12h14-|------9-9/12-12/14-|-14--14-----|
|--------------|----------------|------------|-/14---------------|------------|
|--------------|----------------|------------|-------------------|------------|
|--------------|----------------|------------|-------------------|------------|

|--------------------|---------------------------------|-----------|
|-13---15b(17)r15p13-|-15b(17)-15b(17)-15b(17)-15b(17)-|-15--------|
|--------------------|---------------------------------|-----------|
|--------------------|---------------------------------|-----------|
|--------------------|---------------------------------|-----------|
|--------------------|---------------------------------|-----------|


Gtr. 1 Rhy. Fig. 2 4x


Gtr. 2 & 3(distortion) [Gtr. 1 Out]
|-----------------|----------------|--------------|------------------|
|-----------------|----------------|--------------|------------------|
|-----------------|----------------|--------------|------------------|
|--2--2-2-------7-|-5--5-5-------7-|------------7-|-9--9-9-------5-4-|
|--0--0-0-------5-|-3--3-3-------5-|-7--7-7-x-x-5-|-7--7-7---0-0-3-2-|
|---------0-0-3---|--------0-0-3---|-5--5-5-------|------------------|
         P.M.--            P.M.-                           P.M.--
                                                                   2x
|-----------------|----------------|------------------|----------------|
|-----------------|----------------|------------------|----------------|
|-----------------|----------------|------------------|----------------|
|--2--2-2-------7-|-5--5-5-------7-|------------------|-2(7/9-9-9)-----|
|--0--0-0-------5-|-3--3-3-------5-|-7--7-7-------5-4-|-2(5/7-7-7)-----|
|---------0-0-3---|--------0-0-3---|-5--5-5---0-0-3-2-|-0--------------|
         P.M.--            P.M.-                       (Gtr. 2 plays part
						        in () 2nd time,Riff A)


Gtr. 2                                      End Riff A
|-------------|--------|------------------------------|
|-------------|--------|------------------------------|
|-------------|--------|------------------------------|
|-7/9-9-1211-|-7-7-7--|-9-9-9--7-7-7--5-5-5--4-4-4/5-|
|-5/7-7-109--|-5-5-5--|------------------------------|
|-------------|--------|------------------------------|

Gtr. 2 Riff A once

Gtr. 2 & 3 Riff A twice

Gtr. 2 Riff A twice
Gtr. 3                                                      2x
Riff B_________________________________________________________
|----------|-----------|--------|------------------------------|
|----------|-----------|--------|------------------------------|
|----------|-----------|--------|-7-7-7--5-5-5--4-4-4--2-2-2/4-|
|--4/5-5-5-|-4/5-5-97-|-4-4-4--|------------------------------|
|----------|-----------|--------|------------------------------|
|----------|-----------|--------|------------------------------|

Gtr. 2 & 3 Riff A twice

Gtr. 2 Riff A twice
Gtr. 3 Riff B twice

Gtr. 2 & 3                                                            4x
|------------|----------------|------------|------------------------------|
|------------|----------------|------------|------------------------------|
|------------|----------------|------------|------------------------------|
|---------9--|---------1211--|---------7--|-9-9-9--7-7-7--5-5-5-4-4-4/5--|
|---------7--|---------109---|---------5--|------------------------------|
|-0-0-0-0----|-0-0-0-0--------|-0-0-0-0----|------------------------------|

Gtr. 2
|-------|--------------|-------|--------------|------|--------------|------|---
|-------|--------------|-------|--------------|------|--------------|------|---
|-------|--------------|-------|--------------|------|--------------|------|---
|-0---4-|-5-4--2-0-----|-----4-|-5-4--2-0-----|----4-|-5-4--2-0-----|----4-|---
|-------|----------4-0-|-4-----|----------4-0-|-2----|----------4-0-|-4----|---
|-------|--------------|-------|--------------|------|--------------|------|---
|                                                                          |
|Gtr. 3                                                                    |
|-------|--------------|-------|--------------|------|--------------|------|---
|-------|--------------|-------|--------------|------|--------------|------|---
|-------|--------------|-------|--------------|------|--------------|------|---
|-----4-|-2-0----------|-----4-|-2-0----------|----4-|-2-0----------|----4-|---
|-2-----|------4-2-0---|-0-----|------4-2-0---|------|------4-2-0---|-0----|---
|-------|------------2-|-------|------------2-|-3----|------------2-|------|---
|--------------|
|--------------|
|--------------|
|--5-7-5p4-2h4-|
|--------------|
|--------------|
|              |   This part keeps repeating and fades out at the end.
|              |
|--------------|
|--------------|
|--------------|
|--2-0---------|
|------4-2-0---|
|------------2-|
Вверх

Fight Fire With Fire

INTRO: (Moderately,82 bpm.)

Gtr.I (Two gtrs. arr. for one)
    G    Am   G/B   C       G/B Am     E              D
E|----------------|-----__3__-------|----------------|---------------2|
B|--0----1----3---|-5-6-5h6p5-3-----|--5-------------|3-----3-----3--3|
G|-------2----4---|-5---------4-5sl4|-----4-----__3__|---2-----2--2---|
D|----------------|-------------7---|--------6--6sl7-|4--------4------|
A|----------------|-----------------|----------------|----------------|
E|----------------|-----------------|----------------|----------------|

    G    Am   G/B   C       G/B Am    Bm7             A
E|----------------|-----__3__-------|----------------|---0-----------5|
B|--0----1----3---|-5-6-5h6p5-3-----|-0-----2----2---|2--2-----2--5---|
G|--0----2----4---|-5---------4-5sl4|----2-------2---|2-----2---------|
D|----------------|-------------7---|----------------|2---------------|
A|----------------|-----------------|-2--------------|0---------------|
E|----------------|-----------------|----------------|----------------|

    G    Am   G/B   C       G/B Am    A               G
E|----------------|-----__3__-------|-5--------------|3------3-------3|
B|--0----1----3---|-5-6-5h6p5-3-----|-----5----------|---3--------3--3|
G|--0----2----4---|-5---------4-5sl4|---------6--6sl7|4--------4--4---|
D|----------------|-------------7---|----------------|5--------5------|
A|----------------|-----------------|----------------|----------------|
E|----------------|-----------------|----------------|----------------|

    G    Am   G/B           G/B Am    Em      G5(2)    C
E|----------------|-----__3__-------|-------3-3---3--|-----7-10-8-----|
B|--0----1----3---|-5-6-5h6p5-3-----|---0-3-3-3-3-3-3|-8-5-5-8--------|
G|--0----2----4---|-5---------4-5sl4|-0-0-4-----4---4|-5-5------9-----|
D|----------------|-------------7---|-2--------------|-5-5-5----------|
A|----------------|-----------------|----------------|-------8--7-----|
E|----------------|-----------------|----------------|----------------|


Vol.Swell with increasing distortion (C)

Fast Rock (184 bpm.)


Rhy. Fig.1
                G5                F#5              G5      F#5     F#5
E||----------------------------------|--------------------------------|
B||----------------------------------|--------------------------------| Play
G||o---------------------------------|--------------------------------| Four
D||o---------------------------------|--------------------------------| Times
A||-------------5-----------------4--|-------------5-------4-------4--|
E||-0-0-0-0-0-0-3---0-0-0-0-0-0-0-2--|-0-0-0-0-0-0-3---0-0-2---0-0-2--|
    ...........     .............      ...........     ...     ...


                                                       (end Rhy. Fig.1)
               G5                F#5              G5      F#5     F5
E|----------------------------------|--------------------------------||
B|----------------------------------|--------------------------------|| Play
G|----------------------------------|-------------------------------o|| Three
D|----------------------------------|-------------------------------o|| Times
A|-------------5-----------------4--|-------------5-------4-------3--||
E|-0-0-0-0-0-0-3---0-0-0-0-0-0-0-2--|-0-0-0-0-0-0-3---0-0-2---0-0-1--||
   ...........     .............      ...........      ...     ...

(Gtr. II:1st time tacet, 2nd time play slashes,
 3rd and 4th times double Gtr. I)


  Rhy. Fig.2A                                          (end Rhy. Fig.2A)
      NC                     F#5 G5   NC              F#5    F#5
E||---------------------------------|---------------------------------||
B||---------------------------------|---------------------------------||
G||o--------------------------------|--------------------------------o||
D||o--------------------------------|--------------------------------o||
A||--------------------------4---5--|-----------------4------4--------||
E||---0--3---5p0-0-0-3---0-0-2---3--|-0---3---5p0-0-0-2------2--------||
      e  e   s s s s e   s s e   e    e   e   s s s s q      q


  Rhy. Fig.2B                                          (end Rhy. Fig.2B)
     NC                     F#5 G5    NC              F#5
E|----------------------------------|---------------------------------||
B|----------------------------------|------------------------r--------||
G|----------------------------------|------------------------e--------||
D|----------------------------------|------------------------s--------||
A|--------------------------4---5---|-----------------4------t--------||
E|---0--3---5p0-0-0-3---0-0-2---3---|-0---3---5p0-0-0-2---------------||
     e  e   s s s s e   s s e   e     e   e   s s s s e

%
w/Rhy. Fig.1 (2 times)
VERSE 1:
G5     F#5    G5    F#5    F#5     G5     F#5        G5    F#5   F5
Do__   un  -  to__  oth -  ers__   as__   they`ve_   done_ to    you.___

G5     F#5    G5    F#5    F#5     G5     F#5        G5    F#5   F5
But__  what_  the__ hell   is__    this__ world_     com - ing   to?____

w/Rhy. Fig. 2A                    w/Rhy. Fig.2B
NC        F#5  G5  NC     F#5     NC          F#5  G5  NC     F#5
_____________________


VERSE 2:
Blow the universe into nothingness.
Nuclear warfare shall lay us to rest.


VERSE 3:
Time is like a fuse, short and burning fast.
Armageddon is here, like said in the past.


VERSE 4:
Soon to fill our lungs, the hot winds of death.
The gods are laughing, so take your last breath.


Chorus
   E5    G5    NC    Bb5   B5    Bb5
E|----------------------------------|----------------------------------|
B|----------------------------------|----------------------------------|
G|-------------------______3______--|----------------------------------|
D|-______3______-----3-----4-----3--|----------------------------------|
A|-2-----5-----------1-----2-----1--|-1-1-1-1-1-1-1-1-1-1-1-1-1-1-1-1--|
E|-0-----3-----0--------------------|----------------------------------|
               .
   Fight fi -  re    with  fi -  re.


   E5    G5    NC    Bb5   B5    Bb5
E|----------------------------------|----------------------------------|
B|----------------------------------|----------------------------------|
G|-------------------______3______--|----------------------------------|
D|-______3______-----3-----4-----3--|----------------------------------|
A|-2-----5-----------1-----2-----1--|-1-1-1-1-1-1-1-1-1-1-1-1-1-1-1-1--|
E|-0-----3-----0--------------------|----------------------------------|
               .
   End - ing   is    near.


   E5    G5    NC    Bb5   B5    Bb5
E|----------------------------------|----------------------------------|
B|----------------------------------|----------------------------------|
G|-------------------______3______--|----------------------------------|
D|-______3______-----3-----4-----3--|----------------------------------|
A|-2-----5-----------1-----2-----1--|-1-1-1-1-1-1-1-1-1-1-1-1-1-1-1-1--|
E|-0-----3-----0--------------------|----------------------------------|
               .
   Fight fi -  re    with  fi -  re.


                                  $ (2nd time to Coda I, 3rd time to Coda II)
   E5    G5    NC    Bb5   B5    Bb5
E|----------------------------------|----------------------------------|
B|----------------------------------|------------------r---------------|
G|-------------------______3______--|------------------e---------------|
D|-______3______-----3-----4-----3--|-3----------------s---------------|
A|-2-----5-----------1-----2-----1--|-1----------------t---------------|
E|-0-----3-----0--------------------|----------------------------------|
               .
   Burst ing   with  fear.       (Spoken:)We all shall die!


w/Rhy. Fig. 1                              D.S.(no repeat) al Coda I (%)
||:  NC G5 NC F#5 | NC G5 NC F#5 | NC G5 NC F#5 | NC G5 NC F#5 NC F5 :||


$ Coda I
Half time feel                                      (end half time feel)
    Bb5  C5D5B5  A5                  G5A5B5  C5                 B5G5A5
E|-------------|------------|--------------|------------|-------------||
B|-------------|------------|--------------|------------|-------------||
G|-------__3__-|-2----------|-(2)----__3__-|-5----------|-(5)---__3__-||
D|--3----7-5-4-|-2----------|-(2)--------4-|-5----------|-(5)---4---2-||
A|--1----5-3-2-|-0----------|-(0)----5-7-2-|-3----------|-(3)---2-5-0-||
E|-------------|------------|--------3-5---|------------|---------3---||
           ...                       .....                        .

Rhy. Fig. 3
E5  E5 E  E E  E  E E  E E | E  E E  E E  E  E E  E E |
e   s  e  s e  e  s e  s e | e  s e  s e  e  s e  s e |

E  E E  E E  E  E E  E E | E  E E  E E  E   E E  E E  E  E E  E E |
e  s e  s e  e  s e  s e | e  s e  s e  e   s e  s e  e  s e  s e |

A5  A5 A  A A  A  A A  A A  A  A A  A A | G5  G5 G  G G  G  G G  G G |
e   s  e  s e  e  s e  s e  e  s e  s e | e   s  e  s e  e  s e  s e |

F#5  F#5 F# F# F#  F#  F# F#  F# F# |
e    s   e  s  e   e   s  e   s  e  |

E5  E5 E  E E  E  E E  E E  E  E E  E E  E  E E  E E |
e   s  e  s e  e  s e  s e  e  s e  s e  e  s e  s e |

E5  E5 E  E E  E  E E  E E  E  E E  E E  E  E E E E E  E  E E  E E |
e   s  e  s e  e  s e  s e  e  s e  s e  e  s s s s e  e  s e  s e |

A5  A5 A  A A  A  A A  A A  A  A A  A A |
e   s  e  s e  e  s e  s e  e  s e  s e |

                                                  (End Rhy. Fig. 3)
G5  G5 G  G G  G  G G  G G | F#5  F#5 F#  F# F#  F#  F# F#  F# F# |
e   s  e  s e  e  s e  s e | e    s   e   s  e   e   s  e   s  e  |


Rhy. Fig. 4
E5  F#5    G5  E5  F#5    G5 | E5  F#5    G5  E5  F#5  G5 |
e   q      e   e   q      e  | e   q      e   e   e    q

                                          (End Rhy. Fig. 4)
E5  F#5    G5  E5  F#5    G5 | E5  F#5    G5  E5  F#5  G5 |
e   q      e   e   q      e  | e   q      e   e   e    q


w/Rhy. Fig.3                              full                  full
    /-----------------------------------------------------)      /(
   /                                                            /  (
E|---------------------------------------|--------------------------------|
B|-_______9:8_______-____5____-____5____-|--------------------------------|
G|-9-9-9-9-9-9-9-9-9-9-9-9-9-9-9-9-9-9-9-|9-9-9-9-9-9-9-9-9---7-9-----9-7-|
D|---------------------------------------|--------------------------------|
A|---------------------------------------|--------------------------------|
E|---------------------------------------|--------------------------------|
   s s s s s s s s s s s s s s s s s s s  s s s s s s s s e.  s s ss  t t

E|-----------------------|10-7--------------------------------------------|
B|-----------------------|-----10-7---------------------------------------|
G|-----------------------|----------9-7---7-9-7---7-9-7-------------------|
D|9----7-9p7---7-9p7-9p7-|--------------9-------9-------9-7-9-7-----------|
A|-----------9-----------|--------------------------------------9-7-9-7---|
E|-----------------------|----------------------------------------------8-|
  q..  s s s s s s s s s  s  s s  s s s s s s s s s s s s s s s s s s s e

                                                        __3__
E|------------------------------------|-----------------7h9p7-------------|
B|------------------------------------|-----------------------10p7--------|
G|--------------------------------7-9-|-9p7-9p7---7-9-7------------9p7-7h9|
D|------------------5-7--5h7-7-9------|---------9-------------------------|
A|-------------5-7--------------------|-----------------------------------|
E|5s7------5h7------------------------|-----------------------------------|
  e q      s s s e  s e  s s s e  s e   s s s s s s s s s s s s  s s s s s

E|----------------------------------|------------------|---------12-----14|
B|----------------------------------|------------------|---12s14---su15---|
G|7h9p7-------7-9--9p7---9-7-----9s-|----------7-------|14----------------|
D|------9-7-9----------9-----7-9----|7s9--7s9-----14s16|------------------|
A|----------------------------------|------------------|------------------|
E|----------------------------------|------------------|------------------|
  s s s s s s s e  s s s s s s s e   e q. e e. q. e  e. q. e  e  q   e  e

                                 full
                                  /(
                                 /  (
E|15p14-14-14-15p14-17p14-19p14-17----17p14----14-|
B|------------------------------------------15----|
G|------------------------------------------------|
D|------------------------------------------------|
A|------------------------------------------------|
E|------------------------------------------------|
  s  s  s  s  s  s  s  s  s  s  s   s s  s  s  s

                           full   full   full   full
                            /(     /(     /(     /(
                           /  (   /  (   /  (   /  (
E|17p14-19p14-17p14----14-17-----17-----17-----17----|
B|------------------17-------------------------------|
G|---------------------------------------------------|
D|---------------------------------------------------|
A|---------------------------------------------------|
E|---------------------------------------------------|
  s  s  s  s  s  s  s  s  q      q      q      q

           half
            /(
           /  (
E|17-----(17)---14--17p14-15p14-15p14----------------------------------|
B|------------------------------------17-14-17p15p14-14-16----14-------|
G|---------------------------------------------------------16----16-14-|
D|---------------------------------------------------------------------|
A|---------------------------------------------------------------------|
E|---------------------------------------------------------------------|
  q       s   s e   s  s  s  s  s  s  s  s  s  s  s  s  s  s  s  s  s

E|------------------------------------------------|
B|------------------------------------------------|
G|14-16-12-11-14-12-11----11----------------------|
D|---------------------14----14-12-11-12-11-------|
A|------------------------------------------14-12-|
E|------------------------------------------------|
  s  s  s  s  s  s  s  s  s  s  s  s  s  s  s  s

                                               w/Rhy. Fig. 4
E|---------------------------------------------|-----------------------|
B|---------------------------------------------|-----------------------|
G|---------------------------------------------|-----------------------|
D|10-12-10----10-------------------------------|-----------------------|
A|---------12----12-10-12-10-12-10-------------|-----------------------|
E|---------------------------------12-10-12-10s|12---------------------|
  s  s  s  s  s  s  s  s  s  s  s  s  s  s  e   f

                                                         Two Guitars *
E|----------------------|-----------------------|----------19/15-19/15-|
B|----------------------|-----------------------|----------------------|
G|----------------------|-----------------------|----------------------|
D|----------------------|-----------------------|----------------------|
A|----------------------|-----------------------|----------------------|
E|----------------------|-----------------------|----------------------|
                                                           s     s

* Downstemmed guitar is notated to the right of slashes

   w/Rhy. Fig.3
E||-19/15--15/12--17/14--14--15/12--12--14-------|
B||----------------------15---------14--15--15/12|
G||o---------------------------------------------|
D||o---------------------------------------------|
A||----------------------------------------------|
E||----------------------------------------------|
    e      e      e      e   e      e   e   e

E|15/12--12--14---------12----------------|----------------------------|
B|-------14--15--15/12--14--14--15/12--13-|-13--12----13--13--12----13-|
G|--------------------------14---------14-|-14--12----14--14--12----14-|
D|----------------------------------------|----------------------------|
A|----------------------------------------|----------------------------|
E|----------------------------------------|----------------------------|
  e      e   e   e      e   e   e      e    e   q     e   e   q     e

E|10--12p10-12p10-------------------10--12p10-12p10----|
B|12--13p12-13p12-13--13--12----13--12--13p12-13p12-13-|
G|----------------14--14--12----14------------------14-|
D|-----------------------------------------------------|
A|-----------------------------------------------------|
E|-----------------------------------------------------|
  e   s  s  s  s  e   e   q     e   e   s  s  s  s  e

E|-----------------12--10--------------------------|10--------------------|
B|-13--10----12-13-13--12--13--12--12--10----12-13-|12--13--12--10--10--12|
G|-14--11----12-14---------14--12--12--11----12-14-|----14--12--11--11--12|
D|-------------------------------------------------|----------------------|
A|-------------------------------------------------|----------------------|
E|-------------------------------------------------|----------------------|
   e   q     s  s  e   e   e   e   e   q     s  s   e   e   e   e   e   q.

  ______________________________________________
  |1.                                          |
E|--------------------------10------19/15-19/15-||
B|(12)--10-13-13--12h13-10--12--12--------------||
G|(12)--11-14-14--12h14-11------12-------------o||
D|---------------------------------------------o||
A|----------------------------------------------||
E|----------------------------------------------||
  e     s  s  e   s  s  e   e   e   s     s

  ___________________________________
  |2.
E|------------------------10-------||
B|(12)--10--13--12h13-10--12--12sd-||
G|(12)--11--14--12h14-11------12sd-||
D|---------------------------------||
A|---------------------------------||
E|---------------------------------||
  e     e   e   s  s  e   e   q

Play Rhy.Fig.4 once.

                           Decrease Volume and Distortion
| E           | E           | E           | E           |


                G5                F#5              G5      F#5     F#5
E||----------------------------------|--------------------------------|
B||----------------------------------|--------------------------------|
G||o---------------------------------|--------------------------------|
D||o---------------------------------|--------------------------------|
A||-------------5-----------------4--|-------------5-------4-------4--|
E||-0-0-0-0-0-0-3---0-0-0-0-0-0-0-2--|-0-0-0-0-0-0-3---0-0-2---0-0-2--|
    ...........     .............      ...........     ...     ...

  ___________________________________________________________________
  |1.          G5                F#5              G5      F#5     F5|
E|----------------------------------|--------------------------------||
B|----------------------------------|--------------------------------||
G|----------------------------------|-------------------------------o||
D|----------------------------------|-------------------------------o||
A|-------------5-----------------4--|-------------5-------4-------3--||
E|-0-0-0-0-0-0-3---0-0-0-0-0-0-0-2--|-0-0-0-0-0-0-3---0-0-2---0-0-1--||
   ...........     .............      ...........     ...     ...

                                          D.S.(no repeat) al Coda II (%)
  _____________________________________________________________________
  |2.          G5                F#5              G5      F#5     F5
E|----------------------------------|--------------------------------||
B|----------------------------------|--------------------------------||
G|----------------------------------|--------------------------------||
D|----------------------------------|--------------------------------||
A|-------------5-----------------4--|-------------5-------4-------3--||
E|-0-0-0-0-0-0-3---0-0-0-0-0-0-0-2--|-0-0-0-0-0-0-3---0-0-2---0-0-1--||
   ...........     .............      ...........     ...     ...

$
Coda II
                                      E5    G5    NC    Bb5   B5    Bb5
E|---------------------------------||----------------------------------||
B|---------------------------------||----------------------------------||Play
G|---------------------------------||o------------------______3______-o||Eight
D|---------------------------------||o______3______-----3-----4-----3-o||Times
A|-1-1-1-1-1-1-1-1-1-1-1-1-1-1-1-1-||-2-----5-----------1-----2-----1--||
E|---------------------------------||-0-----3-----0--------------------||
                                                  .
                                      Fight fi -  re    with  fi -  re.

Play eight Times
     E5    G5    NC    Bb5   B5    Bb5
E||------------------------------------||
B||------------------------------------||
G||o-------------------______3______--o||
D||o-______3______-----3-----4-----3--o||
A||--2-----5-----------1-----2-----1---||
E||--0-----3-----0---------------------||
                 .
     Fight! (Sing first time only)

w/Fill 2
   Bb5          E5
E|------------|------------|--------------------------|---------------||
B|------------|------------|--------------------------|---------------||
G|------------|------------|-___3___-------___3___----|-9sd-----------||
D|-3----------|-2----------|-9--9--9--9----9--9--9--9-|-9sd-----------||
A|-1----------|-2----------|-7--7--7--7----7--7--7--7-|-7sd-----------||
E|------------|-0----------|--------------------------|---------------||


Fill 1
w/Feedback
E|-------------|----------|----------|---------------------------------||
B|-------------|----------|----------|---------------------------------||
G|-------------|----------|----------|---------------------------------||
D|-------------|----------|----------|---------------------------------||
A|---8---------|(8)-------|(8)-------|---(8)---------------------------||
E|-------------|----------|----------|---------------------------------||

Fill 2
  Harm. w/Trem. Bar
E|-------------------|
B|-------------------|
G|--3----------------|
D|-------------------|
A|-------------------|
E|-------------------|
Вверх

Fight Fire With Fire (2 вариант)

Intro:(Pretty hard)Moderate speed
G|-------------9--10--9/10/9--------------------------|
D|-9--10--12-----------------12--10/9-----------------|
A|----------------------------------------------------|
E|--------------------------------------12--10/12--10-|

G|-------------9--10--9/10/9---------------------|
D|-----10--12-----------------12--10/9--9--9-----|
A|-10-----------------------------------------12-|
E|-----------------------------------------------|

G|-------------9--10--9/10/9------------------|
D|-----10--12-----------------12--10/9------5-|
A|-10---------------------------------0--0----|
E|------------------------------------------3-|

G|----------9--10--9/10/9------------------------14-12---------|
D|----10-12----------------12--10/9----------10--------15-14---|
A|-10------------------------------------10--------------------|
E|-----------------------------------12----------------------0-|
                                                           hold

rest 3&3/4 measures(15 beats)
Fast Rock
G|---------------------------------------|
D|---------------------------------------|
A|---------------------------------------|
E|-3-R-2-R-3-R-2-R-2-R-3-R-2-R-3-R-2-R-1-|

SPEED PICK!(VERY FAST)
G|-------------------------------------------------------------|
D|-------------------------------------------------------------|
A|-------------------------------------------------------------|
E|-0000003-0000002-0000003-002-002-0000003-0000002-0000003-002-|
                                                    REPEAT ONCE
G|-----|
D|-----|
A|-----|
E|-001-|

G|--------------------------------|
D|--------------------------------|
A|--------------------------------|REPEAT TWICE
E|-0-3-50003-00-2-3-0-3-5000-2--2-|

ALMOST THE SAME AS ABOVE BUT THER ISN`T ANOTHER AT THE END:
G|----------------|
D|----------------|
A|----------------|
E|-0-3-50003-00-2-|

CHORUS:
G|-------------------------------------------------------------|
D|-------------------------------------------------------------|
A|-------1-2-1-1-11111111111111-------1-2--1--1-11111111111111-|
E|-0-3-0------------------------0-3-0--------------------------|
 ...Fight fire w/ fire               Ending is near

G|--------------------------------------------------------|
D|--------------------------------------------------------|
A|----------1--2--1--1-11111111111111----------1--2--1--1-|
E|-0--3--0----------------------------0--3--0-------------|
Fight fire w/ fire                   Bursting w/ fear...

G|---------------------------------------5----------------|
D|---------------------------------3/5/7----7--5----------|
A|-1--R---5--3--2--0------0--2--3-----------------2-----0-|
E|---------------------3-----------------------------3----|
                 hold 1 1/2 measures

Guitar Solo
G|-----------------|
D|-----------------|
A|-----------------|Repeat this line 2 times
E|-0-00-00-0-00-00-|

G|-------------------------------------------------------------|
D|-------------------------------------------------------------|
A|-----------------------0-00-00-0-00-00-0-00-00---------------|
E|0-00-00-0-00-00-0-00-00-----------------------3-33-33-3-33-33|

G|---------------------------------|
D|---------------------------------|
A|---------------------------------|repeat last 2 lines 2xs
E|-2-22-22-2-22-22-0-00-00-0-00-00-|

G|-------------------------------------------------|
D|-------------------------------------------------|
A|-------------------------0-00-00-0-00-00-0-00-00-|
E|-0-00-00-0-00-00-0-00-00-------------------------|

G|---------------------------------|
D|---------------------------------|
A|---------------------------------|
E|-3-33-33-3-33-33-2-22-22-2-22-22-|

G|-------------------------------------------------|
D|-------------------------------------------------|
A|-------------------------------------------------| repeat last
E|-0-2-3-0-2-3-0-2-3-0-2-3-0-2-3-0-2-3-0-2-3-0-2-3-| 2 lines

G|---|
D|---|
A|---|
E|-0-|
 hold for 4 measures

rest 8 measures

G|------------------|
D|------------------|
A|-1-11111111111111-|
E|------------------|

G|-------------|
D|-------------|
A|-------1-2-1-| 16 times
E|-0-3-0-------|

G|----------------------------------------|
D|----------------------------------------|
A|-1-R----------------7-7-7-7--7-7-7-7--7-|
E|-----0----------------------------------|
     hold 1 measure
Вверх

Fixxxer

Intro

Gb|------------------------------------------------------------|
Db|------------------------------------------------------------|
Ab|------------------------------------------------------------|
Eb|0-0-0-0-0-0-0-0-0-0-0-0-0-0-0-0-0-0-0-0-0-0-0-0-0-0-0-0-0-0-|
  Main riff
Gb|--------------------------------------|
Db|--------------------------------4-5-7-|
Ab|-----7-5-7--------8------7-5-7--------|
Eb|-0-0--------6-5-6----0-0--------------|

verse
Gb|---------4----------4----------4----------2-|
Db|-4-5-4-2----4-5-4-2----4-5-4-2----4-5-4-2---|
Ab|--------------------------------------------|
Eb|--------------------------------------------|

end
Gb|------------------------------------------------------------|
Db|------------------------------------------------------------|
Ab|------------------------------------------------------------|
Eb|-0-0-0-0-0-3-0-0-0-0-0-3-0-0-0-0-0-3-0-0-0-0-0-3-0-0-0-0-0-3|

Yeah
Dolls of voodoo all stuck with pins
One for each of us and our sins
So you lay us in a line
Push your pins, they make us humble
Only you can tell in time
If we`ll fall or merely stumble

But tell me
Can you heal what father`s done
Or fix this hole in mother`s son
Can you heal the broken worlds within
Can you strip away so we may start again
Tell me, can you heal what father`s done
Or cut this rope and let us in
Just when all seems fine and I`m pain free
You jAb another pin
JAb another pin in me

Mirror, mirror upon the wall
Break the spell or become the doll
See you sharpening the pins
So the holes will remind us
We`re just the toys in the hands of another
And in time needles turn from shine to rust

But tell me
Can you heal what father`s done
Or fix the hole in mother`s son
Can you heal the broken worlds within
Can you strip away so we may start again
Tell me, can you heal what father`s done
Or cut this rope and let us run
Just when all seems fine and I`m pain free
You jAb another pin
JAb another pin in me
JAb it

Blood for face
Sweat for dirt
Three x`s for the stone
To break this curse
A ritual`s due
I believe I`m not alone
Shell of shotgun

Pint of gin
Numb us up to shield the pins
Renew our faith which way we can
To fall in love with life again
To fall in love with life again
To fall in love with life again
To fall in love
To fall in love
To fall in love with life again

So tell me
Can you heal what father`s done
Or fix the hole in mother`s son
Can you heal the broken worlds within
Can you strip away so we may start again
Yeah, tell me, can you heal what father`s done
Or cut this rope and let us run
Just when all seems fine and I`m pain free
You jAb another pin
JAb another pin in me
Oh yeah

No more pins in me, yeah
No more, no more pins in me
No more, no more pins in me
No more, no more, no more
No, no, no
Вверх

For Whom The Bell Tolls mp3

Intro:
F# F# E  (while bass plays doomy riff) x12, (4 as intro,
4 when drums come in, and 4 with
bass playing E G F# F)

Then:
E G F# F (x3) E F# G A
E G F# F (x3) E F# G B
E G F# F (x3) E F# G A
E G F# F (x3) E F# G B

Then verse chords (E, G, E, C, A) with the following lead
repeated over and over:

E|----------------|
B|----------------|
G|12-9-11----9-11-| (triplets)
D|--------12------|
A|----------------|
E|----------------|

E
Make us fight on the hills in the early day
G
Constant chill deep inside
E
Shouting gun, on they run through the endless grey
C    A
(can`t remember this line)
E
For a hill, men will kill why they do not know
G
(you get the idea)
E
C    A

Chorus:
E E E G   E E E A   E E E G E E Bb F#
				For whom
E E E G   E E E A   E E E G E E Bb G F#
the bell tolls                  Time marches
E E E G   E E E A   E E E G E E Bb F#
on                              For whom
E E E G   E E E A   E E E G E E Bb G F#
the bell tolls

Bridge:
E
E  (with lead, but I can`t remember it)
G GGGG GGGG
E
B

Verse 2
(same as verse 1)

Chorus
(same again)

Ending
E    F# F#
E    F# F#  G G
repeated, with wailing lead, harmonics etc, then, when
we do it at least, we go into free time on the final
G chord (you know, big heavy metal ending), big drum
fill, then:
G....   EEEEE
	E
	EEEE
	E
	EEEEE (ie a massive E chord at the end)
Вверх

For Whom The Bell Tolls (2 вариант) mp3

Intro
G|---|---|----------------------|
D|-4-|-R-|-R-----------R------R-|
A|-4-|---|----------------------|
E|---|---|---------2-2----2-2---|

G|-----19-18-17-16--19p16-|-------19---------------------|
D|*-----------------------|-17-16------------R------R---*|
A|*-----------------------|----------17-----------------*|
E|---0--------------------|--------------2-2----2-2------|

G|-------------------|------------------|
D|*------------------|------------------|
A|*------------------|----------------0-|
E|--0-3-2-1--0-3-2-1-|-0-3-2-1--0-2-3---|

G|------------------|-------------------|
D|------------------|------------------*|
A|------------------|----------------2-*|
E|-0-3-2-1--0-3-2-1-|-0-3-2-1--0-2-3----|

G|---|-----|
D|---|-----|
A|---|-----|
E|-0-|-(0)-|

 Bass Fig.1

G|----------------------|--------------------|
D|*---------------------|--------------------|
A|*---------------------|--------------------|
E|---0--0-0-0--0--0-0-0-|-0--0-0-0--0--0-0-0-|

G|--------------------|----------|
D|--------------------|----R-----|
A|--------------------|----------|
E|-3--3-3-3--3--3-3-3-|-3-----12-|

G|--------------------|--------------------|
D|--------------------|--------------------|
A|--------------------|--------------------|
E|-0--0-0-0--0--0-0-0-|-0--0-0-0--0--0-0-0-|

G|--------------------|---------------------|
D|--------------------|--------------------*|
A|--------------------|-3--3-3-3--0--0-0-0-*|
E|-3--3-3-3--3--3-3-3-|---------------------|

G|---------------------------|
D|---------------------------|
A|-3---3--3---3---0-0-0---12-|
E|---------------------------|

 Bass Fig.2

G|---------------------|----------------|
D|*--------------------|----------------|
A|*--------------------|----------------|
E|--0-0-0--3--0-0-0--5-|-0-0-0--3-0-6-2-|

G|--------------------|----------------------|
D|--------------------|---------------------*|
A|--------------------|---------------------*|
E|-0-0-0--3--0-0-0--5-|-0-0-0--3-0-0--6-2-1--|

 Interlude

G|---------------------|--------------------|
D|*--------------------|--------------------|
A|*--------------------|--------------------|
E|--0--0-0-0--0--0-0-0-|-0--0-0-0--0--0-0-0-|

G|------------------|--------------------|
D|------------------|--------------------|
A|------------------|--------------------|
E|-0--0-0-0--0--/12-|-3--3-3-3--3--3-3-3-|

G|--------------------|---------------------|
D|--------------------|--------------------*|
A|--------------------|-2--2-2-2--2--2-2-2-*|
E|-0--0-0-0--0--0-0-0-|---------------------|

G|----------------|
D|----------------|
A|-2--2-2-2--2--2-|
E|----------------|

 Outro
G|-------------|-------------|-|----------------|
D|*------------|-------------|2|---------------*|
A|*------------|-------------|4|---------------*|
E|----0---2-2--|----0--2-2---|-|----3-3---------|

 The order of the parts :
   Intro
   Bass Fig.1
   Bass Fig.2
   Bass Fig.1
   Bass Fig.2 X 2
   Interlude
   Bass Fig.1
   Bass Fig.2 X 2
   Outro

The Lyrics To this Song are :

 Make his fight on the hill in the early day
 Constant chill deep inside
 Shouting gun, on the run through the endless grey
 On they fight, for they are right, yes, but who`s to say?
 For a hill men would kill, why?  They do not know
 Suffered wounds test their pride
 Men of five, still alive through the raging glow
 Gone insane from the pain that they surely know

    For whom the bell tolls
    Time marches on
    For whom the bell tolls

 Take a look to the sky just before you die
 It is the last time he will
 Blackened roar massive roar fills the crumbling sky
 Shattered goal fills his soul with a ruthless cry
 Stranger now, are his eyes, to this mystery
 He hears the silence so loud
 Crack of dawn, all is gone except the will to be
 Now they see what will be, blinded eyes to see

    For whom the bell tolls
    Time marches on
    For whom the bell tolls
Вверх

Frantic mp3

6 раз
C|---------|
G|---------|
D|---------|
A|---------|
F|---------|
C|-00000-0-|

C|---|
G|---|
D|---|
A|---|
F|---|
C|-0-|

C|----------------|
G|----------------|
D|----------------|
A|----------------|
F|----------------|
C|-5p3p0-00-5-000-|

C|-------------------------------------------------------------|
G|-------------------------------------------------------------|
D|-------------------------------------------------------------|
A|-------------------------------------------------------------|
F|-------------------------------------------------------------|
C|-18-15-0-17~17~-15-18-15-0-17~17~-15-18-15-0-17~17~-15-18-15-|

C|---------|
G|---------|
D|---------|
A|---------|
F|---------|
C|-0-0-0-0-|

If I had my wasted days back, I could use them...
C|--------------|
G|--------------|
D|--------------|
A|--------------|
F|--------------|
C|-5p3/0-000000-|

Do i have the strength to know...
C|---------------------|
G|---------------------|
D|---------------------|
A|---------------------|
F|---------------------|
C|-3333-2222-3333-2222-|

You live or you lie it
C|-------------------|
G|-------------------|
D|-------------------|
A|-------------------|
F|-------------------|
C|-18-15-0-17~17~-15-|

My lifestyle, determines my deathstyle
C|-----------------------------|
G|-----------------------------|
D|-----------------------------|
A|-----------------------------|
F|-----------------------------|
C|-00-0--000-0-0-00-0--000-0-0-|

Then to the chorus...

James:
Keep searching
C|-----------------------|
G|-----------------------|
D|-----------------------|
A|-11------10---------11-|
F|---12--11---11-11-12---|
C|-----10----------------|

Kirk:
C|-------------|
G|-------------|
D|-16-13-15~~~-|
A|-------------|
F|-------------|
C|-------------|

C|-----------|
G|-----------|
D|-10-/8~/7~-|
A|-----------|
F|-----------|
C|-----------|

Лирика:

If I could have my wasted days back
Would I use them to get back on track?
Stop to warm at karmas burning
Or look ahead, but keep on turning?

Do I have the strength
To know how I?ll go?
Can I find it inside
To deal with what I shouldn?t know?

Could I have my wasted days back
Would I use them to get back on track?

You live it or lie it!

My lifestyle determines my deathstyle

Keep searching, keep on searching
This search goes on, this search goes on

Frantic tick tick tick tick tick tock
Frantic tick tick tick tick tick tock

I?ve worn out always being afraid
An endless stream of fear that I?ve made
Treading water full of worry
This frantic tick tick talk of hurry

Do I have the strength
To know how I?ll go?
Can I find it inside
To deal with what I shouldn?t know?

Worn out always being afraid
An endless steam of fear that I?ve made

You live it or lie it!

MY lifestyle determines my deathstyle

Keep searching, keep on searching
This search goes on, this search goes on

Frantic tick tick tick tick tick tock
Frantic tick tick tick tick tick tock

My lifestyle (Birth is pain)
Determines my deathstyle (Life is pain)
A rising tide (Death is pain)
That pushes to the other side (It?s all the same)
Вверх

Free Speech For The Dumb

Intro:

E-|-----------------|
B-|-----------------|
F#|-----------------|
C#|-0000000000000-3-|

Well repeat that for the rest of the song. Be sure to
Put a strong accent on the 3!
Вверх

Fuel mp3

Gb|----------------------------------------------|
Db|----------------------------------------------|
Ab|----------------------------------------------|
Eb|-3p0-0-3p0-0-3p0-3p0-0-3p0-0-3p0-3/5-5-5-53-3-|

Gb|------------------------------|
Db|-------7-7-7-5--------7-7-7-5-|
Ab|-0h5h7----------0h5h7---------|
Eb|------------------------------|

verse     x2               x2
Gb|------|      |---|
Db|------|      |---|
Ab|------|      |---|
Eb|-0--3-|      |-0-|


Chorus riffs (all four)
Gb|------------------------------------------------------------|
Db|------------------------------------------------------------|
Ab|5h7---7p5----5h7-----7p5-----5h7-----7p5-----5h7-----7p5----|
Eb|---0-0---0-0-----0-0-----0-0-----5-5-----5-5-----5-5-----5-5|

Gb|------------------------------------------------------------|
Db|------------------------------------------------------------|
Ab|5h7---7p5----5h7-----7p5-----5h7-----7p5-----5h7-----7p5----|
Eb|---3-3---3-3-----3-3-----3-3-----5-5-----5-5-----5-5-----5-5|

Gb|------------------------------------------------------------|
Db|------------------------------------------------------------|
Ab|5h7---7p5----5h7-----7p5-----5h7-----7p5-----5h7-----7p5----|
Eb|---0-0---0-0-----0-0-----0-0-----5-5-----5-5-----5-5-----5-5|

Gb|------------------------------------------------------------|
Db|------------------------------------------------------------|
Ab|5h7-5-5-7p5-5-5-5h7-5-5-7p5-5-5-7h9-7-7-9p7-7-7-7h9-7-7-9p7-|
Eb|------------------------------------------------------------|

pre-solo
Gb|------------------------------|
Db|------------------------------|
Ab|-7-7--5----------7-7--5-------|
Eb|--------0-0-0-0---------0-0-3-|

Gimme fuel
Gimme fire
Gimme that which I desire
Oh

Yea
Turn on, I see red
Adrenaline crash, crash my head
Natural joker, paint me dead
And I see red

Running across through black and white
War horse
War head
Fuck `em, man
White knuckles tight
Through black and white

Oh, I burn
Fuel is pumping engines
Burning hard
Loose and clean

Oh, and I burn
Turning my direction
Quench my thirst with gasoline

So gimme fuel
Gimme fire
Gimme that which I desire

Hey

Turn on beyond the bone
Swallow future, spit out hope
Burn your face upon the chrome

Yeah, oh yeah

Take the corner, going to crash
Yeah
Headlights
Headlines
Another joker, who lived too fast

Yeah
Lives way too fast, fast, fast, fast, fast
Oh

Oh, I burn
Fuel is pumping engines
Burning hard, loose and clean

Oh, and I burn
Turning my direction
Quench my thirst with gasoline

So gimme fuel
Gimme fire
Gimme that which I desire
Oh yeah

Oh
Gimme fuel
Gimme fire
My desire

Oh, I burn
Fuel is pumping engines
Burning hard, loose and clean

And I burn,
Turning my direction,
Quench my thirst with gasoline

Gimme fuel
Gimme fire
Gimme that which I desire
Oh
Вверх

God Of Thunder

tune all guitars down 1/2 step
Gb|-------------------------------------------------------|
Db|--------------------------5--------------5---5-7-8-7-5-|
Ab|-----7---5-7------7---5-7--------7---5-7---7-----------|
Eb|-0-0---7------0-0---7--------0-0---7-------------------|
Вверх

Green Hell

One of the riffs is just doing a lot of 3`s on the E
string,like below. The timing is something like
16th notes.

G|---------------------------------------------|
D|---------------------------------------------|
A|---------------------------------------------|
E|-3-3-3-3-3-3-3-3-3-3-3-3-3-3-3-3-3-3-3-3-3-3-|

Another riff in there is this, the main one....

G|----------------------------|
D|------------------------1---|
A|----------------------1---3-|
E|-3-3-3-3-3-3-3-3----3-------|

The last riff is this, used in the chorus,
"green hell, green hell" part.

G|---------------------------------|
D|---------------------------------|
A|---------------------------------|
E|-3-3-3-3-3-3-3-3-3-3-3-3-3-3-3-3-|

G|---------------------------------|
D|---------------------------------|
A|---------------------------------|
E|-0-0-0-0-0-0-0-0-0-0-0-0-0-0-0-0-|

After one of the chorus`s (either the 1st or 2nd time,
I`m not sure), there is a little fill that goes
something like the little riff below.

G|--------------------|
D|------7-------------|
A|-5-7----7-5---------|
E|--------------7-6-5-|
Вверх

Green Hell (2 вариант)

  Riff #1
E||-----------------------------------------------||
B||-----------------------------------------------||
G||*---------------------------------------------*||
D||*---------------------------------------------*||
A||-----------------------------------------------||
E||--3-3-3-3-3-3-3-3-3-3-3-3-3-3-3-3-3-3-3-3-3-3--||

   Riff #2
E||----------------------------------------------||
B||----------------------------------------------||
G||*--------------------------------------------*||
D||*---------------------------------------1----*||
A||-------------------------------1-----------3--||
E||----3--3--3--3--3--3--3--3--------3-----------||

 Riff #3
E|--------------------------|
B|--------------------------|
G|---5--5--5--5--5--5--5--5-|
D|---5--5--5--5--5--5--5--5-|
A|---3--3--3--3--3--3--3--3-|
E|--------------------------|

Riff #4                    Riff #5
E|------------------------|--------------------------|
B|------------------------|--------------------------|
G|------------------------|--------------------------|
D|-5--5--5--5--5--5--5--5-|---2--2--2--2--2--2--2--2-|
A|-5--5--5--5--5--5--5--5-|---2--2--2--2--2--2--2--2-|
E|-3--3--3--3--3--3--3--3-|---0--0--0--0--0--0--0--0-|

LYRICS

Riff #1
Here in this place lies the key to your death
Touch it, see it
Here in this place is the means to your end
Touch it, feel it
Green hell

Riff #2
You did your best as someone could
I bet you never knew you would
Did you run away from it?
I bet you thought you were really good

Riff#4
We`re gonna burn in hell
Green Hell Green Hell
Riff #5
Like every hell but kind of green
Green Hell Green Hell
Riff #4
Try let me get back up there
Green Hell Green Hell
Riff #5
Feel it burning in your cereal
Green Hell Green Hell
Riff #4
Throw our fuckin` friends inside
Green Hell Green Hell
Riff #5
Gotta fuckin` pay and you must stay
Green Hell Green Hell
Riff #4
Cannot forget about the best
Green Hell Green Hell
Riff #5
Hell is reigning in your blood
Green Hell Green Hell
Riff #3
Gotta burn it all
Green hell

Riff #2
You did your best as someone could
I bet you never knew you would
And did you run away from me
I bet you think they were really good

Riff #1
Here in this place lies the key to your death
Touch it, see it
Here in this place sister won`t let it in
Touch it, feel it
Green hell

Riff #2
You did your best as someone could
I bet you`d never knew you would
Did you run away from it?
I bet you thought you were really good
You`ve come to this as someone told
I bet you`d never knew you would
Riff #3
???Gonna bring???
Green hell
Вверх

Harvester of Sorrow

1)
D--------4-3-2-----2
A--5-4-2-2-1-0-5-4-2 twice
E--3-2-0-------3-2-0
opening


2)
D------3-2------5-3-2------3-0-----0---0
A----2--------2----------2-------0------
E--0--------0----------0-------3-----1--
  pm..      .        ...     ...   .
main riff 4 times undistorted and rest of song distorted


3)
D---------------------4-3---------------------------4-3------
A--2--2-2-2-2-2-5-4---2-1---5-3--3--3-3-3-3-3-5-4---2-1---5-4
E--0--0-0-0-0-0-3-2-0-----0-3-2--1--1-1-1-1-1-3-2-0-----0-3-2
pm...........................................................


4)
D--2-----------------------------------------
A--2--------0--------0---------------1~~-----
E--0--0-1-2----0-1-2----2-1-0--0-1-2----2-1-0


5a)
D----------2--2--2-              -------0-5--5--5
A--------1-2--2--2- 4 times then ---------5--5--5
E--0-1-2---0--0--0-              -0-1-2---3--3--3
verse riff (before singing)

5b)
D--------2--2--2   -------5--5--5
A--------2--2--2   -------5--5--5
E--0-1-2-0--0--0   -0-1-2-3--3--3
while singing


6)
e----------------------             --------------------
B----------------------             --------------------
G------------0-2-3-2-3- 1st half of -----------0-2-3-2-- 2nd half of
D------0-2-3----------- riff 3      -----0-2-3---------3 riff 3
A--0-3-----------------             -0-3----------------
E----------------------             --------------------
post solo


7)
e-------------------------
B--3-2-0-2-3-5-3-2-0------
G--3-2-0-2-3-5-3-2-0-3-2-0
D--------------------3-2-0
A-------------------------
E-------------------------
trill
(I only play the lower line.)

solo:
E-----------------------------------------------------
B----15b---15b---15b---15b---17b--15b---15b-----------
G--------------------------------------------14-------
D-----------------------------------------------------
A-----------------------------------------------------
E-----------------------------------------------------

E--17b---17b-15p14---14--------------------------------
B------------------17---17p15-17-15p14s12-14p12s10-----
G------------------------------------------------------
D------------------------------------------------------
A------------------------------------------------------
E------------------------------------------------------

E------------------------------------------------------
B--12bp10-12bp10-12bp10-12bp10-12b---------------------
G--------------------------------------12---14---------
D------------------------------------------------------
A------------------------------------------------------
E------------------------------------------------------

E------------------------------------------------------
B------------------------------------------------------
G---11h12p11-------------------------------------------
D----------------------------/14-----------------------
A-------------14------14h15----------------------------
E------------------------------------------------------

E----------------14-15s19---------17--15---15h17p15p14-
B--------14-15-17--------------------------------------
G---14h16----------------------------------------------
D-14---------------------------------------------------
A------------------------------------------------------
E------------------------------------------------------

E--14h15p14--------------------------------------------
B-----------15--17-----------(17)----------------------
G------------------------------------------------------
D------------------------------------------------------
A------------------------------------------------------
E------------------------------------------------------

Вверх

Harvester of Sorrow (2 вариант)

Riff 1
e|---------------------------|
B|---------------------------|
G|----------4--3-------------|
D|-5--4-----4--3-----5--4----|
A|-5--4-----2--1-----5--4----|
E|-3--2--0--------0--3--2--0-|
                                    *repeat then palm mute later
e|---------------------------------------------------|
B|---------------------------------------------------|
G|----------------0----------------------------------|
D|-----3--2----------3--2-------3--0---------0-----0-|
A|--2-----------2------------2-------------0---------|
E|0-----------0------------0--------------3-------1--|

Riff1 again
e|----------------------------------------|
B|----------------------------------------|
G|--------------------------4/-3----------|
D|-2--2-2--2--2-2--5/-4-----4/-3-----5/-4-|
A|-2--2-2--2--2-2--5/-4-----2/-1-----5/-4-|
E|-0--0-0--0--0-0--3/-2--0--------0--3/-2-|

e|----------------------------------------|
B|----------------------------------------|
G|--------------------------4/-3----------|
D|-3--3-3--3--3-3--5/-4-----4/-3-----5/-4-|
A|-3--3-3--3--3-3--5/-4-----2/-1-----5/-4-|
E|-1--1-1--1--1-1--3--2--0--------0--3/-2-|

Riff 1 again

e|----------------------------------------------------------|
B|----------------------------------------------------------|
G|----------------------------------------------------------|
D|----------------------------------------------------------|
A|----------------------------------------------------------|
E|-2--2-2/--5----2--2-2/--5----5/--0----2--2-2/--6----6/--0-|

e|-------------------------------------------------------------|
B|-------------------------------------------------------------|
G|--------------------------3-----------------------7----------|
D|-2-2-4/-5-2-2--2--2-2--4--3--2--2--2------2-2--4--7--5--5--5-|
A|-2-2-4/-5-2-2--2--2-2--4--1--2--2--2-[x3]-2-2--4--5--5--5--5-|
E|-0-0-2/-3-0-0--0--0-0--2-----0--0--0------0-0--2-----3--3--3-|

e|-----------------------------------------------------|
B|-----------------------------------------------------|
G|------------------------------------------7----------|
D|-2-2--4/-5--2--2--2---------------2-2--4--7--5--5--5-|
A|-2-2--4/-5--2--2--2---[repeat]----2-2--4--5--5--5--5-|
E|-0-0--2/-3--0--0--0---------------0-0--2-----3--3--3-|
Вверх

Helpless

Intro: Fast

G|---------|
D|---------|
A|---------|
E|-5-7-7p5-|

Main Bass Fig.
                                12X (times)
G|---------------------------------|
D|---------------------------------|
A|---------------------------------|
E|-2-2p0-0-2-2p0-0-2-2p0-0-5-7-7p5-|

Bridge into Chorus (or Pre-Chorus)

G|---------------------|------------------------------|
D|-------------------2-|-----------2-4--4-2-----------|
A|-----5-------2-3-5---|-------2-5----------4-3-2-----|
E|-2-----0-2-3---------|-0-2-3--------------------5-2-|

G|---------------------|-------------------------|
D|-------------------2-|-----------2-4--44444444-|
A|-----5-------2-3-5---|-------2-5---------------|
E|-2-----0-2-3---------|-0-2-3-------------------|

Chorus:EXTREMELY FAST

G|------------------------|---|---|----------------------|
D|o-777777777p5---------5-|-%-|-%-|-77777777-----------o-|
A|o-------------7-6-7-6---|---|---|--------------------o-|
E|------------------------|---|---|----------2-2-R-4-4---|

Main Bass Fig. 10X

Pre-Chorus, Chorus

Main Bass Fig. 4X

Bass Solo (Break)  8X
G|------------------|
D|------------------|
A|----0-2p0---0-2p0-|
E|-2--------2-------|

                   4X
G|------------------|
D|------------------|
A|----1-3p1---1-3p1-|
E|-3--------3-------|

                   4X
G|-----------------|
D|-----------------|
A|---2-4p2---2-4p2-|
E|-4-------4-------|

                   4X
G|-----------------|
D|-----------------|
A|---3-5p3---3-5p3-|
E|-3-------3-------|

                   2X
G|-----------------|
D|-----------------|
A|---2-4p2---2-4p2-|
E|-4-------4-------|

                   2X
G|-----------------|
D|-----------------|
A|---3-5p3---3-5p3-|
E|-5-------5-------|

G|-----------------------------------------------|
D|--------------5----3----3----------------------|
A|---2----3---7----5----1------------------------|
E|-4----5--------------------5-3-5-7---3-5-7---0-|

             3X, then
G|------------|-------|
D|-------4444-|-------|
A|-5-3-5------|-5-3-5-|
E|------------|-------|

Now, after that huge break, there`s a whole new part to the
song...you do this really long part twice, starting below.

                                      4X
G|-------------------------------------|
D|-----------------------------------2-|
A|---------------------2-2-2-2-2-5-2---|
E|-2-2-2-2-2-5-5-5-5-5-----------------|

G|-------------------------------------|
D|---------------------------------2---|
A|---------------------2-2-2-2-2-5---5-|
E|-2-2-2-2-2-5-5-5-5-5-----------------|

G|----------------------------------------|
D|----------------------------------------|
A|---------------------2-2-2-2-2----------|
E|-2-2-2-2-2-5-5-5-5-5-----------0x-0x-0x-|

G|-------------------------------------|---|
D|---------------------------------2---|-%-|
A|---------------------2-2-2-2-2-5---5-|---|
E|-2-2-2-2-2-5-5-5-5-5-----------------|---|

G|----------------|---|-----------|-------------|
D|------------2---|-%-|-------3-2-|-4-2---------|
A|-44444444-5---5-|---|-4-5-------|-----4-3-2---|
E|----------------|---|-----------|-----------5-|

(That is the end of the big part you do twice-----/ )

Now do below, which is basically Main Bass Fig. 4X, with a
little fill on the 4th time.

G|---------------------------------|---|---|
D|---------------------------------|-%-|-%-|
A|---------------------------------|---|---|
E|-2-2p0-0-2-2p0-0-2-2p0-0-5-7-7p5-|---|---|

G|-----------------------------|
D|-----------------------------|
A|-----------------22222-------|
E|-2-2p0-0-2-2p0-0-------0-0-0-|

Now do Main Bass Fig. 8X, which is part of the beginning of the
guitar solo; the rest of the guitar solo is below.

G|-------------------------------------|
D|---------------------------------2---|
A|---------------------2-2-2-2-2-5---5-|
E|-2-2-2-2-2-5-5-5-5-5-----------------|

G|----------------------------------------|
D|----------------------------------------|
A|---------------------2-2-2-2-2----------|
E|-2-2-2-2-2-5-5-5-5-5-----------0x-0x-0x-|

G|-------------------------------------|---|
D|---------------------------------2---|-%-|
A|---------------------2-2-2-2-2-5---5-|---|
E|-2-2-2-2-2-5-5-5-5-5-----------------|---|

G|----------------|---|-----------|-------------|
D|------------2---|-%-|-------2-3-|-4-2---------|
A|-44444444-5---5-|---|-4-5-------|-----4-3-2---|
E|----------------|---|-----------|-----------5-|

Now, right when guitar solo stops and you`re done with the
above, go back to Main Bass Fig. 4X

After that, do below lick, slowly and loudly.

G|-------------------------|---|-----------------------------|
D|-------------------------|-%-|-----------------------------|
A|-------------------------|---|-----------------------------|
E|-2-2---2-2---2-2---2-0-0-|---|-2-2---2-2---2-2---2-2---2-2-|

Do this slowly also, but fade out.
|-----------------------------|
|-----------------------------|
|-----------------------------|
|-2-2---2-2---2-2---2-2---2-2-|
Вверх

Helpless (2 вариант)

                                ||            Hold These chords
   A B        F#          Repeat|| A B        F# D E F#   D E F#
e|------------------------------||----------------------------------|
B|------------------------------||----------------------------------|
G|-2-4--(4)--------------------*||-2-4--(4)------7-9---11-7-9-------|
D|-2-4--(4)-----4-----4-----4--*||-2-4--(4)---4--7-9-4-11-7-9-4-----|
A|-0-2-0h2p0----4-----4-----4---||-0-2-0h2p0--4--5-7-4- 9-5-7-4-----|
E|------------2-2-0-2-2-0-2-2-0-||------------2------2--------2--2--|
                                                                 |
                                                                 |
                                                 Pick real Fast and alot


By this ( ) I mean hold the B chord with your ring finger and just perform the
hammer and pull-offs with your index finger. Repeat This rythmn figure until
you hit the bridge to the chorus. The Bridge into the chorus has a bunch of
power chords which are held. Listen to the tune and you`ll get the picture....





 Chorus (Lyrics go `HELPLESS....!`)

   Part 1                            Part 2             Part 3
   A                      repeat 3x| A         G      | A         G   A
e|---------------------------------|------------------|-----------------
B|---------------------------------|------------------|-----------------
G|--------------------------------*|-----------------*|-----------------
D|------------------7p5---------5-*|-----------5-5-5-*|-----------5-5-7-
A|----------------------7-6-7-6----|-----------5-5-5--|-----------5-5-7-
E|--5-5-5-5-5-5-5-5----------------|-5-5-5-5-5-3-3-3--|-5-5-5-5-5-3-3-5-


By this I mean play Part 1 three times, then play Part 2. Then you play Part 1
three times again and finish the chorus with Part 3. Work with me on this
one... I`m not sure about the part 1 section... but this is close....

Now return to ryth. Fig 1 amd play it till you hit the chorus a second
time... do the chorus again and then play rythmn Fig 1 again until you hit the
little Newstead bass solo, after which you hit a second bridge. I prefer to
enter into this section with a jumping, banging pick slide. In other words I
bounce the pick off the low E, A and D while sliding the edge down the
fretboard... Anyway it sounds real cool...

Bridge 2


 |<-------Repeat 4x |<------Repeat 4x|<------Repeat 4x|<------Repeat 4x|
e|------------------|----------------|----------------|----------------|
B|------------------|----------------|----------------|----------------|
G|-----------------*|---------------*|---------------*|---------------*|
D|-----------------*|---------------*|---------------*|---------------*|
A|----0-2----0h2p0--|---2-4---2h4p2--|---3-5---3h5p3--|---5-7---5h7p5--|
E|--2------2--------|-4-----4--------|-5-----5--------|-7-----7--------|


 |<-------Repeat 2x|<------Repeat 2x|
e|-----------------|----------------|-----------------------------------
B|-----------------|----------------|-----------------------------------
G|----------------*|---------------*|-----------------------------------
D|----------------*|---------------*|---------------7-9---5-7---3-5-----
A|----3-5---3h5p3--|---5-7---5h7p5--|---3-5---5-7-9-----7-----5---------
E|--5-----5--------|-7-----7--------|-5-----7---------------------------


            |    | Rythmn Fig 2.         || End ryth. Fig 2
            |    |                       ||
 End bridge2|    |<----Repeat 3x|        ||
e|----------|    |--------------|--------||--------------------------------
B|----------|    |--------------|--------||--------------------------------
G|-4---2-4--|    |---4p2---2-4-*|-7---9--||--------------------------------
D|-4-5-2-4--|    |---4p2-4-2-4-*|-7-7-9--||--------------------------------
A|-2-5-0-2--|    |-------4------|-5-7-7--||--------------------------------
E|---3------|    |--------------|---5----||--------------------------------


  Rythmn Fig 3.

 | F#A B D C#A F#A B E     F#A B D C#A F#A B D C#B |<--------Repeat 2x |
e|-------------------------------------------------|-------------------|
B|-------------------------------------------------|-------------------|
G|---2-4-7-6-2---2-4---------2-4-7-6-2---2-4-7-6-4-|6-----------7-9-7-*|
D|-4-2-4-7-6-2-4-2-4-2-2-2-4-2-4-7-6-2-4-2-4-7-6-4-|6-----------7-9-7-*|
A|-4-0-2-5-4-0-4-0-2-2-2-2-4-0-2-5-4-0-4-0-2-5-4-2-|4-4-4-4-4-4-5-7-5--|
E|-2-----------2-----0-0-0-2-----------2-----------|-------------------|


   Rythmn Fig 3a.                                  |
                                                   | End Ryth. Fig 3
   C#       D        E       F        F# E C#C B A |
e|-------------------------------------------------|--------------------
B|-------------------------------------------------|--------------------
G|-6-sl.---7-sl.---9-sl.--10-sl.--11-9-6-5-4-2-|--------------------
D|-6-sl.---7-sl.---9-sl.--10-sl.--11-9-6-5-4-2-|--------------------
A|-4-sl.---5-sl.---7-sl.-- 8-sl.-- 9-7-4-3-2-0-|--------------------
E|-------------------------------------------------|--------------------

Ok, Lots of explaining to do... first of all the bridge: play each section
marked for repetition and then proceed to the next bar... do not go back to
the beginning of the bridge each time... I just was lazy and didn`t want to
write it all up... listen to the song and then try to figure it out...The
bridge ends with four power chords: B, G, A, B. Then the song heads into
rythmn figure 2.

Rythmn Fig. 2 is played FAST! Repeat it a bunch of times until you hit the
second set of lyrics. Then break into Rythmn Fig 3 followed by Rythmn Fig 3a.
After the lyrics then back to Rythmn Fig. 2. This entire thing is repeated
twice (I think.... Check out the song).

Now we head towards the guitar solo. Rythmn fig 2 is played once and followed
by rythmn Figure 1.  Ryth. Fig 1 repeats a bunch of times and the intro to
the solo starts with an E power chord on 0th fret. Rythmn Fig 1. is played
behind the solo until near the end of the solo the Rythmn changes to rythmn
figure 4.


  Rythmn Fig 4.

 |<-----repeat 3x|             |<---------repeat 2x |
e|---------------|-------------|--------------------|-------------------
B|---------------|-------------|--------------------|-------------------
G|----2-4-------*|---2-4-7-6-4-|-6-----------7-9-7-*|-------------------
D|--4-2-4-2-2-2-*|-4-2-4-7-6-4-|-6-----------7-9-7-*|-------------------
A|--4-0-2-2-2-2--|-4-0-2-5-4-2-|-4-4-4-4-4-4-5-7-5--|-------------------
E|--2-----0-0-0--|-2-----------|--------------------|-------------------
Вверх

Hero of the day mp3

Main Riff:Guitar 1       Tune Guitars Down 1/2 ste

E|-------------------------------------------------------------|
B|-------------------------------------------------------------|
G|-------------2-----2-----2-----2------4--------4-------4-----|
D|-----------2-----2-----2-----2------6---6--------6-------6---|
A|-----0---0-----2-----4-----5------7----------7-------7-------|
E|---2---2-----------------------------------------------------|

E|-------------------------------------------------------------|
B|.-----------------------------------------------------------.|
G|-------------2-----2-----2-----2--4-----4-------4------------|
D|-----------2-----2-----2-----2----4Н6------6-------6---------|
A|.----0---0-----2-----4-----5------7---7-------7-------7-----.|
E|---2---2-----------------------------------------------------|

E|--------------------------------|
B|------Н-p----------------------.|
G|--4--4-6-4------Н---------------|
D|------------6--6-7--------------|
A|-------------------------------.|
E|--------------------------------|

Guitar2:Main Line

E|-------------------------------------------------------------|
B|.-----------------------------------------------------------.|
G|------2-----4-----6-----7------------------------------------|
D|-------------------------------2--------2--------------------|
A|.--0-----0-----0-----0--------------------------0-----------.|
E|----------------------------0--------0-------2----2----------|

Pre-Припев:

E|-------------------------------------------------------------|
B|.-----------------------------------------------------------.|
G|---------2-----2-----2-----2---------------------------------|
D|-------2-----2-----2-----2----4Н6--6--6--6--4--4Н6-6-6-------|
A|.----0-----2-----4-----5------7----7--7--7--7--7---7-7---0--.|
E|------------------------------0----0--0--0--0--0---0-0-2---2-|

Припев:

E|-------------------------------------------------------------|
B|------------------------------------------------------------.|
G|-----2-----2----2----2---------------------------------------|
D|-----2-----2----2----2--4Н6-6--6----6---4--4Н6--6--6---------|
A|--0-----2----4-----5----7---7--7----7---7--7----7--7----0---.|
E|------------------------0---0--0----0---0--0----0--0--2---2--|

Guitar Fill 1

E|-------------------------------------------------------------|
B|----------------------------------------------~~~~~~~--------|
G|--7/9---9--9----9--9--9-11/13--13--13--13/14--14-------------|
D|-------------------------------------------------------------|
A|--5/7---7--7----7--7--7--9/11--11--11--11/12--12-------------|
E|-------------------------------------------------------------|

(Go back to Main Line, Guitar1 plays his part and Guitar2
 plays this)
(Repeat 1x and end it here:                          End here

E|-------------------------------------------------------|-----|
B|.------------------------------------------------------------|
G|--x--x--6/7--7---------9--9/11-11--11---11\9--9--9---9-------|
D|--------------------x----------------------------------x-----|
A|.-x--x--4/5--5------x--7--7/9---9---9----9\7--7--7---7-------|
E|-------------------------------------------------------x-----|

Don't play seconed time

E|-------------------------------------------------------------|
B|------------------------------------------------------------.|
G|-------------------------------------------------------------|
D|--9-----9---6---6--6/7---------------------------------------|
A|------------------------------------------------------------.|
E|--7-----7---4---4--4/5---------------------------------------|

Fill 2 Guitar2:

E|--5--7--5--4--5--4--~~~~---|
B|--------------------5------|
G|---------------------------|
D|---------------------------|
A|---------------------------|
E|---------------------------|

Fill 3 Guitar2:

E|-5--7--5--4--5-------------|
B|---------------------------|
G|---------------------------|
D|---------------------------|
A|---------------------------|
E|---------------------------|

(Now go to Pre-Припев:,then Припев: Then Play this:)
With quick rests in between and some muffled strings

E|-------------------------------------------------------------|
B|.-----------------------------------------------------------.|
G|-------------------------------------------------------------|
D|--4--4---4---4---4---4---4-----------------------------------|
A|.-4--4---4---4---4---4---4---4-4-4--4-4-4-------------------.|
E|--2--2---2---2---2---2---2---0-2-3--0-2-3--------------------|

Then Comes the solo.....

E|---------------------5--------------------------5/10-10-10---|
B|--7--5--7--5-7--7-5----7-7--7--5--7--5--7--7--5--------------|
G|-------------------------------------------------------------|
D|-------------------------------------------------------------|
A|-------------------------------------------------------------|
E|-------------------------------------------------------------|

E|-10-10--9-9-9-9-9-9--7-7------------|Solo Continued
B|------------------------------------|Below:
G|------------------------------------|
D|------------------------------------|
A|------------------------------------|
E|------------------------------------|

E|---------------------5--------------------------5/12-12-12---|
B|--7--5--7--5-7--7-5----7-7--7--5--7--5--7--7--5--------------|
G|-------------------------------------------------------------|
D|-------------------------------------------------------------|
A|-------------------------------------------------------------|
E|-------------------------------------------------------------|

E|-12-12-12--10-10-10--12--12-14--14-16------------17--17------|
B|-------------------------------------------------------------|
G|------------------------------Tremolo pick the---14--14------|
D|--------------------------------------16---------------------|
A|-------------------------------------------------------------|
E|-------------------------------------------------------------|


HERO OF THE DAY
(Hetfield/Ulrich/Hammett)

Mama they try and break me..

The window burns to light the way back home
A light that warms no matter where they go
They're off to find the hero of the day
But what if they should fall by someone's wicked way

Still the window burns
Time so slowly turns
And someone there is sighing
Keepers of the flames
Do you feel your name?
Did you hear your babies crying?
Mama they try and break me
Still they try and break me

Excuse me while I tell them how to feel
These things we turn to me that still seem real
Now deservingly this easy chair
But the rocking starts the wheels of this play

Don't want your hate
But the fist I make
For you still no fear
No not on me
So please excuse me while I tell them how I feel

But now the dreams end
And now the dreams end
They everlast the night
So build a wall
Behind it crawl
And hide until it's light
So can you hear your babies crying now?

Still the window burns
Time so slowly turns
And someone there is sighing
Keepers of the flames
Did you hear your name?
Did you hear your babies crying?

But now the dreams end
And now the dreams end
They everlast the night
So build a wall
Behind it crawl
And hide until it's light
So can't you hear your babies crying now?

Mama they try and break me
Mama they try and break me
Mama they try and break me
Mama they try

Mama they try
Mama they try and break me
Mama they try and break me
Mama they try and break me
Mama they try
Mama they try
Вверх

Hit The Lights

4/4             2/4   4/4
|---|---------|-----|--------|-----|
|---|---------|-----|--------|-----|
|-7-|-7-7-7-7-|-7-7-|-7------|-----|
|-0-|-0-0-0-0-|-0-0-|-0------|-2---|
  l   q q q q   q q   l        l
  /                            /
  /                            /

|---------------------------------------------|-------||
|---------------------------------------------|-------||
|-2-0-2-0---2-0-2-4-4-4-2-4-4-4-4-2-0-0-------|---R---||
|---------2-----------------------------2-----|-------||
  t t t t s t t t t t t t t t t t t t t l

160 bpm                            fig.1
|  4  |------|------|------|------|-------------------------|
|-----|---R--|---R--|---R--|---R--|-------------------------|
|-----|-0----|-0----|-0----|-0----|-0-0-0-0-0-0-0-3-0-5-0-3-|
|     |------|------|------|------|-------------------------|
        e h..  e h..  e h..  e h..  e s s s s s s e s e s e

|---------------------------|-------------------------|
|---------------7-5---5-----|-------------------------|
|-0-0-0-0-0-0-0-----7---6-7-|-0-0-0-0-0-0-0-3-0-5-0-3-|
|---------------------------|-------------------------|
  e s s s s s s s s s e s e   e s s s s s s e s e s e

                            Verse 1
                   end fig.1  fig.2                   end fig.2
|---------------------------||-----------------|---------------|
|---------------------------||-----------------|---------------|
|-0-0-0-0-0-0-0-0-1-2-3-3-4-||-5-5-7-----------|-5-5-5-3--2----|
|---------------------------||-------3-3-3-3-0-|-------------2-|
  e s s s s s s s s s e s e    e q e e s e s e   e q e e. e. e

play fig.1, fig.2, first two bars of fig.1

                                      Chorus
                                      fig.3          7/8    end fig.3
|---------------------|-------------||---------------|---------------|
|---------------------|-------------||---------------|---------------|
|---7-7-7-7-7-7-7-7-7-|-------3-2---||---R-------R---|-----R---3-----|
|-0-------------------|-3-2-3-----3-||-5---5-3-5---5-|-3-5---5----3--|
  e e s s e e s e s e   q q q q q q    e e q s s e q   s s e q e. e.
                        [ 3 ] [ 3 ]

play fig.3 two times more

4/4
|---------------|---||
|---------------|---||
|---R-------R---|-R-||
|-5---5-3-5---5-|---||
  e e q s s q e   w

Interlude : play fig.1

Verse 2 : play fig.2, fig.1, fig.2, first two bars of fig.1

|---------------------|-------------||
|---------------------|-------------||
|---7-7-7-7-----------|-------3-2---||
|-0---------0-0-0-0-0-|-3-2-3-----3-||
  e e s s e e s e s e   q q q q q q
                        [ 3 ] [ 3 ]

Chorus 2 : play fig.3 3 times

|---------------|---||
|---------------|---||
|---R-------R---|-R-||
|-5---5-3-5---5-|---||
  e e q s s q e   w

Interlude 2 : play fig.1

Verse 3 : play fig.2, fig.1, fig.2, first two bars of fig.1

|---------------------|-------------||
|---------------------|-------------||
|---7-7-7-7-----------|-------3-2---||
|-0---------0-0-0-0-0-|-3-2-3-----3-||
  e e s s e e s e s e   q q q q q q
                        [ 3 ] [ 3 ]

Chorus 3 : play fig.3 4 times

        4/4            7/8          4 times
|-----||-------|---|---|-----------------||
|-----||-o-----|---|---|-7--5----------o-||
|-----||-o---R-|-R-|-R-|-------7-6-5---o-||
|-5-3-||---5---|---|---|-------------8---||
  h h      e h.. w   w   e. e. e e e e

Guitar solo
4/4
||-------------------------|---------------------|-----------------------|
||-o-----------------------|---------------------|-----------------------|
||-o---R---R---R-----------|---R---R---R-----7-7-|---R---R---R-----------|
||---7---7---7---7-7-10-10-|-7---7---7---7-7-----|-7---7---7---7-7-10-10-|
     e s e s e s s e e  e    e s e s e s s e e e   e s e s e s s e e  e

7/8            8 times
|------------------||
|-9--7-----------o-||
|-------9-8-7----o-||
|-------------10---||
  e. e. e e e e

 4/4
||-----------------------|---------------------|---------------------|
||-o---------------------|---------------------|---------------------|
||-o---R---R---R---------|---R---R---R-----5-5-|---R---R---R---------|
||---5---5---5---5-5-8-8-|-5---5---5---5-5-----|-5---5---5---5-5-8-8-|
     e s e s e s s e e e   e s e s e s s e e e   e s e s e s s e e e

7/8            2 times
|-----------------||---------------|---------------|
|-7--5----------o-||-7--5----------|-7--5----------|
|-------7-6-5---o-||-------7-6-5---|-------7-6-5---|
|-------------8---||-------------8-|-------------8-|
  e. e. e e e e      e. e. e e e e   e. e. e e e e

|-----|------|-----|-----|-------||
|-----|------|-----|-----|-------||
|-----|------|-----|-----|-----R-||
|-5---|-(5)--|-(5)-|-(5)-|-5-5---||
  w      w      w     l    q q h
  /      /
  /      /


Lyrics :
 1. No life `till leather
    We`re gonna kick some ass tonight
    Got the metal madness
    When our fans start screamin` it`s right, Well alright  Yeah

    When we start to rock we never, will stop again
    Hit the lights
    Hit the lights
    Hit the lights

 2. Know our fans are insane
    We`re gonna blow this place away
    With volume higher
    Than anything today. The only way

    When we start to rock we never, will stop again
    Hit the lights
    Hit the lights
    Hit the lights

 3. With all out screamin`
    We`re gonna rip right through your brain
    We got the lethal power
    It`s causin` you sweet pain, Oh, sweet pain

    When we start to rock we never, will stop again
    Hit the lights
    Hit the lights
    Hit the lights
    Hit the lights
Вверх

Hit The Lights (2 вариант)

Fade in

E|-tremolo-|-----------------------------|
B|-/--pick-|-----------------------------|
G|-/-------|-----------------------------|
D|-2-------|-----------------------------|
A|-2-------|-2---2---2---2-----2-------2-|
E|-0-------|-0---0---0---0-----0-------0-|

E|--tremelo-----|-------------------------------|-------------|
B|--/--pick-----|-------------------------------|-------------|
G|--/-----------|-------------------------------|-------------|
D|--4-----------|-------------------------------|--pick slide-|
A|--4-----------|--4---4---4---4-----4-------4--|--x\\\--|
E|--2-----------|--2---2---2---2-----2-------2--|--x\\\--|

fig 1                                                End fig 1
E|-----------------------------|-------------------------------|
B|-----------------------------|-------------------------------|
G|-------------------5-7-0-0h5-|-------------------------------|
D|-5-----------------5-7-0-0h5-|-5-----------------7p5---5-----|
A|-0-0-0-0-0-0-0-0-0-----------|-0-0-0-0-0-0-0-0-0-----7---6-7-|
E|-----------------------------|-------------------------------|

E|----------------------------|---------------------------full-|
B|----------------------------|---------------------------)----|
G|------------------5-7-0-0h5-|-------------------------7/-----|
D|-5----------------5-7-0-0h5-|-5---------------------5--------|
A|-0-0-0-0-0-0-0-0-0----------|-0-0-0-0-0-0-0-0-0-6h7----------|
E|----------------------------|--------------------------------|

play fig 1 (? times)

E|-------------------------------------------------------------|
B|-------------------------------------------------------------|
G|-------------------------------------------------------------|
D|--7---7---x---x-------------------7---7---x---x---5---4------|
A|--5---5---x---x---5---5---x---x---5---5---x---x---3---2---5--|
E|------------------3---3---x---x---------------------------3--|
           No life till leather            Gonna kick some ass

E|-----------------------------|-------------------------------|
B|-----------------------------|-------------------------------|
G|-------------------5-7-0-0h5-|-------------------------------|
D|-5-----------------5-7-0-0h5-|-5-----------------7p5---5-----|
A|-0-0-0-0-0-0-0-0-0-----------|-0-0-0-0-0-0-0-0-0-----7---6-7-|
E|-----------------------------|-------------------------------|
 tonight

E|-----------------------------|-------------------------------|
B|-----------------------------|-------------------------------|
G|-------------------5-7-0-0h5-|-------------------------------|
D|-5-----------------5-7-0-0h5-|-5-----------------7p5---5-----|
A|-0-0-0-0-0-0-0-0-0-----------|-0-0-0-0-0-0-0-0-0-----7---6-7-|
E|-----------------------------|-------------------------------|

E|-------------------------------------------------------------|
B|-------------------------------------------------------------|
G|-------------------------------------------------------------|
D|-7---7---x---x-------------------7---7---x---x---5---4-------|
A|-5---5---x---x---5---5---x---x---5---5---x---x---3---2---5---|
E|-----------------3---3---x---x---------------------------3---|
   Got the metal maddness     When our fans start screamin` its

E|-----------------------------|--------------------------full-|
B|-----------------------------|--------------------------)----|
G|-------------------5-7-0-0h5-|------------------------7/-----|
D|-5-----------------5-7-0-0h5-|-5--------------------5--------|
A|-0-0-0-0-0-0-0-0-0-----------|-0-0-0-0-0-0-0-0-0-6h7---------|
E|-----------------------------|-------------------------------|
 right                            Well alright yeah

E|------------------------------------|------------------------|
B|------------------------------------|------------------------|
G|------------------------------------|------------------------|
D|-------------------------5---4------|--2---2---2---2---2---2-|
A|--2---2------5---3---5---3---2---5--|--0---0---0---0---0---0-|
E|--0---0------3---1---3-----------3--|---------3-------3------|
 When we start to rock we never       Will stop     Again

                       3x
E|-------------------------|
B|-------------------------|Then comes a lead thing and verse 2,
G|*-----------------------*|then another lead thing and verse 3,
D|*-5----2--2--2--2--2--2-*|then the interlude:
A|--3-5--0--0--0--0--0--0--|
E|----3-------3-----3------|
   Hit the lights

 Interlude
E|---------------|--------------|--------------|--------------|
B|---------------|--------------|--------------|--------------|
G|*------------5-|------------7-|------------5-|-------------*|
D|*-7--7--7--7-5-|-7--7--7--7-7-|-7--7--7--7-5-|-7-5---------*|
A|--0--0--0--0---|-0--0--0--0---|-0--0--0--0---|-----7-6-5----|
E|---------------|--------------|--------------|-----------8--|

this is played under the solo
E|---------------|--------------|--------------|--------------|
B|---------------|--------------|--------------|--------------|
G|---------------|--------------|--------------|--------------|
D|-4--4--4---4-7-|-4--4--4--4-9-|-4--4--4--4-7-|-9-7----------|
A|-2--2--2---2-5-|-2--2--2--2-7-|-2--2--2--2-5-|-----9-8-7----|
E|---------------|--------------|--------------|-----------10-|

Lyrics:

No life till leather
We are gonna kick some ass tonight
We got the metal madness
When our fans start screaming
It`s right well alright
When we start to rock
We never want to stop again

Hit the lights
Hit the lights
Hit the lights

You know our fans are insane
We are gonna blow this place away
with volume higher
Than anything today the only way
When we start to rock
We never want to stop again

Hit the lights
Hit the lights
Hit the lights

With all our screaming
We are gonna rip right through your brain
We got the lethal power
It is causing you sweet pain Oh sweet pain
When we start to rock
We never want to stop again

Hit the lights
Hit the lights
Hit the lights
Вверх

Holier Than Thou

1a)
G|-------------------------------------|
D|-2----------------2----------------2-|
A|-2----------------2----------------2-|
E|-0--0-0-0--0-0-0--0--0-0-0--0-0-0--0-|

1b)
G|------------------------|
D|-5-------2----5-------2-|
A|-5-------2----5-------2-|
E|-3---4-5-0----3---4-5-0-|

1b comes after a few times and is heard under 1a

2)
G|-----------------------------------------------------------|
D|--------------2-----------------------------2--------------|
A|-0-1---0-1----2--0-1---0-1-----0-1---0-1----2--0-1---0-1---|
E|-----3-----3--0------3-----3-------3-----3--0------3-----3-|

3)
G|---------------------------------|
D|--------------5----------------2-|
A|-0-1---0-1----5---0-1---0-1----2-|
E|-----3-----3--3-------3-----3--0-|

No more

4)
G|-----------------|
D|---------------2-|
A|-1-1-1-1-1-0---2-|
E|-------------3-0-|
..instead
Вверх

Holier Than Thou (2 вариант)

Intro Rhythm 1
                                  repeat umpteen times....
E|--|-|--|--|--|--|--|--|--|--|--|-|
B|--|-|--|--|--|--|--|--|--|--|--|-|
G|--/^|--|--|--|--|--|--|--|--|--|/|
D|2-|[2]-|--|--|--|--|--|--|--|--2-|
A|2-|[2]-|--|--|--|--|--|--|--|--2-|
E|0-|[0]-0--0--0--0--0--0--0--0--0-|
(brackets signify the chord is held over from previous measure.)

   Lead in to rhythm 2
E|----------------|---------------------|----------------------|
B|----------------|---------------------|----------------------|
G|----------------|---------------------|----------------------|
D|----------------|---------------------|----------------------|
A|-0-1-0-----------/^--0^1--------------/^--0^1----------------|
E|-------3-5-3--0-|[0]----0--3--5--3--0-|[0]----0--3--5--3~~~~-|

Rhythm 3 (accompanies lyrics)
E|----------------------------|-------------------|
B|----------------------------|-------------------|
G|----------------------------|-------------------|
D|----------------2-----------|----------------5--|
A|-0--1--0--------2-----------|-0--1--0--------5--|
E|----------3--5--0-----------|----------3--5--3--|

End of verse riff
E|----------------------------------------|
B|----------------------------------------|
G|----------------------------------------|
D|--------------------------------------2-|
A|-0--1--0------------------------------2-|
E|----------3--5--3--6--6--6-6-6--5--3--0-|

Riff before solo (Repeat once)
(Repeat twice with this added to end)
E|---------------------------------|-------|
B|---------------------------------|-------|
G|--------------------------------.|-------|
D|-----------5-7-8-----------8-7-5.|---5-7-|
A|--7--4-6-7-------7--4-6-7--------|-8-----|
E|---------------------------------|-------|

Repeat the riff and the extra end and end it like this
E|-----------------------------------|
B|-----------------------------------|
G|-----------------------------------|
D|----5--7-----5--7-----5--7>slide>14|
A|--9-------10-------11--------------|
E|-----------------------------------|

I haven`t got the solo entirely down (that damn wah-wah screws
me up) but I also don`t plan on posting it when I do...So good
luck with that..

With this info you should be able to figure out most if not all
of the song...Have fun with it...
Вверх

Human

Tune all guitars down 1 1/2 steps (C# tuning)
Symphony intro

1)
E-|----------------------------------------|
B-|----------------------------------------|
F#|----------------------------------------|
C#|-0--0-7~~0-6~~5-0-3---0-7-6-0-2-3--3--0-|

2)
E-|--------------|
B-|--------------|
F#|--------------|
C#|-0--6-7-6-5-0-|

3)
E-|--------------------------------------|
B-|--------------------------------------|
F#|--------------------------------------|
C#|-0--3--5--0--6-7-6-5-0--3--5--7-7-7-7-|
"Don`t you leave me father time."
Verse
Вверх

Invisible Kid mp3

Guitars Dropped-G# tuning (Strings on A#)
6=G# 3=C#
5=D# 2=F
4=G# 1=A#

INTRO /RIFF 1
A#|-----|-----------------------------|-12-|-----------|
F-|-----|-----------------------------| T  |-----------|
C#|-----|-----------------------------| I  |-----------|
G#|-----|-----------------------------| M  |-----------|
D#|-----|-0-------------------5-------| E  |-----------|
G#|--0--|-0-----3---0---5-0-0------0--| S  |-0--0-0-0--|

RIFF 2
A#|------------------------------------------| -8-
F-|------------------------------------------| T
C#|------------------------------------------| I
G#|------------------------------------------| M
D#|-0--3----3----5--0----0--3----3----5-0----| E
G#|-0--3----3----5--0----0--3----3----5-0----| S

RIFF 3 (Verseriff)
A#|------------------------------------------------------|
F-|------------------------------------------------------|
C#|------------------------------------------------------|
G#|------------------------------------------------------|
D#|---------8-------0--0-0-0---0-0-0---8-------0---0-0-0-|
G#|-0-0-0------0----0--0-0-0---0-0-0------0----0---0-0-0-|

A#|---------------------------------------------------| -6-
F-|---------------------------------------------------| T
C#|---------------------------------------------------| I
G#|----------------------------10---10--/12---10------| M
D#|-0-0-0---8-------0--0-0-0---8----8---/10---8---0---| E
G#|-0-0-0------0----0--0-0-0----------------------0---| S

RIFF 4 (NOTE! =check down of this page)
A#|-------------------------| -4-
F-|-------------------------| T
C#|-------------------------| I
G#|-------------------------| M
D#|-3--0--0--3-----0--0--0--| E
G#|-3--0--0--3-----0--0--0--| S

THEN PLAY:
RIFF 3 /VERSE x 4

RIFF 4 x 8

THEN:

RIFF 5A
A#|-------------------------|-3-|-------------------------|
F-|-------------------------| T |-------------------------|
C#|-------------------------| I |-------------------------|
G#|--------------------__---| M |----------8--8--9---__---|
D#|-0--0--0--1--1--2--2__3--| E |-0--0--0--6--6--7--7--8--|
G#|-0--0--0--1--1--2--2--3--| S |-0--0--0-----------------|

RIFF 5B (4 times)
A#| |-------------------------|-3-|-------------------------| |
F-|o|-------------------------| T |-------------------------|o|
C#| |-------------------------| I |-------------------------| |
G#| |-------------------------| M |----------8--8--9--9--10-| |
D#|o|-0--0--0--1--1--2--2--3--| E |-0--0--0--6--6--7--7--8--|o|
G#| |-0--0--0--1--1--2--2--3--| S |-0--0--0-----------------| |

RIFF 5A
A#|-------------------------|-3-|-------------------------|
F-|-------------------------| T |-------------------------|
C#|-------------------------| I |-------------------------|
G#|--------------------__---| M |----------8--8--9---__---|
D#|-0--0--0--1--1--2--2__3--| E |-0--0--0--6--6--7--7--8--|
G#|-0--0--0--1--1--2--2--3--| S |-0--0--0-----------------|

RIFF 5B
A#| |-------------------------|-3-|-------------------------| |
F-|o|-------------------------| T |-------------------------|o|
C#| |-------------------------| I |-------------------------| |
G#| |-------------------------| M |----------8--8--9--9--10-| |
D#|o|-0--0--0--1--1--2--2--3--| E |-0--0--0--6--6--7--7--8--|o|
G#| |-0--0--0--1--1--2--2--3--| S |-0--0--0-----------------| |

RIFF 5C
A#| |-------------------------| |
F-|o|-------------------------|o|
C#| |-------------------------| |
G#| |-------------------------| |
D#|o|-0--0--0--1--1--2--2--3--|o|
G#| |-0--0--0--1--1--2--2--3--| |

THEN PLAY:
RIFF 3 /VERSERIFF x 6

RIFF 4 x 8

RIFF 5A

RIFF 5B x 4

RIFF 5A

RIFF 5B x 2

RIFF 5C

THEN:

RIFF 6
A#|---------------------| -13-
F-|---------------------| T
C#|---------------------| I
G#|---------------------| M
D#|----8--8----8----8/--| E
G#|-0*------------------| S
(^ two guitars, gtr I takes 6 string down and gtr II takes 5
string up)
(* Dont play first time, but play all other times)

RIFF 7
A#|--------------------------------------|
F-|--------------------------------------|
C#|--------------------------------------|
G#|-7---5----7---5----7---5----8---8---8-|
D#|-5---3----5---3----5---3----6---6---6-|
G#|-0------------------------------------|

RIFF 7B
A#|-----------------------------------------------------| -9-
F-|-----------------------------------------------------| T
C#|-----------------------------------------------------| I
G#|-7---------5---7---------5---7---------5---8---8---8-| M
D#|-5---0--0--3---5---0--0--3---5---0--0--3---6---6---6-| E
G#|-0---0--0----------0--0----------0--0----------------| S

THEN PLAY:
RIFF 6 x 8

RIFF 6 WITH OCTAVE HIGHER GTR x 6

RIFF 1 x 4

RIFF 2 x 2

RIFF 3 /VERSERIFF x 5

RIFF 4 x 8

RIFF 5A

RIFF 5B x 4

RIFF 5A

RIFF 5B x 2

RIFF 5C

THEN:

RIFF 8
A#|----------------------|3|----------| -5-
F-|----------------------|T|----------| T
C#|----------------------|I|----------| I THE
G#|----------------------|M|----------| M END
D#|-0--5----5----5----3--|E|-5------1-| E
G#|-0--0----0----0----0--|S|-5------1-| S

TABBED BY
T E R O S A I K K O N E N

NOTE!!! Metallica play that riff 4 on live like this:
A#|------------------------|
F-|------------------------|
C#|------------------------|
G#|------------------------|
D#|-3--0--0--3-----5--0--0-|
G#|-3--0--0--3-----5--0--0-|
Вверх

It`s Electric

tune all guitars down 1/2 step
Db|-----------------------------------------------------|
Ab|---------0-----0-----0-2-2---------0-----0-----0-2-2-|
Eb|-2-2-2-2---2-2---2-2-------2-2-2-2---2-2---2-2-------|
       Main riff and Chorus


Db|------x-x-------x-x-|
Ab|------x-x--0----x-x-|
Eb|-0-2--x-x----2--x-x-|
       Verse

Db|---------------------------------|
Ab|---------------------------------|
Eb|-7-7-7-7-6-6-6-6-5-5-5-5-4-4-4-4-|
             Mid-solo

Db|-----------------------|
Ab|-2--2------------------|
Eb|-------2--0--0-1-2---2-|
Вверх

Jump In The Fire

176 bpm
fig.1
G|---------|---------|---------|----------|---------|----------|
D|---------|---------|---------|-R----R---|---------|----------|
A|---------|---------|---------|---3----1-|---------|-1-1-1-1/-|
E|-3-3-3-3-|-1-1-1-1-|-0-0-0-0-|----------|-3-3-3-3-|----------|
  . . . .   etc.

G|--------------|--------|-------|--------|---------|----------|
D|--------------|-----R--|-------|--------|---------|-R----R---|
A|/8-8-0-8-8-0-8|0-3----1|-------|--------|---------|---3----1-|
E|--------------|--------|3-3-3-3|1-1-1-1-|-0-0-0-0-|----------|

                                  end fig.1
G|---------|---------|---------|-----------||
D|---------|---------|---------|-R----R----||
A|---------|-1-1-1-1-|---------|---3----1--||
E|-3-3-3-3-|---------|-1-1-1-1-|-----------||

fig.2                                        end fig.2  2 times
G||----------------|----------|---------------|---------------||
D||-o--------------|----------|---------------|-------------o-||
A||-o-------------1|-(1)------|-------------3-|-(3)-3-3-3-4-o-||
E||---1-3-3-1-3-0--|-----1-1-1|-1-3-3-1-3-0---|---------------||

Verse 1,2
G||---|
D||-o-|  play fig.2  3 times, play first two bars of fig.2
A||-o-|
E||---|

  fill 1-----------------| Chorus
G|---------------|-------||               --||
D|---------------|-R-----||  play fig. 1  o-||
A|-------------3-|---4-4-||               o-||
E|-1-3-3-1-3-0---|-------||               --||
  e e e e e e q   h q q

Interlude & Guitar solo                                  8 times
G||-----------------|-----------|---------------|-------------||
D||-o---------------|-----------|---------------|-----------o-||
A||-o---------------|-----------|---------------|-----------o-||
E||---6-6-6-6-6-6-6-|-6-6-6-4-6-|-3-3-3-3-3-3-3-|-3-3-3-1-3---||

Verse 3: play fig.2  3 times, play first two bars of fig.2,
play fill 1
Chorus 3: play fig.1  2 times

Outro: play fig.2  10 times and fade

Lyrics:
Down in the depths of my firey home,
the summons bell will chime
Tempting you and all the earth to join our sinful kind
There`s a job to be done and I`m the one,
you people make me do it
Now it`s time for your fate and I won`t
hesitate to you down into
 this pit.

Chorus:
So come on!
Jump in the fire!
So come on!
Jump in the fire

With Hell in my eyes and with death in
my veins the end is closing in
Feeding on the minds of men and from their souls within
My disciples all shout to search you out
and they always shall obey
Follow me now, my child, not the meck or the mild,
but do just as I say

Chorus

Jump by your will or be taken by force,
I`ll get you either way
Trying to keep the hellfire lit, I`m stalking you as prey
Living your life as me, I am as you see.
There`s part of me in everyone
So, reach down, grab my hand,
walk with me through the land, come home
 where you belong

Chorus :
So come on!
Jump in the fire!
So come on!
Jump in the fire!
So come on!
Jump in the fire!
So come on!
Jump in the fire!
Come on, jump, baby, now!
Вверх

Jump In The Fire (2 вариант)

Riff 1

E|-----------------|-----------------|-----------|
B|-----------------|-----------------|-----------|
G|o---------------o|-----------------|-5-------3-|
D|o--------3------o|---------3-------|-5-------3-|
A|-----5-3---5-4-3-|-----5-3---5-4-3-|-3-------1-|
E|-3-6-------------|-3-6-------------|-----------|

E|-----------------|-----------------|-----------|
B|-----------------|-----------------|-----------|
G|o---------------o|-----------------|-5-------3-|
D|o--------3------o|-3-------3-------|-5-------3-|
A|-----3-5---5-4-3-|---5-4-3---5-4-3-|-3-------1-|
E|-3-6-------------|-----------------|-----------|

E|-----------------|-----------------|-----------------|
B|-----------------|-----------------|-----------------|
G|o---------------o|-----------------|-----------------|
D|o--------3------o|-5-3---3---------|---------3-5~~~~-|
A|-----3-5---5-4-3-|-----5---5-4-3---|-----3-5---------|
E|-3-6-------------|---------------6-|-3-6-------------|

E|-----------------|-----------------|-----------|
B|-----------------|-----------------|-----------|
G|o---------------o|-----------------|-5-------3-|
D|o--------3------o|-3-------3-------|-5-------3-|
A|-----3-5---5-4-3-|---5-4-3---5-4-3-|-3-------1-|
E|-3-6-------------|-----------------|-----------|

Riff 2 (Don`t play repeat 4 during lead)

E|-----------------|----------|-----------------|--------------|
B|-----------------|----------|-----------------|--------------|
G|o--------------3===3--------|---------------5===5--x-x-x-6--o|
D|o--------------3===3--3-3-3-|---------------5===5--x-x-x-6--o|
A|---------------1===1--3-3-3-|---------------3===3--x-x-x-4---|
E|-1-3-1-3-1-3-1---|----1-1-1-|-1-3-1-3-1-3-1---|--------------|

E|-----------------|
B|-----------------|
G|=5-----6-----6--o|
D|=5--R--6--R--6--o|
A|=3-----4-----4---|
E|-----------------|

Riff 3

E|--------------|--------------|---------------|---------------|
B|--------------|--------------|---------------|---------------|
G|--------------|--------------|---------------|---------------|
D|8-8-8-8-R-8-8-|8-8-R-6-R-8-R-|-5-5-5-5-R-5-5-|-5-5-R-3-R-5-R-|
A|8-8-8-8---8-8-|8-8---6---8---|-5-5-5-5---5-5-|-5-5---3---5---|
E|6-6-6-6---6-6-|6-6---4---6---|-3-3-3-3---3-3-|-3-3---1---3---|

[RIFF 1]

[Verse 1, play RIFF 2 underneath]
Down in the depths of my firey home
The summons bell will chime
Tempting you and all the earth
To join our sinful kind

There is a job to be done and I`m the one
You people make me do it
Now it is time for your fate and I won`t hesitate
To pull you down into this pit

[Chorus, play RIFF 1 underneath]
	So come on
	Jump in the fire
	So come on
	Jump in the fire

[Verse 2, play RIFF 2 underneath]
With hell in my eyes and with death in my veins
The end is closing in
Feeding on the minds of man
And from their souls within
My disciples all shout to search out
And they always shall obey
Follow me now my child not the meek or the mild
But do just as I say

[Repeat Chorus]

[Play RIFF 3 several times behind lead (not transcribed)]

[Verse 3, play RIFF 2 underneath]
Jump by your will or be taken by force
I`ll get you either way
Trying to keep the hellfire lit
I am stalking you as prey
Living your life as me I am you you see
There is part of me in everyone
So reach down grab my hand walk with me through the land
Come home where you belong

[Repeat Chorus]
Вверх

Killing Time

Gtr.1
 Intro
  N.C.   (Drums)                                 trem.pick...
E|------------------||-------------------||--------------------|
B|------------------||-------------------||--------------------|
G|------------------||-------------------||--------------------|
D|------------------||-------------------||--------------------|
A|------------------||-------------------||--12----------------|
E|------------------||-------------------||--///---------------|

E|------------------||-------------------||--------------------|
B|------------------||-------------------||--------------------|
G|------------------||-------------------||--------------------|
D|------------------||-------------------||--------------------|
A|--12--------------||--10---------------||--7-----------------|
E|--///-------------||--///--------------||--///---------------|

Gtr.3
N.C.                                                 C5
Play 2nd time only
E|---------------------||--------------------------||----------|
B|*--------------------||--------------------------||----------|
G|---------------------||--------------------------||----------|
D|*--------------------||--------------------------||----------|
A|---------------------||--------------------------||----------|
E|---------------------||--------------------------||----------|

 Gtr.1
E|--------------------------||--------------------------||-----|
B|*-------------------------||--------------------------||-----|
G|--------------------------||----------------------5---||-----|
D|*-------------------------||----------------------5---||-----|
A|---0--0--0--0--0--0--0--0-||-0--0--0--0--0--0--0--3---||-----|
E|--------------------------||--------------------------||-----|

   Play 2nd time only
   Harm. .........|         N.C.                             D5
E|-------------------||------------------------||--------------|
B|-----------7-------||------------------------||--------------|
G|------7---------5--||------------------------||--------------|
D|-7-----------------||------------------------||--------------|
A|-------------------||------------------------||--------------|
E|-------------------||------------------------||--------------|

E|--------||------------------------||-------------------------|
B|--------||------------------------||-------------------------|
G|---(5)--||------------------------||----------------------7--|
D|---(3)--||------------------------||----------------------7--|
A|---(3)--||-0--0--0--0--0--0--0--0-||-0--0--0--0--0--0--0--5--|
E|--------||------------------------||-------------------------|

E|---------------||-------------7-----||-----20----------------|
B|---------------||---------7-------7-||---x-------------------|
G|---------------||-----7-------------||-x-----------17--(17)--|
D|---------------||-7-----------------||-----------------------|
A|---------------||-------------------||-----------------------|
E|---------------||-------------------||-----------------------|

E|---------------||-------------------||-----------------------|
B|---------------||-------------------||-----------------------|
G|---------------||-------------------||-----------------------|
D|---------------||------------7------||------------------7----|
A|---------------||------------7------||------------------7----|
E|---------------||-------------------||-----------------------|

  Gtr.1
  N.C.                                          G5       A5
E|-----------------------------||------------------------------|
B|*----------------------------||-----------------------------*|
G|---------7--------5----------||----------------7--------9----|
D|*----------------------------||---7p5----------5--------7---*|
A|---0--0-----0--0-----0--0----||-----------0------------------|
E|-----------------------------||------------------------------|

    A5
E|----------------------|
B|--10------10------10--|
G|--9-------9--------9--|
D|--7-------7--------7--|
A|----------------------|
E|----------------------|

Fill 1 (gtr.3)
E|----17/---17/----------17---||--(17)--|
B|----20----20-----------20---||--(20)--|
G|----------------------------||--------|
D|----------------------------||--------|
A|----------------------------||--------|
E|----------------------------||--------|

Rhy.Fig.1(Gtrs.1&2)
E|------------------------------||-----------------------------|
B|*-----------------------------||-----------------------------|
G|-----------7p5-------5--------||--7p5-------7---------9------|
D|*----------7p5-------5--------||--7p5-------5---------7------|
A|---0---0---------0----------0-||--------0--------------------|
E|------------------------------||-----------------------------|

   P.M.                                         (end Rhy.Fig.1)
E|------------------------------||-----------------------------|
B|------------------------------||----------------------------*|
G|-----------7p5-------5--------||--7p5-------5---------5------|
D|-----------7p5-------5--------||--7p5-------5---------5-----*|
A|---0---0---------0----------0-||--------0---3---------3------|
E|------------------------------||-----------------------------|

              C5                 F5
E|-----------------------------||----|
B|-----------------------------||----|
G|---7p5-------5-----------5-/-||-10-|
D|---7p5-------5-----------5-/-||-10-|
A|---------0---3-----------3-/-||-8--|
E|-----------------------------||----|

   G5
E|--------------------|
B|--------------------|
G|-12------12------12-|
D|-12------12------12-|
A|-10------10------10-|
E|--------------------|

 1st,3rd,5th Verses
 w/Rhy.Fig.1(1 3/4 times)
 3rd time w/Fill 3

 N.C.                         G5      A5     N.C.
|----------------------||--------------||----------------------|
 1.Sound of gunfire comes thrught the night;  killing andhatred,
   it?s a

          C5             N.C.                        G5      A5
|---------------------||----------------------||---------------|
 terible sight.     Reports come in, there?s a   heavy  attack;

   Fill 3 (Gtr.3)
E|------------------------------||---|
B|----13------------------------||---|
G|---------14------------(14)---||-x-|
D|------------------------------||---|
A|------------------------------||---|
E|------------------------------||---|

                        3rd time w/Fill 4
  N.C.                          C5          B5
|---------------------||---------------------------------|
  message seen, we?re   moving back.

                                    Rhy.Fill 1(Gtrs.1&2)......|
                                           P.M.
|---------------------------------||---------------------------------|
|---------------------------------||---------------------------------|
|---------------------------------||--7p5-------5-----------4--------|
|---------------------------------||--7p5-------5-----------4--------|
|---------------------------------||--------0---3-----------2--------|
|---------------------------------||---------------------------------|


 Gtrs.1&2
 Gtr.3
|------------------------------------||---------------------------------|
|---5p1------------------------------||--6p3p0--------------------------|
|----------3p1p0---------------------||----------5p3p0------------------|
|-----------------3--(3)p1p0---------||------------------5p3p0p---------|
|-----------------------------3p1p0--||---------------------------5p3p0-|
|------------------------------------||---------------------------------|

 Fill 4(Gtr.3)
    1&1/2  Full
     )     )??
    /     /~~~~
|--20-||-20------17-20p17-||-17h2017-17-20p17-20p17-20p17-------17h20p17-|
|-----||------------------||------------------------------17-20----------|
|-----||------------------||---------------------------------------------|
|-----||------------------||---------------------------------------------|
|-----||------------------||---------------------------------------------|
|-----||------------------||---------------------------------------------|
                                                                  Full
                                                                  )???
                                                                 / ~~~
|-17-17h20p17-17-17h20p17-------17h20p17--17-||-20p17-----------/--------|
|-------------------------17h20--------------||--------20p17---20--------|
|--------------------------------------------||--------------------------|
|--------------------------------------------||--------------------------|
|--------------------------------------------||--------------------------|
|--------------------------------------------||--------------------------|
    1&1/2
      )
     /                                                    ~~~~~~~~
|---/---------------||----------------------------------||--------------|
|--20------20----19-||-17------17h19p17------17---------||--------------|
|-------------------||-----20------------20------20--19-||-17-----(17)--|
|-------------------||----------------------------------||--------------|
|-------------------||----------------------------------||--------------|
|-------------------||----------------------------------||--------------|


  1st time w/Fill 2

    5fr             5fr
    D       D5      D        D5
    P.M. ..|        P.M. .|                              ~~~~~~~~~~~~
|---------------------------------------||---------------------------|
|-------------------5---6---5h6p5-------||---5---6---8---8-----------|
|-----------5---7-------------------7---||---------------------------|
|---5h6h7-------------------------------||---------------------------|
|---------------------------------------||---------------------------|
|---------------------------------------||---------------------------|

  Bb5                                  C5
|--------------------------------||------------------------------------|
|                                                            2. Prepa -
|
|                                          Full      Full       Full
|                                           )         )          )
|--5-----7-----8-------7---5-----||---5----/--------5/---------5/------|
|--5---------------------------8-||-------8---------8----------8-------|
|--------------------------------||------------------------------------|
|--------------------------------||------------------------------------|
|--------------------------------||------------------------------------|
|--------------------------------||------------------------------------|

   2nd,4th,6th Verses
 w/Rhy.Fig.1(1 3/4 times)

  N.C.                                            G5         A5
|------------------------------------||---------------------------|
|  rations   are   made   for   the     journey   back ;
|
|        Full   Full
|        ____    )
|       /      /         (Gtr.3 out)
|-----5/------/---------------------||---------------------------|
|-----8------------------------------||---------------------------|
|------------------------------------||---------------------------|
|------------------------------------||---------------------------|
|------------------------------------||---------------------------|
|------------------------------------||---------------------------|


  N.C.                            C5         N.C.
|----------------------||-----------------||-------------------------|
 it?s  a  survival,  suplies  are packed.   No more nights in this e-

                                         w/Rhy.Fill 1  3rd time W/Fill 5
                                                       Gtrs. 1&2
         G5     A5     N.C.                         C5 B5   Bb5
|-------------------||------------------||---------------||---------|
  ternal hell; destination is simple: we  move  out.


         Chorus
  C5      D5                     Bb5(VII)      F5  E5   D5
          P.M.                                          P.M.
|------||----------------------||--------------------||--------------|
                           You   left from the line._
         (Kill-ing  time.)_                           (Kill-ing time.)_

  Bb5(VI)         F5  G5 D5               Bb5(VI)  F5 E5  D5       To Coda
                        P.M.                             P.M.
|---------------------||--------------||-------------||-----------------|
 Your turn to the kill.                 What?d ya say.                Ah,
                       (Kill-ing time.)_              (Kill-ing time.)_

  ________________________________________________________________________
 |1.                                                                      |
  Bb5(VI)  G5(III)
|-----------||-------------------------------------||---------------------|
| killing time,___           ah.                                 3.And he
                                                                     )
| Gtr.3
|-----------||-------------------------------------||----------------20---|
|--10/17-17-||-20p17-17-20p17----20p17----20p17----||-20p17----20p17-----*|
|-----------||----------------18-------18-------18-||-------18------------|
|-----------||-------------------------------------||--------------------*|
|-----------||-------------------------------------||---------------------|
|-----------||-------------------------------------||---------------------|

    Fill 5(Gtr.3)
|----17/--17--17--17--17--17---17/--17-||--20-----20---------(20)-|
|----20---20--20--20--20--20---20---20-||--------------------------|
|--------------------------------------||--------------------------|
|--------------------------------------||--------------------------|
|--------------------------------------||--------------------------|
|--------------------------------------||--------------------------|

  |2.                        (Drums)
   Bb5(VI)  G5(III)
 |------------------------||------------------||---------------|
   killing time.__

   Interlude

    A5
 Gtr.3                                                           1/2
|---------------------------||--------------------------||-------/-)--|
|---------------------------||--------------------------||--7----7/---|
|--------14--------17-------||-16--------15--------14--||--7----7----|
|--------14--------17--x--x-||-16--x-----15--------14--||------------|
|--0--0--12--0--0--15--x--x-||-14--x--0--13--0--0--12--||------------|
|---------------------------||--------------------------||------------|

|--------------------------||-------------------||--------------------|
|---7p5--------------------||-------------------||--------------------|
|---7p5-------5---9p5------||-------------------||--------------5-----|
|---------7------------7---||-------------------||-----5--6--7-----7--|
|--------------------------||--0---3--4--5--6---||--7-----------------|
|--------------------------||-------------------||--------------------|

                                  A5(VII)
|------------------------------||----------------------------------|
|------------------------------||-------------------------------19-|
|-5---7p5----7h9p7---9-11p9h11-||-10h12p10----14-12----16-14/16----|
|---------7--------9-----------||----------12-------12-------------|
|------------------------------||----------------------------------|
|------------------------------||----------------------------------|

  Guitar solo
  E5
|--/--------17-19-|
|-20--------------|
|-----------------|
|-----------------|
|-----------------|
|-----------------|

             G5(III)                     E5
|--20--19--17--19--17h19p17------17--/-||-17--17--17---17/-17--17--17-|
|----------------------------20-----20-||-20--20--20---20--20--20--20-|
|--------------------------------------||-----------------------------|
|--------------------------------------||-----------------------------|
|--------------------------------------||-----------------------------|
|--------------------------------------||-----------------------------|

              D5                       E5
|-17/-17--17--17---17/-17--17--17-||--17/-17--17--17---17/-17--17--17-|
|-20--20--20--20---20--20--20--20-||--20--20--20--20---20--20--20--20-|
|---------------------------------||----------------------------------|
|---------------------------------||----------------------------------|
|---------------------------------||----------------------------------|
|---------------------------------||----------------------------------|

               G5(III)
|--17/-17--17--17---17/-17--17--17-|
|--20--20--20--20---20--20--20--20-|
|----------------------------------|
|----------------------------------|
|----------------------------------|
|----------------------------------|

   E5                          G5(III)  F#5    F5(I)
|--20-----20---------------||------------17--||---/--------17--19-|
|--------------------------||----------------||--20---------------|
|--------------------------||----------------||-------------------|
|--------------------------||----------------||-------------------|
|--------------------------||----------------||-------------------|
|--------------------------||----------------||-------------------|

   G5(III)                                    A5(V)
|--20---19---17---19p17--------17--------17----/--|
|-------------------------20--------20--------20--|
|-------------------------------------------------|
|-------------------------------------------------|
|-------------------------------------------------|
|-------------------------------------------------|

|---17---17/--17--17/--17---x--17-|
|--------20---20--20---20---x-----|
|---------------------------------|
|---------------------------------|
|---------------------------------|
|---------------------------------|

                                       F5(I)        G5(III)D.S. al Coda
|--17/-17---20p17----------12-------||--/---------15-||--15------------|
|--20--20----------20--15-----15p13-||-15-----15-----||------15--15-----|
|-----------------------------------||---------------||-----------------|
|-----------------------------------||---------------||-----------------|
|-----------------------------------||---------------||-----------------|
|-----------------------------------||---------------||-----------------|

  Coda

    Bb5(VI)  G5(III)         A5(V)
|-------------------------||----------------------------------|
|  killing   time._______
|
|                           Gtr.3
|-------------------------||---/----------17----------/-------|
|-------------------------||--20--------------20---17/---17---|
|-------------------------||-----------------------19---------|
|-------------------------||----------------------------------|
|-------------------------||----------------------------------|
|-------------------------||----------------------------------|

                    G5(III)    A5(V)
|----------20-------15/---||---17/-----17/-----17/---||--(17)---|
|--20--17-----------18----||---20------20------20----||--(20)---|
|-------------------------||-------------------------||----------|
|-------------------------||-------------------------||----------|
|-------------------------||-------------------------||----------|
|-------------------------||-------------------------||----------|

             Addition Lyrics

3.And he knew what he needed to keep us alive,
  No time for cowardice, kill and survive
  Like a killer kid with a switchblade knife,
  Nasty world, he?ll take your life.

4.The silens is over, they attack again,
  Killing and hatred drive me insane.
  Reports come in of a heavy attack,
  Message is seen, we?re moving back.(To Chorus)

5.Repeat 1st Verse

6.Repeat 3st Verse
Вверх

King nothing

Main Riff:  Tune guitars 1/2 step down   Fill1 (at bottom)

E|----------------------------------------------|
B|---------------- Bend1/4---Bend1/4------------|
G|-------------------^---------^----------------|
D|-------------------5---------5---------8----7-|
A|-----5--6--7---/7-----7---/7----7-------------|
E|-----0--0--0------------------------/6-----5--|
                 sl.        sl.       sl.

Guitar1:Версия s

E|-----------------------------------------------------|
B|.---------------------------------------------------.|
G|-----------------------------------------------------|
D|-----------------------------------------------------|
A|.x--2--2--5-------8--7-----x--2--5--2---8--8--7--5--.|
E|-x--0--0--3---/6--6--5--0--x--0--3--0---6--6--5--3---|

Wish I may, Wish I might, have this I wish tonight,
Are You satisfied?
Hot and cold, bought and sold,a heart as hard as gold,
Are you satisfied?

Guitar2:Версия s(Seconed Time Only)

E|-----------------------------|
B|-----------------------------|
G|---9\----------------------9-|
D|---------Bend1/4-------------|
A|---7\------^-----/8--8--7--7-|
E|--------0--3--0--/6--6--5----|

Dig for gold,Dig for fame,You dig to make your name,
Are you pacified?
Wish I might,Wish I may,You wish your life away,
Are you pacified?

                                         Full
E|----------------------------|------------------------Bend1/4-|
B|----------~~~~~-------------|--------~~~-------^--------^----|
G|----------5-----------------|--------5---7--5--7--5--7--7----|
D|---/7--7-----7--7--5--7-----|---/7-7--------Bend-Full--------|
A|-0--------------0--0--0---6-|-0----------and-back-down-------|
E|------------------------0-6-|--------------------------------|

All the wants you waste     All the things you've chased

  Guitar1:E5          G5                   F#5
E|---------------------------|----------------------------|
B|---------------------------|----------------------------|
G|--------------------5------|--------------4-------------|
D|2-------------------5------|--------------4-------------|
A|2-------------------3------|--------------2-------------|
E|0--------------------------|----------------------------|

And it all crashes down,and you break your crown

                          pm..............
E|---------------------------|----------------------------|
B|---------------------------|----------------------------|
G|---------------------------|----------------------------|
D|-----------------------2--2|-2--2--2--2--2--2-----2-----|
A|-----------------------0--0|-0--0--0--0--0--0-----2-----|
E|---------------------------|----------------------0-----|

And you point your finger but there's no one around

               G5                        F#5
E|---------------------------|----------------------------|
B|---------------------------|----------------------------|
G|--------------5------------|----------5-----------------|
D|--------------5------------|----------5-----------------|
A|--------------3------------|----------2-----------------|
E|---------------------------|----------------------------|

Just want one thing,Just to play the King

   F5
E|---------|----------------------------|
B|---------|----------------------------|
G|---------|----------------------------|
D|---------|----------------------------|
A|-1--1--1-|-1---1--1--1--1--1--1--1--1-|
E|-1--1--1-|--1--1--1--1--1--1--1--1--1-|

But the castle's crumbled and you're left with just a name

E|---13--------|
B|---16--------|
G|Unison bend--|
D|Bend 16 Full-|
A|-------------|
E|-------------|

Where's your crown King Nothing?

Guitar2:Guitar2 justs keep doing this over and over again

E|---------------------------------------|
B|.-------------------------------------.|
G|---9--9--9--9--9--9--9--9--9--9--9--9--|
D|---9--9--9--7--7--7--9--9--9--9--9--9--|
A|.--7--7--7--7--7--7--7--7--7--7--7--7-.|
E|---0--0--0--0--0--0--0--0--0--0--0--0--|

Fill 1(For Beginning)

E|-------------------------------------------------------------|
B|-12----12------------p-----------------p--------------p------|
G|-12----12------12--14-12------12--12-14-12----12-12-14-12----|
D|----14-----14-------------14---------------14-------------14-|
A|-------------------------------------------------------------|
E|-------------------------------------------------------------|

*Solo:
      ^            ^     ^    ^
E|----12-----^-----12----14---15---|-----12-0-14-0-15-0-14-0---|
B|----15----11-----15----17---18---|-/14--------------------15-|
G|----------13---------------------|---------------------------|
D|---------------------------------|---------------------------|
A|---------------------------------|---------------------------|
E|---------------------------------|---------------------------|
    *Bend all bottom notes full
       ^     p      ^   p  ^
E|-12--12-|-15-12-0-12-15-12-0-12-12-0--14--0--15--0--14--0----|
B|-----15.|---------15---------15---------------------------15-|
G|--------|----------------------------------------------------|
D|--------|----------------------------------------------------|
A|-------.|----------------------------------------------------|
E|--------|----------------------------------------------------|

E|-/17-17-17-20-------17-----------------------17--17--17--20--|
B|--------------20-20-----17-17-20-----------------------------|
G|----------------------------------19--19--19-----------------|
D|-------------------------------------------------------------|
A|-------------------------------------------------------------|
E|-------------------------------------------------------------|

E|---------17------^---^----------12---p-----^---12---p-----^--|
B|-20--20-----17--17--17--- ^---^----15-12--15------15-12--15--|
G|----------------19--19---15--15----------Full-----------Full-|
D|--------------------------Full-------------------------------|
A|-------------------------------------------------------------|
E|-------------------------------------------------------------|

E|----------p--------Н--p--------------------------------------|
B|--^--12-15-12----12-15-12----12------p--------Н---~~~12-14-14|
G|-14-----------14----------14----14-14-12----12-14-12-12-14-14|
D|Full-------------------------------------14------------------|
A|-------------------------------------------------------------|
E|-------------------------------------------------------------|

                    ^        p            p
E|--------12--12-15-12----12-15-12---p-------------------------|
B|15-14---15-----------15----------15-12--^-----Н--p-----------|
G|15-14-Bend15---------------------------14---12-15-12---p-----|
D|-------Full---------------------------Full-----------14-12---|
A|-----------------------------------------------------------14|
E|-------------------------------------------------------------|

E|---------------------------------------------------------12\-|
B|---Н--p--------------------------------------------------12\-|
G|-12-14-12-14-12--^-------^-------^-------^-------------------|
D|----------------14--14--14--14--14--14--14--12--~~~~~~~------|
A|----------------1/2-----------------------------14-----------|
E|-------------------------------------------------------------|

Well,there it is King Nothing.It isn't
the exact thing but it's close enough
I'll try to add more to it if I get the time.

KING NOTHING
(Hetfield/Ulrich/Hammett)

Wish I may
Wish I might
Have this I wish tonight
Are you satisfied?
Dig for gold
Dig for fame
You dig to make your name
Are you pacified?

All the wants you waste
All the things you've chased
Then it all crashes down
And you break your crown
And you point your finger, but there's no one around
Just want one thing
Just to play the King
But the castle's crumbled and you're left with just a name
Where's your crown, King Nothing?
Where's your crown?

Hot and cold
Bought and sold
A heart as hard as gold
Yeah! Are you satisfied?
Wish I might, Wish I may
You wish your life away
Are you pacified?

All the wants you waste
All the things you've chased
Then it all crashes down
And you break your crown
And you point your finger, but there's no one around
Just want one thing
Just to play the King
But the castle's crumbled and you're left with just a name
Where's your crown, King Nothing?
Where's your crown?

Wish I may, wish I might
Have this wish, I wish tonight
I want that star, I want it now
I want it all and I don't care how

Care for what you wish
Care for what you say
Care for what you wish you may regret it
Care for what you wish you just might get it

Then it all crashes down
And you break your crown
And you point your finger, but there's no one around
Just want one thing
Just to play the King
But the castle's crumbled and you're left with just a name
Where's your crown, King Nothing?

Oh, You're just nothing
Where's your crown King Nothing?
Oh, you're just nothing
Absolutely Nothing
Off to never, never land
Вверх

King Nothing (2 вариант)

Intro

Fill 1 (Gtr. 1) Fade in     Use Distortion and *Octaver
									end Fill 1
1|-----------------------------|----------------------|
2|-17~~~~-17~~~~-17~~~~-17~~~~-|----------------------|
3|-----------------------------|--------*--/----------| Play 5x
4|-----------------------------|----------/-----------|
5|-----------------------------|---------/--*---------|
6|-----------------------------|----------------------|

*Octaver doubles an octave below

w/Fill 1 (5x)
									Full
1|-----------------------------|---------------------------|
2|-----------------------------|-----------------------15b-|
3|-----------------------------|-----------------------14b-|
4|-----------------------------|---------------------------|
5|-----------------------------|---------------------------|
6|-----------------------------|---------------------------|

		Full
1|-----------------------------|---------------------------|
2|r15--------15b---------------|---------------------------|
3|r14--------14b---------------|---------------------------|
4|-----------------------------|---------------------------|
5|-----------------------------|----------------------X--X-|
6|-----------------------------|----------------------X--X-|

						    Full    Full
1|-----------------------------|--------------------|
2|-----------------------------|--------------------|
3|-----------------------------|--------------------|
4|-----------------------------|---------7B----(7)b-|
5|-7/--------------------------|--------------------|
6|-7/--------------------------|--------------------|

     Release bend to 1/2
1|------------------------|
2|------------------------|
3|------------------------|
4|--(7)---------------(7)-|
5|------------------------|
6|------------------------|

			1/4			 1/4	  |-Let Ring-|
1|-----------------------------|---------------------|
2|-----------------------------|---------------------|
3|-----------------------------|---------------------|
4|----------------5b-----------|------5b-------8---7-|
5|--5--6--7---/7-----7---------|---/7----7-----------|
6|--0--0--0--0-----------------|-0----------/6---5---|

Rhy. Fig. 1 (w/Fill 1)

			  1/4		 1/4	  |-Let Ring-| (end fig.1)
1|------------------------|---------------------------|
2|------------------------|---------------------------|
3|*-----------------------|--------------------------*| Play 3x
4|*------------------5b---|------5b-------8---7------*|
5|-----5--6--7---/7-----7-|---/7----7-----------------|
6|-0---0--0--0--0---------|-0----------/6---5---------|

			  1/4 	 1/4    |-Let Ring-|
1|------------------------|---------------------------|
2|------------------------|---------------------------|
3|*-----------------------|--------------------------*| Play 3x
4|*------------------5b---|------5b-------8---7------*|
5|-----5--6--7---/7-----7-|---/7----7-----------------|
6|-0---0--0--0--0---------|-0----------/6---5---------|

(w/Rhy. Fig. 1)
	  1/4		     1/4
1|----------------------------|--------------------------------|
2|-12--12b-------12--12b------|--------------------------------|
3|-12--12b-------12--12b------|----1214p12--1214p12--1214p12---|
4|---------14~~~---------14~~~|(14)-------14-------14-------14-|
5|----------------------------|--------------------------------|
6|----------------------------|--------------------------------|

Rhy. Fig. 2

1|-----------------------------|----------------------------|
2|-----------------------------|----------------------------|
3|*----------------------------|--------*--/----------------|
4|*----------------------------|----------/-----------------|
5|--X--2--5--2------8--7-------|---------/--*---------------|
6|--X--0--3--0--/6--6--5--0----|----------------------------|
 Wish I may, Wish I might, have this wish I wish tonight
					  			end rhy fig 2
1|-----------------------------|----------------------------|
2|-----------------------------|----------------------------|
3|-----------------------------|----------------------------|
4|-----------------------------|----------------------------|
5|--X--2--5--2------8--7-------|--X--2--5--2------8--7--5---|
6|--X--0--3--0--/6--6--5--0----|--X--0--3--0--/6--6--5--3---|
			Are you satisfied?
*=Gtr 1 subtitute Rhy. Fill 1 (see end of tab)

w/Rhy. Fig. 2
	   1/4				   1/4
1|-----------------------------|----------------------------|
2|-----------------------------|----------------------------|
3|-9---------------------9----|-9---------------------9-----|
4|-----------------------------|----------------------------|
5|-7-----------/8--8--7--7----|-7-----------/8--8--7--7-----|
6|----0--3b--0--/6--6--5-------|----0--3b--0--/6--6--5------|
Dig for gold, dig for fame.	  You dig to make your name.
						   1/4
1|-----------------------------|----------------------------|
2|-----------------------------|----------------------------|
3|----------*--/---------------|-9--------------------------|
4|------------/----------------|----------------------------|
5|-----------/--*--------------|-7-----------/8--8--7--5----|
6|-----------------------------|----0--3b--0--/6--6--5--3---|
                          Are you pacified?

Half Time feel
Pre-Chorus
Rhy Fig 3
								end Rhy fig 3
1|-----------------------------|----------------------------|
2|-----------------------------|----------------------------|
3|-----------5~~~--------------|----------------------------|
4|----/7--7--------7--7--5-----|-(5)--7---------------------|
5|-0------------------0--0-----|-(0)--0-----6---------------|
6|-----------------------------|---------0--6---------------|
                   All the want you waste.

Rhy Fill 2 (w/Rhy Fig 3)
				 Full			  1/2		   */*
1|-----------------------------|----------------------------|
2|-----------------------------|----------------------------|
3|-----------5~~~--7--5--7b----|-(7)--5--7--7b~~~-----------|
4|----/7--7--------------------|----------------------------|
5|-0---------------------------|----------------------------|
6|-----------------------------|----------------------12----|
			All yhe things you`ve changed.
Chorus  (end Half time feel)

1|-----------------------------|----------------------------|
2|-----------------------------|----------------------------|
3|-----------------------------|-9--9--9--9--9--9--9--9-----|
4|-----------------------------|----------------------------|
5|-----------------------------|-7--7--7--7--7--7--7--7-----|
6|-0----0--0--0--0--0--0-------|-0--0--0--0--0--0--0--0-----|
       Then it all crashes down        and you break your crown

1|-----------------------------|----------------------------|
2|-----------------------------|----------------------------|
3|-9--9--9--9--9--9--9--9------|-9--9--9--9--9--9--9--9-----|
4|-----------------------------|----------------------------|
5|-7--7--7--7--7--7--7--7------|-7--7--7--7--7--7--7--7-----|
6|-0--0--0--0--0--0--0--0------|-0--0--0--0--0--0--0--0-----|
		and you point your finger but there`s no one around

1|-----------------------------|----------------------------|
2|-----------------------------|----------------------------|
3|-9--9--9--9--9--9--9--9------|-9--9--9--9--9--9--9--9-----|
4|-----------------------------|----------------------------|
5|-7--7--7--7--7--7--7--7------|-7--7--7--7--7--7--7--7-----|
6|-0--0--0--0--0--0--0--0------|-0--0--0--0--0--0--0--0-----|
	Just want one thing.		Just to play the king

1|-----------------------------|----------------------------|
2|-----------------------------|----------------------------|
3|-9--9--9--9--9--9--9--9------|----------------------------|
4|-----------------------------|----------------------------|
5|-7--7--7--7--7--7--7--7------|-1--1--1--1--1--1--1--1-----|
6|-0--0--0--0--0--0--0--0------|-1--1--1--1--1--1--1--1-----|
	But the castle crumbled and your left with just a
|1.
   Full  Full  Full  		  w/ Rhy fig 1 (4x)
1|-13----13----13--------------|----------------------------|
2|-16b---16b---16b-----16------|----------------------------|
3|-----------------------------|----------------------------|
4|-----------------------------|----------------------------|
5|-----------------------------|----------------------------|
6|-----------------------------|----------------------------|
	name.   Where`s your crown,   King Nothing?

1|-----------------------------|----------------------------|
2|-----------------------------|----------------------------|
3|-----------------------------|----------------------------|
4|-----------------------------|----------------------------|
5|-----------------------------|----------------------------|
6|-----------------------------|----------------------------|

						  1/4   1/4
1|-----------------------------|----------------------------|
2|-----------------------------|-12-12b----12b--------------|
3|-----------------------------|-12-12b----12b--------------|
4|-----------------------------|--------14-----14-----------|
5|-----------------------------|----------------------------|
6|-----------------------------|----------------------------|
				Where`s your crown?

1|-----------------------------|----------------------------|
2|-----------------------------|-12--12----12--12-----12----|
3|-1214p12---1214p12--1214p12--|-12--12----12--12-----12----|
4|--------14--------14-------14|--------14--------14--------|
5|-----------------------------|----------------------------|
6|-----------------------------|----------------------------|

--------------------------------
   Full/1/2            Full/1/2 |
1|------------------------------|
2|-14b-----12--14--14--14b--14--|
3|-14b-----12--14--14--14b--14-*|
4|-----------------------------*|
5|------------------------------|
6|------------------------------|

|--------------------------------
|2.
   Full Full Full
1|-13b--13b--13b---------------|
2|-16b--16b--16b----16---------|
3|-----------------------------|
4|-----------------------------|
5|-----------------------------|
6|-----------------------------|
	name.    Where`s your crown, King
Guitar Solo
w/Rhy Fig 1 (4x)
with wah as filter and octaver

    Full				   Full
1|-12--------------------------|----------------------------|
2|-15b-------------------------|-11-------------------------|
3|-----------------------------|-13b------------------------|
4|-----------------------------|----------------------------|
5|-----------------------------|----------------------------|
6|-----------------------------|----------------------------|
		Nothing?						You`re
   Full            Full  Full
1|-12--------------14----15----|----------------------------|
2|-15b-------------17b---18b---|--(18)---------------/14----|
3|-----------------------------|----------------------------|
4|-----------------------------|----------------------------|
5|-----------------------------|----------------------------|
6|-----------------------------|----------------------------|
    nothing					Come on, where`s your crown?
				     Full				     Full
1|-12-0-14-0-15-0-14-0----12-12-|-12-0-14-0-15-0-14-0---12-12-|
2|---------------------15----15b|---------------------15---15b|
3|------------------------------|-----------------------------|
4|------------------------------|-----------------------------|
5|------------------------------|-----------------------------|
6|------------------------------|-----------------------------|

	    Full        Full					    Full
1|15p12-0-12--15p12-0-12-------|12-0-14-0-15-0-14-0----12-12-|
2|--------15b---------15b------|--------------------15----15b|
3|-----------------------------|-----------------------------|
4|-----------------------------|-----------------------------|
5|-----------------------------|-----------------------------|
6|-----------------------------|-----------------------------|

w/Rhy Fig 3 (1.5x)

1|-17--17--17--20----------17--|----------------------------|
2|-----------------20--20------|-17--17--20-----------------|
3|-----------------------------|-------------19--19--19-----|
4|-----------------------------|----------------------------|
5|-----------------------------|----------------------------|
6|-----------------------------|----------------------------|

Gtr 1 substitute Rhy Fill 2     w/Rhy. Fill 3 (see end of tab)
						     Full     Full
1|-17--17--17--20---------17---|----------------------------|
2|-----------------20--20------|-17------17-------17--------|
3|-----------------------------|---------19b------19b-------|
4|-----------------------------|----------------------------|
5|-----------------------------|----------------------------|
6|-----------------------------|----------------------------|
								Huh!
w/Rhy Fig 2
   Full Full         Full         Full
1|----------12-----------12-----------12-------|
2|-15b--15b----15p12-15b----15p12-15b----15p12-|
3|---------------------------------------------|
4|---------------------------------------------|
5|---------------------------------------------|
6|---------------------------------------------|

   Full
1|--------------------------------------------------------|
2|-----12-15p12----12h15p12----12-------------------------|
3|-14b----------14----------14----14-14p12----12h14-12~~~-|
4|-----------------------------------------14-------------|
5|--------------------------------------------------------|
6|--------------------------------------------------------|

1|-----------------------------|
2|-12----14-14--15--14---------|
3|-12----14-14--15--14---------|
4|-----------------------------|
5|-----------------------------|
6|-----------------------------|

   Full                           Full
1|-12--12-15p12----12-15p12-----------------------------|
2|-15b----------15----------15p12-----12h15p12----------|
3|--------------------------------14b----------14p12----|
4|---------------------------------------------------14-|
5|------------------------------------------------------|
6|------------------------------------------------------|

E|----------------|
B|----------------|
G|-12h14p12-14-12-|
D|----------------|
A|----------------|
E|----------------|

                          w/Fill 1 & Rhy Fill 4 (see end of tab)
1|--------------------------------|-------------------------|
2|--------------------------------|-------------------------|
3|-14b-14--14b-14--14b-14--14b-12-|-------------------------|
4|--------------------------------|-14~~~~~~~~~~~~~~~~~~~~~-|
5|--------------------------------|-------------------------|
6|--------------------------------|-------------------------|

1|-----------------------------|-12-------------------12---|
2|------------------------12---|-12-------------------12---|
3|------------------------12---|---------------------------|
4|-(14)~~~~~~~~~~~~~~~~~~------|---------------------------|
5|-----------------------------|---------------------------|
6|-----------------------------|---------------------------|

				end solo
1|-X--------------------------|----------------------------|
2|-X--------------------------|----------------------------|
3|----------------------------|----------------------------|
4|----------------------------|----------------------------|
5|----------------------------|----------------------------|
6|----------------------------|----------------------------|

					  adlib with feedback next 10 bars
1|-----------------------------|----------------------------|
2|-----------------------------|----------------------------|
3|-----------------------------|----------------------------|
4|-----------------------------|----------------------------|
5|-----------------------------|----------------------------|
6|-----------------------------|----------------------------|

					  Bridge w/Fill 1(8x)

1|-----------------------------|----------------------------|
					I wish I may, 		I
1|-----------------------------|----------------------------|
	Wish	I   might		   have this wish I  wish
1|-----------------------------|----------------------------|
	tonight               I    want that star,	I
1|-----------------------------|----------------------------|
	want it    now.    I    want it  all and I don`t care how.
1|-----------------------------|----------------------------|
2|-----------------------------|----------------------------|
3|-----------------------------|----------------------------|
4|--h2-------------------------|---h5-----------------------|
5|-----------------------------|----------------------------|
6|-----------------------------|----------------------------|
 |			Careful      | what you wish			|
1|--------0--------------0-----|------------------0---------|
2|------------(3)/5------------|---3-----------------3/5----|
3|-----------------------------|----------------------------|
4|-----------------------------|----------------------------|
5|-----------------------------|----------------------------|
6|--0--------------------------|----------------------------|

1|-----------------------------|----------------------------|
2|-----------------------------|----------------------------|
3|-----------------------------|----------------------------|
4|--h4-------------------------|--h3------------------------|
5|-----------------------------|----------------------------|
6|-----------------------------|----------------------------|
 |   Careful	1/2		 | what you say       Careful |
1|-------------2---------------|-----------------0----------|
2|--2-------------2b-----(2)--|-1---------------------------|
3|-----------------------------|----------------------------|
4|-----------------------------|----------------------------|
5|-----------------------------|----------------------------|
6|-----------------------------|---------------------3---1--|

1|-----------------------------|----------------------------|
2|-----------------------------|----------------------------|
3|-----------------------------|----------------------------|
4|--h2-------------------------|--h5------------------------|
5|-----------------------------|----------------------------|
6|-----------------------------|----------------------------|
 |what you wish you may		 | regret it 	Careful	|
1|---------------3----------3--|----------------0---3----0--|
2|--------(3)/5-----(3)/5------|-(5)3-----------------------|
3|-----------------------------|-----------0----------------|
4|-----------------------------|----------------------------|
5|-----------------------------|----------------------------|
6|--0--------------------------|----------------------------|

								D.S. al Coda
								(goto the */*)
1|-----------------------------|----------------------------|
2|-----------------------------|----------------------------|
3|-----------------------------|----------------------------|
4|--h4-------------------------|--h7------------------------|
5|-----------------------------|----------------------------|
6|-----------------------------|-----------------------19---|
 |	What you wish you just	 |  might get it			|
1|----------0------------------|--0----------0------0-------|
2|---------------2b-------2----|-------------1------1-------|
3|-----------------------------|----------------------------|
4|-----------------------------|----------------------------|
5|-----------------------------|----------------------------|
6|--2--------------------------|--------2-------------------|

CODA

   Full  Full  Full
1|-13----13----13--------------|----------------------------|
2|-16b---16b---16b-----16------|----------------------------|
3|-----------------------------|----------------------------|
4|-----------------------------|----------------------------|
5|-----------------------------|-2--------------------------|
6|-----------------------------|-0--------------------------|
   name. Where`s your crown King	Nothing?

1|-----------------------------|----------------------------|
2|-----------------------------|----------------------------|
3|-----------------------------|----------------------------|
4|-----------------------------|----------------------------|
5|-(2)-------------------------|-(2)------------------------|
6|-(0)-------------------------|-(0)------------------------|

1|-----------------------------|
2|-----------------------------|
3|-----------------------------|
4|-----------------------------|
5|-(2)-------------------------|
6|-(0)-------------------------|
 		Nothing.

OUTRO
w/Rhy. Fig. 1 (Gtr 2 4x, Gtr. 3 3.5x)

1|-----------------------------|----------------------------|
2|----0--0---------0--0--------|---0--2p0---0-2-0---0-2-0---|
3|----0--0---------0--0--------|---0--2p0---0-2-0---0-2-0h1-|
4|----------2~~~---------2~~~--|-2--------2-------2---------|
5|-----------------------------|----------------------------|
6|-0---------------------------|----------------------------|
					   Mm,  no  you`re just
									Full
1|-----------------------------|----------------------------|
2|----0--0---------0--0--------|---0------------------------|
3|----0--0---------0--0--------|---0-0h2p0---0h2p0---4b-----|
4|----------2~~~---------2~~~--|-----------2-------2----5~~-|
5|-----------------------------|----------------------------|
6|-0---------------------------|----------------------------|
    nothing.			  Where`s your crown   King
 								 Full
1|-----------------------------|----------------------------|
2|----0--0---------0--0--------|---0-2p0---2p0--------------|
3|----0--0---------0--0--------|---0-2p0---2p0---2b--2--0---|
4|----------2~~~---------2~~~--|---------2-----2------------|
5|-----------------------------|----------------------------|
6|-0---------------------------|----------------------------|
   Nothing                        No,   you`re just
w/Rhy. Fill 5
							            Full
1|-----------------------------|----------------------------|
2|----0--0---------0--0--------|---0------------------------|
3|----0--0---------0--0--------|---0--0h2p0---0h2p0---4b----|
4|----------2~~~---------2~~~--|------------2-------2----5~~|
5|-----------------------------|----------------------------|
6|-0---------------------------|----------------------------|
nothing							Absolutly
Free Time

1|-----------------------------|----------------------------||
2|-----------------------------|----------------------------||
3|-----------------------------|----------------------------||
4|-----------------------------|----------------------------||
5|-----------------------------|----------------------------||
6|-----------------------------|----------------------------||
	nothing				Off to never never land....
End

Rhy. Fill 1

1|-----------------------------|
2|-----------------------------|
3|-----------------------9-----|
4|-----------------------------|
5|-X--2--5--2------8--7--7-----|
6|-X--0--3--0--/6--6--5--------|

Rhy. Fill 3

			  1/2
1|-----------------------------|
2|-----------------------------|
3|--(7)---5----7----7b---------|
4|--(5)---7--------------------|
5|--(0)---0---------6----------|
6|-------------0----6----------|

Rhy. Fill 4

	   .5/ .5/    				.5/
1|-----------------------------|----------------------------|
2|-----------------------------|----------------------------|
3|-----------------------------|----------------------------|
4|-----------------------------|----------------------------|
5|-----------------------------|----------------------------|
6|-0---------------------------|-(0)------------------------|

1|-----------------------------|----------------------------|
2|-----------------------------|----------------------------|
3|-----------------------------|----------------------------|
4|-----------------------------|----------------------------|
5|-----------------------------|----------------------------|
6|-(0)-------------------------|-(0)---------*-*-*-*--x-x---|

1|-----------------------------|
2|-----------------------------|
3|-----------------------------|
4|-----------------------------|
5|-----------------------------|
6|-19--------------------------|

Rhy. Fill 5

		    1/2             Free Time
1|-----------------------------|----------------------------|
2|-----------------------------|----------------------------|
3|-----------------------------|----------------------------|
4|--------5--7--7b---5--7------|-(7)/9~~~~~~~~~~~~~~~~~~~~~~|
5|----/7-----------------------|----------------------------|
6|-0---------------------------|----------------------------|
Вверх

Last Carress

D|-5--------------------------5---------------------10-12-|
A|-3---------------------3-5--3---------------------8--10-|
E|-----------------------1-3------------------------------|

   Doesn`t matter much to me... as long as...
   F                 D                C    C
E|-------------------------------------------------------------|
B|-------------------------------------------------------------|
G|-------------------------------------------------------------|
D|-10----------------7----------------5----5-5-5-5-5-5-5-5-5-5-|
A|-8-----------------5----------------3----3-3-3-3-3-3-3-3-3-3-|
E|-------------------------------------------------------------|
   F   G  C   C . . . . . . . . .       F  G  G
E|----------------------------------------------|
B|----------------------------------------------|
G|----------------------------------------------|
D|-10-12--5---5-5-5-5-5-5-5-5-5-5---------12-12-|
A|-8--10--3---3-3-3-3-3-3-3-3-3-3---6h7h8s10-10-|
E|----------------------------------------------|

I got something to say              I raped your mother today
  C C . . . . . . . .    F  G   C C . . . . . . . . .   F  G
E|-------------------------------------------------------------|
B|-------------------------------------------------------------|
G|-------------------------------------------------------------|
D|-5-5-5-5-5-5-5-5-5-5-5--10-12--5-5-5-5-5-5-5-5-5-5-5---10-12-|
A|-3-3-3-3-3-3-3-3-3-3-3--8--10--3-3-3-3-3-3-3-3-3-3-3---8--10-|
E|-------------------------------------------------------------|

Doesn`t matter much to me as long as.......................
   F  F         D D            C C               B/C B/C
E|-------------------------------------------------------|
B|-------------------------------------------------------|
G|-------------------------------------------------------|
D|-10-10--------7-7------------5-5---------------4s5-4s5-|
A|-8--8---------5-5------------3-3---------------2s3-2s3-|
E|-------------------------------------------------------|

  c/o
   Who knows if death ..... Is waiting for your     breath
   F  F          D D         D  E . . . . . . . .    D  C
E|--------------------------------------------------------|
B|--------------------------------------------------------|
G|--------------------------------------------------------|
D|-10-10---------7-7---------7--9-9-9-9-9-9-9-9-9----7--5-|
A|-8--8----------5-5---------5--7-7-7-7-7-7-7-7-7----5--3-|
E|--------------------------------------------------------|

  Cause we   get    one last caress
E|-------------------------------------------------------------|
B|-------------------------------------------------------------|
G|-------------------------------------------------------------|
D|-10-10------7-7---------5--5-5-5-5-5-5-5-5-5-5---------12-12-|
A|-8--8-------5-5---------3--3-3-3-3-3-3-3-3-3-3---6h7h8s10-10-|
E|-------------------------------------------------------------|

E|-------------------------------------------------------------|
B|-------------------------------------------------------------|
G|-------------------------------------------------------------|
D|-5--5-5-5-5-5-5-5-5-5-5-10-12--5--5-5-5-5-5-5-5-5-5-5--10-12-|
A|-3--3-3-3-3-3-3-3-3-3-3-8--10--3--3-3-3-3-3-3-3-3-3-3--8--10-|
E|-------------------------------------------------------------|

E||--------------------------|
B||--------------------------| Back to c/o and repeat till
G||--------------------------|  strumming hand hurts or
D||-10-10--7-7--5-5--4s5-4s5-|  pick breaks or whichever comes
A||-8--8---5-5--3-3--2s3-2s3-|  first...
E||--------------------------|
Вверх

Linus And Lucy

G|----------------------------------------------------|
D|----------------------------------------------------|
A|----------------------------------------------------|
E|-0-2-3-0-2-3--0-3-5-0-3-5--0-2-3-0-2-3--0-3-5-0-3-5-|

G|--------------------------|
D|-----2-----2--2---2-------|
A|-2-5---2-5------5---5-3-2-|
E|--------------------------|

G|-------------------------|
D|-------------------------|
A|-0-0-0-2-2-----0-0-0-2-2-|
E|-------------------------|
Вверх

Live Shit

This is the "Walk This Way" riff on the video.  Kirk plays this
when James and Lars are battling each other on the drum kits.
James plays the opening to the song on the drums and Kirk kicks
it in.

E|---------------------------12------9h12p9----------------|
B|----10----------13-------10------12---------9h12p9---7---|
G|-7------9---10------12---------------------------------7-|
D|---------------------------------------------------------|
A|---------------------------------------------------------|
E|---------------------------------------------------------|

Jaymz
E|-----------------------------------------------|
B|-----------------------------------------------|
G|------------7------------9-----------10--------|
D|-7----------7------------9-----------10-----10-|
A|-7----------5------------7------------8-----10-|
E|-5-------------------------------------------8-|

This next riff is from Part I of the Year And A Half videos.
Kirk is just sitting around playing "The Wind Cries Mary"  by
Jimi Hendrix.

E|-------------------------------------------------|
B|-------------------------------------------------|
G|-8--9--10----8--9--10----------------------------|
D|-8--9--10----8--9--10----------10-12-10h12-------|
A|-6--7--8-----10-11-12----10-12-------------12-10-|
E|-6--7--8-----------------------------------------|

This is also from Part I.  Jaymz plays the first few measures
to "Stairway to Heaven."

E|-------5-7-----7--8-----8-2-----2--0---------0------------|
B|-----5-----5--------5-------4--------1---1-----1------1-1-|
G|---5---------5--------5-------2--------2---------2--0-2-2-|
D|-7-------6--------5-------4--------3----------------------|
A|----------------------------------------------------2-0-0-|
E|----------------------------------------------------------|

Here are some more Live Shit riffs.  These riffs are from the
Mexico City CD`s.  Jason is finishing up his bass solo with
Zepplin`s "Dazed and Confused"  and some other song.  Kirk
joins in before starting his solo.  I`ve went ahead and tabbed
some of Ja

"a la Dazed and Confused"

This is Jason`s bass line. (4x)
G|---------------------------------------------------------|
D|---------------------------------------------------------|
A|----10--9--8--7-------------------10--9--8--7------------|
E|-0--------------0--10--9--8--7-0--------------0--10--9-8-|

Kirk (comes in on the second time)
                                 Harm
E|----12-----------------------------5-|
B|-12-----------------------------7----|
G|-------------------------------------|
D|-------------------------------------|
A|-------------------------------------|
E|-------------------------------------|

  full step
E|--------|
B|-----8--|
G|--------|
D|--------|
A|--------|
E|--------|

E|---|
B|-5-|
G|---|
D|---|
A|---|
E|---|

E|-19-19-------|
B|-------19-20-|
G|-------------|
D|-------------|
A|-------------|
E|-------------|

Jason
G|---------------------------------------------------------|
D|---------------------------------------------------------|
A|----10--9--8--7------------------10--9--8--7-------------|
E|-0--------------0--10--9--8--7-0-------------0--10--9--8-|

Kirk
(prebend all the notes marked with an * half a step and release
to the note in ()
E|----------------------------------------------------------|
B|----------------------------------------------------------|
G|----------------------------------------------------------|
D|----------------------------------------------------------|
A|-----9-(9)-7-(7)--------------------9-(9)-7-(7)-----------|
E|--------------------9-(9)-7-(7)-------------------9-(9)-7-|

E|----------------------|
B|----------------------|
G|----------------------| Play
D|-9-9-9-------7h9------|  4x
A|-9-9-9--7h9-------7h9-|
E|-7-7-7----------------|


E|-----------------------------------|
B|-----------------------------------|
G|-----------------------------------|
D|-7-----------------------------(7)-|
A|-7-----------------------------(7)-|
E|-5-----------------------------(5)-|

Fig 1 (3x)
    pm...    pm..............         pm.........
E|----------------------------------------------------------|
B|----------------------------------------------------------|
G|------------------------5------------------------5--------|
D|---------7--7-7--5--5-5---7-7p6p5-7--7-7--5--5-5---7-7p6p5|
A|----------------------------------------------------------|
E|--5--5----------------------------------------------------|

     pm..........             pm.........
E|---------------------------------------------|
B|---------------------------------------------|
G|----------------5------------------------5---|
D|-7--7-7--5--5-5---7-7p6p5-7--7-7--5--5-5---7-|
A|---------------------------------------------|
E|---------------------------------------------|

    pm...    pm..............         pm.........
E|-----------------------------------------------------|
B|------------------------6------------------------6---|
G|---------7--7-7--5--5-5---7-7p6p5-7--7-7--5--5-5---7-|
D|-----------------------------------------------------|
A|---5--5----------------------------------------------|
E|-----------------------------------------------------|

   pm...    pm..............         pm.........
E|---------------------------------------------------|
B|---------------------------------------------------|
G|----------------------5------------------------5---|
D|-------7--7-7--5--5-5---7-7p6p5-7--7-7--5--5-5---7-|
A|---------------------------------------------------|
E|-5--5----------------------------------------------|

  pm..          tr~   pm..         tr~
E|----------------------------------|
B|-----1210--------------108--------|
G|------9-7-9-7(9)--------75-7-5(7)-|
D|------9-7---------------75--------|
A|-7-7-----------------5-5----------|
E|----------------------------------|

(not sure about this part, kiddies)
  pm.............
E|--------------------------------------|
B|--------------------------------------|
G|--------------------9-----------------|
D|------------------9-9------7-9-7------|
A|------5-5--6-6--7-7-7-9-11-------11-9-|
E|-5-5----------------------------------|

This was taken from the Guitar Doodle part on the Mexico City
CD`s.  Kirk is just making a lot of racket on his guitar and
then jumps into "Third Stone From The Sun."

Play 2x
E|----------------------------------------------------|
B|----------------------------------------------------|
G|----------------------------------------------------|
D|----------------------------------------------------|
A|-11~-----11--9--7--9---4--7~------4--2--0--4--0--2~-|
E|----------------------------------------------------|

            w/ feedback
E|-------------|
B|-------------|
G|-------------|
D|-------------|
A|-4--0--9--7~-|
E|-------------|

This is the decending part the Kirk plays at the end of "For
Whom The Bell Tools" on the CD`s and video.

With wah.
+=closed; o=open
   o  + o + o + o  + o + o  + o + o + o + o + o + o + o + o
E|---------------------------------------------------------|
B|---------------------------------------------------------|
G|-9---12---8---11---7---10---6---9---5---8---4---7---3---6|
D|---------------------------------------------------------|
A|---------------------------------------------------------|
E|---------------------------------------------------------|

This next section is from Jason`s bass solo on the Seattle
video.  I think it is from "To Live Is To Die."
Jason is playing a little rhythm on his bass and Jaymz joins
in and then Kirk.  All guitars are clean.

Fig 1
Jaymz
E|---------------------------------------------------------|
B|-0-h-1--------0h1p0-----0--------------------------------|
G|--------2-----------2----------2------0-------0----------|
D|-----------2-----------------------------------------2---|
A|-0------------------------------------------------------2|
E|------------------------3---------3-------3---0----------|

E|---------------------------------------------------------|
B|-------------------------1-------------3-------3--------0|
G|-0-------0-h-2------------------2------------------------|
D|----------------0------------------2---------------------|
A|--------------------0----0-------------------------------|
E|-----0---1---------------------------------0---3-----3---|

E|------------------------------------------------|
B|--------------------------0----------------3----|
G|-0------0-------------0-------0-----------------|
D|---------------2---------------------0----------|
A|------------------2-------2-------------2-------|
E|----0---0---------------------3---------------0-|

Kirk
W/Fig 1
E|------------------------------------|
B|------------------------------------|  6x
A|------------------------------------|
D|-6---0---0------0-3-0---0-5-3-0-3-5-|

 (with echo)                            *The first note was
                                          struck and the
     pm.       pm....         pm.         other three echoed
E|---------|---------------|---------|-----------|
B|---------|---------------|---------|-----------|
G|-H-------|-H-------------|---------|-----------| play
D|-H-------|-H-------------|---------|-----------|  1x
A|--0-0----|--0-0-0-0-6----|--0-0----|--0-0-0-0--|
D|--0-0----|--0-0-0-0-6----|--0-0----|--0-0-0-0--|
                      ^
                   let ring

Rhy Fig 1
  pm...........................
E|------------------------------|
B|------------------------------|
G|------------------------------|  play
D|------------------------------|   8x
A|-0-0-0-0---0-0---0-0---0-0--0-|
D|-0-0-0-0---0-0---0-0---0-0--0-|

Riff A   (played with Rhy Fig 1)
Played 3x
                   *slight        )
        pm.....     bend        b/   ....
E|--------------------------------------------------|
B|--------------------------------------------------|
G|-----------------5--------------------------------|
D|-----------------5---5--3--5--6-66-66-66-5-3------|
A|-3h5--5-5-5-5---------------------------------3h5-|
D|--------------------------------------------------|

Played 1x
     )
   b/   ....        w/ wah
E|---------------------|
B|---------------------|
G|---------------------|
D|-6-66-66-66-5-3----7-|
A|-------------------5-|
D|-------------------0-|
                      ^
                   let ring
   w/ flanger                                    *R=rest
   w/ wah
   w/ feedback      tremelo bar / / / / / / / /
E|-----------------------------------------------------|
B|-----------------------------------------------------|
G|-----------------------------------------------------|
D|-(7)--------------(7)---------------(7)------------R-|
A|-(5)--------------(5)---------------(5)------------R-|
D|-(0)--------------(0)---------------(0)------------R-|

The band stops playing at this point and Jaymz starts talking
to the crowd.  Jason comes in and plays the next figure on the
bass and then the rest of the band kicks it back in

play 2x
E|-----------|-----------|
B|-----------|-----------|
G|-----------|-----------|
D|-----------|-----------|
A|--/5-------|-5---------|
D|-----6~~~~-|----5-~~~~-|

Guitar 1
E|-------|-----|-----|-------------|
B|-------|-----|-----|-------------|
G|-------|-----|-----|-------------|
D|-------|-----|-----|-------------|
A|-/5----|-5---|-5---|-5-----------|
D|-----6-|---5-|---6-|---5-----3p0-|

Guitar 2
E|---|---|---|---|
B|---|---|---|---|
G|---|---|---|---|
D|---|---|---|---|
A|-5-|-5-|-5-|-5-|
D|-6-|-5-|-6-|-5-|

Riff B
Guitar 1
E|------|-----|-----|------------------|
B|------|-----|-----|------------------|
G|------|-----|-----|------------------|
D|------|-----|-----|------------------|
A|-/5---|-5---|-5---|-5----------------|
D|----6-|---5-|---6-|---5-----3p0--3p0-|

Guitar 2
E|---|---|---|---|
B|---|---|---|---|
G|---|---|---|---|
D|---|---|---|---|
A|-5-|-5-|-5-|-5-|
D|-6-|-5-|-6-|-5-|

Verse:  3x
  pm.........         pm.....
E|------------------------------|
B|------------------------------|
G|------------------------------|
D|------------------------------|
A|-0-0-0-0---0-3------0---0---0-|
D|-0-0-0-0---0-3------0---0---0-|

  pm..
E|-----------------------------|
B|-----------------------------|
G|-----------------------------|
D|-----------------------------|
A|-0-0-0-0---0-3---------------|
D|-0-0-0-0---0-3------5b6r5--3-|

   pm..
E|---------------------------|---------------------------|
B|---------------------------|---------------------------|
G|---------------------------|---------------------------|
D|---------------------------|---------------------------|
A|-3-3-3-3--3-3--3-3--3-3--3-|--3-3-3-3--3-3--3-3--------|
D|-3-3-3-3--3-3--3-3--3-3--3-|--3-3-3-3--3-3--3-3--5b6r5-|

  pm.........         pm.......
E|------------------------------|
B|------------------------------|
G|------------------------------|
D|------------------------------|
A|-0-0-0-0---0-3------0---0---0-|
D|-0-0-0-0---0-3------0---0---0-|

  pm.........
E|-----------------------------|
B|-----------------------------|
G|-----------------------------|
D|-----------------------------|
A|-0-0-0-0---0-3---------------|
D|-0-0-0-0---0-3------5b6r5--3-|

   pm..........................................
E|---------------------------|--------------------|
B|---------------------------|--------------------|
G|---------------------------|--------------------|
D|---------------------------|--------------------|
A|-3-3-3-3--3-3--3-3--3-3--3-|--2-2-2-2--2-2--2-2-|
D|-3-3-3-3--3-3--3-3--3-3--3-|--2-2-2-2--2-2--2-2-|

Bridge:  Riff B

Chorus:  Play 3x
       pm.     pm.    pm.            pm
E|---------------------------|--------------------------|
B|---------------------------|--------------------------|
G|---------------------------|--------------------------|
D|---------------------------|--------------------------|
A|-6-------6-------6-------6-|-3---0-----3----3----0--3-|
D|-6---6-6-6---6-6-6---6-6-6-|-3---0--0--3----3----0--3-|

E|---|
B|---|
G|---| Play
D|---|  1x
A|-6-|
D|-6-|

Riff B
Verse
Bridge
Chorus

Riff A
Solo

Here`s the beginning of the solo.  It`s not exactly the same as
on the CD but sounds a lot like it.  I know the beginning is
different because it Kirk uses wah and the 15p14p13 aren`t on
the CD.

     *tremelo pick this note fast as hell and gradually
      bend up a step
   (w/wah)
E|--------------------------------------------------------|
B|--------------------------------------------------------|
G|--------------------------------------------------------|
D|-/15-15-15-15-15-15-15-15-15-15-15-15-15-15-15-15-15-15-|
A|--------------------------------------------------------|
E|--------------------------------------------------------|

E|-----------------------------------------------|
B|-----------------------------------------------|
G|-----------------------------------------------|
D|-15p14p13-15p14p13-15p14p13-p15p14p13-15p14p13-|
A|-----------------------------------------------|
E|-----------------------------------------------|

This fill is played during the 2nd verse and after the solo.

            *pre-bend this note 1/2 step and gradually
               release as you pick
E|------------------------------------|
B|------------------------------------|
G|-----7------------------------------|
D|------------------------------------|
A|-5-------*6(7)6-6-6-6-6-6-6-6-6-6-6-|
D|------------------------------------|

Lyrics:

Yeah, I feel you too
Feel, those things you do
In your eyes I see a fire that burns just free to you
That`s running through
Deep inside you know, seeds I plant will grow

One day we`ll see
The dance come down to me
Yeah come on come on now take the chance
That`s right
Let`s dance

Snake, I am the snake
Tempting, that bite you take
Let me make your mind, leave yourself behind
Be not afraid
I`ve got what ya need, hunger I will feed

One day we`ll see
The dance come down to me
Yeah come on come on now take the chance
Haha!
Let`s dance

Yeah, come dancin`
(solo)

One day we`ll see
The dance come down to me
Yeah come on come on now take the chance

Yeah, I feel you too
Feel, those things you do
In your eyes I see a fire that burns just free to you
That`s running through
Deep inside you know, seeds I plant will grow

One day we`ll see
The dance come down to me
Yeah come on come on now take the chance
That`s right
Let`s dance

It`s nice to see you here
Haha!
Вверх

Live Shit (2 вариант)

G|----------------------------------------------------|
D|----------------------------------------------------|
A|----------------------------------------------------|
E|-0-2-3-0-2-3--0-3-5-0-3-5--0-2-3-0-2-3--0-3-5-0-3-5-|

G|--------------------------|
D|-----2-----2--2---2-------|
A|-2-5---2-5------5---5-3-2-|
E|--------------------------|

G|--------------------------|
D|--------------------------|
A|--0-0-0-2-2-----0-0-0-2-2-|
E|--------------------------|
Вверх

London Dungeon

D|---------------------------------------------|
A|----2-----0---------------2-----0-0----------|
E|-0-----3-----3--2--0---0-----3-------3--2--0-|
intro and verse

D|---------------------|
A|---------------------|
E|-3-3-3-3-3-3-3-3-3-0-| twice then
chorus "I don`t wanna be in you London dungeon"

D|---------------------------------------|
A|---------------------------------------|
E|-3-3-3-3-3-3-3-3-3-5-5-5-5-5-5-5-5-5-0-|
Вверх

Loverman

1)
eb|-0--1--3-|
Bb|-1--1--3-|
Gb|-0--2--4-|
Db|-2--3--5-|
Ab|-3-------|
Eb|---------|
"There's a devil waiting outside your door"
clean
the bass chord progression is C F G, there are small guitar
parts along those lines, and a lot of little fills.
2)
Gb|-5---10--12-|
Db|-5---10--12-|
Ab|-3---8---10-|
Eb|------------|
"Loverman"
crunch
same basic progression, Kirk plays the same (or similar)
progression with the wah in full force.
3)
eb|-3h4p3----------1-3--1-|
Bb|----------1-3-4--------|
Gb|-----------------------|
Db|-----------------------|
Ab|-----------------------|
Eb|-----------------------|
the spelling bee part
clean
Вверх

Low Mans Lyric

tune all guitars down 1/2 step
1)
Eb|----0--------0--------0-------0-----0--|
Bb|-----2--------3--------3-------0-----0-|
Gb|------2--------0--------2--------------|
Db|-------------------0-------------------|
Ab|--0------------------------------------|
Eb|----------3-----------------0-----3----|
verse
"My eyes see reality, my fingers seek my veins."

The main thing to remember about this song is even though it
might
change the notes, the basic chord pattern for this part is the
same
A G D E G A

2)
Eb|-----------------3/53----2h3p2----0----3-----|
Bb|--------2h3p2----3/53----3--------0----3-----|
Gb|------2-----------------2------------------2-|
Db|----2-------------------0------------------2-|
Ab|--0----------------------------------------0-|
Eb|---------------3-----------------0----3------|
"I fall because I let go."
See? A G D E G A

3)
Eb|-0-0-0-0-0-0-0-0-0--------     -0-0-0-0-3-3-3-0-0-0---------|
Bb|-1-1-1-1-1-0-0-0-0--------     -1-1-1-1-3-3-3-1-1-1---------|
Gb|-2-2-2-2-2-0-0-0-0--------three-2-2-2-2-0-0-0-0-0-0-4-4-4-4-|
Db|-2-----2-2-2-----2--------times-2-----2-0-0-0-2-2-2-4-4-4-4-|
Ab|-0---------2-----2-----0-2then -0-----0-2-2-2-3-3-3-2-2-2-2-|
Eb|-----------0-----0-0-3----     ---------3-3-3---------------|
"The trash fire is warm"
Ok this is A E then A G C B

4)
Eb|-------------------------------------|
Bb|-------------------------------------|
Gb|-------------4-4-4-4-4-4-4-4-4-4-4-4-|
Db|-------------4-4-4-4-4-4-4-4-4-4-4-4-|
Ab|--0-2-3-2-0--2-2-2-2-2-2-2-2-2-2-2-2-|
Eb|-------------------------------------|
"Please forgive me"

5)
Eb|--0---------------3-3/53-2-2-2-2-3-2h3p2--------5-7-5-4-5-|
Bb|--2-2-2-3-2h3p2---3-3/53-3---------------3--5-8-----------|
Gb|--2-------------2-0-------2-------------------------------|
Db|--2---------------0-------0-------------------------------|
Ab|--0---------------2---------------------------------------|
Eb|------------------3---------------------------------------|
solo-ish thing

6)
Eb|------------------------------------|
Bb|--------1---------0-----------------|
Gb|------2---2-----2---2-----2-0-2-4-2-|
Db|------------------------------------|
Eb|--0---------0-----------------------|
Eb|----3---------2--------1------------|
"So low the sky is all I see."
Вверх

Mama said

Проигрыш:
Dm  C  Am

*Версия *

 Dm
Mama she has taught me well
 C                Am
Told me when I was young
 Dm
Son your life's an open book
      C                    Am
Don't close it before it's done
 Dm
The brightest flame burns quickest
      C               Am
Thats what I heard her say
 D
The son's heart's owed to mother
    C             Am
But I must find my way...

*Припев:*

 Dm  C  Am    G
Let my heart go
 Dm  C    Am  G
Let your son grow
     Dm  C  Am    G
Mama let my heart go
     Dm   C   Bb    G  Am
Mama let this heart be still.

*Проигрыш again*

*Версия  2*

 Dm
Remember my new last name
 C                Am
Wild blood in my veins
 Dm
Draping the strings around my neck
    C              Am
The mark that still remains
 Dm
Left home at an early age
    C              Am
of what I heard was wrong (?)
 Dm
I never asked forgiveness
    C             Am
For what is said is done...

*Припев:*

 Dm  C  Am    G
Let my heart go
 Dm  C    Am  G
Let your son grow
     Dm  C  Am    G
Mama let my heart go
     Dm   C   Bb    G  Am
Mama let this heart be still.

*Bridge*

 Dm      G
Never I asked of you
 C          F
but never I gave
 Dm                  G

But you gave me your emptiness
 C                 F
that I'll take to my grave
 Dm      G
Never I asked of you
 C          F
but never I gave
 Dm              G
But you gave me your emptiness
           C         F
that I'll take to my grave
     Dm   C   Bb    G  Am
So let this heart be still.


*Версия  3*

 Dm
Mama now I'm coming home
         C               Am
I'm not all you wished of me
 Dm
A mother's love for her son
 C            Am
was spoken heavily(?)
 Dm
yeah I took your love for granted
           C                Am
and all the things you said to me
 Dm
I need your arms to welcome me
     C                Am
That cold stone's all I see....


*Припев:*

 Dm  C  Am    G
Let my heart go
 Dm  C    Am  G
Let your son grow
     Dm  C  Am    G
Mama let my heart go
     Dm   C   Bb    G  Am
Mama let this heart be still.
 Dm  C   Am   Dm
Let my heart go
     Dm  C   Am   Dm
Mama let my heart go
          Dm  C   Am   Dm
You never let my heart go
     Dm   C   Bb    G  Am
Mama let this heart be still.


*Bridge*


 (solo over Dm G C F twice)

 Dm      G
Never I asked of you
 C          F
but never I gave
 Dm                  G
But you gave me your emptiness
 C                 F
that I'll take to my grave
 Dm      G
Never I asked of you
 C          F
but never I gave
 Dm              G
But you gave me your emptiness
           C         F
that I'll take to my grave
     Dm   C   Bb    G  Am
So let this heart be still.

Oh, and here's that riff you all love:
E|--^------^-------Full----------------|
B|-15-----15---------^---15--^--15-----|
G|-14--12-14----12--14------14--14--12-|
D|-------Bend-up---hold----hold--------|
A|------and-down-----------------------|
E|-------------------------------------|
Bend Bottom notes full

MAMA SAID
(Hetfield/Ulrich)

Mama, she has taught me well
Told me when I was young
"Son, your life's an open book
Don't close it 'fore its done"
"The brightest flame burns quickest"
That's what I heard her say

A son's heart sowed to mother
But I must find my way

Let my heart go
Let your son grow
Mama, let my heart go
Let this heart be still
Yeah, still

Rebel, mind your last name
Wild blood in my veins
They bring strings around my neck
The mark that still remains
Left home at an early age
Of what I heard was wrong
I never asked forgiveness
But what is said is done

Let my heart go
Let your son grow
Mama, let my heart go
Let this heart be still

Never I ask of you
But never I gave
But you gave me your emptiness that I'll take to my grave
Never I ask of you
But never I gave
But you gave me your emptiness that I'll take to my grave
So let this heart be still

Mama, now I'm coming home
I'm not all you wished of me
A mother's love for her son
Spoken, help me be
I took your love for granted
Not a thing you said to me
I needed your arms to welcome me
But, a cold stone's all I see

Let my heart go
Let your son grow
Mama, let my heart go
Let this heart be still

Let my heart go
Mama, let my heart go
You never let my heart go
So let this heart be still

Never I ask of you
But never I gave
But you gave me your emptiness that I'll take to my grave
Never I ask of you
But never I gave
But you gave me your emptiness that I'll take to my grave
So let this heart be still
Вверх

Master Of Puppets mp3

E||---|-------------|
B||---|-------------|
G||-9-|-7----6----5-|
D||-9-|-7----6----5-|
A||-7-|-5----4----3-|
E||-0-|-------------|

E|-------------------------|---------|------------------------|
B|-------------------------|---------|------------------------|
G|*------------------------|-7--6--5-|------------------------|
D|*------------------------|-7--6--5-|------------------------|
A|--------7--------6-------|-5--4--3-|------------------------|
E|--0--0-----0--0-----0--0-|---------|-0--0--7--0--0--6--0--0-|

                          3x
E|--------------------------||--------------------------|
B|--------------------------||--------------------------|
G|-------------------------*||*-------------------------|
D|-------------------------*||*-------------------------|
A|--------------------------||---------2--------3-------|
E|-5--0--4--0--3--0--2--0---||---0--1-----0--1-----0--1-|

E|------------------------|------------------------|
B|------------------------|------------------------|
G|------------------------|------------------------|
D|------------------------|------------------------|
A|-4--------3--------2--2-|-------2--------3-------|
E|----0--1-----0--1-------|-0--1-----0--1-----1--0-|

E|-----------------------||--------------------------|
B|-----------------------||--------------------------|
G|----------------------*||*-------------------------|
D|----------------------*||*-------------------------|
A|-5-4-----5-4-----5-4---||---------2--------3-------|
E|-3-2--0--3-2--0--3-2---||---0--1-----0--1-----0--1-|

E|-----------------|---------------------|---------------------|
B|-----------------|---------------------|---------------------|
G|-----------------|---------------------|-------------------4-|
D|-----------------|---------------------|-------------------4-|
A|-4-----3-----2-2-|-----2-------3-------|-4--------3--------2-|
E|---0-1---0-1-----|-0-1---0--1-----0--1-|----0--1-----1--0----|

E|------------------------|------------------------|
B|------------------------|------------------------|
G|------------------------|------------------------|
D|------------------------|------------------------|
A|-------2--------3-------|-4--------3--------2--2-|
E|-0--1-----0--1-----0--1-|----0--1-----0--1-------|

E|------------------------|-----------------------||
B|------------------------|-----------------------||
G|------------------------|----------------------*||
D|------------------------|----------------------*||
A|-------2--------3-------|-5-4-----5-4-----5-4---||
E|-0--1-----0--1-----1--0-|-3-2--0--3-2--0--3-2---||

E|-----------------------|----|
B|-----------------------|----|
G|-----------------------|----|
D|-----------------------|--2-|
A|--5-4-----5-4-----5-4--|--2-|
E|--3-2--0--3-2--0--3-2--|--0-|

E|--------------------------|-----------------------|
B|--------------------------|-----------------------|
G|*-------------------------|-----------------------|
D|*-------------------------|-----------------------|
A|--------------------------|----5/-7-----8-7--5/-7-|
E|---0--0--0--0--0--0--0--0-|-0--3/-5--0--6-5--3/-5-|

                                           5x
E|------------------------|-----------------||-----------------|
B|------------------------|-----------------||-----------------|
G|------------------------|----------------*||-----------------|
D|------------------------|----------------*||-----------------|
A|------------------------|----5/-7--5/-7---||-----------------|
E|-0--0--0--0--0--0--0--0-|-0--3/-5--3/-5---||-2-2-2-2-2-2-2-2-|

E|--------------------|------------------------|---------------|
B|--------------------|------------------------|---------------|
G|--------------------|------------------------|---------------|
D|----4--4--5-4--4--4-|------------------------|----4-----4----|
A|----0--2--3-2--0--2-|------------------------|----0h-2--0h-2-|
E|-2------------------|-2--2--2--2--2--2--2--2-|-2-------------|

E|----------------------|--------------------|-----------------|
B|----------------------|--------------------|-----------------|
G|----------------------|--------------------|-----------------|
D|----------------------|----4--4--5-4--4--4-|-----------------|
A|----------------------|----0--2--3-2--0--2-|-----------------|
E|-2-2-2--2--2--2--2--2-|-2------------------|-2-2-2-2-2-2-2-2-|

E|-------------|--------------------||-------------------------|
B|-------------|--------------------||-------------------------|
G|-------------|-4-4-4-4-4-4--4--4--||*--9-----------7----9----|
D|---4----4----|-4-4-4-4-4-4--4--4--||*--9-----------7----9----|
A|---0h-2-0h-2-|-2-2-2-2-2-2--2--2--||---7-----------5----7----|
E|-2-----------|--------------------||---0--0--0--0------------|
                                                                              2x
E|--------------------|-------------------|-------------------||
B|--------------------|-------------------|-------------------||
G|--------------------|-------------------|-------------8----*||
D|-------9------------|-------------10--9-|-------------8--9-*||
A|-7--9-----10-9h-10~-|-------------10--9-|-------------6--9--||
E|--------------------|-8--8--8--8--8---7-|-8--8--8--8-----7--||

E|-------------------|---------------------|-------------------|
B|-------------------|---------------------|-------------------|
G|-9-----------7---9-|---------------------|-------------------|
D|-9-----------7---9-|-------9-------------|-------------10--9-|
A|-7-----------5---7-|-7--9-----10--9h-10~-|-------------10--9-|
E|-0--0--0--0--------|---------------------|-8--8--8--8--8---7-|

E|------------------------|--------------------|---------|
B|------------------------|--------------------|---------|
G|------------------------|--4----4------------|--2----2-|
D|------------------------|--2----2------------|--3----3-|
A|--9--7--6----6----------|--2----2------------|--3----3-|
E|----------------8--7----|--0----0------------|--1----1-|

E|----------------------|--------------|----|
B|----------------------|--------------|--0-|
G|--4-------------------|--------------|--0-|
D|--2-------------------|--------------|--0-|
A|--2-------------------|--------------|--x-|
E|--0----------0--0--0--|--2p-0--0--0--|--3-|

E|----------------------|--------------|----|
B|----------------------|--------------|----|
G|--5-------------------|--------------|--2-|
D|--5-------------------|--4-----------|--2-|
A|--3----------0--0--0--|--2--0--0--0--|--0-|
E|----------------------|--------------|----|

E|--2-------------------|--------------|----|
B|--3-------------------|--------------|--4-|
G|--2-------------------|--------------|--4-|
D|--0-------------------|--5-----------|--4-|
A|----------------------|--3-----------|--2-|
E|-------------3--3--3--|-----3--3--3--|----|

E|-------------|-----------|---|
B|-------------|-----------|-5-|
G|-9-----------|-7---------|-5-|
D|-9-----------|-7---------|-5-|
A|-7-----------|-5---------|-3-|
E|-0---0--0--0-|------0--0-|---|

E|--------|--------|---------------|--------------|
B|--------|--------|---------------|--------------|
G|-4----4-|-2----2-|-4-------------|--------------|
D|-2----2-|-3----3-|-2-------------|--------------|
A|-2----2-|-3----3-|-2-------------|--------------|
E|-0----0-|-1----1-|-0----0--0--0--|--2p-0--0--0--|

E|-------------------|------------------|--------------------|
B|--5----------------|------------------|--------------------|
G|--5----------------|------------------|--4----4------------|
D|--5----------------|------------------|--2----2------------|
A|--3----------------|------------------|--2----2------------|
E|-------------------|------------------|--0----0------------|

E|--------|------------------------|--------------------------|
B|--------|------------------------|--------------------------|
G|-2----2-|------------------------|--------------------------|
D|-3----3-|------------------------|--------------------------|
A|-3----3-|-------2--------3-------|--4--------3--------2--2--|
E|-1----1-|-0--1-----0--1-----0--1-|-----0--1-----0--1--------|

E|-------------------|-----------------|-----------------------|
B|-------------------|-----------------|-----------------------|
G|-------------------|---------------4-|-----------------------|
D|-------------------|---------------4-|-----------------------|
A|------2-----3------|-4------3------2-|------2--------3-------|
E|-0--1---0-1---1--0-|---0--1---1--0---|-0--1----0--1-----0--1-|

E|--------------------------|-------------------------|
B|--------------------------|-------------------------|
G|--------------------------|-------------------------|
D|--------------------------|-------------------------|
A|--4--------3--------2--2--|--------2--------3-------|
E|-----0--1-----0--1--------|--0--1-----0--1-----1--0-|

E|--------------------------|-------------------|
B|--------------------------|-------------------|
G|--------------------------|-------------------|
D|--------------------------|-------------------|
A|--5-4-----5-4-----5-4--|--5-4-----5-4-----5-4-|
E|--3-2--0--3-2--0--3-2--|--3-2--0--3-2--0--3-2-|

E||---------------------------|------------------------|
B||---------------------------|------------------------|
G||*--------------------------|------------------------|
D||*--------------------------|------------------------|
A||---------------------------|-----5/-7-----8-7--5/-7-|
E||---0--0--0--0--0--0--0--0--|--0--3/-5--0--6-5--3/-5-|

                                          3x
E|------------------------|-----------------||-----------------|
B|------------------------|-----------------||-----------------|
G|------------------------|----------------*||-----------------|
D|------------------------|----------------*||-----------------|
A|------------------------|----5/-7--5/-7---||-----------------|
E|-0--0--0--0--0--0--0--0-|-0--3/-5--3/-5---||-2-2-2-2-2-2-2-2-|

E|--------------------|------------------------|---------------|
B|--------------------|------------------------|---------------|
G|--------------------|------------------------|---------------|
D|----4--4--5-4--4--4-|------------------------|----4-----4----|
A|----0--2--3-2--0--2-|------------------------|----0h-2--0h-2-|
E|-2------------------|-2--2--2--2--2--2--2--2-|-2-------------|

E|--------------------|---------------|------------------------|
B|--------------------|---------------|------------------------|
G|--------------------|---------------|------------------------|
D|--------------------|---4-4-5-4-4-4-|------------------------|
A|--------------------|---0-2-3-2-0-2-|------------------------|
E|-2-2-2-2-2--2--2--2-|-2-------------|-2--2--2--2--2--2--2--2-|

E|---------------|------------------------||-------------------|
B|---------------|------------------------||-------------------|
G|---------------|-4--4--4--4--4--4--4--4-||*-9-----------7--9-|
D|----4-----4----|-4--4--4--4--4--4--4--4-||*-9-----------7--9-|
A|----0h-2--0h-2-|-2--2--2--2--2--2--2--2-||--7-----------5--7-|
E|-2-------------|------------------------||--0--0--0--0-------|
                                                                              2x
E|---------------------|-------------------|------------------||
B|---------------------|-------------------|------------------||
G|---------------------|-------------------|-------------8---*||
D|-------9-------------|-------------10--9-|-------------8-9-*||
A|-7--9-----10--9h-10~-|-------------10--9-|-------------6-9--||
E|---------------------|-8--8--8--8--8---7-|-8--8--8--8----7--||

E|-------------------|---------------------|-------------------|
B|-------------------|---------------------|-------------------|
G|-9-----------7---9-|---------------------|-------------------|
D|-9-----------7---9-|-------9-------------|-------------10--9-|
A|-7-----------5---7-|-7--9-----10--9h-10~-|-------------10--9-|
E|-0--0--0--0--------|---------------------|-8--8--8--8--8---7-|

E|------------------------|--------------------|---------|
B|------------------------|--------------------|---------|
G|------------------------|--4----4------------|--2----2-|
D|------------------------|--2----2------------|--3----3-|
A|--9--7--6----6----------|--2----2------------|--3----3-|
E|----------------8--7----|--0----0------------|--1----1-|

E|----------------------|--------------|----|
B|----------------------|--------------|--0-|
G|--4-------------------|--------------|--0-|
D|--2-------------------|--------------|--0-|
A|--2-------------------|--------------|--x-|
E|--0----------0--0--0--|--2p-0--0--0--|--3-|

E|----------------------|--------------|----|
B|----------------------|--------------|----|
G|--5-------------------|--------------|--2-|
D|--5-------------------|--4-----------|--2-|
A|--3----------0--0--0--|--2--0--0--0--|--0-|
E|----------------------|--------------|----|

E|--2-------------------|--------------|----|
B|--3-------------------|--------------|--4-|
G|--2-------------------|--------------|--4-|
D|--0-------------------|--5-----------|--4-|
A|----------------------|--3-----------|--2-|
E|-------------3--3--3--|-----3--3--3--|----|

E|----------------------|-------------|----|
B|----------------------|-------------|--5-|
G|--9-------------------|--7----------|--5-|
D|--9-------------------|--7----------|--5-|
A|--7-------------------|--5----------|--3-|
E|--0----------0--0--0--|-------0--0--|----|

E|---------|---------|----------------------|--------------|
B|---------|---------|----------------------|--------------|
G|--4----4-|--2----2-|--4-------------------|--------------|
D|--2----2-|--3----3-|--2-------------------|--------------|
A|--2----2-|--3----3-|--2-------------------|--------------|
E|--0----0-|--1----1-|--0----------0--0--0--|--2p-0--0--0--|

E|---|--------|
B|-5-|--------|
G|-5-|-4----4-|
D|-5-|-2----2-|
A|-3-|-2----2-|
E|---|-0----0-|

E|--------|
B|--------|
G|-2----2-|
D|-3----3-|
A|-3----3-|
E|-1----1-|

E|------------------------|
B|--17------------17--19--|
G|------------------------|
D|------------------------|
A|------------------------|
E|------------------------|

E|--15~---------------15--17----15----------19--15--12h-15p-12--|
B|----------------19------------------19------------------------|
G|--------------------------------------------------------------|
D|--------------------------------------------------------------|
A|--------------------------------------------------------------|
E|--------------------------------------------------------------|

E|----------------------------------------|
B|--13~---------------15r-------15r-------|
G|----------------------------------------|
D|----------------------------------------|
A|----------------------------------------|
E|----------------------------------------|

E|--15--14--------15--14--------------------------------|
B|----------12------------12h-15p-12~-------------------|
G|--------------------------------------------12--14----|
D|------------------------------------------------------|
A|------------------------------------------------------|
E|------------------------------------------------------|

E|--------------------------------|----------------------|
B|--15----15----------------------|----------------------|
G|--14r---14r-----14p-12------12--|----------------------|
D|------------------------14------|--14~-----------12----|
A|--------------------------------|----------------------|
E|--------------------------------|----------------------|

E|--------------------------------------------------------|
B|--------------------------------------------------------|
G|--12------14--12----11----------14----12----11h-12p-11--|
D|--------------------------12----------------------------|
A|--------------------------------------------------------|
E|--------------------------------------------------------|

E|--------------------------------------------|
B|--------------------------------------------|
G|--------------------------------------------|
D|--10~---------------9--10------------9--10--|
A|----------------12--------------------------|
E|--------------------------------------------|

E|--------------------------------------------------15----14----|
B|--------------------------------------12----------------------|
G|--------------------------11----12----------12----------------|
D|--12----10----12----14----------------------------------------|
A|--------------------------------------------------------------|
E|--------------------------------------------------------------|

E|--11h-12p-11--------------19----|--------------------|
B|--------------12----10----------|--17~---------------|
G|--------------------------------|--------------------|
D|--------------------------------|--------------------|
A|--------------------------------|--------------------|
E|--------------------------------|--------------------|

E|----------------------------------|------------------|----------------------|
B|----------------------------------|------------------|----------------------|
G|----------------------------------|------------------|-----------------0----|
D|----------------------------------|------------------|------------2---------|
A|----------------------------------|------------------|-------2--------------|
E|----------------------------------|------------------|--0-------------------|

E|----------------------0h-2p-0------------3----|
B|------------3------------------3--------------|
G|-------2---------2------------------2p---0----|
D|--0-------------------------------------------|
A|----------------------------------------------|
E|----------------------------------------------|

E|------------------------------------------|
B|------------3---------3--------------0----|
G|-------0---------0---------0--------------|
D|--------------------------------2---------|
A|--3---------------------------------------|
E|------------------------------------------|

E|------------------------------------------|----------------------|
B|------------0-------------------0---------|------------0---------|
G|-------2-------------------2--------------|-------2--------------|
D|------------------------------------------|--1-------------------|
A|--0--------------0----2--------------2----|----------------------|
E|------------------------------------------|-----------------3----|

E|----------------------|----------------------0h-2p-0------------3----|
B|----------------------|------------3------------------3--------------|
G|-----------------0----|-------2---------2------------------2p---0----|
D|------------2---------|--0-------------------------------------------|
A|-------2--------------|----------------------------------------------|
E|--0-------------------|----------------------------------------------|

E|------------------------------------------|
B|------------3---------3--------------0----|
G|-------0---------0---------0--------------|
D|--------------------------------2---------|
A|--3---------------------------------------|
E|------------------------------------------|

------------------------------------------|----------------------|
------------0-------------------0---------|------------0---------|
-------2-------------------2--------------|-------2--------------|
------------------------------------------|--1-------------------|
--0--------------0----2--------------2----|----------------------|
------------------------------------------|-----------------3----|

------------------------------------------|
------------------------------------------|
--4----4----4----4----4----4----4----4----|
--2----2----2----2----2----2----2----2----|
--2----2----2----2----2----2----2----2----|
--0----0----0----0----0----0----0----0----|

------------------------------------------|
------------------------------------------|
--4----4----4----4----4----4----4----4----|
--2----2----2----2----2----2----2----2----|
--2----2----2----2----2----2----2----2----|
--0----0----0----0----0----0----0----0----|

|--------------------------------------------|
|--------------------------------------------|
|*-------------------------------------------|
|*-------------------------------------------|
|---4----4----5----4----4----4----5----4--4--|
|---2----2----3----2----2----2----3----------|

------------------------------------------|
------------------------------------------|
------------------------------------------|
-------------------------------------6----|
--4----4----5----4----4----4----5----4----|
--2----2----3----2----2----2----3---------|

-------------------------------------------|
-------------------------------------------|
-------------------------------------------|
-------------------------------------------|
--4----4----5----4----4----4----5----4--4--|
--2----2----3----2----2----2----3----------|

-------------------------------------------||-------------------|
-------------------------------------------||-------------------|
------------------------------------------*||--4----------------|
-------------------------------------6----*||--5----------------|
--4----4----5----4----4----4----5----4-----||--5----------------|
--2----2----3----2----2----2----3----------||--3----------------|

------------------|-------------------|----------------------|
------------------|-------------------|----------------------|
------------------|--3----------------|----------------------|
------------------|--4----------------|----------------------|
------------------|--4----------------|----------------------|
------------------|--2----------------|--x----x----17-------|

--------------------------|--------------------------|
--------------------------|--------------------------|
--------------------------|--------------------------|
--------------------------|--------------------------|
--------------------------|-----5/-7-----8-7--5/-7--|
--0--0--0--0--0--0--0--0--|--0--3/-5--0--6-5--3/-5--|

--------------------------|-----------------|--------------------------|
--------------------------|-----------------|--------------------------|
--------------------------|-----------------|--------------------------|
--------------------------|-----------------|--------------------------|
--------------------------|-----5/-7--5/-7--|--------------------------|
--0--0--0--0--0--0--0--0--|--0--3/-5--3/-5--|--0--0--0--0--0--0--0--0--|

--------------------------|--------------------------|-----------------|
--------------------------|--------------------------|-----------------|
--------------------------|--------------------------|-----------------|
--------------------------|--------------------------|-----------------|
-----5/-7-----8-7--5/-7--|--------------------------|-----5/-7--5/-7--|
--0--3/-5--0--6-5--3/-5--|--0--0--0--0--0--0--0--0--|--0--3/-5--3/-5--|

--------------------------|--------------------------|
--------------------------|--------------------------|
--------------------------|--------------------------|
--------------------------|--------------------------|
--------------------------|-----5/-7-----8-7--5/-7--|
--0--0--0--0--0--0--0--0--|--0--3/-5--0--6-5--3/-5--|

--------------------------|-----------------|--------------------------|
--------------------------|-----------------|--------------------------|
--------------------------|-----------------|--------------------------|
--------------------------|-----------------|--------------------------|
--------------------------|-----5/-7--5/-7--|--------------------------|
--0--0--0--0--0--0--0--0--|--0--3/-5--3/-5--|--0--0--0--0--0--0--0--0--|

--------------------------|--------------------------|-----------------|
--------------------------|--------------------------|-----------------|
--------------------------|--------------------------|-----------------|
--------------------------|--------------------------|-----------------|
-----5/-7-----8-7--5/-7--|--------------------------|-----5/-7--5/-7--|
--0--3/-5--0--6-5--3/-5--|--0--0--0--0--0--0--0--0--|--0--3/-5--3/-5--|

--------------------------|-------------------------|--------------------------|
--------------------------|-------------------------|--------------------------|
--------------------------|-------------------------|--------------------------|
--------------------------|-----4--4----5-4--4--4--|--------------------------|
--------------------------|-----0--2----3-2--0--2--|--------------------------|
--2--2--2--2--2--2--2--2--|--2----------------------|--2--2--2--2--2--2--2--2--|

-----------------|--------------------------|-------------------------|
-----------------|--------------------------|-------------------------|
-----------------|--------------------------|-------------------------|
-----4-----4-----|--------------------------|-----4--4----5-4--4--4--|
-----0h-2--0h-2--|--------------------------|-----0--2----3-2--0--2--|
--2--------------|--2--2--2--2--2--2--2--2--|--2----------------------|

--------------------------|-----------------|--------------------------|
--------------------------|-----------------|--------------------------|
--------------------------|-----------------|--4--4--4--4--4--4--4--4--|
--------------------------|-----4-----4-----|--4--4--4--4--4--4--4--4--|
--------------------------|-----0h-2--0h-2--|--2--2--2--2--2--2--2--2--|
--2--2--2--2--2--2--2--2--|--2--------------|--------------------------|

|---------------------------|--------------------------|
|---------------------------|--------------------------|
|*--------------------------|--------------------------|
|*--------3--------3--------|--3--------3--------2--2--|
|---------3--------3--------|--3--------3--------------|
|---0--0--1--0--0--1--0--0--|--1--0--0--1--0--0--------|

--------------------------|--------------------------||
--------------------------|--------------------------||
--------------------------|-------------------------*||
--------3--------3--------|--3--------3--------4----*||
--------3--------3--------|--3--------3--------2-----||
--0--0--1--0--0--1--0--0--|--1--0--0--1--0--0--------||

--------------------------||---------------------------|-----------------------|
--------------------------||---------------------------|-----------------------|
--------------------------||*--------------------------|-----------------------|
--------------------------||*-----------------------2--|--4--5-----------------|
--2--2--2--2--2--2--2--2--||---------------2--3--5-----|--------3----------3-3-|
--0--0--0--0--0--0--0--0--||---0--2--3--5--------------|-----------------------|

--------------------------|----------------------------||
--------------------------|----------------------------||
--------------------------|---------------------------*||
--------------------------|---------------------------*||
--3--2--3--5--3--2--------|----------------------------||
--------------------3--2--|--0--0--0--0--0--0--0--0-0--||

--------------------------|-----------------------|--------------------------|
--------------------------|-----------------------|--------------------------|
--------------------------|--2--4-----------------|--------------------------|
--------------------4--5--|--------2----------2-2-|--2--0--2--4--2--0--------|
--------------2--3--------|-----------------------|--------------------3--2--|
--0--2--3--5--------------|-----------------------|--------------------------|

---------------------------|------------------------|-----------------------|
---------------------------|------------------------|--------5--------------|
---------------------------|------------------------|--2--4--5--------------|
---------------------------|------------------4--5--|--------5--------------|
---------------------------|------------------------|--------3----------3-3-|
--0--0--0--0--0--0--0--0-0-|--0--2--3--5------------|-----------------------|

--------------------------|---------------------|--------------------------|
--------------------------|---------------------|--------------------------|
--------------------------|--4------------------|-----------2--------------|
--------------------------|--2--------------5-5-|--5--4--5-----5--4--2--4--|
--3--2--3--5--3--2--------|--2--------------3-3-|--------------------------|
--------------------3--2--|--0------------------|--------------------------|

|---------------------------|--------------------------|
|---------------------------|--------------------------|
|*--------------------------|--------------------------|
|*--------------------------|--------------------------|
|---------2--------3--------|--4--------3--------2--2--|
|---0--1-----0--1-----0--1--|-----0--1-----0--1--------|

--------------------------|---------------------------||
--------------------------|---------------------------||
--------------------------|--------------------------*||
--------------------------|--------------------------*||
--------2--------3--------|--5-4-----5-4-----5-4---||
--0--1-----0--1-----1--0--|--3-2--0--3-2--0--3-2---||

----------------------||---------------------------|
----------------------||---------------------------|
----------------------||*--------------------------|
----------------------||*--------------------------|
--5-4-----5-4-----5-4-||---------------------------|
--3-2--0--3-2--0--3-2-||---0--0--0--0--0--0--0--0--|

                                                                X3
-----------------------|------------------------|-----------------||
-----------------------|------------------------|-----------------||
-----------------------|------------------------|----------------*||
-----------------------|------------------------|----------------*||
----5/-7-----8-7--5/-7-|------------------------|----5/-7--5/-7---||
-0--3/-5--0--6-5--3/-5-|-0--0--0--0--0--0--0--0-|-0--3/-5--3/-5---||

--------------------------|-------------------------|--------------------------|
--------------------------|-------------------------|--------------------------|
--------------------------|-------------------------|--------------------------|
--------------------------|-----4--4----5-4--4--4--|--------------------------|
--------------------------|-----0--2----3-2--0--2--|--------------------------|
--2--2--2--2--2--2--2--2--|--2----------------------|--2--2--2--2--2--2--2--2--|

-----------------|--------------------------|-------------------------|
-----------------|--------------------------|-------------------------|
-----------------|--------------------------|-------------------------|
-----4-----4-----|--------------------------|-----4--4----5-4--4--4--|
-----0h-2--0h-2--|--------------------------|-----0--2----3-2--0--2--|
--2--------------|--2--2--2--2--2--2--2--2--|--2----------------------|

--------------------------|-----------------|--------------------------|
--------------------------|-----------------|--------------------------|
--------------------------|-----------------|--4--4--4--4--4--4--4--4--|
--------------------------|-----4-----4-----|--4--4--4--4--4--4--4--4--|
--------------------------|-----0h-2--0h-2--|--2--2--2--2--2--2--2--2--|
--2--2--2--2--2--2--2--2--|--2--------------|--------------------------|

|-------------------------|--------------------------|-------------------------|
|-------------------------|--------------------------|-------------------------|
|*--9-----------7----9----|--------------------------|-------------------------|
|*--9-----------7----9----|--------9-----------------|--------------10----9----|
|---7-----------5----7----|--7--9-----10--9h-10~-----|--------------10----9----|
|---0--0--0--0------------|--------------------------|--8--8--8--8--8-----7----|

                         2x
-------------------------||------------------------|--------------------------|
-------------------------||------------------------|--------------------------|
--------------8---------*||--9-----------7----9----|--------------------------|
--------------8----9----*||--9-----------7----9----|--------9-----------------|
--------------6----9-----||--7-----------5----7----|--7--9-----10--9h-10~-----|
--8--8--8--8-------7-----||--0--0--0--0------------|--------------------------|

-------------------------|------------------------|--------------------|
-------------------------|------------------------|--------------------|
-------------------------|------------------------|--4----4------------|
--------------10----9----|------------------------|--2----2------------|
--------------10----9----|--9--7--6----6----------|--2----2------------|
--8--8--8--8--8-----7----|----------------8--7----|--0----0------------|

--------------------|----------------------|--------------|-------------------|
--------------------|----------------------|--------------|--0----------------|
--2----2------------|--4-------------------|--------------|--0----------------|
--3----3------------|--2-------------------|--------------|--0----------------|
--3----3------------|--2-------------------|--------------|--x----------------|
--1----1------------|--0----------0--0--0--|--2p-0--0--0--|--3----------------|

------------------|----------------------|--------------|-------------------|
------------------|----------------------|--------------|-------------------|
------------------|--5-------------------|--------------|--2----------------|
------------------|--5-------------------|--4-----------|--2----------------|
------------------|--3----------0--0--0--|--2--0--0--0--|--0----------------|
------------------|----------------------|--------------|-------------------|

------------------|--2-------------------|--------------|-------------------|
------------------|--3-------------------|--------------|--4----------------|
------------------|--2-------------------|--------------|--4----------------|
------------------|--0-------------------|--5-----------|--4----------------|
------------------|----------------------|--3-----------|--2----------------|
------------------|-------------3--3--3--|-----3--3--3--|-------------------|

----------------------|-------------|-------------------|----------|
----------------------|-------------|--5----------------|----------|
--9-------------------|--7----------|--5----------------|----------|
--9-------------------|--7----------|--5----------------|----------|
--7-------------------|--5----------|--3----------------|----------|
--0----------0--0--0--|-------0--0--|-------------------|----------|

--------------------|--------------------|----------------------|--------------|
--------------------|--------------------|----------------------|--------------|
--4----4------------|--2----2------------|--4-------------------|--------------|
--2----2------------|--3----3------------|--2-------------------|--------------|
--2----2------------|--3----3------------|--2-------------------|--------------|
--0----0------------|--1----1------------|--0----------0--0--0--|--2p-0--0--0--|

-------------------|------------------|--------------------|
--5----------------|------------------|--------------------|
--5----------------|------------------|--4----4------------|
--5----------------|------------------|--2----2------------|
--3----------------|------------------|--2----2------------|
-------------------|------------------|--0----0------------|

--------------------||---------------------------|--------------------------|
--------------------||---------------------------|--------------------------|
--2----2------------||*--------------------------|--------------------------|
--3----3------------||*--------------------------|--------------------------|
--3----3------------||---------------------------|-----5/-7-----8/-7--5/-7--|
--1----1------------||---0--0--0--0--0--0--0--0--|--0--3/-5--0--6/-5--3/-5--|

--------------------------|------------------||------------------|
--------------------------|------------------||------------------|
--------------------------|-----------------*||------------------|
--------------------------|-----------------*||------------------|
--------------------------|-----5--7--5--7---||------------------|
--0--0--0--0--0--0--0--0--|--0--3/-5--3/-5---||------------------|

--------------------------|-------------------||
--------------------------|-------------------||
--------------------------|--4----------------||
--------------------------|--2----------------||
--5-4-----5-4-----5-4--|--2----------------||
--3-2--0--3-2--0--3-2--|--0----------------||
Вверх

Master Of Puppets Solo

     Em                     D
    2 lead gtrs
 e |-----19/22--19--------|20---17-------------------20---17--------|
 B |-20---------20---20---|22---19---19---19-19-19---22---19---19---|
 G |-21--------------21---|----------19---19-19-19-------------19---|
 D |----------------------|-----------------------------------------|
 A |----------------------|-----------------------------------------|
 E |----------------------|-----------------------------------------|

   Cadd9                                     Amsus2

 e |19---15-------------------19---15--------|17---15h17p15-14--------|
 B |20---17---17---17-17-17---20---17---17---|19---17h19p17-16---17---|
 G |----------17---17-17-17-------------17---|-------------------17---|
 D |-----------------------------------------|------------------------|
 A |-----------------------------------------|------------------------|
 E |-----------------------------------------|------------------------|

                                            end
    B7                  B7/D#            RhyFig2a

 e |----------14--------|14---16---17---19----|
 B |16---17--------17---|16---17---19---20----|
 G |16---17--/19---17---|---------------------|
 D |--------------------|---------------------|
 A |--------------------|---------------------|
 E |--------------------|---------------------|
Вверх

Metal Militia

Intro
||-----------------------------------------------------------------------------
||-----------------------------------------------------------------------------
||-----------------------------------------------------------------------------
||-----------------------------------------------------------------------------
||-3/5~~~-----87---------------------------------------------------5--7-------
||-1/3~~~-----65---0--0--0--0--0--0--0--0--0--0--0--0--0--0--0--0--3--5-------



-------------------------------------------------------------------------------
-------------------------------------------------------------------------------
-------------------------------------------------------------------------------
-------------------------------------------------------------------------------
------------------------------------------------8--7---------------------------
0--0--0--0--0--0--0--0--0--0--0--0--0--0--0--0--6--5-----0--0--0--0--0--0------



------------------------------------------------------------------------||
------------------------------------------------------------------------||
------------------------------------------------------------------------||
------------------------------------------------------------------------||
------------------------------5--7-----------------------------8--7--5--||
0--0--0--0--0--0--0--0--0--0--3--5-----0--0--0--0--0--0--0--0--6--5--3--||


Before Main Riff
||----------------------------------------||
||----------------------------------------||
||----------------------------------------||
||----------------------------------------||
||-8--7--5-----8--7--5-----8--7--5-----7--||
||-6--5--3-----6--5--3-----6--5--3-----5--||


  Repeat a few times.              Not sure about this part.
||-------------------------------||------------------------||
||-------------------------------||------------------------||
||*-----------------------------*||---3-----2--------------||
||*-----7-----5-----2-----1--0--*||---1--5--0-----x--x--2--||
||---0-----0-----0-----0---------||------3--------x--x--0--||
||-------------------------------||------------------------||
Вверх

Mexico City Bass Solo

 Intro
        pm   pm     pm    pm     pm        rest
 Eb------------------------------------------|
 Bb------------------------------------------|
 Gb------------------------------------------|
 Db--7/9----9----7/9----9----7/9----9--9-----|
 Ab--5/7----7----5/7----7----5/7----7--7--3--|
 Eb-----0-0--0-0----0-0--0-0----0-0-------1--|
 Fortune fame, mirror vane.......

 Verse
 The verse is divided into three different parts.  It is the same basic riff just a little different on the endings.  Kirk plays his riff along with Jaymz` three diffenent riffs.  I`ll put all the different parts together at the end.

 Jaymz  (Riff 1)                                Riff Ending

 Eb------------------------------------------|  |-----------|
 Bb------------------------------------------|  |-----------|
 Gb------------------------------------------|  |-----------|
 Db-----------------5--7h8p7-5---------------|  |--5-----4--|
 Ab------7~~5--7--7------------7-------------|  |-----2-----|
 Eb--0-0-------------------------------------|  |-3-------0-|

 Kirk

 Eb------------------------------------------|
 Bb------------------------------------------|
 Gb----------------12-14h15p14---------------|
 Db------14~~12-14-------------14------------|
 Ab------------------------------------------|
 Eb--0-0-------------------------------------|

 Jaymz (Riff 2)

 Eb------------------------------------------|
 Bb------------------------------------------|
 Gb------------------------------------------|
 Db-----------------5-7h8p7-5-8~~------------|
 Ab------7~~5--7--7--------------------------|
 Eb----0-------------------------------------|

 Jaymz (Riff 3)
                   pm......
 Eb------------------------------------------|
 Bb------------------------------------------|
 Gb------------------------------------------|
 Db-----------------------5------------------|
 Ab------5h7--7---------5--------------------|
 Eb----0---------0--5h7----------------------|

 Here is the layout of the three different verse patterns:
 After the intro:  Riff 1 (2x), Riff Ending (muted scratch,
                                               harmonics)
 First part of verse:  Riff 1, Riff 2, Riff Ending
 Second part of verse:  Riff 2, Riff 3, Riff Ending

 Chorus

        pm   pm     pm    pm     pm
 Eb----------------------------------------------|
 Bb----------------------------------------------|
 Gb----------------------------------------------|
 Db--7/9----9----7/9----9----7/9----9------------|
 Ab--5/7----7----5/7----7----5/7----7--75--75--|
 Eb-----0-0--0-0----0-0--0-0----0-0----53--53--|
 Fortune fame, mirror vane.......

        pm   pm     pm    pm     pm        rest
 Eb------------------------------------------|
 Bb------------------------------------------|
 Gb------------------------------------------|
 Db--7/9----9----7/9----9----7/9----9--9-----|
 Ab--5/7----7----5/7----7----5/7----7--7--3--|
 Eb-----0-0--0-0----0-0--0-0----0-0-------1--|
    Fortune......................but the memory remains


 This fill is played after the chorus and before Jaymz starts in on the second verse.  Riff 1 is played under this fill.  Try playing this fill through the neck pickup.  Sounds almost exactly like the CD.

       /
     b/                            b        b   b
 Eb---------------------------------------------------------|
 Bb--------------------------------15-------15--15----------|
 Gb--14--12------------12----12-14-14-12----14--14-12----12-|
 Db----------14~~12-14----14-------------14-----------14----|
 Ab---------------------------------------------------------|
 Eb---------------------------------------------------------|

         b           b
 Eb--------------------------------12~~12-----------------|
 Bb------15----------15------12-15--------12--------------|
 Gb--14--14-12----12-14---14-----------------12-----------|
 Db------------14-------------------------------14---14---|
 Ab-------------------------------------------------------|
 Eb-------------------------------------------------------|

 Eb-------------------------|
 Bb---12-12--12-12-12--15---|
 Gb---12-12--12-12-12--14---|
 Db-------------------------|
 Ab-------------------------|
 Eb-------------------------|

                 * bend this note up a full step and back
  Guitar 1         down really fast.
 Eb------------------|
 Bb------6~------8---|  This is the little interlude before
 Gb----5---5---7-----|  the "Aye, ya, da, duh, oi, whatever"
 Db--3-------5-------|  part.
 Ab------------------|
 Eb------------------|

 Guitar 2
 Eb---------------------------|
 Bb---------------------------|
 Gb-------10-----------12-----|
 Db----10----10-----12----12--|
 Ab--8-----------10-----------|
 Eb---------------------------|
 "Dance little tin goddess"

 The "Da, da, da" part has about five guitars playing under it, so I`m gonna try
 and tab them the best I can.

 This is rhythm part under the "Aye, da, da, da" part.

 Eb-----------------------------------|
 Bb-----------------------------------|
 Gb-----------------------------------|
 Db--2--4-----2-4-2--2--4--5--2-4-2---|
 Ab--2--4--5--0-2-2--2--4--5--0-2-2---|
 Eb--0--2--5------0--0--2--3------0---|

 These next two parts are played together with the "Da, da, da" part.  It`s
 exactly the same as what she sings.

 Eb-----------------------------------------------------|
 Bb-----------------------------------------------------|
 Gb-----------------------------------------------------|
 Db---------------------7-7-9p7-------------------------|
 Ab--7-9-10-9--10-9-5-----------9-7---7-9-10-9--10-9-10-|
 Eb-----------------------------------------------------|

 Eb---------------|
 Bb---------------|
 Gb---------------|
 Db--7-7-9p7------|
 Ab----------9-7--|
 Eb---------------|

 Eb-------------------------------------------------------|
 Bb------------------------10-10-12p10--------------------|
 Gb--9-11-12-11--12-11-7---------------12-9---9-11-12-11--|
 Db-------------------------------------------------------|
 Ab-------------------------------------------------------|
 Eb-------------------------------------------------------|

 Eb-------------------------------|
 Bb-------------10-10-12p10-------|
 Gb--12-11-12---------------12-9--|
 Db-------------------------------|
 Ab-------------------------------|
 Eb-------------------------------|

 Finally figured out the high screechy part!!!  One guitar
 plays the high ass part while the other doubles it lower.
 The high part is played with some kind of messed up pitch
 shifter effect or something.

 Guitar 1
 Eb--------12--------14-15----------15--------17----14--|
 Bb-----12----12--12-------12----15----12-/15----12-----|
 Gb---------------------------12------------------------|
 Db--14-------------------------------------------------|
 Ab-----------------------------------------------------|
 Eb-----------------------------------------------------|

 Guitar 2

 Eb-----------------------------------------------------|
 Bb-----------------------------------------------------|
 Gb----------------------0------------------------------|
 Db--------2----------4---------------0--------7-----4--|
 Ab-----2-----2---2---------2-----0-----2--/5-----2-----|
 Eb--0-------------------------3------------------------|


    pm.............................................
 Eb-----------------------------------------------------|
 Bb-----------------------------------------------------|
 Gb-----------------------------------------------------|
 Db--5-5-5-5-5-5-5-5-5-5-5-5-5-5-5-5-5-5-5-5-5-5-5-5----|
 Ab--5-5-5-5-5-5-5-5-5-5-5-5-5-5-5-5-5-5-5-5-5-5-5-5----|
 Eb--3-3-3-3-3-3-3-3-3-3-3-3-3-3-3-3-3-3-3-3-3-3-3-3----|
 "Ash to ash, dust to dust, fade to black, but the memory remains"

 Solo before the last "da, da, da" part.

  w/ wah                        b
 Eb-3-3-3-3-3-3-3-0---0-3-5p3p0-5-------------|
 Bb-------------------------------------------|
 Gb--------------------------------2~2~0---0--|
 Db--------------------------------------2----|
 Ab-------------------------------------------|
 Eb-------------------------------------------|
      b
 Eb--------------|
 Bb--15----------|
 Gb--14-12----12-|
 Db--------14----|
 Ab--------------|
 Eb--------------|
         b           b
 Eb--------------------------------12~~12------------|
 Bb------15----------15------12-15--------12---------|
 Gb--14--14-12----12-14---14-----------------12------|
 Db------------14-------------------------------14---|
 Ab--------------------------------------------------|
 Eb--------------------------------------------------|


 Eb--------------|
 Bb--------------|
 Gb--15-----17---|
 Db--14-----16---|
 Ab--------------|
 Eb--------------|


 Fortune fame, mirror vane, gone insane, but the memory remains

 Heavy rings on fingers wave
 Another star denies the grave
 See the nowhere crowd cry the nowhere tears of honor
 Like the twisted vines that grow
 That hide and swallow mansions whole
 And dim the light of an already faded prima donna

 chorus

 Heavy rings on cigarettes
 Up tp lips that time forgets
 While the Hollywood sun sets behind your back
 And can`t the band play on?
 Just listen, they play my song

 Ash to ash
 Dust to dust
 Fade to black

 chorus

 Dance little tin goddess
 da, da, da.....
Вверх

Minus Human mp3

 Tune all guitars down 1 1/2 steps (C# tuning)
 Low to high C#, F#, B, E
 Symphony intro

 1)
 E-----------------------------------------
 B-----------------------------------------
 F#----------------------------------------
 C#--0--0-7~~0-6~~5-0-3---0-7-6-0-2-3--3--0


 2)
 E----------------
 B----------------
 F#---------------
 C#--0---6-7-6-5-0


 3)
 E---------------------------------------
 B---------------------------------------
 F#--------------------------------------
 C#--0--3--5--0--6-7-6-5-0--3--5--7-7-7-7
 "Don`t you leave me father time."
 Verse
Вверх

Motorbreath

RIFF A
I----------------------------I----------------------------I
I----------------------------I----------------------------I
I----------------------------I----------------------------I
I-9--9-9-9--9-9-9--9-9-9-9-9-I-5--5-5-5--5-5-5--5-5-5-5-5-I
I-9--9-9-9--9-9-9--9-9-9-9-9-I-5--5-5-5--5-5-5--5-5-5-5-5-I
I-7--7-7-7--7-7-7--7-7-7-7-7-I-3--3-3-3--3-3-3--3-3-3-3-3-I
 						 END RIFF A
I----------------------------I----------------------------I
I----------------------------I----------------------------I
I----------------------------I----------------------------I
I-7--7-7-7--7-7-7--7-7-7-7-7-I-4--4-4-4--4-4-4--4-4-4-4-4-I
I-7--7-7-7--7-7-7--7-7-7-7-7-I-4--4-4-4--4-4-4--4-4-4-4-4-I
I-5--5-5-5--5-5-5--5-5-5-5-5-I-2--2-2-2--2-2-2--2-2-2-2-2-I



RIFF B								   END RIFF B
I------------------I------------------I------------------I------------------I
I------------------I------------------I------------------I------------------I
I------------------I------------------I------------------I------------------I
I-9-9---7--9-9---7-I-5-5---4--5-5---4-I-7-7---5--7-7---5-I-4-4---2--4-4-----I
I-9-9---7--9-9---7-I-5-5---4--5-5---4-I-7-7---5--7-7---5-I-4-4---2--4-4-----I
I-7-7---5--7-7---5-I-3-3---2--3-3---2-I-5-5---3--5-5---3-I-2-2---0--2-2-----I

RIFF C			 END RIFF C
I---------------------------------I
I---------------------------------I
I---------------------------------I
I-9-9---7-9-9---7-9-9---7-9-9---7-I
I-9-9---7-9-9---7-9-9---7-9-9---7-I
I-7-7---5-7-7---5-7-7---5-7-7---5-I

RIFF D					  END RIFF D
I--------------------------------------------------I
I--------------------------------------------------I
I-------------7-7----------------------------------I
I-9-9---5-5---7-7---4-4---5-5---2-2---4-4-4-2-4----I
I-9-9-x-5-5-x-5-5-x-4-4-x-5-5-x-2-2---4-4-4-2-4----I
I-7-7-x-3-3-x-----x-2-2-x-3-3-x-0-0---2-2-2-0-2----I

RIFF E (2 guitars)
I--------------------------------I--------------------------------I
I--------------------------------I--------------------------------I
I--------------------------------I--------------------------------I
I--------------------------------I--------------------------------I
I-9---7---9---7---9-7-9-7-9---7--I-9---7---9---7---9-7-9-7-9---7--I
I--------------------------------I--------------------------------I
I				 I				  I
I				 I				  I
I--------------------------------I--------------------------------I
I--------------------------------I--------------------------------I
I--------------------------------I--------------------------------I
I--------------------------------I--------------------------------I
I--------------------------------I--------------------------------I
I-7#############################-I-7#############################-I

							 END RIFF E
I--------------------------------I--------------------------------I
I--------------------------------I--------------------------------I
I--------------------------------I--------------------------------I
I--------------------------------I--------------------------------I
I-9---7---9---7---9-7-9-7-9---7--I-9---7---9---7---9-7-9-7-9---7--I
I--------------------------------I--------------------------------I
I				 I				  I
I				 I				  I
I--------------------------------I--------------------------------I
I--------------------------------I--------------------------------I
I--------------------------------I--------------------------------I
I--------------------------------I--------------------------------I
I--------------------------------I--------------------------------I
I-5#############################-I-7#############################-I

RIFF F
I--------------------------------------------------------I
I--------------------------------------------------------I
I--------------------------------------------------------I
I-11------------11-9--9---11-9-11-------------11--6---6--I
I-11------------11-9--9---11-9-11-------------11--6---6--I
I-9-9-########--------------------9-########--9---4---4--I
						END RIFF F
I--------------------------------------------------------I
I--------------------------------------------------------I
I--------------------------------------------------------I
I-11------------11-9--9---11-9-11-------------6---6---6--I
I-11------------11-9--9---11-9-11-------------6---6---6--I
I-9-9-########--------------------9-########--4---4---4--I
					      .   .   .

RIFF G
I--------------------------------------------------------I
I--------------------------------------------------------I
I--------------------------------------------------------I
I-11------------11-9--9---11-9-11-------------11--6---6--I
I-11------------11-9--9---11-9-11-------------11--6---6--I
I-9-9-########--------------------9-########--9---4---4--I
						END RIFF G
I--------------------------------------------------------I
I--------------------------------------------------------I
I--------------------------------------------------------I
I-11------------11-9--9---11-9-11-------------11--10-----I
I-11------------11-9--9---11-9-11-------------11--10-----I
I-9-9-########--------------------9-########--9---8------I



Here?s the song:

A5 A#5

RIFF A x 2

RIFF B x 2

RIFF B x 2
 Living and dying laughing and crying
 Once you have seen it you will never be the same
 Life in the fast lane is just how it seems
 Hard and it is heavy dirty and mean

RIFF C x 1

RIFF D x 2
    Motorbreath
    Its how I live my life
    I can?t take it any other way
    Motorbreath
    The sign of living fast
    It is going to take
    Your breath away

RIFF E x 2

RIFF B x 2
 Don?t stop for nothing its full speed or nothing
 I am taking down you know whatever is in my way
 Getting your kicks as you are shooting the line
 Sending the shivers up and down your spine


RIFF C x 1

RIFF D x 2
    Motorbreath
    Its how I live my life
    I can?t take it any other way
    Motorbreath
    The sign of living fast
    It is going to take
    Your breath away

RIFF E x 2

B5 B5 C5

RIFF F x 1
	    (solo)
RIFF G x 1 /

RIFF B x 2

RIFF B x 2
 Those people who tell you not to take chances
 They are all missing on what life is about
 You only live once so take hold of the chance
 Don?t end op like others the same song and dance

RIFF C x 1

RIFF D x 2
    Motorbreath
    Its how I live my life
    I can?t take it any other way
    Motorbreath
    The sign of living fast
    It is going to take
    Your breath away

B5 C5

RIFF F x 6 (solo)

B5 B5 B5 F#5 F#5 F#5 C#5
Вверх

My Friend Of Misery

 Bass Riff1
 |-----10---------10---------10--14---------12---------10------|
 |---------12---------12-------------12---------12---------12--|
 |--0----------0----------0--------------0----------0----------|
 |-------------------------------------------------------------|

 |-----9---------9---------9--12---------10---------9------|
 |--------10--------10------------10---------10--------10--|
 |--0---------0---------0-------------0----------0---------|
 |---------------------------------------------------------|

 Bass Riff2
 |-----10---------10---------10--14---------12---------10------|
 |---------12---------12-------------12---------12---------12--|
 |--0----------0----------0--------------0----------0----------|
 |-------------------------------------------------------------|

 |-----9---------9---------9--12---------10---------9----|
 |--------10--------10------------10---------10-----------|
 |--0---------0---------0-------------0----------0--------|
 |--------------------------------------------------------|

 Bass Riff3
 |-------------------------------------------------------------------|
 |-------------------------------------------------------------------|
 |------------------------------3------------------------------------|
 |--5-5-5-5-5-5-5-5-5-5-5-5-5-5---3-5-5-5-5-5-5-5-5-5-5-5-5-5-5-3-5--|

 Bass Riff4
 |-----------------|
 |-----------------|
 |-----------------|
 |---5-------5--5--|

 Bass Riff5
 |--------------------------------------------------------------------|
 |--------------------------------------------------------------------|
 |------0-2-3-4-------0-0---0-2--2-0-----0-2-3-4-------0-0-1-2--------|
 |--2-2---------0-0-0----------------2-2---------0-0-0---------0-0-0--|

 Bass Riff6
 |-----------------------------------|
 |-----------------------------------|
 |--------------------------------0--|
 |--0-0-0-0-0-0-0-0-0-0-0-0-0-0-0----|

 Bass Riff7
 |--------------------------------------------------------------------------|
 |--------------------------------------------------------------------------|
 |--------------------------------------------------------------------------|
 |--2-2-----0-1--2-2-----0-3--2-2-----0-1--2-2-----0-3--2-2---2-2-0-1--2-2--|

 Bass Riff7 (cont.)
 |------------------------------------------------|
 |------------------------------------------------|
 |--------------------------------------------9--|
 |--2-2-2-0-3-3-2-2-2-2-2-2-0-1-2-2-2-2-2-2-0-----|

 Bass Riff8
 |---------------------------------------------------------------|
 |---------------------------------------------------------------|
 |----------------------------------------0-2-3-4-----0-0-1-2----|
 |--2-2-2-2-2-2-2-2-2-2-2-2-2-2-2-2-2-2-2---------0-----------0--|

 How it`s played:
 Bass Riff1 x 7
 Bass Riff2 x 1
 Bass Riff3 x 4
 Bass Riff4 x 1
 Bass Riff5 x 2
 Bass Riff6 x 1
 Bass Riff1 x 2
 Bass Riff3 x 4
 Bass Riff4 x 1
 Bass Riff5 x 2
 Bass Riff6 x 1
 Bass Riff1 x 8
 Bass Riff3 x 4
 Bass Riff4 x 1
 Bass Riff5 x 4
 Bass Riff6 x 1
 Bass Riff5 x 4
 Bass Riff7 x 1
 Bass Riff5 x 1
 Bass Riff8 x 1
Вверх

No Leaf Clover mp3

Intro : Em Em EmG   3x    EmG EmG________G

Chorus : Em Am H7 Am    4x
  Em      Am       H7     Am        Em     Am       H7     Am
e--7---7---8----8----7---7---8----8-----7---7---8----8----7---7----------------
B--8---8---10---10---7---7---10---10----8---8---10---10---7---7-------10-----10
G----9---9----9----9---8---8----9----9----9---9----9----9---8---8-8/9----8/9---

  Em      Am       H7     Am             Em     Am       H7     Am
e--7---7---8----8----7---7----------10-8-----7---7---8----8----7---7-----------8---
B--8---8---10---10---7---7-------10------10--8---8---10---10---7---7-------10----10
G----9---9----9----9---8---8-8/9---------------9---9----9----9---8---8-8/9---------

Verse 1: Em*(/E/H/E/C/H) Em    3x     F# Em*(/E/H/E/C/H)
Am                 H7              Em* C                     H7                 Em*
 Can he feel it?s bright this time?      On his crash course we?re the main time
Am                   H7              G              C               H7
 He?s admired to the distant thunder Duty fills his head with wonder
Am              H7             Em* C                   H7                     Em*
 Says it feels bright this time      Turned around and found the bright light
Am           H7            G           C           H7
 Good day to be alive, sir Good day to be alive he says, yeah

Chorus :
Em       Am                    H7                    Am
  And it comes to be  That the soothing light at the end of your tunnel
Em           Am                       H7   Am
  Is just a freight train coming your way, yeah , yeah
Em       Am                    H7                    Am
  And it comes to be  That the soothing light at the end of your tunnel
Em          Am                       H7   Am           Em*
 Is just a freight train coming your way, yeah , yeah

Verse 2:
Am               H7              Em* C                   H7               Em*
 Don?t it feel alright like this?      All the things respond to his wish
Am                H7               G                 C              H7
 Suffer for that great reward, for  Suffer for that great reward he said, yeah

Chorus :
Em      Am                    H7                    Am
 And it comes to be  That the soothing light at the end of your tunnel
Em           Am                       H7   Am
 Was just a freight train coming your way, yeah , yeah
Em       Am                    H7                    Am
  And it comes to be  That the soothing light at the end of your tunnel
Em          Am                       H7   Am     C
 Is just a freight train coming your way, yeah , yeah
H                  Em                          C   D        H7
  It?s coming your way, yeah, It?s coming your way yeah, Oh yeah,    here comes.

Intro : Em Em EmG   3x    EmG EmG

Outro :
Em             Am                   H7                    Am
 Yeah,  And it comes to be That the soothing light at the end of your tunnel
Em          Am                       H7   Am
 Is just a freight train coming your way
Em      H7              C         H7              Em      3x
 And it comes to be, Yeah  And it comes to be, Yeah
        H7              C         H7             Em Em EmG   3x    EmG EmG EmG Em
 And it comes to be, Yeah And it comes to be, Yeah
Вверх

No Remorse

 RIFF A
 I--------------------------------------------------I
 I--------------------------------------------------I
 I------------------------------------------2-------I
 I------------------------------------------2-------I
 I-2-4---4-4---4-2---2-2--2-4---4-4---4-2---0-------I
 I-0-2---2-2---2-0---0-0--0-2---2-2---2-0-----------I
 					  END RIFF A
 I--------------------------------------------------I
 I--------------------------------------------------I
 I------------------------------------------4-------I
 I------------------------------------------4-------I
 I-2-4---4-4---4-2---2-2--2-4---4-4---4-2---2-------I
 I-0-2---2-2---2-0---0-0--0-2---2-2---2-0-----------I

 RIFF B
 I--------------------------------------I
 I--------------------------------------I
 I-----------------------------5--------I
 I-----------------------------5--------I
 I-----5-7-----5-7-----5-7-----3--------I
 I-0-0-----0-0-----0-0-----0-0----------I
 			      END RIFF B
 I--------------------------------------I
 I--------------------------------------I
 I--------------------------------------I
 I--------------------------------------I
 I-----5-7-----5-7-----5-7--------------I
 I-0-0-----0-0-----0-0-----5-6-7--------I

 RIFF C		 END RIFF C
 I-------------------------I
 I-------------------------I
 I-------------------------I
 I-5---2-5---2-5---2-5---2-I
 I-5---2-5---2-5---2-5---2-I
 I-3---0-3---0-3---0-3---0-I

 RIFF D		    END RIFF D
 I----------------------------I
 I----------------------------I
 I----------------------------I
 I----------------------------I
 I-----10---9---7---5---5/7---I
 I-0-0----0---0---0---0-------I


 RIFF E
 I----------------------------I----------------------------I
 I----------------------------I----------------------------I
 I---------------9------------I---------------7------------I
 I---------------9------------I---------------7------------I
 I---------------7------------I---------------5------------I
 I-0-0-3-2-2-0-0--------------I-0-0-3-2-2-0-0--------------I
 						 END RIFF E
 I----------------------------I----------------------------I
 I----------------------------I----------------------------I
 I---------------5------------I---------------7------------I
 I---------------5------------I---------------7------------I
 I---------------3------------I---------------5------------I
 I-0-0-3-2-2-0-0--------------I-0-0-3-2-2-0-0--------------I

 RIFF F
 I-------------------------------I-------------------------------I
 I-7---5-4-5---4---4-------------I-7---5-4-5---4---4-------------I
 I---------------7-----7-5-4-5-7-I---------------7-----7-5-4-5-7-I
 I-------------------------------I-------------------------------I
 I-------------------------------I-------------------------------I
 I-------------------------------I-------------------------------I
 						       END RIFF F
 I-------------------------------I-------------------------------I
 I-7---5-4-5---4---4-------------I-------------------------------I
 I---------------7-----7-5-4-5-7-I-7-------------2---------------I
 I-------------------------------I-7-------------2---------------I
 I-------------------------------I-5-------------0---------------I
 I-------------------------------I-------------------------------I

 RIFF G								    END RIFF G
 I------------------I------------------I------------------I-------------------I
 I------------------I------------------I------------------I-------------------I
 I-2----------------I-7----------------I-5----------------I-4--------4--5--4--I
 I-2----------------I-7----------------I-5----------------I-4--------4--5--4--I
 I-0-0#############-I-5-0#############-I-3-0#############-I-2#######-2--3--2--I
 I------------------I------------------I------------------I-------------------I

 RIFF H						 END RIFF H
 I---------------------------------------------------------I
 I---------------------------------------------------------I
 I-2-2-----5-2---2-2-----7-5---2-2-----5-2---0-0---4-5-4---I
 I-2-2--X--5-2---2-2--X--7-5---2-2--X--5-2---0-0---4-5-4---I
 I-0-0--X--3-0---0-0--X--5-3---0-0--X--3-0---0-0---2-3-2---I
 I---------------------------------------------------------I


 I----------------------------I----------------------------I
 I----------------------------I----------------------------I
 I---------------7------------I----------------------------I
 I---------------7------------I---------------2------------I
 I---------------5------------I---------------2------------I
 I-0-0-3-2-2-0----------------I-0-0-3-2-2-0---0------------I


 Here`s the song:

 RIFF A x 10 ( 6 in the middle with solo)

 RIFF B x 4

 RIFF B x 2
  No mercy for what we are doing
  No thought to even what we have done
  We don`t need to feel the sorrow
  No remorse for the helpless one

 RIFF C x 4

 RIFF D x 8
     War without end
     No remorse No repent
     We don`t care what it meant
     Another day Another death
     Another sorrow Another breath
     No remorse No repent
     We don`t care what it meant
     Another day Another death
     Another sorrow Another breath

 RIFF B x 4

 RIFF B x 2
  Blood feeds the war machine
  as it eats its way across the land
  We don`t need the feel the sorrow
  No remorse is the one command

 RIFF C x 4

 RIFF D x 8
     War without end
     No remorse No repent
     We don`t care what it meant
     Another day Another death
     Another sorrow Another breath
     No remorse No repent
     We don`t care what it meant
     Another day Another death
     Another sorrow Another breath

  (listen to the record and you`ll know what I mean)

 RIFF E x 10

 RIFF F x 1

 RIFF B x 2

 RIFF B x 2
  Only the strong survive
  No one to save the weaker race
  We are ready to kill all comers
  Like a loaded gun right at your face


 RIFF C x 4

 RIFF D x 8
     War without end
     No remorse No repent
     We don`t care what it meant
     Another day Another death
     Another sorrow Another breath
     No remorse No repent
     We don`t care what it meant
     Another day Another death
     Another sorrow Another breath

 Attack

 RIFF G x 4

 RIFF H x 2
  Bullets are flying
  People are dying
     with madness surrounding all hell`s breaking loose
  Soldiers are hounding
  Bodies are mounting
     cannons are shouting to take their abuse

 RIFF G x 2

 RIFF H x 2
  With war machines going
  Blood starts to flowing
  No mercy given to anyone hear
  The furious fighting
  Swords are like lighting
  It all becomes frightening to you
  Know death is near
 RIFF G x 2

 C5 B5 E5#################
 No Re-morse

 RIFF I x 1
Вверх

Nothing else matters mp3

6/8 time
E|-------0-----|-------0-----|-------0-----|-------0---7-------|
B|-----0---0---|-----0---0---|-----0---0---|-----0---0---------|
G|---0-------0-|---0-------0-|---0-------0-|---0---------------|
D|-------------|-------------|-------------|-------------------|
A|-------------|-------------|-------------|-------------------|
E|-0-----------|-0-----------|-0-----------|-0-----------------|
   P           (9/8 time)        Н P S       S P
E|-7-----------7^0---------|---------7---8---7^8^7\5-7---5\2^0-|
B|-----0-----------0-------|---------0---0-----------0---------|
G|---------0-----------0---|-----0-----------------------------|
D|-------------------------|-----------------------------------|
A|-------------------------|-----------------------------------|
E|-0-----------------------|-0---------------------------------|
                P
E|-------------2^0---------|-------------0---0---0-------------|
B|-5-------5-------5-------|---------5-------5---5-------------|
G|-----5---------------5---|-----5-----------5---5-------------|
D|-------------------------|-----------------------------------|
A|-0-----------------------|-0---------------0---2-------------|
E|-------------------------|-----------------------------------|
                P                         Н P   P   Н
E|-0-----------3^0-----0---|-0-----------0^5^0-----------------|
B|-5-------5-------5---5---|-7-------7---------7^0-0^5---------|
G|-5-----5---5-------5-5---|-7-----7---7-----------------------|
D|-------------------------|-----------------------------------|
A|-3---3---------------3---|-5---5-----------------------------|
E|-------------------------|-----------------------------------|
    <.NH.>
E|-------12----|-------0-----|-------0-----|-------0-----------|
B|-----12--0---|-----0---0---|-----0---0---|-----0---0---------|
G|---12------0-|---0-------0-|---0-------0-|---0-------0-------|
D|-------------|-------------|-------------|-------------------|
A|-------------|-------------|-------------|-------------------|
E|-0-----------|-0-----------|-0-----------|-0-----------------|

E|-------------7-----------|-------------|-------------7-------|
B|-------------8-----------|-----7-----5-|-------------8-------|
G|-----------9-------------|-----7-----5-|-----------9---------|
D|---------9---------------|---7-----5---|---------9-----------|
A|-------7-----------------|-5-----3-----|-------7-------------|
E|-0-----------------------|-------------|-0-------------------|

E|-------------|-------------7-------|-----5-----------3-----|
B|-----7-----5-|-------------8-------|-------7-----------5---|
G|-----7-----5-|---------9-----------|---------7-----------5-|
D|---7-----5---|-----------9---------|-----7-----------5-----|
A|-5-----3-----|-------7-------------|-5-----------3---------|
E|-------------|-0-------------------|-----------------------|

E|-----3-----------2-------|-------0-----|-------0-----|
B|-------3-----------4-----|-----0---0---|-----0---0---|
G|---------4-----------2---|---0-------0-|---0-------0-|
D|-----5-----------4-------|-------------|-------------|
A|-------------2-----------|-------------|-------------|
E|-3-----------------------|-0-----------|-0-----------|

Main guitar part:
E|-------------3-----0-----|-2-----3-----0-----------|
B|---------0-----------0---|---------3-------3-------|
G|-----0-----------0-----0-|-----------0-------0-----|
D|-------------------------|-0-----------------------|
A|-------------------------|-------------3-----------|
E|-0-----------------------|---------------------3-2-|

E|-------------3-----0-----|-2-----------------------|
B|---------0-----------0---|-------3-----3-----------|
G|-----0-----------0-----0-|---------2-------0-------|
D|-------------------------|-0-----------------------|
A|-------------------------|-------------3-----------|
E|-0-----------------------|---------------------3-2-|

E|-------------3-----0-----|-2-----3-----3---------|
B|---------0-----------0---|---------3-------3-----|
G|-----0-----------0-----0-|-----------0---------0-|
D|-------------------------|-0---------------------|
A|-------------------------|-------------3---------|
E|-0-----------------------|-----------------------|

E|---------3---2-----2--|-0-----0-----|-------------0----------|
B|---------3---0-----0--|-0---0---0---|---------0-------0------|
G|-----0-------2-----2--|---0-------0-|-----0------------------|
D|----------------------|-------------|------------------------|
A|-------------2-----2--|-------------|------------------------|
E|-3--------------------|-0-----------|-0------------------3-2-|

Припев: guitar part
                1   2   3   4   5   6
E|-------------|-2-----2-2-2-3---2-0-0-2-|
B|-1-----2-----|-3-----3-3-3-3---3-3-3-3-|
G|-0-----2-----|-2-----2-2-2-2---2-2-2-2-|
D|-2-----2-----|-0-----0-0-0-0---0-0-0-0-|
A|-3-----0-----|-------------------------|
E|-------------|-------------------------|

E|-------------|-2-----2-2-2-3---2-0-0-2-|
B|-1-----2-----|-3-----3-3-3-3---3-3-3-3-|
G|-0-----2-----|-2-----2-2-2-2---2-2-2-2-|
D|-2-----2-----|-0-----0-0-0-0---0-0-0-0-|
A|-3-----0-----|-------------------------|
E|-------------|-------------------------|

E|-------------|-2-----2-2-2-0-|
B|-1-----2-----|-3-----3-3-3-0-|
G|-0-----2-----|-2-----2-2-2-0-|
D|-2-----2-----|-0-----0-0-0-2-|
A|-3-----0-----|-------------2-|
E|-------------|-------------0-|

Interlude, only one part is notated.

E|-12----14---|-15---17---|-8-----8-----|-----8-----|0-----0---|
B|---12----12-|---12---12-|---5-----5---|---5---5---|--1-----1-|
G|------------|-----------|-----5-----5-|-5-------5-|----0-----|
D|------------|-----------|-------------|-----------|----------|
A|------------|-----------|-------------|-----------|----------|
E|------------|-----------|-------------|-----------|----------|

E|-0-------0---|-0-0---------0-0---------|-------0-----|
B|---3-------3-|-----0-----------0-------|-----0---0---|
G|-----2-------|---------0-----------0---|---0-------0-|
D|-------------|-------------------------|-------------|
A|-------------|-------------------------|-------------|
E|-------------|-------------------------|-------------|

Guitar solo :
   E5  E5(VII) | D5(V)  C5(III)
   E5  E5(VII) | D5(V)  C5(III)
   E5  E5(VII) | D5(V)  C5(III) | G5(III)  B5(II) | E5

     B       B  R   V                            V
E|---------------------------|---------------------------------|
B|-15------15----------------|---------------------------------|
G|-14(16)--14(16)14-12----12-|-11-12-11----11---------12-14-12-|
D|---------------------------|----------14----12-14------------|
A|---------------------------|---------------------------------|
E|---------------------------|---------------------------------|
      B        B                           B  R            V
E|-------12-------12------------------|------------------------|
G|----12-------12----15-12----12------|------------14-14-13----|
G|-14(16)---14(16)---------15----15-14|-12(14)12---14-14-13-12-|
D|------------------------------------|---------14-------------|
A|------------------------------------|------------------------|
E|------------------------------------|------------------------|
   S                         Н  P  S              V
E|-/15-14----15-14-17-|-15-14^15^14\12----15-14-|--------------|
B|--------12----------|----------------12-------|-12-----------|
G|--------------------|-------------------------|-----12-14-12-|
D|--------------------|-------------------------|--------------|
A|--------------------|-------------------------|--------------|
E|--------------------|-------------------------|--------------|
     B  R              B                B  R  P     B
E|-------------------------|-12--------------------------|
B|-15-------------------12-|-------15-15(17)15^12-15(17)-|
G|-14(16)14-12----12-14(16)|-----------------------------|
D|-------------14----------|-----------------------------|
A|-------------------------|-----------------------------|
E|-------------------------|-----------------------------|
     Н  P       S     Н P
E|-----------------|--------|
B|-12^15^12\\\\\\7-|-5^7^5--|
G|-----------------|--------|
D|-----------------|--------|
A|-----------------|--------|
E|-----------------|--------|

The end:

E|-0-----0-----|-------0---7-|-7-----------7^0-------|
B|-----0---0---|-----0---0---|-----0-----------0-----|
G|---0-------0-|---0---------|---------0-----------0-|
D|-------------|-------------|-----------------------|
A|-------------|-------------|-----------------------|
E|-0-----------|-0-----------|-0---------------------|

E|---------7---8---7^8^7\5--7---5\2--0-|
B|---------0---0------------0----------|
G|-----0-------------------------------|
D|-------------------------------------|
A|-------------------------------------|
E|-0-----------------------------------|

  Em           D         C
So close no matter how far
Couldn't be much more from the heart
Forever trusting who we are
 G   Н7          Em
And nothing else matters

 Em             D         C
Never opened my self this way
Life is ours, we live it our way
All these words I don't just say
 G   Н7           Em
And nothing else  matters

  Em             D
Trust I seek and find in you
Every day for us something new
Open mind for a different view
 G   Н7          Em
And nothing else  matters

{Начало припева}
 C A  D                       C
     Never cared for what they do
   A  D                       C
     Never cared for what they know
   A  D       Em
     But I  know
{конец припева}

{Повторить первый куплет}
{припев}
{Повторить первый и второй куплеты}

C A  D                        C
   Never cared for what they say
  A  D                         C
   Never cared for what they play

  A  D                        C
   Never cared for what they do

  A  D                        C
   Never cared for what they know

  A  D        Em
   But I  know

{Повторить первый куплет}

Перевод:

Ничто Больше Не Имеет Значения

Так близко не значит как далеко
Не могло бы быть намного больше от сердца
Вечно доверяя тем, кто мы есть
И ничто больше не имеет значения
Я никогда не открывал себя с этой стороны
Жизнь - наша, и мы проживаем ее по своему
Все эти слова я не просто так говорю
И ничто больше не имеет значения
Доверие, что я ищу, я нахожу в тебе
Каждый день для нас - это что-то новое
Открой свой разум для разный точек зрения
И ничто больше не имеет значения

Важно не то, что они делают
Важно не то, что они знают
А то, что знаю я

Так близко не значит как далеко
Не могло бы быть намного больше от сердца
Вечно доверяя тем, кто мы есть
И ничто больше не имеет значения

Важно не то, что они делают
Важно не то, что они знают
А то, что знаю я

Я никогда не открывал себя с этой стороны
Жизнь - наша, и мы проживаем ее по своему
Все эти слова я говорю не просто так
И ничто больше не имеет значения
Доверие, что я ищу, я нахожу в тебе
Каждый день для нас - это что-то новое
Открой свой разум для разный точек зрения
И ничто больше не имеет значения

Важно не то,, что они говорят
Важно не то, в какие игры они играют
Важно не то, что они делаютВажно не то, что они знают
И я знаю

Так близко не значит как далеко
Не могло бы быть намного больше от сердца
Вечно доверяя тем, кто мы есть
И ничто больше не имеет значения
Вверх

Nothing Else Matters (2 вариант) mp3

Что-то у многих проблемы с этим соляком... Попытаюсь
написать его попонятнее... Если не получится - ищите
сами.. или слушайте и подбирайте! :)
Играется на электрогитаре с использованием примочки.

E|-----------------------------|
B|-15/*------------------------|
G|-14----14/*--12(vibr)--14-12-|
D|-----------------------------|
A|-----------------------------|
E|-----------------------------|
сразу скажу, что ввел свои обозначения... буду пояснять
их после каждого такта...
Итак, "/*" - подтяжка струн(обеих) на 1 тон или на 2 лада
14/* - тоже подтяжка на тон, но с возвратом, то есть вы
когда подтягиваете имеете фактически звук на 16 ладу, а
потом возвращаетесь на 14.
(vibr)- обычное так называемое вибрато.

Дальше веселее :)
E|---------------------------------------|
B|---------------------------------------|
G|-11-(12)-11----11-------------12-14-12-|
D|------------14----12-14(vibr)----------|
A|---------------------------------------|
E|---------------------------------------|
Здесь "11-(12)-11" - хамер и пул, как говорят американцы,
то есть ставим палец (указательный) на 11 лад, извлекаем звук,
ударяем безымянным пальцем (не отпуская 11 лад) по 12 ладу и
производим обратное действие: срываем палец с 12 лада, чтобы
зазвучала нота фа# (на 11 ладу). Далее...

E|---------12-------12-----------------|
B|------12--------12---15~12---12------|
G|-14/*-------14/*-----------15--15-14-|
D|-------------------------------------|
A|-------------------------------------|
E|-------------------------------------|

Здесь снова появился пул "15~12" - извлекаем звук на 15,
срываем на 12 (т.е. 12 лад звучит за счет работы левой
руки, а не правой!!!)

E|---------------------------------|
B|-------14-14-13------------------|
G|-12----14-14-13-12(vibr)--(12)sl-|
D|----14---------------------------|
A|---------------------------------|
E|---------------------------------|

"(12)sl" - после того как вы повибрируете (vibr), вы не
играете снова 12 лад - просто выполняете слайд к началу грифа,
т.е. повибрировали (какое интересное слово! :) ) и сдвинули
руку с зажатыми струнами к началу грифа. (нисходящий слайд
называется).

E|-/sl15-14----15-14-15-15/17-17-|
B|----------12-------------------|
G|-------------------------------|
D|-------------------------------|
A|-------------------------------|
E|-------------------------------|
Здесь появился так называемый восходящий слайд ( "/sl15")? т.е.
вы касаетесь струн где-то в районе 12 лада и ведете рукой до
15. Повторю, что обозначение 15/17 означает слайд (зажимаете
15, извлекаете звук и скользите на 17)

E|-15--14-(15)-14-sl12----15-14--------------|
B|----------------------12-------12----------|
G|----------------------------------12-14-12-|
D|-------------------------------------------|
A|-------------------------------------------|
E|-------------------------------------------|
Снова пул и хамер ("14-(15)-14") со слайдом на 12 лад сразу
после постановки пальца на 14.

E|------------------------------12---------|
B|-15/*----------------------12----15-15/*-|
G|-14---(14)sl12----12-14/*----------------|
D|-----------------14----------------------|
A|-----------------------------------------|
E|-----------------------------------------|
здесь "/*"-подтяжка на 2 лада (или на тон) двух струн,затем
скользим на 12лад по 4 струне. в конце я уже не уверен, так как
там что-то быстрое играется... Сыграете что-нибудь сами. Если
сможете сыграть то, что я написал в темпе оригинала, то
концовка пролетит сама.
Вверх

One mp3

1a)
G-----------------------------------------------------0-----
D-----4-----0------4-----0------4-----0------4-----0--------
A--2-----2-------------------2-----2------------------------
E---------------3-----3-------------------3-----3-----------

1б)
G-----------------------------------------------------------
D-----4-----0------4-----0------4-----0---------------------
A--2-----2------0-----0---------------------2----2----2--4-2
E----------------------------3-----3------0----2----0-------
вступление (очень чистенько)


2a)
G-----------------------------------------------------------
D----4--0-0-4-0----4--0-0-4-0----4--0-0-4-0----4--0-0-4-0---
A--2---------------------------2----------------------------
E----------------3---------------------------3--------------

2b)                                          2c)                  2d)
G-------------------------0---------------  -------------------  --------
D----4--0-0-4-0----4--0-4------4--0-0-4-0-  4-2-4-2------0-----  --------
A--2-------------0------------------------  -----------5------7  ---2---2
E----------------------------3------------  ---------3-----3-5-  -0---2--
Рифф куплета (тоже чисто)
2c) играется во время вступления, а 2d) во время куплета


3)
e------------------------------1---------0 п ----
B----------------------------1-------0---- о ----
G------0-7--7-7-7----------0-------0---0-- в ----
D----7------------7-0-5--3-------2-------- т ----
A--5-------------------------------------- о -3-2
E----------------------------------------- р ----
переход (опять же чисто)

4)
D-----2--4--2--------4--2--4/64-2--4/5-7
A--5--0--2--0--5--4--2--0--2/42-0--2/3-5
E--3-----------3--2----------------------
«Hold my breath...» (УЖЕ С DISTORTION!!!)


5)
D----2-4-2-----4-2-4/64-2-4--                     ---2-4-2-----4
A--5-0-2-0-5-4-2-0-2/42-0-2—-  2 раза повторить,  -5-0-2-0-5-4-2
E--3-------3-2----------------      потом          -3-------3-2--
«Now the world...» (DISTORTION ЖИВ!!!)


6)
D--2-0-2-0------------4-4---4-4/5---5  повторить
A--3-0-3-0-5-5-5-5-5--2-2---2-2/3---3  4 раза
E----------3-3-3-3-3------2-------3--  потом
          pm........      .       .




7)
D--5-5-5-7-5--4-4-4-5-4--4-4---4-4/5---5  повтор -2
A--7-7-7-7-7--5-5-5-5-5--2-2---2-2/3---3  два    -2
E----------------------------2-------3--  раза   -0
                           pm.........


8a)
D--------------------------------------2----------2/3
A--------------------------------------2----------2/3
E--0-0-0-0-0-0--0-0-0-0-0-0--0-0-0-0-0-0--0-0-0-0-0/1
  pm............................    .......
«...Darkness»

8b)
D--------------------------------
A--7--7-8--5--5-8--7--7-8--5--5--
E-------------------------------7
между «darkness...» и «landmine...»


9a)
D----------2----------2-----3
A----------2----------2-----3
E--0-0-0-0-0--0-0-0-0-0-0-0-1
  pm.........................
после «landmine...»

9b)
D------5-----5
A------5-----5
E--0-0-3-0-0-3
 pm...   ...
играть постепенно усиливая после соло



 соло вступления
  1       2       3  4    1       2   3       4          1        2  3  4
|-----------------------|------------------------------|--------------------|
|-----------------------|-----3p2-----3p2---------3----|-3p2----------------|
|---------2---4b6b4-----|---------4-------2------------|-----4--------------|
|-----2h4---------------|------------------------------|--------------------|
|-----------------------|------------------------------|--------------------|
|-----------------------|------------------------------|--------------------|

    1       2       3       4          1     2     3     4
|----------------------------------|----------------------------|
|-----75---54---42---2p0--------|------------------------2h3-|
|---------7-----------4-----0h2----|-2/4--------------2/4-------|
|----------------------------------|----------------------------|
|----------------------------------|----------------------------|
|----------------------------------|----------------------------|

    1   2    3        4         1     2     3     4       1     2
|---------------------------|-------------------------|-------------|
|-2-------------2---3p2-----|-------------------------|-------------|
|---------2/4-----------2---|-2/4---------------------|-------------|
|---------------------------|-------------------------|-------------|
|---------------------------|-------------------------|-------------|
|---------------------------|-------------------------|-------------|

    1     2     3         4       1           2      3     4
|-----------------}14---19----|-17-15-14-15--------------------|
|-----------------{x----------|-------------15-----------------|
|-----------------}x----------|--------------------------------|
|-----------------{x----------|--------------------------------|
|-----------------------------|--------------------------------|
|-----------------------------|--------------------------------|

    1       2     3       4          1       2          3      4
|--------------------------------|---------------------------------|
|--------------------------------|---------------------------------|
|-----7p6-7-----9p7-9-------11p9-|-11----11/12---12---11-----------|
|--------------------------------|---------------------------------|
|--------------------------------|---------------------------------|
|--------------------------------|---------------------------------|

    1         2          3           4            1          2
|---------------------------------------------|----------------12-----
|----------------------------------12---------|----12-14---15---------
|-----------11-12-14---------11-12------------|-11--------------------
|--------12---------------12---------------12-|-----------------------
|-----14---------------14---------------14----|-----------------------
|---------------------------------------------|-----------------------

    3         4           1         2      3     4
 -----------------------|------------------------------|
 ---15---14---12---14---|-14-----15-12-----------------|
 -----------------------|------------------------------|
 -----------------------|------------------------------|
 -----------------------|------------------------------|
 -----------------------|------------------------------|


обычное соло
|----------------------------|----------------------|----------------------|
|-------------10p7-----7-----|-10-----10---8---7----|-7h8p7----------------|
|------------------7---------|--------------------9-|--------7-------------|
|----------------------------|----------------------|----------------------|
|-(5)------------------------|----------------------|----------------------|
|----------------------------|----------------------|----------------------|

|-/10-8-7-----7---8-|---------17p14-----14-|-17---17-15--14---15p14--------|
|---------10--------|-8~~~~~---------15----|-------------------------------|
|-------------------|----------------------|-------------------------------|
|-------------------|----------------------|-------------------------------|
|-------------------|----------------------|-------------------------------|
|-------------------|----------------------|-------------------------------|

|------------------15--17--|--19p17p15-19p17p15-19p17p15-14-15----14-------|
|-15------15--19-----------|-----------------------------------17----15----|
|--------------------------|-----------------------------------------------|
|--------------------------|-----------------------------------------------|
|--------------------------|-----------------------------------------------|
|--------------------------|-----------------------------------------------|

|------|-------------------------------|-----------------------------------|
|------|-/8---8--87-------------------|-/13----13---13---13---12----------|
|------|-/7---7--7----7----------------|-/12----12---12---12---12----------|
|------|-------------------------------|-----------------------------------|
|------|-------------------------------|-----------------------------------|
|------|-------------------------------|-----------------------------------|

    T          T          T          T          T          T
|---20p17p13---20p17p13---20p17p13---20p17p13---20p17p13---20p17p13--------|
|--------------------------------------------------------------------------|
|--------------------------------------------------------------------------|
|--------------------------------------------------------------------------|
|--------------------------------------------------------------------------|
|--------------------------------------------------------------------------|
[ T := рёбрышком медиатора ]

    T             T
|---20p12h13p12---20p12h13p12-|
|-----------------------------|
|-----------------------------|
|-----------------------------|
|-----------------------------|
|-----------------------------|


соло быстрое, не сверните пальцы... Потренируйтесь...

  T         T        T        T        T        T        T        T
E-19p15p12--19p15p12-19p15p12-19p15p12-19p15p12-19p15p12-19p15p12-19p15p12-|
B--------------------------------------------------------------------------|
G--------------------------------------------------------------------------|
D--------------------------------------------------------------------------|
A--------------------------------------------------------------------------|
E--------------------------------------------------------------------------|

  T         T        T        T        T        T        T        T
E-20p15p12--20p15p12-20p15p12-20p15p12-20p15p12-20p15p12-20p15p12-20p15p12-|
B--------------------------------------------------------------------------|
G--------------------------------------------------------------------------|
D--------------------------------------------------------------------------|
A--------------------------------------------------------------------------|
E--------------------------------------------------------------------------|

  T         T        T        T        T        T        T        T
E--------------------------------------------------------------------------|
B-19p15p12--19p15p12-19p15p12-19p15p12-19p15p12-19p15p12-19p15p12-19p15p12-|
G--------------------------------------------------------------------------|
D--------------------------------------------------------------------------|
A--------------------------------------------------------------------------|
E--------------------------------------------------------------------------|

  T         T        T        T        T        T        T        T
E--------------------------------------------------------------------------|
B-20p15p12--20p15p12-20p15p12-20p15p12-20p15p12-20p15p12-20p15p12-20p15p12-|
G--------------------------------------------------------------------------|
D--------------------------------------------------------------------------|
A--------------------------------------------------------------------------|
E--------------------------------------------------------------------------|

  T         T        T        T        T        T        T        T
E--------------------------------------------------------------------------|
B-17p13p10--17p13p10-17p13p10-17p13p10-17p13p10-17p13p10-17p13p10-17p13p10-|
G--------------------------------------------------------------------------|
D--------------------------------------------------------------------------|
A--------------------------------------------------------------------------|
E--------------------------------------------------------------------------|

  T         T        T        T        T        T        T        T
E--------------------------------------------------------------------------|
B-18p13p10--18p13p10-18p13p10-18p13p10-18p13p10-18p13p10-18p13p10-18p13p10-|
G--------------------------------------------------------------------------|
D--------------------------------------------------------------------------|
A--------------------------------------------------------------------------|
E--------------------------------------------------------------------------|

  T        T     T     T     T     T      T     T    T    T    T    T
E---------------------------------------|----------------------------------|
B-17p12h14-17p12-17p10-17p12-17p10-17p8-|-17p10-17p8-17p7-17p8-17p7-17p5---|
G---------------------------------------|----------------------------------|
D---------------------------------------|----------------------------------|
A---------------------------------------|----------------------------------|
E---------------------------------------|----------------------------------|

E------------------------------14-14-14-|-15-15-15--17-17-17----------------
B-/12-12-12--12-12-12--12--12-----------|---------------------15-15-15------
G---------------------------------------|-----------------------------------
D---------------------------------------|-----------------------------------
A---------------------------------------|-----------------------------------
E---------------------------------------|-----------------------------------

E-17-17-17-17-|-22^24-------22^24----22^24~|~~~~~~~~---------------15-----|
B-------------|----------------------------|--------------/17--------------|
G-------------|----------------------------|-------------------------------|
D-------------|----------------------------|-------------------------------|
A-------------|----------------------------|-------------------------------|
E-------------|----------------------------|-------------------------------|

E-17p15---------------15h17p15-------------|-15h17p15-------------15h17p15--
B--------17-15-17-19-----------17-15-17-19-|----------17-15-17-19-----------
G------------------------------------------|--------------------------------
D------------------------------------------|--------------------------------
A------------------------------------------|--------------------------------
E------------------------------------------|--------------------------------

E-----------15-|-17p15------------15-17p15---------15h17----|
B-17-17-19-----|--------15-17-19------------17--15----------|
G--------------|--------------------------------------------|
D--------------|--------------------------------------------|
A--------------|--------------------------------------------|
E--------------|--------------------------------------------|

E-19p17p15-----19p17p15-----19p17p15------19p17p15----------|
B----------15-----------15------------15------------15------|
G-----------------------------------------------------------|
D-----------------------------------------------------------|
A-----------------------------------------------------------|
E-----------------------------------------------------------|

E-19p17--------19p17--------19p17---------19p17p15----------|
B----------15-----------15------------15--------------------|
G-----------------------------------------------------------|
D-----------------------------------------------------------|
A-----------------------------------------------------------|
E-----------------------------------------------------------|

E-------15-------15-------15-------15-|-18^19-15-------15-18^19-15-------15-|
B-18^20----18^20----18^20----18^20----|----------18^20-------------18^20----|
G-------------------------------------|-------------------------------------|
D-------------------------------------|-------------------------------------|
A-------------------------------------|-------------------------------------|
E-------------------------------------|-------------------------------------|

E-19p17p15-17----17p15----15----------|-------------------------------------|
B----------------------19-------------|-19p17p15-17-----15h17p1513--15-----|
G-------------------------------------|-------------------------------------|
D-------------------------------------|-------------------------------------|
A-------------------------------------|-------------------------------------|
E-------------------------------------|-------------------------------------|

E------------------------------------------|--------------------------------|
B-13h15p1312--13-----12h13p12----12-------|--------------------------------|
G------------------------------14----14p12-|-14p12----12----12--14^-14^-14^-|
D------------------------------------------|-------14----14-----------------|
A------------------------------------------|--------------------------------|
E------------------------------------------|--------------------------------|

E----------------------------|---------------------|------------------------|
B----------------------------|---------------------|------------------------|
G-14^16-14^16-----v14p12-----|-12-----12-----------|------------------------|
D-------------------------14-|----14------14-13-12-|------------------------|
A----------------------------|---------------------|-14-13-12-10~~~~~-------|
E----------------------------|---------------------|------------------------|

E---------------------------|---------------------------|-------------------|
B---------15^----------15^--|---------15^----------15^--|-17^-v-^-v-^-17^v^-|
G---------15^----------15^--|---------15^----------15^--|-17^-v---v-^-17^v^-|
D-17--17--------17--17------|-17--17--------17--17------|-------------------|
A---------------------------|---------------------------|-------------------|
E---------------------------|---------------------------|-------------------|

E---------------------|------------------------|----------------------------|
B-v(17)-^-v--15----15-|--------15^---------15^-|-17-----17-----15^-------15-|
G-v(17)-^-v--15----15-|--------15^---------15^-|-17-----17-----15^----------|
D---------------17----|-17--17------17--17-----|----------------------------|
A---------------------|------------------------|----------------------------|
E---------------------|------------------------|----------------------------|

E-------15--------15--------15--------15-|-------15--------15--------------||
B-18^20-----18^20-----18^20-----18^20----|-18^20-----18^20-----18^20~~~~~~-||
G----------------------------------------|---------------------------------||
D----------------------------------------|---------------------------------||
A----------------------------------------|---------------------------------||
E----------------------------------------|---------------------------------||

E------------------------------------|------------------------------------|
B------------------------------------|------------------------------------|
G------------------------------------|------------------------------------|
D------------------------------------|------------------------------------|
A---------------------------5-5-5----|-5-5-5----4-4-4---3-3-3---2-2-2-----|
E-3-3-3--3-3-3--3--------------------|------------------------------------|

Рифф C
  E5                                      F5
-------------------------|--------------------|
-------------------------|--------------------|
-------------------------|--------------------|
---------------2---------|--------2--------3--|
---------------2---------|--------2--------3--|
--0-0-0-0-0-0-----0-0-0--|--0-0-0----0-0-0----|

[ Рифф С играть 9 раз ]

E------------------------------------|------------------------------------|
B------------------------------------|------------------------------------|
G------------------------------------|------------------------------------|
D------------------------------------|------------------------------------|
A---------------------------5-5-5----|-5-5-5----4-4-4---3-3-3---2-2-2-----|
E-0-0-0--0-0-0--0--------------------|------------------------------------|

[ играть в 2 гитары ]
E-----------------------5--5--5------|------------------7--7--7--5--------|
B-8--8--8--7^-----------7--7--7------|--8^--------5-----8--8--8--7--------|
G-9--9--9--7^----7-------------------|--8^--------------------------------|
D----------------9-------------------|------------9-----------------------|
A------------------------------------|------------------------------------|
E------------------------------------|------------------------------------|

E-7--5-----5-------5-----------------|------------------------------------|
B-8--7--8--7-------7--8--7--8--------|-8--7--5--7--------7--5-----5-------|
G-------9-------------9--7--9--------|-9--7--6--7--------7--6--7--6-------|
D------------------------------------|-------------------------9----------|
A------------------------------------|------------------------------------|
E------------------------------------|------------------------------------|

E-----------------------5--5--5------|------------------7--7--7--5--------|
B-8--8--8--7^-----------7--7--7------|--8^--------5-----8--8--8--7--------|
G-9--9--9--7^----7-------------------|--8^--------------------------------|
D----------------9-------------------|------------9-----------------------|
A------------------------------------|------------------------------------|
E------------------------------------|------------------------------------|

E-7--5-----5-------5-----------------|-8--7--5--7--------7--5-----5-------|
B-8--7--8--7-------7--8--7--8--------|-10-8--7--8--------8--7--8--7-------|
G-------9-------------9--7--9--------|-------------------------9----------|
D------------------------------------|------------------------------------|
A------------------------------------|------------------------------------|
E------------------------------------|------------------------------------|

E-----------------------5--5--5------|------------------7--7--7--5--------|
B-8--8--8--7^-----------7--7--7------|--8^--------5-----8--8--8--7--------|
G-9--9--9--7^----7-------------------|--8^--------------------------------|
D----------------9-------------------|------------9-----------------------|
A------------------------------------|------------------------------------|
E------------------------------------|------------------------------------|

E-7--5-----5-------5-----------------|------------------------------------|
B-8--7--8--7-------7--8--7--8--------|-8--7--5--7--------7--5-----5-------|
G-------9-------------9--7--9--------|-9--7--6--7--------7--6--7--6-------|
D------------------------------------|-------------------------9----------|
A------------------------------------|------------------------------------|
E------------------------------------|------------------------------------|

E-----------------------5--5--5------|------------------7--7--7--5--------|
B-8--8--8--7^-----------7--7--7------|--8^--------5-----8--8--8--7--------|
G-9--9--9--7^----7-------------------|--8^--------------------------------|
D----------------9-------------------|------------9-----------------------|
A------------------------------------|------------------------------------|
E------------------------------------|------------------------------------|

E-7--5-----5-------5-----------------|------------------------------------|
B-8--7--8--7-------7--8--7--8--------|-8--7--5--7--------7--5-----5-------|
G-------9-------------9--7--9--------|-9--7--6--7--------7--6--7--6-------|
D------------------------------------|-------------------------9----------|
A------------------------------------|------------------------------------|
E------------------------------------|------------------------------------|

E------------------------------------|------------------------------------|
B-5----------------------------------|------------------------------------|
G-6--7--6--7-------7--6--4--6--------|-6--4--2--4--------4--2--0--2-------|
D----9--7--9-------9--7--5--7--------|-7--5--4--5--------4--2--0--2-------|
A------------------------------------|------------------------------------|
E------------------------------------|------------------------------------|

====================================БАСС===================================

Помните, уважаемые басисты, Newstead игает медиатором.

Примечание:

| |
| |  такт
| |
| |

   (X)
|    | повторить такт Х раз
|X  X|
|X  X|
|    |

 /-
2 H 3 хаммер                      . длительность ноты
(2/4) время длительности          ,/ слайды
1------- только в первый раз      (1)----- также как и в первый раз
2------- только во второй раз    1.2.3---- первый, второй и третий раз
4------- в четвёртый раз

W целая нота  		H половинная нота    	Q четвертная нота
E восьмая нота		S 16-ая нота     	TTT триоль (восьмых)
ttt триоль 16-х нот
темп 108 ударов в минуту (это тем, у кого дома завалялся метроном)

intro: (4/4)        (3/4)
   E E E E E E E E | Q E E E E |  Q. E E E | Q E E S   S E  |  Q. E S S E|
g:-----------------|---4-------|-----------|---4------------|------2-0---|
d:-----------------|-----------|X----------|--------/-----X|----------2-|
a:-r-2-r-2-r-2-r-2-|-2---2-3-2-|X----------|-2---2-2-H-3-2-X|-0—0--------|
e:-----------------|-----------|--3—3-0-2--|----------------|------------|

   Q. E S S E | Q.  E E E | Q E E E E  | E E E E  E  E  | Q E E E E |
g:------------|-----------|------------|-------7--------|-----------|
d:------------|-----------|------------|-0-7-0----------|---5-------|
a:------------|---------4-|---5----0-7-|---------/7-----|-------0---|
e:-3—3-0-2-3--|-0---0-2---|-3---3------|-------------8-|-3---3---3-|

   Q E E E E | E E E E E E | E E E E E E  | Q E E E E | Q E E E E | Q. E. E   E|
g:-----------|-------------|-------7------|-----------|-----------|------------|
d:---3---3---|-----2---2---|-0-7-0--------|---5-------|---3---3---|--------/--|
a:-----------|---2---2---2-|---------7----|-------0---|-----------|-------2-H-3|
e:-1---1---1-|-0-----------|-----------8-|-3---3---3-|-1---1---1-|-0---0------|

1ый и 2ой куплеты
(3/4)
   Q.  E E E | Q. E E E | Q. E E E | Q E E E  E  | Q. E S   S E   Q. E S S E|
g:-----4-----|----------|----4-----|-------------|--------------|------2-0--|
d:-----------|----------|----------|--------/---|-------/-----|----------2|
a:-2-----3-2-|----------|-2----3-2-|-----0-2-h-5-|-2--2-2-H-3-2-|-0--O------|
e:-----------|-3--3-0-2-|----------|-3-3---------|--------------|-----------|

               (2/4)     (3/4)
   Q. E S S E | E E E E | q E E S   S E | Q. E E E | Q. E S   S E |
g:------------|---------|---4-----------|----------|--------------|
d:------------|---------|--------/-----|----------|-------/-----|
a:------------|---2---2-|-2---2-2-h-3-2-|----------|-2--2-2-h-3-2-|
e:-3--3-0-2-3-|-0---2---|---------------|-3--3-0-2-|--------------|

                                                        (2/4)
   Q  E E S   E | Q. E S   S E | Q. E S S E | Q. E S S E | Q  E E |
g:--------------|--------------|------2-0---|------------|--------|
d:---------/---|-------/-----|----------2-|------------|--------|
a:------0-2-h-5-|-2--2-2-h-3-2-|-0--0-------|------------|--------|
e:-3--3---------|--------------|------------|-3--3-0-2-3-|-0--2-0-|

«Hold my breath ...»
(6/4)                                   (3/4)
   Q. E E E Q Q Q | Q. E E E Q E E E E | Q E E  E E  | Q E E E E |
g:----------------|--------------------|--------7----|-----------|
d:----------------|--------------5---6-|---7---------|---5-------|
a:----0-2-0-----2-|-0--2-4-2-0-3---4---|-5---5-------|-----------|
e:-3--------3-2---|--------------------|----------8-|-3---3-5-3-|

                          1                                      |
  Q E E E E | E E E E E E | E E E E E E  | Q E E E E | Q E E E E |
g:----------|-------------|-------7------|-----------|-----------|
d:---3--3---|-----2---2---|-0-7-0--------|---5-------|---3---3---|
a:----------|---2---2---2-|---------7----|-------0---|-----------|
e:-1---1--1-|-0-----------|-----------8-|-3---3---3-|-1---1---1-|

(1)          2                                      повторить 3 раза (6/4)
   Q. E E E|  E E E E E E | Q E E E E | Q E E E E| E E E E E E  |Q. E E E Q Q Q |
g:---------|--------7-----|-----------|----------|--------------|---------------|
d:---------|X-0-7-0-------|---5-------|---3---3--|-----2---2---X|---------------|
a:------2-3|X---------7---|-------0---|----------|---2---2---2-X|----0-2-0-----2|
e:-0--0----|------------8|-3---3---3-|-1---1---1|-0------------|-3--------3-2--|

                                  (3/4)
   Q. E E E Q Q Q | Q. E E E Q Q Q | Q E E E E | E E E E E E| Q E E E E|
g:----------------|----------------|-----------|------------|----------|
d:----------------|----------------|---0-----0-|------------|----------|
a:-0--2-4-2-0-2-4-|----0-2-0-----2-|-0---0-0---|-------5----|-2-2---2--|
e:----------------|-3--------3-2---|-----------|-3-3-3---3-0|-----0---0|

   Q E E E E| E E E E E E| E E E E E E| Q E E E E| E S S E E E E|
g:----------|------------|------------|----------|--------------|
d:----------|-----0---0--|------------|----------|--------------|
a:-3-3---3--|-0-0---0---0|-------0----|-2-2---2-0|-3-3-3-3---3--|
e:-----1---0|------------|-3-3-3---3-0|-----0----|---------1---0|

   E E E E E E| E E E E E E| Q E E E E| E E E E E E| E E E E E E|
g:-----2------|------------|----------|------------|-----2------|
d:---0---0----|------------|----------|------------|---0---0----|
a:-0-------0--|-------5----|-2-2---2--|-3-3-3---3--|-0-------0--|
e:-----------0|-3-3-3---3-0|-----0---0|-------1---0|-----------0|

   E E E E E E| Q E E E E| E S S E E Q | E E E E E E| E E E E Q | Q. E E E|
g:------------|----------|-------------|------------|-----------|---------|
d:------------|----------|-------------|-------7----|-0-0-0-7---|---------|
a:------------|-2-2---2-0|-3-3-3-3---3/|-7-7-7---7-0|---------5|-2----2-0|
e:-3-3-3-5-3-0|-----0----|---------1---|------------|-----------|----0----|

                                                                 (4/4)
   E E E E Q | E E E E Q| E E E E Q | Q E E E E| E S S E E E E| W   W
g:-----------|----------|-----------|----------|--------------|--|----|
d:-----------|-------7--|-0-0-0-7---|----------|--------------|--|----|
a:-3-3-3---3/|-7-7-7---0|---------5|-2-2-0-2-0|-3-3-3-3---3--|-7|-(7)|
e:-------1---|----------|-----------|----------|---------1---0|-0|-(0)|

  (2/4)повторить 6 раз  (4/4)             повторить 5 раз
     t t t t t t E E  || t t t t t t Q    t t t t t t E E
g:|-------------------||-----------------------------------|
d:|X-----------------X||X---------------------------------X|
a:|X-------------7---X||X-------------7-------------------X|
e:|--0-0-0-0-0-0-0-r--||--0-0-0-0-0-0-0---0-0-0-0-0-0-0-1--|

     «Darkness...»
     t t t t t t E E  t t t t t t E E| t t t t t t E E t t t t t t E E|
g:|----------------------------------|--------------------------------|
d:|X---------------------------------|--------------------------------|
a:|X-------------7----------------7--|-------------7------------------|
e:|--0-0-0-0-0-0-0-r--0-0-0-0-0-0-0-r|-0-0-0-0-0-0-0-r-0-0-0-0-0-0-0-1|

    t t t t t t E E  t t t t t t E E| t t t t t t E E t t t t t t E E|
g:----------------------------------|--------------------------------|-
d:----------------------------------|--------------------------------|
a:--------------7----------------7--|-------------7------------------|
e:--0-0-0-0-0-0-0-r--0-0-0-0-0-0-0-r|-0-0-0-0-0-0-0-r-0-0-0-0-0-0-0-1|

   «...cell!» 1
   t t t t t t Q    t t t t t t E  E| t t t t t t Q     t t t t t t E E|
g:----------------------------------|----------------------------------|
d:----------------------------------|----------------------------------|
a:-------------7//-------------7/8|-------------5//-------------5/8|
e:-0-0-0-0-0-0-------0-0-0-0-0-0----|-0-0-0-0-0-0-------0-0-0-0-0-0----|

(1)

g:----------------------------------|----------------------------------|
d:----------------------------------|----------------------------------|
a:-------------7//-------------7/8|-------------5//-------------2--|
e:-0-0-0-0-0-0-------0-0-0-0-0-0----|-0-0-0-0-0-0-------0-0-0-0-0-0---1|

Вдвое быстрее (216 bpm)
2                           повторить 4 раза
     T T T T T T Q  T T T| T T T Q  T T T Q  ||  T T T T T T E E   T T T|
g:|----------------------|-------------------||-------------------------|
d:|X---------------------|------------------X||X------------------------|
a:|X-------------2-------|-------2--------3-X||X-7-7-7-7-7-7-7--r--7-7-7|
e:|--0-0-0-0-0-0----0-0-0|-0-0-0----0-0-0----||--0-0-0-0-0-0-0--r--0-0-0|

                                                    повторить 4 раза
   T T T E E T T T E E  ||  T T T T T T Q  T T T| T T T Q  T T T Q  |
g:----------------------||----------------------|-------------------|
d:---------------------X||X---------------------|------------------X|
a:-7-7-7-7-r-7-7-7-7-r-X||X-------------2-------|-------2--------3-X|
e:-0-0-0-0-r-0-0-0-0-r--||--0-0-0-0-0-0----0-0-0|-0-0-0----0-0-0----|

   T T T T T T E  E  T T T| T T T E E T T T T T T|  T T T T T T Q  Q|
g:------------------------|----------------------|------------------|
d:------------------------|----------------------|X-----------------|
a:-7-7-7-7-7-7-7--r--7-7-7|-7-7-7-7-r-7-7-7-7-7-7|X-------------7--7|
e:-0-0-0-0-0-0-0--r--0-0-0|-0-0-0-0-r-0-0-0-0-0-0|--0-0-0-0-0-0-0--0|

   T T T T T T Q Q| T T T T T T Q Q| T T T T T T Q Q  ||  T T T T T T Q Q|
g:----------------|----------------|------------------||-----------------|
d:----------------|----------------|-----------------X||X----------------|
a:-------------7-7|----------------|-----------------X||X-------------5-5|-
e:-0-0-0-0-0-0-0-0|-0-0-0-0-0-0-0-1|-3-3-3-3-3-3-3-3--||--3-3-3-3-3-3----|

   T T T T T T Q Q| T T T T T T Q Q  ||  E E Q  E E Q| E E Q  E E Q|
g:----------------|------------------||--------------|-------------|
d:----------------|-----------------X||X-------------|-------------|
a:-------------5-5|-----------------X||X-------------|-------------|
e:-3-3-3-3-3-3----|-1-1-1-1-1-1-1-1--||--0-0-3--0-0-3|-0-0-3--0-0-3|

   T T T T T T Q Q| T T T T T T Q Q| T T T T T T E E T T T|
g:----------------|----------------|----------------------|
d:----------------|----------------|----------------------|
a:----------------|----------------|---------------r-5-5-5|
e:-1-1-1-1-1-1-1-1|-1-1-1-1-1-1-1-1|-3-3-3-3-3-3-3-r------|

                                                   повторить 4 раза
   T T T T T T T T T T T T|  T T T T T T Q T T T| T T T Q T T T Q  |
g:------------------------|---------------------|------------------|
d:------------------------|X--------------------|-----------------X|
a:-5-5-5-4-4-4-3-3-3-2-2-2|X-------------2------|-------2-------3-X|-
e:------------------------|--0-0-0-0-0-0---0-0-0|-0-0-0---0-0-0----|

   T T T T T T E E T T T| T T T T T T T T T T T T||  T T T T T T Q T T T|
g:----------------------|------------------------||---------------------|
d:-2-2-2-2-2-2-2-r------|------------------------||X--------------------|
a:---------------r-5-5-5|-5-5-5-4-4-4-3-3-3-2-2-2||X-------------2------|
e:----------------------|------------------------||--0-0-0-0-0-0---0-0-0|

      повторить 13 раз
   T T T Q T T T Q  | E E Q  E E Q|  E E Q  E E Q| T T T T T T Q T T T|
g:------------------|-------------|--------------|--------------------|
d:-----------------X|-------------|--------------|--------------------|
a:-------2-------3-X|-------------|--------------|-------------2------|
e:-0-0-0---0-0-0----|-0-0-3--0-0-3|--0-0-3--0-0-3|-0-0-0-0-0-0---0-0-0|

   T T T Q T T T Q| E E Q  E E Q|  E E Q  E E Q||  T T T T T T Q  Q|
g:----------------|-------------|--------------||------------------|
d:----------------|-------------|--------------||X-----------------|
a:-------2-------3|-------------|--------------||X-------------7--7|
e:-0-0-0---0-0-0--|-0-0-3--0-0-3|--0-0-3--0-0-3||--0-0-0-0-0-0-0--0|

  1.2.3            4
   E E Q  E E Q  | E E Q  E E Q| E E Q  E E Q| T T T T T T Q T T T
g:---------------|-------------|-------------|--------------------|
d:--------------X|-------------|-------------|--------------------|
a:--------------X|-------------|-------------|-------------2------|
e:-1-1-1--1-1-1--|-3-3-3--3-3-3|-3-3-3--3-3-3|-0-0-0-0-0-0---0-0-0|

   T T T Q T T T Q  T T T T T T E  E T  T  T | T  T  T  E
g:----------------|--------------------------|------------|
d:----------------|--------------------------|------------|--ВСЁ!!!!!!!!!!!!
a:-------2-------3|-7-7-7-7-7-7-7--r-19-19-19|-19-19-19-19|
e:-0-0-0---0-0-0--|-0-0-0-0-0-0-0--r-00-00-00|-00-00-00-00|
Вверх

Orion

 Intro
     E5                                 Bm/D             B/D#              8x
 ||-----------------|-----------------|----------------|-------------------||
 ||-----------------|-----------------|----------------|-------------------||
 ||o----------------|-----------------|-4--------------|------------------o||
 ||o----------------|-----------------|----------------|-4----------------o||
 ||--7--------------|(7)--------------|-5--------------|-6-----------------||
 ||--0--------------|(0)--------------|----------------|-------------------||


 Rhythm Figure 1:
     Em                                 Bm                                 6x
 ||-----------------|-----------------|-----------------|------------------||
 ||-----------------|-----------------|-----------------|------------------||
 ||o----------------|-----------------|-----------------|-----------------o||
 ||o-5-----5----5---|-4-----5-----5---|-4-----4-----4-4-|-4-----4-----4-4-o||
 ||--7-----7----7---|-7-----7-----7---|-5-----5-----5-5-|-6-----6-----6-6--||
 ||----0-0---0-0--0-|---0-0---0-0---0-|---7-7---7-7-----|---7-7---7-7------||
       x x   x x  x     x x   x x   x     x x   x x         x x   x x


     E       A5          E5            C5
 ||----------------------------------|---------------------------------|
 ||----------------------------------|---------------------------------|
 ||o---------2-----------4-----------|-5-------------------------------|
 ||o-2-2-2-2-----2-2-2-2-----2-2-2-2-|-----2-2-2-2-2---2-2-3---3-3-2---|
 ||----------------------------------|---------------------------------|
 ||----------------------------------|---------------------------------|


   E       C5          E5            A5                               4x
 |---------------------------------|----------------------------------||
 |---------------------------------|----------------------------------||
 |---------5-----------4-----------|-2-------------------------------o||
 |-2-2-2-2-----2-2-2-2-----2-2-2-2-|-----2-2-2-2-2---2-2-3---3-3-2---o||
 |---------------------------------|----------------------------------||
 |---------------------------------|----------------------------------||


 Rhythm Figure 2:
             A5          B5            C5
 ||----------------------------------|---------------------------------|
 ||----------------------------------|---------------------------------|
 ||o---------2-----------4-----------|-5-------------------------------|
 ||o---------2-----------2-----------|-5-------------------------------|
 ||----------0-----------2-----------|-3-------------------------------|
 ||--0---0-0-----0-0-0-0-----0-0-0-0-|-----0-0-0-0-0---0-0-1---1-1-0---|
                 x x x x     x x x x       x x x x x   x x x   x x x

           C5          E5/B          A5                               3x
 |---------------------------------|----------------------------------||
 |---------------------------------|----------------------------------||
 |---------5-----------4-----------|-2-------------------------------o||
 |---------5-----------2-----------|-2-------------------------------o||
 |---------3-----------2-----------|-0--------------------------------||
 |-0---0-0-----0-0-0-0-----0-0-0-0-|-----0-0-0-0-0---0-0-1---1-1-0----||
   x   x x     x x x x     x x x x      x x x x x   x x x   x x x


 Repeat Rhythm Figure 1 (2x)


   Em
 ||------------------------------|------------------------------|
 ||------------------------------|------------------------------|
 ||o--------h-p-------h-p--------|-------h-p-------h-p----------|
 ||o-------4-5-4---4-4-5-4-------|------4-5-4---4-4-5-4---------|
 ||--------------7---------7-----|(7)---------7---------7-------|
 ||------------------------------|------------------------------|

   Bm                            B
 |-----------------------------|-------------------------------||
 |-----------------------------|-------------------------------||
 |-----------------------------|------------------------------o||
 |-----------5---5---4---------|----------5---5---4---4-------o||
 |-(7)-------------------5-----|-------------------------------||
 |-----------------------------|-------------------------------||


   Em                                                   Bm
 |---------------------------|------------------------|---------------------|
 |---------------------------|------------------------|-----------------h---|
 |----sl----sl----sl----sl---|---sl-------------12-14/|---14-14-12-12-11-12-|
 |-4-2--5--5--7--7--9--9--12-|-12-14-14-14---14-------|---------------------|
 |---------------------------|------------------------|---------------------|
 |---------------------------|------------------------|---------------------|


 |---------------------|------------------------|--------------------------12|
 |------------------15-|-15/-----------------12-|-15/15-15-15/15-15-15/--15--|
 |(12)-11--------12----|-14----14/-14-----14----|----------------------------|
 |--------12-----------|------------------------|----------------------------|
 |---------------------|------------------------|----------------------------|
 |---------------------|------------------------|----------------------------|


   Bm                  p  p              p  p     p     B
 |-15-14-12-15-14-12-15-14-12-15-14-12-15-14-12-15-12-|-17/--17/--17/17-----|
 |----------------------------------------------------|------------------17/|
 |----------------------------------------------------|---------------------|
 |----------------------------------------------------|---------------------|
 |----------------------------------------------------|---------------------|
 |----------------------------------------------------|---------------------|

   B5                             B5                          E/B
 |----------------p-------------|-------------p-----------------------------|
 |-(17)---17/---17-15----15-17/-|-(17)--17--17-15-----15--------------------|
 |--------------------14--------|-----------------16-------16---------------|
 |------------------------------|-------------------------------------------|
 |------------------------------|-------------------------------------------|
 |------------------------------|-------------------------------------------|


   B5/A
 |--------------------------------------|-17/--------17/--17--------14--15--|
 |----15-19----15-19----15-19----15-19--|-----------------------------------|
 |-16-------16-------16-------16--------|-----------------------------------|
 |--------------------------------------|-----------------------------------|
 |--------------------------------------|-----------------------------------|
 |--------------------------------------|-----------------------------------|


   B5                h     h     h    h      h   h   h   h p         p
 |-17--15--14--15--14-15-12-14-10-12-8-10-|-7-8-5-7-3-5-2-3-2-------3-2-----|
 |----------------------------------------|-----------------------------5---|
 |----------------------------------------|---------------------------------|
 |----------------------------------------|---------------------------------|
 |----------------------------------------|---------------------------------|
 |----------------------------------------|---------------------------------|


   F#5                E5
 |---------------------p-----|--h------------|------------------------------|
 |-3-----3--5/-----5--5-3----|-3-5---3--2--3-|--h-p-h-p-h-p-h-p-h-p---------|
 |----4-------------------4--|---------------|-4-6-4-6-4-6-4-6-4-6-4--------|
 |---------------------------|---------------|------------------------------|
 |---------------------------|---------------|------------------------------|
 |---------------------------|---------------|------------------------------|


   B5               B5/A             F#5              E5
 |----------------|----------------|----------------|----------|------------|
 |----------------|----------------|----------------|----------|------------|
 |-4--------------|----------------|----------------|----------|------------|
 |-4------4-4-4-2-|-4------3-3-2-2-|-4------3-3-3-3-|-2--------|(2)---------|
 |-2------2-2-2-2-|-0------0-0-0-0-|-4------4-4-4-4-|-2--------|(2)---------|
 |----------------|----------------|-2------2-2-2-2-|-0--------|(0)---------|
          x x x x          x x x x          x x x x


 Rhythm Change (4/4 -> 6/8)

 Bass Solo (8 measures)

 The next part is played by 3 guitars. The upper notes are guitar 1,
 those in the middle are guitar 2 and the lower ones are for guitar 3.
 I usually play the first and second guitar simultaneously. This sounds
 pretty good.

     F#m      A       Bm       E            F#m    A     Bm       E
 ||-----------------|---------------------|------------|-------------------||
 ||-----------------|---------------------|------------|-------------------||
 ||o-9/-------------|-(9)------9/---6-9--|-6----------|-(6)--------------o||
 ||o-9/-------------|-(9)------9/---7-9--|-7----------|-(7)--------------o||
 ||--11`------------|-(11)-----11``--9-11-|-9----------|-(9)---------------||
 ||-----------------|---------------------|------------|-------------------||
                                                                 slide down

     F#m      A       Bm       E            F#m    A     Bm       E
 |------------------|---------------------|------------|--------------------|
 |------------------|---------------------|------------|--------------------|
 |---9/-------------|-(9)------9/---6-9--|-6----------|--------------------|
 |---9/-------------|-(9)------9/---7-9--|-7-7-7-7----|-(7)----------------|
 |---11`------------|-(11)-----11``--9-11-|-9-9-9-9----|-(9)----------------|
 |------------------|---------------------|---9-9-9----|-(9)----------------|
                                                                 slide down


     F#m      A       Bm       E            F#m    A     Bm       E
 |------------------|---------------------|-------------|--------------------|
 |------------------|---------------------|-------------|--------------------|
 |---9/-------------|-(9)------9/---6-9--|-6-----------|--------h-sl--------|
 |---9/ ------------|-(9)------9/---7-9--|-7-7-7-7-6-6-|-7--6--6-7-9--------|
 |---11`------------|-(11)-----11``--9-11-|-9-9-9-9-7-7-|-9--7--7-9-11-------|
 |------------------|---------------------|---9-9-9-7-7-|-9--7--7-9-12-------|


    F#m     A       Bm        E             F#m      A       Bm     E
 |----------------|-----------------------|----------------|----------------|
 |----------------|-----------------------|----------------|----------------|
 |----------------|-----------sl----------|-6--------------|------------9//|
 |----------------|--------7-9-11--9--7-9-|----4--7--7-----|(7)-------------|
 |--9-------------|(9)-7-9----------------|----------9-----|(9)-------------|
 |----------------|-----------------------|----------------|----------------|


 I`ll leave away the 2nd and 3rd guitar now. It would be a little bit
 complicated to put them into the following parts.

   F#m     A        Bm        E          F#m    A      Bm       E
 |----------------|--------------------|-------------|----------------------|
 |----------------|----------------h---|-------------|----------------------|
 |-(9)------------|(9)-----9//--6-9--|-6-----------|----------sl-----9-9-9|
 |----------------|--------------------|---7-7-7-6-6-|-7--6--6-7-9----------|
 |----------------|--------------------|-------------|----------------------|
 |----------------|--------------------|-------------|----------------------|

    F#m      A          Bm         E          F#m  A  Bm         E
 |--------------------|---------------------|--------|----------------------|
 |--------------------|---------------------|--------|----------------------|
 |--9--9-9-9--9--6--6-|-7--7--7-----------6-|-6------|(6)----------9-9-9-9-9|
 |--------------------|----------9-7-6--7---|-7------|(7)-------------------|
 |--------------------|---------------------|--------|----------------------|
 |--------------------|---------------------|--------|----------------------|


   F#m       A          Bm         E          F#m A    E
 |--------------------|---------------------|--------|----------------------|
 |--------------------|---------------------|--------|--------------------p-|
 |-9--9-9-9--9--6--6--|-7--7--7-----------6-|-6------|(6)---------4/--(4)-2|
 |--------------------|----------9-7-6--7---|--------|----------------------|
 |--------------------|---------------------|--------|----------------------|
 |--------------------|---------------------|--------|----------------------|


   F#m       A          Bm         E          F#m    A      Bm     E
 |--------------------|---------------------|-------------|-----------------|
 |--2-----------------|(2)------------------|-------------|-----------------|
 |--2-----------------|(2)-----------------2|-------------|-----------------|
 |--4-----------------|(4)-------------2-2--|-4-----------|(4)-----4--------|
 |--------------------|---------------------|-------------|-----------------|
 |--------------------|---------------------|-------------|-----------------|
                                                                   slide down

     F#m        A            Bm         E         3x
 ||------------------------|----------------------||
 ||------------------------|----------------------||
 ||o--------6---6----6-9-6-|-7--7----------------o||
 ||o------7---7----7-------|------9-6------6-9-6-o||
 ||--7--9------------------|----------7--7--------||
 ||------------------------|----------------------||
     ^first time:9

    F#m        A            Bm            E
 |------------------------|--------------------------|
 |------------------------|--------------------------|
 |---------6---6----6-9-6-|-7-7-7-7------------------|
 |-------7---7----7-------|---------4-6-9------6-9-6-|
 |--7--9------------------|---------------7--7-------|
 |------------------------|--------------------------|


     F#m      A          Bm       E        4x
 ||--------------------|-------------------||
 ||--------------------|-------------------||
 ||o-------6-9-6---6-9-|-7----7-9-------6-o||
 ||o-7-----------------|----------6---7---o||
 ||--------------------|-------------------||
 ||--------------------|-------------------||


   F#5              A5                   E5                C#5
 |-------------------------------------|----------------------------14-15-17-|
 |-------------------------------------|----------------12-14-15-17----------|
 |-------------------------------------|-------11-13-14----------------------|
 |-------------11----------11-12-14-11-|-12-14-------------------------------|
 |-12-11-12-14----11-12-14-------------|-------------------------------------|
 |-------------------------------------|-------------------------------------|


   F#5        A5      p                  E5              C#5
 |-17----17--17--14-17-14--14-17-14-12-|---p---------------------------|
 |-------------------------------------|-14-12---p------------17-------|
 |-------------------------------------|-------14-11-14-16-16/--16/----|
 |-------------------------------------|-------------------------------|
 |-------------------------------------|-------------------------------|
 |-------------------------------------|-------------------------------|


   F#5      A5 h            E5       h h sl  C#5
 |-2---2-4-5--5-7---5--4--|-sl-h-h--4-5-7-9--7--7-5-4-5-|
 |------------------------|-2-3-5-7---------------------|
 |------------------------|-----------------------------|
 |------------------------|-----------------------------|
 |------------------------|-----------------------------|
 |------------------------|-----------------------------|


   F#5         A5               E5              C#5
 |-4--------------------------|-------------------------|
 |---5--------------p---------|---------------p---------|
 |-----4--2-4-4/(4)-2------2-|-4-2-4-2-4/(4)-2--------|
 |---------------------4--4---|------------------4--4---|
 |----------------------------|-------------------------|
 |----------------------------|-------------------------|


   E5      G5     D5           B5               E5                       G5
 |--------------|------------------------------|------------------------------|
 |--------------|-----------------------p------|--p-------p-------p-----------|
 |-9/`-----9---|(9)-----9---9-------4-5-4---4-|-5-4---4-5-4---4-5-4---4------|
 |--------------|----7-7---5---4-5-7-------7---|-----7-------7-------7----5---|
 |--------------|------------------------------|------------------------------|
 |--------------|------------------------------|------------------------------|


   D5              B5              E5         G5
 |-------------------------------|------------------------|
 |------------------p------------|-3-----3----------------|
 |----4-5-7--5-4-5-5-4---4-5-4-5-|---4----4---4-----4-----|
 |-(5)-----------------7---------|-----5----5---5-2---5-2-|
 |-------------------------------|------------------------|
 |-------------------------------|------------------------|


   D5         B5             E5            G5
 |-------------------------|-------------------------------|
 |-------------------------|----------------------p-sl-----|
 |-5-2---5-2---2-------2---|-11`-11-9-11``-9-11-11-9-7-9-7-|
 |-----4-----4---4---4---4-|-------------------------------|
 |-----------------5-------|-------------------------------|
 |-------------------------|-------------------------------|


   D5              B5                             E5
 |------------------------------|               |------|
 |-----h-p-sl-------------------|               |------|
 |-9--7-9-7-5-7-5-4-5-4-2-4-5-4-| Rhythm Change |-5-5--|
 |------------------------------| (6/8 -> 2/8)  |------|
 |------------------------------|               |------|
 |------------------------------|               |------|

 Rhythm Change (2/8 -> 4/4)

    A      E5      C5                                     C5      E5
 |---------------------|----------------|               |-----------------|
 |---------------------|----------------|               |-----------------|
 |--2--------------5---|(5)-------------| Rhythm Change |-5---------------|
 |--2------2-------5---|(5)-------------| (4/4 -> 3/4)  |-5-------2-------|
 |--0------2-------3---|(3)-------------|               |-3-------2-------|
 |---------0-----------|------------0-0-|               |---------0-------|
                                    x x

 Rhythm Change (3/4 -> 4/4)

   A         B5                 A5    B5
 |---------|------------------------|----------------------------p--|
 |---------|-10/--10/--10/--10/-10/-|(10)-10/-10/-10/-10/-10/--10-7-|
 |-2-------|------------------------|-------------------------------|
 |-2-------|------------------------|-------------------------------|
 |-0-------|------------------------|-------------------------------|
 |---------|------------------------|-------------------------------|


   B5/A                                      F#5                        A5
                                               p     p     p     p     p     p
 |--------p-----------p---------p--------p--|10-7--10-7--10-7--10-7--10-7--10-7-|
 |----7-10-7-10/-10-10-7----7-10-7-10/-10-7-|----7-----7-----7-----7-----7------|
 |-9/--------------------9/-----------------|-----------------------------------|
 |------------------------------------------|-----------------------------------|
 |------------------------------------------|-----------------------------------|
 |------------------------------------------|-----------------------------------|


   B5              A5      B5/A                p
 |-10/--10/-10--7-10-10/-|(10)---10/-10------10-7-|
 |--------------7--------|------------------------|
 |-----------------------|------------------------|
 |-----------------------|------------------------|
 |-----------------------|------------------------|
 |-----------------------|------------------------|


   F#5                       A5         E5
     p
 |-10-7---p----p----------------------|-------------------------|
 |------10-7-10-7------p--------------|-------------------------|
 |----------------9-7-9-7------p------|-------------------------|
 |------------------------9-7-9-7-----|--p---p-----p---p--------|
 |--------------------------------9-8-|-7-5-7-5---7-5-7-5---5---|
 |------------------------------------|---------7---------7-----|


   B5                    A5        B5
                                                              p            p
 |-------------------------------|------------------p---22/-22-19-----19-22-19-|
 |----------------------------19-|-----19-22-22/--22-19-----------22/----------|
 |-------------h--7--------sl----|-21/-----------------------------------------|
 |--------sl--7-9----9--(9)-21---|---------------------------------------------|
 |--h--5-7-9---------------------|---------------------------------------------|
 |-5-7---------------------------|---------------------------------------------|


   B5/A
 |----19----19----19----19----19----19----19-------|
 |-22/---22/---22/---22/---22/---22/---22/---22-22-|
 |-------------------------------------------------|
 |-------------------------------------------------|
 |-------------------------------------------------|
 |-------------------------------------------------|


   F#5                                          A5
 |-----------------------------------------------------|
 |----19-22-19----19-22-19----19-22-19----19-22-22/----|
 |-21/---------21----------21----------21--------------|
 |-----------------------------------------------------|
 |-----------------------------------------------------|
 |-----------------------------------------------------|


   B5                    A5        B5/A
 |---22--22------22--22------22/-|-----22--22------22--22----------|
 |------------h-----------h------|--h-----------h-----------h---p--|
 |-----------2-4---------2-4-----|-2-4---------2-4---------2-4-7-6-|
 |-------------------------------|---------------------------------|
 |-------------------------------|---------------------------------|
 |-------------------------------|---------------------------------|


   F#5                     A5          E5
 |-----------------------------------|-----------------------------|
 |--p-----p-----p-----p-----p-----p--|--p-p---p-p---p--------------|
 |-7-6---7-6---7-6---7-6---7-6---7-6-|-4-2-0-4-2-0-4-2-2-----------|
 |-----9-----9-----9-----9-----9-----|--------------------2--2-----|
 |-----------------------------------|-----------------------------|
 |-----------------------------------|-----------------------------|


 Repeat Rhythm Figure 2 while fading out
Вверх

Orion (2 вариант)

 Fade In
 ||----------------|----------------|----------------|----------------||
 ||----------------|----------------|9---------------|----------------||
 ||7---------------|----------------|----------------|9---------------||
 ||----------------|----------------|----------------|----------------||

 Riff #1                                                        X6 Times
 ||-----------------|----------------|----------------|-----------------||
 ||:----------------|----------------|----------------|----------------:||
 ||-7-----7-----7---|7-----7-----7---|5-----5-----5-5-|6-----6-----6-6--||
 ||---0-0---0-0---0-|--0-0---0-0---0-|--7-7---7-7-----|--7-7---7-7------||

                                                       -----------------
                                                      |1.2.3.           |
 ||-----------------|----------------|----------------|-----------------||
 ||:----------------|----------------|----------------|----------------:||
 ||-p---0-----------|3---------------|p---3-----------|0----------------||
 ||-----------0-----|----------------|----------0-----|-----------------||

  ----------------
 |4.
 |----------------|
 |----------------|
 |0---------------|
 |------0-001-110-|

 Riff #2                                                        X4 Times
 ||-----------------|----------------|----------------|-----------------||
 ||:----------------|----------------|----------------|----------------:||
 ||-----0-----2-----|3---------------|----3-----2-----|0----------------||
 ||-0-00--0000--0000|--00000-001-110-|0-00--0000--0000|--00000-001-110--||

 Play Riff #1 six times

 |----------------|----------------|----------------|----------------|
 |----------------|----------------|----------------|----------------|
 |2-2-2-2-2-2-2-0-|2-2-2-2-2-2-2-0-|0-0-0-0-0-0-0---|------------0-0-|
 |----------------|----------------|--------------0-|2-2-2-2-2-2-----|

 |----------------|----------------|----------------|----------------|-----|
 |----------------|----------------|----------------|----------------|PAUSE|
 |2-2-2-2-2-2-2-0-|0-0-0-0-0-0-0---|----------------|----------------|1BEAT|
 |----------------|--------------0-|2-2-2-2-2-2-0-0-|0-----0-0-0-0---|-----|

 |----------------|----------------|----------------|----------------|-----|
 |----------------|----------------|----------------|----------------|PAUSE|
 |2-----2-2-2-2-p-|0-----0-0-0-0---|----------------|----------------|1BEAT|
 |----------------|----------------|2-----2-2-2-2---|0---------------|-----|
                            3 /             3 /

 Interlude Bass Solo
 |---|---- 11---9---|--9-----9---|---- 11---9---|--9---------|---- 11---9---|
 |-6-|---11- -7---7-|9---9-------|---11- -7---7-|9---9-------|---11- -7---7-|
 |-8-|9--- - -------|------7---7-|9--- - -------|------7-----|9--- - -------|
 |---|---- - -------|------------|---- - -------|------------|---- - -------|

 |--9---------|----- 11---9---|--9--/9999- -|
 |9---9---9---|----11- -7---7-|9---9-----119|
 |------7---7-|9---- - -------|----------- -|
 |------------|----- - -------|----------- -|
                                    S

 |---- 11---9---|--9-----9---|---- 11---9---|--9---------|---- 11---9---|
 |---11- -7---7-|9---9-------|---11- -7---7-|9---9-------|---11- -7---7-|
 |9--- - -------|------7---7-|9--- - -------|------7-----|9--- - -------|
 |---- - -------|------------|---- - -------|------------|---- - -------|

                              /
 |--9---------|---- 11---9---|99999996----|
 |9---9---9---|---11- -7---7-|--------97--|
 |------7---7-|9--- - -------|----------97|
 |------------|---- - -------|------------|
                              S

 |---- 11---9---|--9-----9---|---- 11---9---|--9---696---|
 |---11- -7---7-|9---9-------|---11- -7---7-|9---9----976|
 |9--- - -------|------7---7-|9--- - -------|------------|
 |---- - -------|------------|---- - -------|------------|

 |---- 11---9---|--9-----9---|---- 11---9-9-|--9-9-976---|
 |---11- -7---7-|9---9------7|---11- -7-----|9--------976|
 |9--- - -------|------7---7-|9--- - -------|------7-----|
 |---- - -------|------------|---- - -------|------------|

 |---- 11---9---|--9-----9---|---- 11---9---|--9---------|
 |---11- -7---7-|9---9-------|---11- -7---7-|9---9-97----|
 |9--- - -------|------7---7-|9--- - -------|--------97-7|
 |---- - -------|------------|---- - -------|----------9-|

 |---- 11---9---|--9---------|---- 11---9---|------------|
 |---11- -7---7-|9---9----976|---11- -7---7-|9-9-9-------|
 |9--- - -------|------7-----|9--- - -------|------777777|
 |---- - -------|------------|---- - -------|------------|


 |---- 11---9---|--9-----9---|---- 11---9---|--9---99996-|
 |---11- -7---7-|9---9-------|---11- -7---7-|9---9------9|
 |9--- - -------|------7---7-|9--- - -------|------------|
 |---- - -------|------------|---- - -------|------------|

                                             /  /
 |---- 11---9---|--9---------|---- 11---9---|99999996----|
 |---11- -7---7-|9---9----976|---11- -7---7-|--------97--|
 |9--- - -------|------7-----|9--- - -------|----------97|
 |---- - -------|------------|---- - -------|------------|
                                             S  S

 |---- 11---9---|--9---------|---- 11---9---|111111111111119- -- - |
 |---11- -7---7-|9---9-----67|---11- -7---7-|- - - - - - - -119- - |
 |9--- - -------|------7--9--|9--- - -------|- - - - - - - -- -12- |
 |---- - -------|------------|---- - -------|- - - - - - - -- -- 12|

                             X4 Times
 ||------11-- -- - - - |--9----------||
 ||:---11- --  14- - - |9--96---76--:||
 ||-9-9- - -12-- 121112|-----97---7--||
 ||----- - -- -- - - - |-------------||

 ||----- - - - -- - 9- |- -- -- - -- - - - -||
 ||:---- 11- 11-- 11-11|12-129- - -- - - - :||
 ||-9-912- 12- -12- -- |- -- -11- -- 111411-||
 ||----- - - - -- - -- |- -- -- 12-12- - - -||

 ||-- - - -- - - - - - - 9|- - - -- --- - - - - - -||
 ||:- - - -  11111111- 11-|1212129- 9-- - - - - - :||
 ||-121212912- - - - 12- -|- - - -11--- - - 111411-||
 ||-- - - -- - - - - - - -|- - - -- --121212- - - -||

                      X4 Times                     X4 Times
 ||-------------|-------------||-------------|-------------||
 ||:------------|------------:||:------------|------------:||
 ||-------0---0-|------4---4--||-------------|5-55552-2222-||
 ||-2---2-------|0---0--------||-0-00003-3333|-------------||

 |---|----|---|----------------|----------------|---|-------------|---|----- |
 |-2-|----|-4-|----------------|----------------|-3-|-------------|-4-|----- |
 |-8-|--p-|-4-|0-----------3---|----------------|-4-|3------------|-4-|0---- |
 |---|00--|---|------0---------|----------------|---|------0------|---|----- |

 ||-----------------|----------------|----------------|----------------|
 ||:----------------|----------------|----------------|----------------|
 ||-2-2-2-2-2-2-0-p-|2-2-2-2-2-2-5-2-|0-0-0-0-0-0-2-0-|------------0-p-|
 ||-----------------|----------------|----------------|2-2-2-2-2-2-----|

 |----------------|----------------|----------------|-----------------||
 |----------------|----------------|----------------|----------------:||
 |2-2-2-2-2-2-0-p-|0-0-0-0-0-0-0-p-|------------0-p-|-----------------||
 |----------------|----------------|2-2-2-2-2-2-----|0-0-0-0-0-0-0-p--||

 Play Riff #2 till end and fade
Вверх

Phantom Lord

 Intro
     E5                                 Bm/D             B/D#              8x
 ||-----------------|-----------------|----------------|-------------------||
 ||-----------------|-----------------|----------------|-------------------||
 ||o----------------|-----------------|-4--------------|------------------o||
 ||o----------------|-----------------|----------------|-4----------------o||
 ||--7--------------|(7)--------------|-5--------------|-6-----------------||
 ||--0--------------|(0)--------------|----------------|-------------------||


 Rhythm Figure 1:
     Em                                 Bm                                 6x
 ||-----------------|-----------------|-----------------|------------------||
 ||-----------------|-----------------|-----------------|------------------||
 ||o----------------|-----------------|-----------------|-----------------o||
 ||o-5-----5----5---|-4-----5-----5---|-4-----4-----4-4-|-4-----4-----4-4-o||
 ||--7-----7----7---|-7-----7-----7---|-5-----5-----5-5-|-6-----6-----6-6--||
 ||----0-0---0-0--0-|---0-0---0-0---0-|---7-7---7-7-----|---7-7---7-7------||
       x x   x x  x     x x   x x   x     x x   x x         x x   x x


     E       A5          E5            C5
 ||----------------------------------|---------------------------------|
 ||----------------------------------|---------------------------------|
 ||o---------2-----------4-----------|-5-------------------------------|
 ||o-2-2-2-2-----2-2-2-2-----2-2-2-2-|-----2-2-2-2-2---2-2-3---3-3-2---|
 ||----------------------------------|---------------------------------|
 ||----------------------------------|---------------------------------|


   E       C5          E5            A5                               4x
 |---------------------------------|----------------------------------||
 |---------------------------------|----------------------------------||
 |---------5-----------4-----------|-2-------------------------------o||
 |-2-2-2-2-----2-2-2-2-----2-2-2-2-|-----2-2-2-2-2---2-2-3---3-3-2---o||
 |---------------------------------|----------------------------------||
 |---------------------------------|----------------------------------||


 Rhythm Figure 2:
             A5          B5            C5
 ||----------------------------------|---------------------------------|
 ||----------------------------------|---------------------------------|
 ||o---------2-----------4-----------|-5-------------------------------|
 ||o---------2-----------2-----------|-5-------------------------------|
 ||----------0-----------2-----------|-3-------------------------------|
 ||--0---0-0-----0-0-0-0-----0-0-0-0-|-----0-0-0-0-0---0-0-1---1-1-0---|
                 x x x x     x x x x       x x x x x   x x x   x x x

           C5          E5/B          A5                               3x
 |---------------------------------|----------------------------------||
 |---------------------------------|----------------------------------||
 |---------5-----------4-----------|-2-------------------------------o||
 |---------5-----------2-----------|-2-------------------------------o||
 |---------3-----------2-----------|-0--------------------------------||
 |-0---0-0-----0-0-0-0-----0-0-0-0-|-----0-0-0-0-0---0-0-1---1-1-0----||
   x   x x     x x x x     x x x x      x x x x x   x x x   x x x


 Repeat Rhythm Figure 1 (2x)


   Em
 ||------------------------------|------------------------------|
 ||------------------------------|------------------------------|
 ||o--------h-p-------h-p--------|-------h-p-------h-p----------|
 ||o-------4-5-4---4-4-5-4-------|------4-5-4---4-4-5-4---------|
 ||--------------7---------7-----|(7)---------7---------7-------|
 ||------------------------------|------------------------------|

   Bm                            B
 |-----------------------------|-------------------------------||
 |-----------------------------|-------------------------------||
 |-----------------------------|------------------------------o||
 |-----------5---5---4---------|----------5---5---4---4-------o||
 |-(7)-------------------5-----|-------------------------------||
 |-----------------------------|-------------------------------||


   Em                                                   Bm
 |---------------------------|------------------------|---------------------|
 |---------------------------|------------------------|-----------------h---|
 |----sl----sl----sl----sl---|---sl-------------12-14/|---14-14-12-12-11-12-|
 |-4-2--5--5--7--7--9--9--12-|-12-14-14-14---14-------|---------------------|
 |---------------------------|------------------------|---------------------|
 |---------------------------|------------------------|---------------------|


 |---------------------|------------------------|--------------------------12|
 |------------------15-|-15/-----------------12-|-15/15-15-15/15-15-15/--15--|
 |(12)-11--------12----|-14----14/-14-----14----|----------------------------|
 |--------12-----------|------------------------|----------------------------|
 |---------------------|------------------------|----------------------------|
 |---------------------|------------------------|----------------------------|


   Bm                  p  p              p  p     p     B
 |-15-14-12-15-14-12-15-14-12-15-14-12-15-14-12-15-12-|-17/--17/--17/17-----|
 |----------------------------------------------------|------------------17/|
 |----------------------------------------------------|---------------------|
 |----------------------------------------------------|---------------------|
 |----------------------------------------------------|---------------------|
 |----------------------------------------------------|---------------------|

   B5                             B5                          E/B
 |----------------p-------------|-------------p-----------------------------|
 |-(17)---17/---17-15----15-17/-|-(17)--17--17-15-----15--------------------|
 |--------------------14--------|-----------------16-------16---------------|
 |------------------------------|-------------------------------------------|
 |------------------------------|-------------------------------------------|
 |------------------------------|-------------------------------------------|


   B5/A
 |--------------------------------------|-17/--------17/--17--------14--15--|
 |----15-19----15-19----15-19----15-19--|-----------------------------------|
 |-16-------16-------16-------16--------|-----------------------------------|
 |--------------------------------------|-----------------------------------|
 |--------------------------------------|-----------------------------------|
 |--------------------------------------|-----------------------------------|


   B5                h     h     h    h      h   h   h   h p         p
 |-17--15--14--15--14-15-12-14-10-12-8-10-|-7-8-5-7-3-5-2-3-2-------3-2-----|
 |----------------------------------------|-----------------------------5---|
 |----------------------------------------|---------------------------------|
 |----------------------------------------|---------------------------------|
 |----------------------------------------|---------------------------------|
 |----------------------------------------|---------------------------------|


   F#5                E5
 |---------------------p-----|--h------------|------------------------------|
 |-3-----3--5/-----5--5-3----|-3-5---3--2--3-|--h-p-h-p-h-p-h-p-h-p---------|
 |----4-------------------4--|---------------|-4-6-4-6-4-6-4-6-4-6-4--------|
 |---------------------------|---------------|------------------------------|
 |---------------------------|---------------|------------------------------|
 |---------------------------|---------------|------------------------------|


   B5               B5/A             F#5              E5
 |----------------|----------------|----------------|----------|------------|
 |----------------|----------------|----------------|----------|------------|
 |-4--------------|----------------|----------------|----------|------------|
 |-4------4-4-4-2-|-4------3-3-2-2-|-4------3-3-3-3-|-2--------|(2)---------|
 |-2------2-2-2-2-|-0------0-0-0-0-|-4------4-4-4-4-|-2--------|(2)---------|
 |----------------|----------------|-2------2-2-2-2-|-0--------|(0)---------|
          x x x x          x x x x          x x x x


 Rhythm Change (4/4 -> 6/8)

 Bass Solo (8 measures)

 The next part is played by 3 guitars. The upper notes are guitar 1,
 those in the middle are guitar 2 and the lower ones are for guitar 3.
 I usually play the first and second guitar simultaneously. This sounds
 pretty good.

     F#m      A       Bm       E            F#m    A     Bm       E
 ||-----------------|---------------------|------------|-------------------||
 ||-----------------|---------------------|------------|-------------------||
 ||o-9/-------------|-(9)------9/---6-9--|-6----------|-(6)--------------o||
 ||o-9/-------------|-(9)------9/---7-9--|-7----------|-(7)--------------o||
 ||--11`------------|-(11)-----11``--9-11-|-9----------|-(9)---------------||
 ||-----------------|---------------------|------------|-------------------||
                                                                 slide down

     F#m      A       Bm       E            F#m    A     Bm       E
 |------------------|---------------------|------------|--------------------|
 |------------------|---------------------|------------|--------------------|
 |---9/-------------|-(9)------9/---6-9--|-6----------|--------------------|
 |---9/-------------|-(9)------9/---7-9--|-7-7-7-7----|-(7)----------------|
 |---11`------------|-(11)-----11``--9-11-|-9-9-9-9----|-(9)----------------|
 |------------------|---------------------|---9-9-9----|-(9)----------------|
                                                                 slide down


     F#m      A       Bm       E            F#m    A     Bm       E
 |------------------|---------------------|-------------|--------------------|
 |------------------|---------------------|-------------|--------------------|
 |---9/-------------|-(9)------9/---6-9--|-6-----------|--------h-sl--------|
 |---9/ ------------|-(9)------9/---7-9--|-7-7-7-7-6-6-|-7--6--6-7-9--------|
 |---11`------------|-(11)-----11``--9-11-|-9-9-9-9-7-7-|-9--7--7-9-11-------|
 |------------------|---------------------|---9-9-9-7-7-|-9--7--7-9-12-------|


    F#m     A       Bm        E             F#m      A       Bm     E
 |----------------|-----------------------|----------------|----------------|
 |----------------|-----------------------|----------------|----------------|
 |----------------|-----------sl----------|-6--------------|------------9//|
 |----------------|--------7-9-11--9--7-9-|----4--7--7-----|(7)-------------|
 |--9-------------|(9)-7-9----------------|----------9-----|(9)-------------|
 |----------------|-----------------------|----------------|----------------|


 I`ll leave away the 2nd and 3rd guitar now. It would be a little bit
 complicated to put them into the following parts.

   F#m     A        Bm        E          F#m    A      Bm       E
 |----------------|--------------------|-------------|----------------------|
 |----------------|----------------h---|-------------|----------------------|
 |-(9)------------|(9)-----9//--6-9--|-6-----------|----------sl-----9-9-9|
 |----------------|--------------------|---7-7-7-6-6-|-7--6--6-7-9----------|
 |----------------|--------------------|-------------|----------------------|
 |----------------|--------------------|-------------|----------------------|

    F#m      A          Bm         E          F#m  A  Bm         E
 |--------------------|---------------------|--------|----------------------|
 |--------------------|---------------------|--------|----------------------|
 |--9--9-9-9--9--6--6-|-7--7--7-----------6-|-6------|(6)----------9-9-9-9-9|
 |--------------------|----------9-7-6--7---|-7------|(7)-------------------|
 |--------------------|---------------------|--------|----------------------|
 |--------------------|---------------------|--------|----------------------|


   F#m       A          Bm         E          F#m A    E
 |--------------------|---------------------|--------|----------------------|
 |--------------------|---------------------|--------|--------------------p-|
 |-9--9-9-9--9--6--6--|-7--7--7-----------6-|-6------|(6)---------4/--(4)-2|
 |--------------------|----------9-7-6--7---|--------|----------------------|
 |--------------------|---------------------|--------|----------------------|
 |--------------------|---------------------|--------|----------------------|


   F#m       A          Bm         E          F#m    A      Bm     E
 |--------------------|---------------------|-------------|-----------------|
 |--2-----------------|(2)------------------|-------------|-----------------|
 |--2-----------------|(2)-----------------2|-------------|-----------------|
 |--4-----------------|(4)-------------2-2--|-4-----------|(4)-----4--------|
 |--------------------|---------------------|-------------|-----------------|
 |--------------------|---------------------|-------------|-----------------|
                                                                   slide down

     F#m        A            Bm         E         3x
 ||------------------------|----------------------||
 ||------------------------|----------------------||
 ||o--------6---6----6-9-6-|-7--7----------------o||
 ||o------7---7----7-------|------9-6------6-9-6-o||
 ||--7--9------------------|----------7--7--------||
 ||------------------------|----------------------||
     ^first time:9

    F#m        A            Bm            E
 |------------------------|--------------------------|
 |------------------------|--------------------------|
 |---------6---6----6-9-6-|-7-7-7-7------------------|
 |-------7---7----7-------|---------4-6-9------6-9-6-|
 |--7--9------------------|---------------7--7-------|
 |------------------------|--------------------------|


     F#m      A          Bm       E        4x
 ||--------------------|-------------------||
 ||--------------------|-------------------||
 ||o-------6-9-6---6-9-|-7----7-9-------6-o||
 ||o-7-----------------|----------6---7---o||
 ||--------------------|-------------------||
 ||--------------------|-------------------||


   F#5              A5                   E5                C#5
 |-------------------------------------|----------------------------14-15-17-|
 |-------------------------------------|----------------12-14-15-17----------|
 |-------------------------------------|-------11-13-14----------------------|
 |-------------11----------11-12-14-11-|-12-14-------------------------------|
 |-12-11-12-14----11-12-14-------------|-------------------------------------|
 |-------------------------------------|-------------------------------------|


   F#5        A5      p                  E5              C#5
 |-17----17--17--14-17-14--14-17-14-12-|---p---------------------------|
 |-------------------------------------|-14-12---p------------17-------|
 |-------------------------------------|-------14-11-14-16-16/--16/----|
 |-------------------------------------|-------------------------------|
 |-------------------------------------|-------------------------------|
 |-------------------------------------|-------------------------------|


   F#5      A5 h            E5       h h sl  C#5
 |-2---2-4-5--5-7---5--4--|-sl-h-h--4-5-7-9--7--7-5-4-5-|
 |------------------------|-2-3-5-7---------------------|
 |------------------------|-----------------------------|
 |------------------------|-----------------------------|
 |------------------------|-----------------------------|
 |------------------------|-----------------------------|


   F#5         A5               E5              C#5
 |-4--------------------------|-------------------------|
 |---5--------------p---------|---------------p---------|
 |-----4--2-4-4/(4)-2------2-|-4-2-4-2-4/(4)-2--------|
 |---------------------4--4---|------------------4--4---|
 |----------------------------|-------------------------|
 |----------------------------|-------------------------|


   E5      G5     D5           B5               E5                       G5
 |--------------|------------------------------|------------------------------|
 |--------------|-----------------------p------|--p-------p-------p-----------|
 |-9/`-----9---|(9)-----9---9-------4-5-4---4-|-5-4---4-5-4---4-5-4---4------|
 |--------------|----7-7---5---4-5-7-------7---|-----7-------7-------7----5---|
 |--------------|------------------------------|------------------------------|
 |--------------|------------------------------|------------------------------|


   D5              B5              E5         G5
 |-------------------------------|------------------------|
 |------------------p------------|-3-----3----------------|
 |----4-5-7--5-4-5-5-4---4-5-4-5-|---4----4---4-----4-----|
 |-(5)-----------------7---------|-----5----5---5-2---5-2-|
 |-------------------------------|------------------------|
 |-------------------------------|------------------------|


   D5         B5             E5            G5
 |-------------------------|-------------------------------|
 |-------------------------|----------------------p-sl-----|
 |-5-2---5-2---2-------2---|-11`-11-9-11``-9-11-11-9-7-9-7-|
 |-----4-----4---4---4---4-|-------------------------------|
 |-----------------5-------|-------------------------------|
 |-------------------------|-------------------------------|


   D5              B5                             E5
 |------------------------------|               |------|
 |-----h-p-sl-------------------|               |------|
 |-9--7-9-7-5-7-5-4-5-4-2-4-5-4-| Rhythm Change |-5-5--|
 |------------------------------| (6/8 -> 2/8)  |------|
 |------------------------------|               |------|
 |------------------------------|               |------|

 Rhythm Change (2/8 -> 4/4)

    A      E5      C5                                     C5      E5
 |---------------------|----------------|               |-----------------|
 |---------------------|----------------|               |-----------------|
 |--2--------------5---|(5)-------------| Rhythm Change |-5---------------|
 |--2------2-------5---|(5)-------------| (4/4 -> 3/4)  |-5-------2-------|
 |--0------2-------3---|(3)-------------|               |-3-------2-------|
 |---------0-----------|------------0-0-|               |---------0-------|
                                    x x

 Rhythm Change (3/4 -> 4/4)

   A         B5                 A5    B5
 |---------|------------------------|----------------------------p--|
 |---------|-10/--10/--10/--10/-10/-|(10)-10/-10/-10/-10/-10/--10-7-|
 |-2-------|------------------------|-------------------------------|
 |-2-------|------------------------|-------------------------------|
 |-0-------|------------------------|-------------------------------|
 |---------|------------------------|-------------------------------|


   B5/A                                      F#5                        A5
                                               p     p     p     p     p     p
 |--------p-----------p---------p--------p--|10-7--10-7--10-7--10-7--10-7--10-7-|
 |----7-10-7-10/-10-10-7----7-10-7-10/-10-7-|----7-----7-----7-----7-----7------|
 |-9/--------------------9/-----------------|-----------------------------------|
 |------------------------------------------|-----------------------------------|
 |------------------------------------------|-----------------------------------|
 |------------------------------------------|-----------------------------------|


   B5              A5      B5/A                p
 |-10/--10/-10--7-10-10/-|(10)---10/-10------10-7-|
 |--------------7--------|------------------------|
 |-----------------------|------------------------|
 |-----------------------|------------------------|
 |-----------------------|------------------------|
 |-----------------------|------------------------|


   F#5                       A5         E5
     p
 |-10-7---p----p----------------------|-------------------------|
 |------10-7-10-7------p--------------|-------------------------|
 |----------------9-7-9-7------p------|-------------------------|
 |------------------------9-7-9-7-----|--p---p-----p---p--------|
 |--------------------------------9-8-|-7-5-7-5---7-5-7-5---5---|
 |------------------------------------|---------7---------7-----|


   B5                    A5        B5
                                                              p            p
 |-------------------------------|------------------p---22/-22-19-----19-22-19-|
 |----------------------------19-|-----19-22-22/--22-19-----------22/----------|
 |-------------h--7--------sl----|-21/-----------------------------------------|
 |--------sl--7-9----9--(9)-21---|---------------------------------------------|
 |--h--5-7-9---------------------|---------------------------------------------|
 |-5-7---------------------------|---------------------------------------------|


   B5/A
 |----19----19----19----19----19----19----19-------|
 |-22/---22/---22/---22/---22/---22/---22/---22-22-|
 |-------------------------------------------------|
 |-------------------------------------------------|
 |-------------------------------------------------|
 |-------------------------------------------------|


   F#5                                          A5
 |-----------------------------------------------------|
 |----19-22-19----19-22-19----19-22-19----19-22-22/----|
 |-21/---------21----------21----------21--------------|
 |-----------------------------------------------------|
 |-----------------------------------------------------|
 |-----------------------------------------------------|


   B5                    A5        B5/A
 |---22--22------22--22------22/-|-----22--22------22--22----------|
 |------------h-----------h------|--h-----------h-----------h---p--|
 |-----------2-4---------2-4-----|-2-4---------2-4---------2-4-7-6-|
 |-------------------------------|---------------------------------|
 |-------------------------------|---------------------------------|
 |-------------------------------|---------------------------------|


   F#5                     A5          E5
 |-----------------------------------|-----------------------------|
 |--p-----p-----p-----p-----p-----p--|--p-p---p-p---p--------------|
 |-7-6---7-6---7-6---7-6---7-6---7-6-|-4-2-0-4-2-0-4-2-2-----------|
 |-----9-----9-----9-----9-----9-----|--------------------2--2-----|
 |-----------------------------------|-----------------------------|
 |-----------------------------------|-----------------------------|


 Repeat Rhythm Figure 2 while fading out
Вверх

Phantom Lord (2 вариант)

 Intro after fading in Bass.
 ||-----------------------------------------------------------------------------
 ||-----------------------------------------------------------------------------
 ||-2-----2--2-----2--2--2-----2--2-----2-----4-----4--4-----4--4--4-----4--4---
 ||-2-----2--2-----2--2--2-----2--2-----2-----4-----4--4-----4--4--4-----4--4---
 ||-0-----0--0-----0--0--0-----0--0-----0-----2-----2--2-----2--2--2-----2--2---
 ||-----------------------------------------------------------------------------


  Main Riff. This is played all throughout the song, including right after the
  intro and between verses.
 ||------------------------|---------------------||
 ||------------------------|---------------------||
 ||*-----------------7--9--|--------------------*||
 ||*--7--9--9--9--9--5--7--|--7--9--9--9--9--7--*||
 ||---5--7--7--7--7--------|--5--7--7--7--7--5---||
 ||------------------------|---------------------||


    This part is played after the non-distorted part in the middle
 ||-----------------------------------------------------------------||
 ||-----------------------------------------------------------------||
 ||*---------------------------------------------------------------*||
 ||*---2-----2--2--2-----5--5--5--5-----4--4--4--4-----3--3--3--3--*||
 ||----2-----2--2--2-----5--5--5--5-----4--4--4--4-----3--3--3--3---||
 ||----0-----0--0--0-----3--3--3--3-----2--2--2--2-----1--1--1--1---||
             \___________Extremely_Heavy_Palm_Muting!___________/

   This is played after repeating the above line the 4th time.
 ||------------------||
 ||------------------||
 ||------------------||
 ||---2--2--2--2--2--||
 ||---2--2--2--2--2--||
 ||---0--0--0--0--0--||
Вверх

Poor twisted me

Проигрыш:With delay and lots of extra muffled notes

E|--------7---------------------^-----------|----x-x-x---------|
B|-----------5------------------8-----------|-----------5------|
G|-----------5------------------7-----------|-----------5------|
D|----7--------------7---Bend-7-up-then-down|---7------------7-|
A|------------------------------------------|------------------|
E|-/5-------------5-------------------------|-5-----------5----|
   sl.

E|------------|------------------------------------|-----------|
B|-5----------|-----------------------------5------|-----------|
G|-5--p-------|-----------7----5------------5--p---|-------7-5-|
D|---7-5------|---7----7---------------7-7----7-5--|---7-7-----|
A|--------7-5-|-----------------------------------7|-----------|
E|------------|-5-------------------5--------------|-5---------|

E|----------------------------------|
B|-------------/7-7-7--5-5-5--3---2-|
G|-------------/7-7-7--5-5-5--3---2-|
D|------7---------------------------|
A|----------------------------------|
E|---5------------------------------|

Guitar1:Still with delay

E|----------------------------------------------|--------------|
B|----------------5------------------------Н-p--|-------------5|
G|--------5----7--5------------5-----7----5-7-5-|-------5---7-5|
D|---7-7----7-----------7---7-----7-----7-------|---7-7---7----|
A|----------------------------------------------|--------------|
E|-5-----------------5--------------------------|-5------------|

E|--------------5------^-------------|
B|----------/5--5---7--7--7--5\------|
G|----------/5--5---7--7--7--5\------|
D|-----7-----------------------------|
A|-----------------------------------|
E|--5--------------------------------|

Guitar2:

E|--------------------------------|----------------------------|
B|.-------------------------------|----------------------------|
G|------------------------------5-|----------------------------|
D|---7--5--7--5--7--5--7--5--7----|-7--5--7--5--7--5--7--5-7-5-|
A|.--0--0--0--0--0--0--0--0--0----|-0--0--0--0--0--0--0--0-0---|
E|--------------------------------|----------------------------|

More Coming Soon!

/=slide
Н-Hammer on
p=pull off

POOR TWISTED ME
(Hetfield/Ulrich)

Oh poor twisted me
Oh poor twisted me
I feast on sympathy
I chew on suffer
I chew on agony
And swallow whole the pain
Oh It's too good to be
All this misery
Is just for oh poor twisted me
Poor twisted me

Poor mistreated me
Poor mistreated me
I drown without a sea
I'm filled with sorrow
Once filled with misery
And hated the deep dark blue
Such a burden to bear
Poor mistreated me

Finally reached the shore
Survival's gone
Now your feeling cold ever since he was born
Your pain is so over you

Finally reached the shore
Survival's gone
Now your feeling cold ever since he was born
Your pain is so over you
Could ya be my friend
Such a pain to see
Oh poor twisted me
Oh poor twisted me
Poor twisted me
Вверх

Ride The Lighting

Intro/outro:

e-|-7-8-------5-7------------------------|
B-|-7-8-------3-5------5-7------8-5------|
G-|--------------------2-4---------------|
D-|-----------------------------0-2------|
A-|--------------------------------------|
E-|--------------------------------------|


Riff 1:
       P.M.    P.M....
e-|-------------------|
B-|-------------------|
G-|-------------------|
D-|-------------------|
A-|-/8-----/8---------|
E-|-/6-0-0-/6-0-0-0-0-|

Riff 2:
                P.M
e-|-------------------|
B-|-------------------|
G-|-------------------|
D-|-----------2-----5-|
A-|-4---2---4-0-4---3-|
E-|-2---0---2---2-2---|

Add 1:

e-|--------|
B-|--------|
G-|--------|
D-|-4------|
A-|-4------|
E-|-2------|

Add 2:

e-|-------|
B-|-------|
G-|-------|
D-|-5---4-|
A-|-3---2-|
E-|-------|

Riff 3:

       P.M    P.M....|
e-|-------------------|
B-|-------------------|
G-|-------------------|
D-|-/5-----/5---------|
A-|-/3-----/3---------|
E-|----2-2----2-2-2-2-|

Chorus:
                P.M...........|             P.M.........|
e-|-----------------------------------------------------------|
B-|-----------------------------------------------------------|
G-|-----------------------------------------------------------|
D-|-6---5-4---6-----------------6---5-4---6-------------------|
A-|-4---3-2---4-0-0-0-0-0-0-0-0-4---3-2---4-0-0-0-0-0-0-0-2br-|
E-|-----------------------------------------------------------|

Riff 4:
         P.M  |.|       |.....|     |-------|
e-|-------------------------------------------------|
B-|-------------------------------------------------|
G-|-------------------------------------------------|
D-|-987---5-----4---------------------------------|
A-|-765---3-----2-5-----------5-2-----------5-2---|
E-|-------0---0-0---3---0-0-0-0-3-0-0-0-0-0-0-3-0---|

Riff 5:
    P.M...|     |.........|     |.........|     |.........|
e-|-----------------------------------------------------------
B-|-----------------------------------------------------------
G-|-----------------------------------------------------------
D-|---------5---------------5---------------4---------------4-
A-|-4-4-4-4-3---3-3-3-3-3-3-3---3-3-3-3-3-3-2---2-2-2-2-2-2-2-
E-|-----------------------------------------------------------

 P.M.......|     |.........|     |.........|     |.........|
---------------------------------------------------------------
---------------------------------------------------------------
---------------------------------------------------------------
-------------3---------------3---------------2---------------2-
-2-2-2-2-2-2-1---1-1-1-1-1-1-1---0-0-0-0-0-0-0---0-0-0-0-0-0-0-
---------------------------------------------------------------

 P.M....|    |.........|     |..........|    |..........|
-------------------------------------------------------------|
-------------------------------------------------------------|
-------------------------------------------------------------|
-------------------------------------------------------------|
---------3---------------3---------------5---------------8---|
-1-1-1-1-1---1-1-1-1-1-1-1---1-1-3-3-3-3-3---3-3-6-6-6-6-6---|

Riff 6:
         P.M.
e-|----------------|
B-|----------------|
G-|---------5------|
D-|-987---5------|
A-|-765---3------|
E-|-------0--------|


Add 3:

e-|--------|
B-|--------|
G-|-4------|
D-|-4------|
A-|-2------|
E-|--------|

Riff 7:
            P.M      |...|
e-|----------------------------------|
B-|----------------------------------|
G-|-------------5--------------------|
D-|-2-----------5--------------------|
A-|-2-----------3---3-----5/---7-7---|
E-|-0-------0-0-----3-3-3-3/---5-5---|

Riff 8:
        P.M....|    |......|             |.|     |.|     |.|
e-|----------------------------------------------------------|
B-|----------------------------------------------------------|
G-|----------------------------------------------------------|
D-|-------------7--------------------------------------------|
A-|-4-----------5-----------7/---7---7-------7-------7-------|
E-|-2---2-2-2-2-----5-5-5-5-5/---5---5---5-5-5---5-5-5---5-5-|

Riff 9:

e-|----------------------------------------|
B-|----------------------------------------|
G-|----------------------------------------|
D-|----------------------------------------|
A-|-7---7---7------5---5------3------------|
E-|-5---5---5------3---3------1------------|

Riff 10:
    P.M...................................|
e-|-------------------------------------------------------|
B-|-------------------------------------------------------|
G-|-------------------------------------------------------|
D-|-------------------------------------------4---5---4---|
A-|---------4-5-----------4-5-----------4-5---2---3---2---|
E-|-0-0-0-0-2-3---0-0-0-0-2-3---0-0-0-0-2-3---------------|

Riff 11:
    P.M....|    |.........|     |.........|     |.........|
e-|------------------------------------------------------------
B-|------------------------------------------------------------
G-|------------------------------------------------------------
D-|---------5---------------5---------------4---------------4--
A-|-3-3-3-3-3---3-3-3-3-3-3-3---3-3-2-2-2-2-2---2-2-2-2-2-2-2--
E-|------------------------------------------------------------

P.M........|    |..........|    |.........|     |..|
-----------------------------------------------------
-----------------------------------------------------
-----------------------------------------------------
-------------3---------------3---------------2-------
-2-2-1-1-1-1-1---1-1-1-1-1-1-1---1-1-0-0-0-0-0---0-0-
-----------------------------------------------------

 P.M.....|   |..|
-----------------|
-----------------|
-----------------|
---------2-------|
-0-0-0-0-0---0-0-|
-----------------|


Riff 12:
    P.M....|    P.M........|    P.M........|    P.M.......|
e-|-----------------------------------------------------------|
B-|-----------------------------------------------------------|
G-|-----------------------------------------------------------|
D-|---------10--------------10--------------7---------------8-|
A-|-8-8-8-8-8---8-8-8-8-8-8-8---8-8-5-5-5-5-5---5-5-6-6-6-6-6-|
E-|-----------------------------------------------------------|

Add 4:

e-|-------------|
B-|-------------|
G-|-------------|
D-|-5---4---3---|
A-|-3---2---1---|
E-|-------------|

Riff 13:

e-|------------------------|
B-|------------------------|
G-|------------------------|
D-|-----------2-----5------|
A-|-4---2---4-0-4---3------|
E-|-2---0---2---2----------|

Riff 14:

e-|---------------------|
B-|---------------------|
G-|---------------------|
D-|-----------2---------|
A-|-4---2---4-0-4---2---|
E-|-2---0---2---2---0---|

Riff 15:
                        P.M.    |.|     |.|     |.|
e-|-------------------------------------------------------|
B-|-------------------------------------------------------|
G-|-------------------------------------------------------|
D-|-----------2-----5-------5-------5-------5-------54---|
A-|-4---2---4-0-4---3---3-3-3---3-3-3---3-3-3---3-3-32---|
E-|-2---0---2---2-----------------------------------------|

Add 5:
    P.M.......... .|
e-|-----------------|
B-|-----------------|
G-|-----------------|
D-|-----------------|
A-|-----------------|
E-|-0-0-0-0-0-0-0-0-|


That was all the riffs, lads!
This will show you when to play them:

Intro x4
Riff 1 x12
Riff 2 x4
Add 1 x1
Add 2 x1
Riff 1 x4
Add 2 x1
Riff 1 x4
Add 2 x1
Riff 3 x4
Chorus x1
Riff 3 x2
Chorus x1
Riff 2 x4
Riff 1 x4
Add 2 x1
Riff 1 x4
Add 2 x1
Riff 3 x4
Chorus x1
Riff 3 x2
Chorus x1
Riff 4 x4
Riff 5 x1
Riff 4 x3
Riff 6 x1
Add 3 x1
Riff 7 x4
Riff 8 x4
Riff 9 x1
Riff 10 x4
Riff 11 x2
Riff 12 x1
Riff 11 x1
Riff 12 x1
Riff 4 x4
Riff 5 x1
Riff 4 x3
Riff 6 x1
Riff 1 x12
Add 4 x1
Add 1 x1
Riff 1 x4
Add 1 x1
Riff 1 x4
Add1 x1
Riff 3 x4
Chorus x1
Riff 3 x2
Chorus x1
Riff 2 x4
Riff 13 x1
Riff 14 x1
Riff 13 x1
Riff 14 x1
Riff 15 x1
Riff 14 x1
Add 5 x1
Riff 15 x1
Riff 14 x1
Add 5 x1
Outro x1
Вверх

Ride The Lightning

 Bass Riff1
 |-------------------------|
 |-------------------------|
 |-------------------------|
 |--0-----0------0------0--|

 Bass Riff2
 |-------------------------|
 |-------------------------|
 |---------------7--------|
 |--0-----0-------------0--|

 Bass Riff3
 |--------------------------------|
 |--------------------------------|
 |--7--7--7--7--7--7--7--7--7--7--|
 |--------------------------------|

 Bass Riff4
 |--------------------------|
 |--------------------------|
 |--1--------1--------------|
 |-----0--0-----0--0--0--0--|

 Bass Riff5
 |----------------------|
 |----------------------|
 |-------------0-----3--|
 |--2---0---2-----2-----|

 Bass Riff6
 |--------------|
 |--------------|
 |--------3--2--|
 |--2-----------|

 Bass Riff7
 |--------------------------|
 |--------------------------|
 |--1--------1--------3--2--|
 |-----0--0-----0--0--------|

 Bass Riff8
 |--------------------------|
 |--------------------------|
 |--------------------------|
 |--2--2--2--2--2--2--2--2--|

 Bass Riff9
 |--------------------------|
 |--------------------------|
 |--2--------4--------------|
 |-----2--2-----2--2--2--2--|

 Bass Riff10
 |-------------------------------------------------------------------------|
 |-------------------------------------------------------------------------|
 |--4---3--2---4---------------------------4---3--2---4--------------------|
 |----------------0--0--0--0--0--0--0--0-----------------0--0--0--0--0--0--|

 Bass Riff10 (cont.)
 |-----------------------------------------------------------------------|
 |-----------------------------------------------------------------------|
 |--2--2---------------------------------------------------4---3--2---4--|
 |--------2--2--2--2--2--2--2--2--2--2--2--2--2--2--2--2-----------------|

 Bass Riff10 (cont.)
 |-----------------------------------------------------------------|
 |-----------------------------------------------------------------|
 |--0--0--0--0--0--0--0--0---8---7--6---8--0--0--0--0--0--0--0--0--|
 |-----------------------------------------------------------------|

 Bass Riff11
 |-----------------------------------------|
 |-----------------------------------------|
 |-----------------------------------------|
 |--0---------0-0-0-0-3--0-0-0-0-0-0-3--0--|

 Bass Riff12
 |----------------------------------------------------|
 |----------------------------------------------------|
 |--7--6--5----3--------------------------------------|
 |-----------------2--3--0-0-0-0-3--0-0-0-0-0-0-3--0--|

 Bass Riff13
 |-------------------------------------------------------------------|
 |-------------------------------------------------------------------|
 |-------------------------------------------------------------------|
 |--8-8-8-8-8-8-8-8-8-8-8-8-8-8-8-8-7-7-7-7-7-7-7-7-7-7-7-7-7-7-7-7--|

 Bass Riff13 (cont.)
 |-------------------------------------------------------------------|
 |-------------------------------------------------------------------|
 |-------------------------------------------------------------------|
 |--6-6-6-6-6-6-6-6-6-6-6-6-6-6-6-6-5-5-5-5-5-5-5-5-5-5-5-5-5-5-5-5--|

 Bass Riff13 (cont.)
 |-------------------------------------------------------------------|
 |-------------------------------------------------------------------|
 |-------------------------------------------------------------------|
 |--1-1-1-1-1-1-1-1-1-1-1-1-1-1-1-1-3-3-3-3-3-3-3-3-6-6-6-6-6-6-6-6--|

 Bass Riff14
 |--------------------------------------------------------------------|
 |--------------------------------------------------------------------|
 |--7--6--5----3---3--3---3--3---3--3---0--2---2--2--2-2-2-2-2-2-2-2--|
 |--------------------------------------------------------------------|

 Bass Riff15
 |--------------------------------------------------------------------|
 |--------------------------------------------------------------------|
 |---------------------3----3--3--------------------------------------|
 |--0----0--0----0--3---------------0--2--3--5----5--5----5--5----5--|

 Bass Riff16
 |----------------------------------------------------------------------|
 |----------------------------------------------------------------------|
 |----------------------5---5--5--5-------------------------------------|
 |--2---2--2--2---2--5----------------2--4--5---7----7-7-7-7-7-7-7-7-7-|

 Bass Riff17
 |----------------------------|
 |----------------------------|
 |----------------------------|
 |--5--5--5------3--3------1--|

 Bass Riff18
 |----------------------------------------------------------------|
 |----------------------------------------------------------------|
 |----------------------------------------------------------------|
 |--0-0-0-0-0-0-0-0-0-0-0-0-0-0-0-0-0-0-0-0-0-0-0-0--7----8----7--|

 Bass Riff19
 |-------------------------------------------------------------------|
 |-------------------------------------------------------------------|
 |-------------------------------------------------------------------|
 |--8-8-8-8-8-8-8-8-8-8-8-8-8-8-8-8-7-7-7-7-7-7-7-7-7-7-7-7-7-7-7-7--|

 Bass Riff19 (cont.)
 |-------------------------------------------------------------------|
 |-------------------------------------------------------------------|
 |-------------------------------------------------------------------|
 |--6-6-6-6-6-6-6-6-6-6-6-6-6-6-6-6-5-5-5-5-5-5-5-5-5-5-5-5-5-5-5-5--|

 Bass Riff20
 |-------------------------------------------------------------------|
 |-------------------------------------------------------------------|
 |--8-8-8-8-8-8-8-8-8-8-8-8-8-8-8-8-5-5-5-5-5-5-5-5------------------|
 |--------------------------------------------------6-6-6-6-6-6-6-6--|

 Bass Riff21
 |----------------------|
 |----------------------|
 |--7--6--5----3-/------|
 |-------------------0--|

 Bass Riff22
 |---------------------------------------|
 |---------------------------------------|
 |--1--------1--------3--2--1------3--2--|
 |-----0--0-----0--0---------------------|

 Bass Riff23
 |---------------------------------------------|
 |---------------------------------------------|
 |------------0---3---------------------0------|
 |--2---0---2---2-------------2---0---2---2-0--|

 Bass Riff24
 |-------------------------------------------------------------------------|
 |-------------------------------------------------------------------------|
 |------------0---3--3-3-3--3-3-3--2-------------0-------------------------|
 |--2---0---2---2----------------------2---0---2---2-0----0-0-0-0-0-0-0-0--|

 Bass Riff25
 |---------------------------------|
 |---------------------------------|
 |---------------------------------|
 |--0------0------0-------0--0--0--|

 How it`s played:
 Bass Riff1 x 4
 Bass Riff2 x 1
 Bass Riff1 x 1
 Bass Riff3 x 1
 Bass Riff4 x 8
 Bass Riff5 x 4
 Bass Riff6 x 1
 Bass Riff4 x 3
 Bass Riff7 x 1
 Bass Riff4 x 3
 Bass Riff7 x 1
 Bass Riff8 x 3
 Bass Riff9 x 1
 Bass Riff10 x 1
 Bass Riff5 x 4
 Bass Riff4 x 3
 Bass Riff7 x 1
 Bass Riff4 x 3
 Bass Riff7 x 1
 Bass Riff8 x 3
 Bass Riff9 x 1
 Bass Riff10 x 1
 Bass Riff11 x 1
 Bass Riff12 x 3
 Bass Riff13 x 1
 Bass Riff12 x 3
 Bass Riff14 x 1
 Bass Riff15 x 6
 Bass Riff16 x 4
 Bass Riff17 x 1
 Bass Riff18 x 4
 Bass Riff19 x 2
 Bass Riff20 x 1
 Bass Riff13 x 1
 Bass Riff12 x 4
 Bass Riff13 x 1
 Bass Riff12 x 2
 Bass Riff21 x 1
 Bass Riff1 x 1
 Bass Riff2 x 1
 Bass Riff1 x 1
 Bass Riff3 x 1
 Bass Riff4 x 7
 Bass Riff22 x 1
 Bass Riff4 x 3
 Bass Riff7 x 1
 Bass Riff4 x 3
 Bass Riff7 x 1
 Bass Riff8 x 3
 Bass Riff9 x 1
 Bass Riff10 x 1
 Bass Riff5 x 4
 Bass Riff23 x 2
 Bass Riff24 x 2
 Bass Riff25 x 1
Вверх

Ride The Lightning (2 вариант)

 Intro/outro:

 e-|-7-8-------5-7------------------------|
 B-|-7-8-------3-5------5-7------8-5------|
 G-|--------------------2-4---------------|
 D-|-----------------------------0-2------|
 A-|--------------------------------------|
 E-|--------------------------------------|


 Riff 1:
        P.M.    P.M....
 e-|-------------------|
 B-|-------------------|
 G-|-------------------|
 D-|-------------------|
 A-|-/8-----/8---------|
 E-|-/6-0-0-/6-0-0-0-0-|

 Riff 2:
                 P.M
 e-|-------------------|
 B-|-------------------|
 G-|-------------------|
 D-|-----------2-----5-|
 A-|-4---2---4-0-4---3-|
 E-|-2---0---2---2-2---|

 Add 1:

 e-|--------|
 B-|--------|
 G-|--------|
 D-|-4------|
 A-|-4------|
 E-|-2------|

 Add 2:

 e-|-------|
 B-|-------|
 G-|-------|
 D-|-5---4-|
 A-|-3---2-|
 E-|-------|

 Riff 3:

        P.M    P.M....|
 e-|-------------------|
 B-|-------------------|
 G-|-------------------|
 D-|-/5-----/5---------|
 A-|-/3-----/3---------|
 E-|----2-2----2-2-2-2-|

 Chorus:
                 P.M...........|             P.M.........|
 e-|-----------------------------------------------------------|
 B-|-----------------------------------------------------------|
 G-|-----------------------------------------------------------|
 D-|-6---5-4---6-----------------6---5-4---6-------------------|
 A-|-4---3-2---4-0-0-0-0-0-0-0-0-4---3-2---4-0-0-0-0-0-0-0-2br-|
 E-|-----------------------------------------------------------|

 Riff 4:
          P.M  |.|       |.....|     |-------|
 e-|-------------------------------------------------|
 B-|-------------------------------------------------|
 G-|-------------------------------------------------|
 D-|-987---5-----4---------------------------------|
 A-|-765---3-----2-5-----------5-2-----------5-2---|
 E-|-------0---0-0---3---0-0-0-0-3-0-0-0-0-0-0-3-0---|

 Riff 5:
     P.M...|     |.........|     |.........|     |.........|
 e-|-----------------------------------------------------------
 B-|-----------------------------------------------------------
 G-|-----------------------------------------------------------
 D-|---------5---------------5---------------4---------------4-
 A-|-4-4-4-4-3---3-3-3-3-3-3-3---3-3-3-3-3-3-2---2-2-2-2-2-2-2-
 E-|-----------------------------------------------------------

  P.M.......|     |.........|     |.........|     |.........|
 ---------------------------------------------------------------
 ---------------------------------------------------------------
 ---------------------------------------------------------------
 -------------3---------------3---------------2---------------2-
 -2-2-2-2-2-2-1---1-1-1-1-1-1-1---0-0-0-0-0-0-0---0-0-0-0-0-0-0-
 ---------------------------------------------------------------

  P.M....|    |.........|     |..........|    |..........|
 -------------------------------------------------------------|
 -------------------------------------------------------------|
 -------------------------------------------------------------|
 -------------------------------------------------------------|
 ---------3---------------3---------------5---------------8---|
 -1-1-1-1-1---1-1-1-1-1-1-1---1-1-3-3-3-3-3---3-3-6-6-6-6-6---|

 Riff 6:
          P.M.
 e-|----------------|
 B-|----------------|
 G-|---------5------|
 D-|-987---5------|
 A-|-765---3------|
 E-|-------0--------|


 Add 3:

 e-|--------|
 B-|--------|
 G-|-4------|
 D-|-4------|
 A-|-2------|
 E-|--------|

 Riff 7:
             P.M      |...|
 e-|----------------------------------|
 B-|----------------------------------|
 G-|-------------5--------------------|
 D-|-2-----------5--------------------|
 A-|-2-----------3---3-----5/---7-7---|
 E-|-0-------0-0-----3-3-3-3/---5-5---|

 Riff 8:
         P.M....|    |......|             |.|     |.|     |.|
 e-|----------------------------------------------------------|
 B-|----------------------------------------------------------|
 G-|----------------------------------------------------------|
 D-|-------------7--------------------------------------------|
 A-|-4-----------5-----------7/---7---7-------7-------7-------|
 E-|-2---2-2-2-2-----5-5-5-5-5/---5---5---5-5-5---5-5-5---5-5-|

 Riff 9:

 e-|----------------------------------------|
 B-|----------------------------------------|
 G-|----------------------------------------|
 D-|----------------------------------------|
 A-|-7---7---7------5---5------3------------|
 E-|-5---5---5------3---3------1------------|

 Riff 10:
     P.M...................................|
 e-|-------------------------------------------------------|
 B-|-------------------------------------------------------|
 G-|-------------------------------------------------------|
 D-|-------------------------------------------4---5---4---|
 A-|---------4-5-----------4-5-----------4-5---2---3---2---|
 E-|-0-0-0-0-2-3---0-0-0-0-2-3---0-0-0-0-2-3---------------|

 Riff 11:
     P.M....|    |.........|     |.........|     |.........|
 e-|------------------------------------------------------------
 B-|------------------------------------------------------------
 G-|------------------------------------------------------------
 D-|---------5---------------5---------------4---------------4--
 A-|-3-3-3-3-3---3-3-3-3-3-3-3---3-3-2-2-2-2-2---2-2-2-2-2-2-2--
 E-|------------------------------------------------------------

 P.M........|    |..........|    |.........|     |..|
 -----------------------------------------------------
 -----------------------------------------------------
 -----------------------------------------------------
 -------------3---------------3---------------2-------
 -2-2-1-1-1-1-1---1-1-1-1-1-1-1---1-1-0-0-0-0-0---0-0-
 -----------------------------------------------------

  P.M.....|   |..|
 -----------------|
 -----------------|
 -----------------|
 ---------2-------|
 -0-0-0-0-0---0-0-|
 -----------------|


 Riff 12:
     P.M....|    P.M........|    P.M........|    P.M.......|
 e-|-----------------------------------------------------------|
 B-|-----------------------------------------------------------|
 G-|-----------------------------------------------------------|
 D-|---------10--------------10--------------7---------------8-|
 A-|-8-8-8-8-8---8-8-8-8-8-8-8---8-8-5-5-5-5-5---5-5-6-6-6-6-6-|
 E-|-----------------------------------------------------------|

 Add 4:

 e-|-------------|
 B-|-------------|
 G-|-------------|
 D-|-5---4---3---|
 A-|-3---2---1---|
 E-|-------------|

 Riff 13:

 e-|------------------------|
 B-|------------------------|
 G-|------------------------|
 D-|-----------2-----5------|
 A-|-4---2---4-0-4---3------|
 E-|-2---0---2---2----------|

 Riff 14:

 e-|---------------------|
 B-|---------------------|
 G-|---------------------|
 D-|-----------2---------|
 A-|-4---2---4-0-4---2---|
 E-|-2---0---2---2---0---|

 Riff 15:
                         P.M.    |.|     |.|     |.|
 e-|-------------------------------------------------------|
 B-|-------------------------------------------------------|
 G-|-------------------------------------------------------|
 D-|-----------2-----5-------5-------5-------5-------54---|
 A-|-4---2---4-0-4---3---3-3-3---3-3-3---3-3-3---3-3-32---|
 E-|-2---0---2---2-----------------------------------------|

 Add 5:
     P.M.......... .|
 e-|-----------------|
 B-|-----------------|
 G-|-----------------|
 D-|-----------------|
 A-|-----------------|
 E-|-0-0-0-0-0-0-0-0-|


 That was all the riffs, lads!
 This will show you when to play them:

 Intro x4
 Riff 1 x12
 Riff 2 x4
 Add 1 x1
 Add 2 x1
 Riff 1 x4
 Add 2 x1
 Riff 1 x4
 Add 2 x1
 Riff 3 x4
 Chorus x1
 Riff 3 x2
 Chorus x1
 Riff 2 x4
 Riff 1 x4
 Add 2 x1
 Riff 1 x4
 Add 2 x1
 Riff 3 x4
 Chorus x1
 Riff 3 x2
 Chorus x1
 Riff 4 x4
 Riff 5 x1
 Riff 4 x3
 Riff 6 x1
 Add 3 x1
 Riff 7 x4
 Riff 8 x4
 Riff 9 x1
 Riff 10 x4
 Riff 11 x2
 Riff 12 x1
 Riff 11 x1
 Riff 12 x1
 Riff 4 x4
 Riff 5 x1
 Riff 4 x3
 Riff 6 x1
 Riff 1 x12
 Add 4 x1
 Add 1 x1
 Riff 1 x4
 Add 1 x1
 Riff 1 x4
 Add1 x1
 Riff 3 x4
 Chorus x1
 Riff 3 x2
 Chorus x1
 Riff 2 x4
 Riff 13 x1
 Riff 14 x1
 Riff 13 x1
 Riff 14 x1
 Riff 15 x1
 Riff 14 x1
 Add 5 x1
 Riff 15 x1
 Riff 14 x1
 Add 5 x1
 Outro x1

 Lyrics:
 Guilty as charged, but damn it, it ain`t right.
 There`s someone else controlling me.
 Death in the air. strapped in the Electric chair.
 This can`t be happening to me.
 Who made you god to say:
 "I`ll take your life from you"?

 Flash before my eyes, now it`s time to die.
 Burning in my brain, I can feel the flames.

 Wait for the sign, to flick the switch of death.
 It`s the beginning of the end.
 Sweat chilling cold as i watch death unfold,
 consciousness, my only friend.
 My fingers grip with fear. What am I doing here?

 Flash...

 Someone help me! Oh, please god help me!
 They`re trying to take it all away.
 I don`t want to die!

 Time moving slow, the minutes seem like hours.
 The final curtain call I see.
 How true is this? Just get it over with.
 f this is true just let it be.
 Wakened by the horrid scream.
 Freed from this frightening dream.

 Flash...
Вверх

Ronnie

tune all guitars down 1/2 step

Eb------------------------------------------0-0-0----|
Bb----------------------1-------------------2/3\2----|
Gb----0Н3-2---0Н3-2---------0Н3-2----0Н3-2-----------|
Db---------------------------------------------------|
Ab-0--------0--------0----0--------0-----------------|
Eb---------------------------------------------------|
**********
Eb----------------------0---------------------|
Bb------------------1-/-5--3--5p3p0-----1--3--|
Gb--0Н3-2----0Н3-2-------------------2--------|
Db--------------------------------------------|
Ab--------0-----------------------------------|
Eb--------------------------------------------|
(that's the Проигрыш *on the (( 0Н3 2 ))
part you have to play with )
(your 3rd fret harmonics instead of actually hitting fret 3)

Eb----------------------------------------------------|
Bb----------------------------------------------------|
Gb---2----2----2-------------2----2----2--------------|
Db------------------0Н2---------------------0Н2-------|
Ab-0----0----0----3-----3p0----0----0-----3------3p0--|
Eb----------------------------------------------------|
(repeat 4X)

Gb--5---4---------2-|
Db--5---4---5-5---2-|
Ab--3---2---5-5---0-|
Eb--------x-3-3-----|

RONNIE
(Hetfield/Ulrich)

Stories taught
Quiet town
Small time for big time crowd
Never talks
Never plays
Different path
Lost his way

The streets are red
Red I'm afraid
There's no confetti
No parade
Nothing happens in this boring place
But oh my god how it all dismays
And they all pray
Blood stain wash away

He said
"Lost my way
This bloody day
Lost my way"
I heard it
He said
"Lost my way
This bloody day
Lost my way"
Oh please wash away
But blood stains the sun red today

I always said
Something wrong
Little strange
All day long
Never laugh
Never smile
Talked alone for miles and miles and miles

Yellow comes
Sun I say
Keep your smile and laugh all day
He falls again in this foreign place
For little boys how they do chase
And they all pray
Blood stain wash away

He said
"Lost my way
This bloody day
Lost my way"
I Heard it
He said
"Lost my way
This bloody day
Lost my way"
Oh please wash away
But blood stains the sun red today

Yeah, well all the green things died
When Ronnie moved to this place
He said
"Don't you dare ask
Why I'm cursed to wear this face"
I know why the children called him Ronnie frown
When he pulled that gun from his pocket
They all fall down down down

He said
"Lost my way
This bloody day
Lost my way"
I heard it
He screamed
"Lost my way

This bloody day
Lost my way"
Oh please wash away
But blood stains the sun red today

All things wash away
They all fall down
But blood stains the sun today

All things wash away
They all fall down
But blood stains the sun today
Вверх

Run To The Hills

 |--------------------------------------------------------|
 |--------------------------------------------------------|
 |-x-9--9---7----x-7--7---9-----x-5--5---7----x-0--0---2--|
 |--------------------------------------------------------|
Вверх

Sabbra Cadabra

 Tune all guitars down 1 full step (D G C A)
 G-----------
 D-----------  Riff 1a
 A-----------
 E-/7-5-4-3--                    | All the notes in these two riffs are
                                 | repeated about 7 times each.
 G------------                  /
 D------------                /
 A------------  1b          /
 E-/7-9-10-12-            /

 G----------------------------------------------
 D----------------------------------------------
 A-0-2-2--0-2-2---------------0-2-2-------------  Riff 2
 E---------------5-3-5-2-5-0--------------------

 G----------------------------------------------
 D----------------------------------------------
 A-0-2-2--0-2-2---------0-2-2-------------------  Riff 3
 E---------------5-3-3--------------------------

 G----------------------------------------------
 D----------------------------------------------
 A----------------------------------------------  Riff 4
 E-0-0-0-0-0-0-0--2-2-2-2-2-2-2-----------------


 Here, the segue into "A National Acrobat" begins

 G----------------------------------------------
 D----------------------------------------------
 A----------------------------------------------  Riff 5
 E-7-7-7--7-7-7---------------------------------

 G----------------------------------------------
 D----------------------------------------------
 A-------------5-4------------------------------  Riff 6
 E-7--5--2--0-------7--5--2--0------------------

 G----------------------------------------------
 D-------------------3/2---------2p0----2h3p2---
 A-3h5--5-5--3h5-3h5-----3h5-5-5-----3-3--------  Riff 7
 E----------------------------------------------

 G----------------------------------------------
 D----------------------------------------------
 A-7-----3--------------------------------------  Riff 8
 E----1-----3-----------------------------------

 G----------------------------------------------
 D----------------------------------------------
 A-1--0-----------------------------------------  Riff 9
 E-------1--3-----------------------------------

 G----------------------------------------------
 D---------------3/2----------------------------
 A-3h5---3h5-3h5-----3p0-3h5--------------------  Riff 10
 E----------------------------------------------

 G----------------------------------------------
 D----------------------------------------------
 A-5-3--------5-3------5-3--8/7--5-7-7----------  Riff 11
 E-------3-1-------3-1--------------------------

 Song Progression Goes:

 Riff 1a x1
 Riff 1b x2

 Riff 2  x2
 Riff 3  x2
 Riff 4  x1        This part twice, then into the
 Riff 2  x1       / segue to "A National Acrobat."
 Riff 4  x1     /
 Riff 2  x2   /

 Riff 5  x8
 Riff 6  x1
 Riff 7  x4
 Riff 8  x1
 Riff 7  x1
 Riff 8  x1
 Riff 7  x1
 Riff 9  x1
 Riff 7  x1
 Riff 9  x1
 Riff 10 x6

 Riff 11 x1        Here`s the segue back to "Sabbra Cadabra"
 Riff 1a x1
 Riff 3  x2
 Riff 4  x1
 Riff 2  x1
 Riff 4  x1
 Riff 2  x2
Вверх

Sad But True mp3

 Tune guitar one whole step down.

 --------------------------------|--------------------------------|
 --------------------------------|--------------------------------|
 2-------------------2---2---2---|3-----------------------3-------|
 2-------------------2---2---2---|3-----------------------3-------|
 0-------------------0---0---0---|1-----------------------1-------|
 --------------------------------|--------------------------------|

 --------------------------------|--------------------------------|
 --------------------------------|--------------------------------|
 2-------------------------------|--------------------------------|
 2------------------/7---6---5---|3-5-3-5-3-5-353535353535--------|
 0-------------------------------|------------------------x------|
 --------------------------------|--------------------------------|

 --------------------------------|--------------------------------|
 --------------------------------|--------------------------------|
 2-------------------2---2---2---|3-----------------------3-------|
 2-------------------2---2---2---|3-----------------------3-------|
 0-------------------0---0---0---|1-----------------------1-------|
 --------------------------------|--------------------------------|

 --------------------------------|----         -------------------|
 --------------------------------|----         -------------------|
 2-------------------------------|5---         -------------------|
 2------------------/7---6---5---|3---         -------------------|
 0-------------------------------|----         -------x---x-x-x-x-|
 --------------------------------|----         -------------------|

 --------------------------------|   |   |--------------------------------|
 --------------------------------|   |   |--------------------------------|
 --------------------------------| % | % |--------------------------------| 4%
 --------------------------------|   |   |--------------------------------|
 2-----------2---2---5p0-1p0-----|   |   |2-----------2---2---5p0-5-5-----|
 0-----------0---0-----------3p0-|   |   |0-----------0---0---------------|

 --------------------------------|--------------------------------|
 --------------------------------|--------------------------------|
 --------------------------------|--------------------------------|
 --------------------------------|--------------------------------|
 --------------------5p0-5-5-----|(5)^----r-----------x---x-x-x-x-|
 --------------------------------|--------------------------------|

 --------------------------------|--------------------------------|
 --------------------------------|--------------------------------|
 --------------------------------|--------------------------------|
 --------------------------------|--------------------------------|
 2-----------2---2---5p0-1p0-----|2-----------2---2---5p0-1p0-----|
 0-----------0---0-----------3p0-|0-----------0---0-----------3p0-|

 All these lyrics are played over the following tablature line.

 Verse 1:
 Hey,            I`m your life.   I`m the one who takes you there.
 Hey,            I`m your life.   I`m the one who cares.
 They,           they betray.     I`m your only true friend now.
 They,           they`ll betray.  I`m forever there.

 Verse 2:
 You,            you`re my mask.  You`re my cover, my shelter.
 You,            you`re my mask.  You`re the one who`s blamed.
 Do,             do my work.      Do my dirty work, scapegoat.
 Do,             do my deeds,     for you`re the one who`s shamed.

 Verse 3:
 Hate,           I`m your hate.   I`m your hate when you want love.
 Pay,            pay the price.   Pay, for nothing`s fair.
 Hey,            I`m your life.   I`m the one who took you there.
 Hey,            I`m your life.   And I no longer care.

 --------------------------------|--------------------------------|
 --------------------------------|--------------------------------|
 --------------------------------|--------------------------------|
 ------------7-------------------|------------3-------------------|
 ------------5-------------------|------------1-------------------|
 0---0---0-0-----0---0-------0-0-|0---0---0-------0---0-------0-0-|


         I`m your dream, make you real. I`m your eyes when you must
         I`m your dream, mind astray. I`m your eyes when you`re a-
 --------------------------------|--------------------------------|
 --------------------------------|--------------------------------|
 --------------------------------|--------------------------------|
 --------3-3-0---3---2-----------|--------3-3-0-------------------|
 --------3-3-0---3---2-----------|--------3-3-0-------7---7---7-7-|
 0---0-------------------0---0-0-|0---0-----------0---5---5---5-5-|

 steal I`m your pain when you can`t feel         Sad but true
 way I`m your pain while you repay You know it`s sad but true.
 --------------------------------|--------------------------------|
 --------------------------------|--------------------------------|
 --------------------------------|--------___3___-----------------|
 --------------------------------|--------5--5--5-5---------------|
 7---7---8-8-5---7---5---5---5-5-|5---5---3--3--3-3-------3-3-----|
 5---5---6-6-3---5---3---3---3-3-|3---3---------------0---1-1-0---|

 _____________________
 | 1.                           Sad but true.
 --------------------------------|   |   |--------------------------------|
 --------------------------------|   |   |--------------------------------|
 --------------------------------| % | % |--------------------------------|
 --------------------------------|   |   |--------------------------------|
 2-----------2---2---5p0-1p0-----|   |   |2-----------2---2---5p0-5-5-----|
 0-----------0---0-----------3p0-|   |   |0-----------0---0---------------|

 --------------------------------|--------------------------------|
 --------------------------------|--------------------------------|
 --------------------------------|--------------------------------|
 --------------------------------|--------------------------------|
 2-----------2---2---5p0-1p0-----|2-----------2---2---5p0-5-5-----|
 0-----------0---0-----------3p0-|0-----------0---0---------------|

 --------------------------------|
 --------------------------------|
 --------------------------------| Go back and play verse 2.
 --------------------------------|
 (5)-----------------x---x-x-x-x-|
 --------------------------------|

 _____________________
 | 2.                        Sad but true.
 --------------------------------|   |--------------------------------|
 --------------------------------|   |--------------------------------|
 --------------------------------| % |--------------------------------|
 --------------------------------|   |--------------------------------|
 2-----------2---2---5p0-1p0-----|   |2-----------2---2-------0h1p0---|
 0-----------0---0-----------3p0-|   |0-----------0---0---0-3-------3-|

 --------------------------------|--------------------------------|
 --------------------------------|--------------------------------|
 --------------------------------|--------------------------------|
 ---/7---6---5---2---------------|---/7---6---5---3---------------|
 --------------------------------|--------------------------------|
 --------------------------------|--------------------------------|
                                 |                                |
 --------------------------------|--------------------------------|
 --------------------------------|--------------------------------|
 --------------------------------|--------------------------------|
 2-------------------2---2---2---|3-----------------------3-------|
 0-------------------0---0---0---|1-----------------------1-------|
 --------------------------------|--------------------------------|

 --------------------------------|--------------------------------|
 --------------------------------|--------------------5---4---3---|
 --------------------------------|--------------------------------|
 ---/7---6---5---2---------------|---/7---6---5---3---------------|
 --------------------------------|--------------------------------|
 --------------------------------|--------------------------------|
                                 |                                |
 --------------------------------|--------------------------------|
 --------------------------------|--------------------------------|
 --------------------------------|-------------------/7---6---5---|
 2-------------------2---2---2---|3-------------------------------|
 0-------------------0---0---0---|1-------------------------------|
 --------------------------------|--------------------------------|

 --------------------------------|--------------------------------|
 --------------------5---4---3---|--------------------------------|
 2-------------------------------|3-------------------------------|
 --------------------------------|--------------------2-3-5-3-5-3-|
 --------------------------------|--------------------------------|
 --------------------------------|--------------------------------|
                                 |                                |
 --------------------------------|--------------------------------|
 --------------------------------|--------------------------------|
 --------------------------------|--------------------------------|
 2------------------/7---6---5---|3-------------------2-3-5-3-5-3-|
 --------0-----------------------|--------1-----------------------|
 --------------------------------|--------------------------------|

 --------------------------------|----            ----------------|
 --------------------------------|----            ------------3-s-|
 2-------------------------------|----            ------------5-s-|
 --------------------2-3-5-3-5-2-|3---            ----------------|
 --------------------------------|----            --Solo 1--------|
 --------------------------------|----            ----------------|
                                 |                                |
 --------------------------------|----            ----------------|
 --------------------------------|----            ----------------|
 --------------------------------|----            ----------------|
 2-------------------2-3-5-3-5-2-|3---            ----------------|
 --------0-----------------------|----            ----x---x-x-x-x-|
 --------------------------------|----            ----------------|

 For the backing rhythm figure of solo 1 see end of transcription

 ----------------------------------------------------------------|
 12----------------------------------------------12--12--12------|
 11----------------------------------------------12--12--12------|
 --------------------------------14-----12--14------------------|
 ----------------------------------------------------------------|
 ----------------------------------------------------------------|

 ----------------------------------------------------------------|
 ----------------12----------------------------------------------|
 ----------------12----------------------------------------------|
 14------------------14--12------14-12------------------12--14--|
 ----------------------------14--**------------------14----------|
 ----------------------------------------------------------------|

 ----------------------------------------------------------------|
 12--------------------------------------------------------------|
 12------------------------------9p7p6---------------------------|
 ----14--12------14----------------------9---7---9--------------|
 ------------14--**------------------------------**--------------|
 ----------------------------------------------------------------|

 ----------------------------------------------------------------|
 ----------------------------------------------------------------|
 4-h-5p4-----4---------------------------------------------------|
 --------7-------7---5---4-----------------------9---s---5---s---|
 ----------------------------5---7-------------------------------|
 --------------------------------**------------------------------|

 ---------- -- -- -- ____3___--- -------- -- ------ -- --------------------|
 ----12--15p12 15p12 ---12 12-15p12----12h15p12--12h15p12------------------|
 14^------- -- -- -- 14^-- ----- --14^--- -- --14-- -- --1412--------------|
 ---------- -- -- -- ----- ----- -------- -- ------ -- --------14--14------|
 ---------- -- -- -- ----- ----- -------- -- ------ -- --------------------|
 ---------- -- -- -- ----- ----- -------- -- ------ -- --------------------|

 ----------------------------------------------------------------|
 --------12------------------------------------------------------|
 --------12------14--12------------------------------------------|
 12-h14------14----------14--12----------------------------------|
 --------------------------------14--12-s10--12--10--------------|
 ----------------------------------------------------------------|

 ----------------------------------------------------------------|
 14^-r---14^-r-------------------14^-r-----------12--------------|
 14^-r---14^-r---14^r12--12--14--14^-r---12------12----------12--|
 ----------------------14--------------------14----------14------|
 ----------------------------------------------------------------|
 ----------------------------------------------------------------|

 ----------------------------------------------------------------|
 14^-r---12--14^-r---12--14^-r---12--14^-r-----------------------|
 14^-r---12--14^-r---12--14^-r---12--14^-r---12--14^-------------|
 ------------------------------------------------------------12--|
 ----------------------------------------------------------------|
 ----------------------------------------------------------------|

 ________6________ ________6________ _________6________ ________6________|
 ----------------- ----------------- ------------------ -----------------|
 ----------------- ----------------- -------------12-12 13-12-13-15-15-15|
 ----------------- ---------12----12 14-12-14-14^------ -----------------|
 ---------12----12 14-12-14----14--- ------------------ -----------------|
 14-12-14----14--- ----------------- ------------------ -----------------|
 ----------------- ----------------- ------------------ -----------------|

                     __________6_________ _______6_______
 12h15p12--12--12 12 15p12 12 12 12 12 12-15p12 -- --------- --------------|
 -- -- --15------ -- ----- -- -- -- -- -------- 15p13--13-15p13----13--15--|
 -- -- ---------- -- ----- -- -- -- -- -------- -- --14----- --14----------|
 -- -- ---------- -- ----- -- -- -- -- -------- -- --------- --------------|
 -- -- ---------- -- ----- -- -- -- -- -------- -- --------- --------------|
 -- -- ---------- -- ----- -- -- -- -- -------- -- --------- --------------|

 15------15------------------------------r-----------------------|
 15^-----15^-----------------------------r-----------------------|
 ----------------------------------------------------------------|
 ----------------------------------------------------------------|
 ----------------------------------------------------------------|
 ----------------------------------------------------------------|

 At this point play Chorus once and go on with the second solo:

 ----------------------------------------------------------------|
 ----------------------------------------------------------------|
 ----------------------------------------------------------------|
 2-------2-p-0---2-------2-p-0---2-------------------------------|
 ----------------------------------------------------------------|
 ----------------------------------------------------------------|
                                                                 |
 ----------------------------------------------------------------|
 ----------------------------------------------------------------|
 ----------------------------------------------------------------|
 ----------------------------------------------------------------|
 2-----------------------2-------2-------5-p-0---1-p-0-----------|
 0-----------------------0-------0-----------------------3-p-0---|


 -------0------------0-------------------------------------------|
 -----------3^-----------3---0-----------------------------------|
 2^------------------------------2^rp0---------------------------|
 ----------------------------------------2-----------------------|
 ----------------------------------------------------------------|
 ----------------------------------------------------------------|
                                                                 |
 ----------------------------------------------------------------|
 ----------------------------------------------------------------|
 ----------------------------------------------------------------|
 ----------------------------------------------------------------|
 2-----------------------2-------2---------------0-h-1-p-0-------|
 0-----------------------0-------0-------0---3---------------3---|


 ----------------------------------------------------------------|
 ----------------------------------------------------------------|
 4^------4^------4^------4^------4^--------------0---------------|
 -----Semi - harmonics-------------------------------2-----------|
 ----------------------------------------------------------------|
 ----------------------------------------------------------------|
                                                                 |
 ----------------------------------------------------------------|
 ----------------------------------------------------------------|
 ----------------------------------------------------------------|
 ----------------------------------------------------------------|
 2-----------------------2-------2-------5-p-0---1-p-0-----------|
 0-----------------------0-------0-----------------------3-p-0---|


  ----------------------------------------------------------------|
  --------12--12--x---12--12------12--12--12--12--x---12--12--12--|
  --------12--12--x---12--12------12--12--12--12--x---12--12--12--|
 /14--------------------------14----------------------------------|
  ----------------------------------------------------------------|
  ----------------------------------------------------------------|
                                                                  |
  ----------------------------------------------------------------|
  ----------------------------------------------------------------|
  ----------------------------------------------------------------|
  ----------------------------------------------------------------|
  2-----------------------2-------2---------------0-h-1-p-0-------|
  0-----------------------0-------0-------0---3---------------3---|


 --------12----------12------12----------------------------------|
 ----12------15^---------15^-----15^----------------------------|
 14^-------------------------------------------------------------|
 -------------------------------------------End of Solo 2--------|
 ----------------------------------------------------------------|
 ----------------------------------------------------------------|
                                                                 |
 ----------------------------------------------------------------|
 ----------------------------------------------------------------|
 ----------------------------------------------------------------|
 ----------------------------------------------------------------|
 2-----------------------2-------2-------5-p-0---5---5-----------|
 0-----------------------0-------0-------------------------------|


 --------------------------------|--------------------------------|
 --------------------------------|--------------------------------|
 --------------------------------|--------------------------------|
 --------------------------------|--------------------------------|
 --------------------5p0-5-5-----|(5)^----r-----------x---x-x-x-x-|
 --------------------------------|--------------------------------|


 ----------------|
 ----------------|
 ----------------| Go back and play verse 3.
 ----------------|
 ----x---x-x-x-x-|
 ----------------|


 At the end of the chorus play the basic riff and end with:


 --------------------------------| |-----------------------------|----
 --------------------------------| |-----------------------------|----
 --------------------------------| |-----------------------------|----
 --------------------------------| |-----------------------------|----
 2-----------2---2---5p0-5-5-----| |-----------------x---x-x-x-x-|2---
 0-------------------------------| |-----------------------------|0---


 Backing guitar for solo 1
 --------------------------------|   |   |--------------------------------|
 --------------------------------|   |   |--------------------------------|
 --------------------------------| % | % |--------------------------------|
 --------------------------------|   |   |--------------------------------|
 2-----------2---2---5p0-1p0-----|   |   |2-----------2---2---5-0---------|
 0-----------0---0-----------3p0-|   |   |0-----------0---0-------0-0-3-5-|

 --------------------------------|--------------------------------|
 --------------------------------|--------------------------------|
 --------------------------------|--------------------------------|
 --------------------------------|--------------------------------|
 2-----------2---2---5p0-1p0-----|2-----------2---2-------0h1p0---|
 0-----------0---0-----------3p0-|0-----------0---0---0-3-------3-|


 --------------------------------|
 --------------------------------|
 --------------------------------| 3%  -> To chorus
 --------------------------------|
 7---7---8-8-5---8---7---7---7-7-|
 5---5---6-6-3---6---5---5---5-5-|
Вверх

Sad But True (2 вариант) mp3

 low to high (A,D,G,C,F)

 F:------------------------------------|-------------------------------------|
 C:------------------------------------|-------------------------------------|
 G:--0----------0--0--0--1----------1--|--0-----------0--0--0--1-------------|
 D:------------------------------------|-------------------------------------|

 F:-----------------------------------------|-------------------------|------|
 C:---------------------------------8--5----|-------------------------|------|
 G:--0----------0--0--0--1---------------8--|--0----------0--0--0--1--|-Rest-|
 D:-----------------------------------------|-------------------------|------|
                Riff 1.                    (x3) Bass Fill 1.
 F:-----------|-------------------------------|-----------------------------|
 C:-----------|*-----------------------------*|--------------------~~~~~~~--|
 G:-Drum-Fill-|---------------5p0--1p0--------|--------------5-0-5-5--------|
 D:-----------|*--0-----0--0------------3p0--*|--0-----0--0-----------------|

 F:--------------|----------------------|-------------|---------------|
 C:--------------|----------------------|-------------|---------------|
 G:-Riff-1-(x3)--|---------------rest---|--Drum-Fill--|--Riff-1-(x2)--|
 D:--------------|--0-----0--0----------|-------------|---------------|

    Bass Riff 2. (Verse)                              (x4)
 F:--------------------------------------------------------|
 C:*------------------------------------------------------*|
 G:------------5-------------------------------------------|
 D:*-0--0--0-0----0--0--R--0-0--0--0--0--6--0--0--R--0-0--*|

    Bass Riff 3. (Chorus)
 F:---------------------------------------------------------------------------|
 C:*--------------------------------------------------------------------------|
 G:------------5--------------------------5-----------------------------------|
 D:*-0--0--1-1----1--0--0--0-0--0--0--1-1----1--5--5--5-5-5--5-5-5-4-3--5--3--|

                                   (x2)
 F:------------------------------------|-------------|--------------|
 C:-----------------------------------*|-------------|--------------|
 G:--------------3-3-3-3-------2-3-5---|-Riff-1-(x3)-|-Bass-Fill-1--|
 D:3--3-3--3--3-----------0--X--------*|-------------|--------------|

                                                  *2nd Verse
 F:---------|---------------------|-------------|---------------------|
 C:---------|---------------------|-------------|---------------------|
 G:-Riff-1--|---------------Rest--|--Drum-Fill--|--Bass-Riff-2.-(x4)--|
 D:---------|--0-----0--0---------|-------------|---------------------|

    *2nd Chorus                            Bass Fill 2.
 F:---------------------|----------------|----------------------------|
 C:---------------------|----------------|----------------------------|
 G:--Bass-Riff-3.-(x2)--|--Riff-1.-(x2)--|------------------0h1p0-----|
 D:---------------------|----------------|--0-----0--0--0-3-------3---|

                                          (x4)
 F:-------------------------------------------|--------------|
 C:-------------------------------------------|--------------|
 G:--0---------0-----0--1------------1--1--1--|--Rest,-Drums-|
 D:---------------3---------------------------|--------------|

   Gtr. Solo 1
 F:----------------|---------------------------|----------|---------|
 C:----------------|---------------------------|----------|---------|
 G:--Riff-1.-(x3)--|--------------5-0----------|--Riff-1--|-Fill-2--|
 D:----------------|--0-----0--0------0-0-3-5--|----------|---------|

                            (x4)  *3rd Chorus     Gtr Solo 2
 F:-----------------------------|---------------|----------|----------|
 C:-----------------------------|---------------|----------|----------|
 G:--0--0--1-1----1--0--0--0-0--|--Riff-3-(x2)--|--Riff-1--|--Fill-2--|
 D:------------3----------------|---------------|----------|----------|

                                                             *3rd Verse
 F:----------|---------|---------------------|-------------|---------------|
 C:----------|---------|---------------------|-------------|---------------|
 G:--Riff-1--|-Fill-2--|---------------Rest--|--Drum-Fill--|--Riff-2-(x4)--|
 D:----------|---------|--0-----0--0---------|-------------|---------------|

     *4th Chorus                         (x2)
 F:---------------|--------------------------|--------------------------|
 C:---------------|--------------------------|--------------------------|
 G:--Riff-3-(x2)--|--------------------------|--------------------------|
 D:---------------|--0--0--0--0--0--0--0--0--|--0--0--12---0--0--0--0--|

 F:------------------------|--------------|-------------------------||
 C:------------------------|--------------|-------------------------||
 G:------------------------|--Gtr,-Drums--|------------Rest.--------||
 D:--0--0--0--0--0---Rest--|--------------|--0----------------------||
              >  >                           >
              accent                      accent
Вверх

Sanitarium

                         _3_
 -------<12>---------3---353-2---|-------<12>---------2---2-----3-|
 -----------<12>-----------------|-----------<12>---------0-------|
 --------------------------------|--------------------------------|
 --------------------------------|--------------------------------|
 --------------------------------|--------------------------------|
 0-------------------------------|0-------------------------------|

 0------<12>---------------------|-------<12>---------------------|
 -----------<12>-----------------|-----------<12>-----------------|
 --------------------------------|--------------------------------|
 --------------------------------|--------------------------------|
 --------------------------------|--------------------------------|
 0-------------------------------|0-------------------------------|

 -------<12>---------------------|-------<12>---------------------|
 -----------<12>-----------------|-----------<12>-----------------|
 --------------------------------|---------------<12>-------------|
 --------------------------------|--------------------------------|
 --------------------------------|--------------------------------|
 0-------------------------------|0-------------------------------|

 Rhy. Fig. 1 (8th=--)
 ----------------|----------------|--------|   Repeat this figure 4 times
 ----------------|----------------|--------|   alone, then 4 times under
 ------0-------0-|------0---------|--------|   the solo and 6 times under
 ----4-------5---|----7-------0---|--0-----|   the verse. The notes with
 --2-------3-----|--5-------4-----|2-----0-|   a ~ under them are cue notes.
 0-------0-------|0-------5---5s3-|--3s5---|   They hardly take time to sound
                              ~      ~

 Now comes solo 1. Timing isn`t always exact but is close.

 ------------------------------|--------10-s12--15-s17--17----|----------------|
 ------------------------------|10-s12------------------------|----------------|
 --------11--12--9---------12--|------------------------------|----------------|
 ----9-------------------------|------------------------------|----------------|
 7-----------------------------|------------------------------|----------------|
 ------------------------------|------------------------------|----------------|

 --15--15--12--12s14---12^-r---|---12---------------__3___----|----------------|
 ------------------------------|15-----15--13--13---121312----|----------------|
 ------------------------------|--------------------------14--|12-s11----------|
 ------------------------------|------------------------------|--------12------|
 ------------------------------|------------------------------|------------14--|
 ------------------------------|------------------------------|----------------|

 ------------------------------|----19-----19-------------17--|171514----------|
 ------------------------------|--17---------17---------------|------171514----|
 12s14-------------------------|16-------------16-s14-14------|------------1614|
 ------------------------------|------------------------------|----------------|
 ------------------------------|------------------------------|----------------|
 ------------------------------|------------------------------|----------------|

                                __3___
 ----------------------------12|101210----------------5-------|----3-----------|
 --------------------------13--|------13--12------------------|----------------|
 12^-----r---------------14----|------------------6-----------|4-----------6---|
 ----------------------14------|-------------/7----------/5---|-------/7-------|
 ------------------------------|------------------------------|----------------|
 ------------------------------|------------------------------|----------------|

 Verses:  (with Rhy. Fig. 1)
 1. Welcome to where time stands still, noone lives and noone will
 Moon is full never seems to change, just labeled mentally deranged
 Dream the sane thing every night, I see our freedom in my sight
 No locked doors, no windows barred , no things to make my brain seem scared

 2. Build my fear of what`s out there, cannot breath the open air
 Whisper things into my brain, assuring me that I`m insane
 They think our heads are in their hands, but violent use brings violent plans
 Keep him tied, it makes him well, he`s getting better can`t you tell?

 1.Sleep my friend and you will see that dream is my reality
 2.No more can they keep us in, listen damn it we will win
 ----------------|----------------|--------|
 ----------------|----------------|--------|
 ----------------|----------------|--------| 8th=--
 ----------------|----------------|--------|
 ----2-2-----3-3-|----5-5---------|--------|
 0-0-----0-0-----|0-0-----5-5-5-3-|3-3-5-3-|

 1.Keep me locked up in this cage, can`t they see it`s why my brain says rage?
 2.They see it right, they see it well, but they think this saves from our hell
 ----------------|----------------|--------|
 ----------------|----------------|--------|
 ----------------|----------------|--------|8th=--
 ----------------|----------------|--------|
 ----2-2-----3-3-|----5-5---------|--------|
 0-0-----0-0-----|0-0-----5-5-5-3-|3-3-5-3-|

 CHORUS
                                                  Sa   -    ni   -
 --------------------------------|--------------------------------|
 --------------------------------|--------------------------------|
 --------------------5s4-----5s4-|----------------_3_-------------|
 ------------5s4-----5s4-----5s4-|----------------020-------------|
 ------------5s4-----3s2-----3s2-|--------------------3-2---------|
 0-------x-x-3s2-x-x-----x-x-----|------------------------5-3-2-3-|

 tarium                                           leave   me
 --------------------------------|--------------------------------|
 --------------------------------|--------------------------------|
 --------------------5s4-----5s4-|--------------------------------|
 ------------5s4-----5s4-----5s4-|--------------------------------|
 ------------5s4-----3s2-----3s2-|----2-2-2-2-2-2-3-2-------x-3---|
 0-------x-x-3s2-x-x-----x-x-----|--------------------3-----x-1---|

 be                                               Sa   -   ni    -
 --------------------------------|--------------------------------|
 --------------------------------|--------------------------------|
 --------------------5s4-----5s4-|----------------_3_-------------|
 ------------5s4-----5s4-----5s4-|----------------020-------------|
 ------------5s4-----3s2-----3s2-|--------------------3-2---------|
 0-------x-x-3s2-x-x-----x-x-----|------------------------5-3-2-3-|

 tarium                                  just leave me alone
 --------------------------------|--------------------------------| 1st time
 --------------------------------|--------------------------------| go on with
 --------------------5s4-----5---|4-------------------------------| the solo
 ------------5s4-----5s4-----5---|4-------------------------------| 2nd time
 ------------5s4-----3s2-----3---|2-------------------------------| skip to
 0-------x-x-3s2-x-x-----x-x-----|--------------------------------| CODA

 Now comes the second solo. The backing guitar plays a B chord for
 the next line and then goes on 4 times with the backing rhythm
 of solo 1.


  ----------------------------------------------------------------|
  --------------------------------------------------------10------|
  ----------------------------------------7---7---9--s11----------|
  ------------------------7---7--s9-------------------------------|
  --------5---5---7--s9-------------------------------------------|
 /7---------------------------------------------------------------|

 For the next two lines we have two guitars soloing together.
 For two notes they play on the same string (high E). In this
 case the highest note is indicated above the tablature.

                 22      22
 --------15--17--19------19------19------------------------------|
 17--19--------------------------17------------------------------|
 ----------------------------------------------------------------|
 ----------------------------------------------------------------|
 ----------------------------------------------------------------|
 ----------------------------------------------------------------|



 17-h19-p17------15------17-h19--17--------------17--19p17 17------|
 19-h20-p19------17------19-h20--19------19------19--20p19 17------|
 ----------------------------------------19------------ -- --------|
 ------------------------------------------------------ -- --------|
 ------------------------------------------------------ -- --------|
 ------------------------------------------------------ -- --------|


 15------------------------------|
 --------------------------------|
 16------------------------------|
 --------------------------------|
 --------------------------------|
 --------------------------------|

 14^---------------------r-------------------------------14--15--|
 15^---------------------r-------15------------------------------|
 ----------------------------------------------------------------|
 ----------------------------------------------------------------|
 ----------------------------------------------------------------|
 ----------------------------------------------------------------|
                 ___3____
 17--15--14--15--14h15p14  ----14---------------- -- --------------------|
 --------------------      17------17--17--14--15p14 16--14--------------|
 --------------------      ---------------------- -- --------16--14-s12--|
 --------------------      ---------------------- -- --------------------|
 --------------------      ---------------------- -- --------------------|
 --------------------      ---------------------- -- --------------------|

 --------------------------------|
 --------------------------------|
 14-p12------12------------------|
 --------16------16--14--12------|
 ----------------------------16--|
 --------------------------------|

 --------------------------------------------------------17------|
 ------------------------------------------------17-s15------15-s|
 ----------------------------------------------------------------|
 12-h14----------------------------------------------------------|
 ----------------------------------------------------------------|
 ----------------------------------------------------------------|

 ----15----------14----------12----------10----------7-----------|
 14------14-s12------12-s10------10-s8-------8-s-7-------7-------|
 ------------------------------------------------------------7---|
 ----------------------------------------------------------------|
 ----------------------------------------------------------------|
 ----------------------------------------------------------------|

 --------------------------------|
 --------------------------------|
 ----7---9-----9s11------9-------|
 9-------------~-----------------|
 --------------------------------|
 --------------------------------|

 ----------------------------------------------------------------|
 ----------------------------------------------------------------|
 9---------------------------------------9---9---9-------9-------|
 ----------------------------------------------------------------|
 ----------------------------------------------------------------|
 ----------------------------------------------------------------|

 ------------------------------------------------5---------------|
 ----------------------------------------------------------------|
 9-------7-------------------------------6-----------------------|
 ----------------5--------------/7----------------------/5-------|
 ----------------------------------------------------------------|
 ----------------------------------------------------------------|

 --------3-----------------------|
 --------------------------------|
 4-----------------------6-------| Now go back and play verse 2.
 ---------------/7---------------|
 --------------------------------|
 --------------------------------|

 CODA

 ----------------|--------------------------------|
 ----------------|--------------------------------|
 _3_-------------|--------------------5s4-----5---|
 020-------------|------------5s4-----5s4-----5---|
 ----3-2---------|------------5s4-----3s2-----3---|
 --------5-3-2-3-|0-------x-x-3s2-x-x-----x-x-----|


 --------------------------------|----------------|----------
 --------------------------------|----------------|----------
 4-------------------------------|_3_-------------|----------
 4-------------------------------|020-------------|2---------
 2-------------------------------|----3-2---------|2---------
 --------------------------------|--------5-3-2-3-|0---------

 This last E chord lasts rather long for Metallica, while the song
 doubles its tempo and the lyrics go "Just leave me alone".
 Then you make a pick slide down the neck and you go:

 ----------------|----------------|----------------|----------------|
 ----------------|----------------|----------------|----------------|
 ----------------|----------------|----------------|----------------|
 ----------------|----------------|----------------|----------------|
 ----------------|----------------|----------------|----------------|
 0-0-0-0-0-0-0-0-|0-0-0-0-0-0-0-0-|0-0-0-0-0-0-0-0-|0-0-0-0-0-0-0-0-|

 ----------------|----------------|----------------|----------------|
 ----------------|----------------|----------------|----------------|
 ----------------|----------------|----------------|----------------|
 0h2---0h2-------|----------------|0h1---0h1---0h1-|--0h2-----------|
 0h2---0h2-------|----------------|0h1---0h1---0h1-|--0h2-----------|
 ----------0-0-0-|0-0-0-0-0-0-0-0-|----------------|------0-0-0-0-0-|

 Rhy. Fig. 2                                         (end Rhy.Fig. 2)
 ----------------|----------------|----------------|----------------|
 ----------------|----------------|----------------|----------------| Repeat
 ----------------|----------------|----------------|----------------| this
 0h1---0h1-------|----------------|0h1---0h1---0h1-|--0h2-----------| line
 0h1---0h1-------|----------------|0h1---0h1---0h1-|--0h2-----------| 3 times
 ----------0-0-0-|0-0-0-0-0-0-0-0-|----------------|------0-0-0-0-0-|




              Fear of living on               Natives getting rest-
 --------------------------------|--------------------------------|
 --------------------------------|--------------------------------|
 --------------------------------|------7-7-----------------------|
 0-2---2-2-----------------------|0-2---7-7-----------------------|
 0-2---2-2-----------------------|0-2---5-5-----------------------|
 ------0-0-----------------------|--------------------------------|

 less now       mutiny in the air              got some death to do
 --------------------------------|--------------------------------|
 --------------------------------|--------------------------------|
 --------------------------------|------5-5-------------4-4-------|
 0-2---3-3-----------------------|0-2---5-5-------5-4---4-4-------|
 0-2---3-3-----------------------|0-2---3-3-------3-2---2-2-------|
 ------1-1-----------------------|--------------------------------|

          Mirror stares back hard        "Kill" it`s such a friend-
 --------------------------------|--------------------------------|
 --------------------------------|--------------------------------|
 --------------------------------|------7-7-----------------------|
 0-2---2-2-----------------------|0-2---7-7-----------------------|
 0-2---2-2-----------------------|0-2---5-5-----------------------|
 ------0-0-----------------------|--------------------------------|

 ly word       Seems the only way            for reaching out again
 --------------------------------|--------------------------------|
 --------------------------------|--------------------------------|
 --------------------------------|------5-5-------------4-4-------|
 0-2---3-3-----------------------|0-2---5-5-------5-4---4-4-------|
 0-2---3-3-----------------------|0-2---3-3-------3-2---2-2-------|
 ------1-1-----------------------|--------------------------------|

 --------------------------------|
 --------------------------------|
 --------------------------------|
 --------------------------------|
 --------------------------------|
 0-0-0-0-0-0-0-0-0-0-0-0-12-----|

 Now we have another solo played over Rhy. Fig. 2 (4 times)

 ----------------------------------------------------------------|
 ----------------------------------------------------------------|
 12--12--12--12--12--12--12--12--12--12--12--12--12--12--12--12--|
 ----------------------------------------------------------------|
 ----------------------------------------------------------------|
 ----------------------------------------------------------------|

 ----------------------------------------------------------------|
 ----------------------------------------------------------------|
 16--12--12--12--12--12--12--12--12--12--12--12--12--12--12--12--|
 ----------------------------------------------------------------|
 ----------------------------------------------------------------|
 ----------------------------------------------------------------|

 ------------------------------------------------------------12--|
 --------------------------------13--12--12--12--15--12--12------|
 14--12--12--12--16--12--12--12----------------------------------|
 ----------------------------------------------------------------|
 ----------------------------------------------------------------|
 ----------------------------------------------------------------|

                 ______3_______
 13--12--12--12--15----12----12--17---------------------12------|
 -----------------------------------------------/12--------------|
 ----------------------------------------------------------------|
 ----------------------------------------------------------------|
 ----------------------------------------------------------------|
 ----------------------------------------------------------------|

 17-p15-p12--------------12------17-p15-p12----------------------|
 ----------------17-p15--------------------------17-p15-p12------|
 ----------------------------------------------------------------|
 ----------------------------------------------------------------|
 ----------------------------------------------------------------|
 ----------------------------------------------------------------|

 17-p15-p12--------------12------17-p15-p12--------------12------|
 ----------------17-p15--------------------------15-p12----------|
 ----------------------------------------------------------------|
 ----------------------------------------------------------------|
 ----------------------------------------------------------------|
 ----------------------------------------------------------------|

                                                 ______3_______
 17^---------------------r-------^---------------------17----15--|
 ------------------------------------------------17--------------|
 ----------------------------------------------------------------|
 ----------------------------------------------------------------|
 ----------------------------------------------------------------|
 ----------------------------------------------------------------|

 14--------------14----------------------------------------------|
 --------15--------------15--------------------------------------|
 ------------------------------------------------2---------------|
 --------------------------------------------------------4-------|
 ----------------------------------------------------------------|
 ----------------------------------------------------------------|

 ----------------------------------------------------------------|
 ----------------------------------------------------------------|
 ----------------4-------2---------------2-------4---2-----------|
 4^------------------------------4-----------------------4-------|
 ----------------------------------------------------------------|
 ----------------------------------------------------------------|

 ----------------------------------------------------------------|
 ----------------------------------------------------------------|
 --------------------------------------------------------4-------|
 3-------2---------------2^--------------------------------------|
 ----------------5-----------------------------------------------|
 ----------------------------------------------------------------|

 ----------------------------------------------------------------|
 ----------------5-----------------------5---------------5-------|
 7^----------------------7^----------------------7^--------------|
 ----------------------------------------------------------------|
 ----------------------------------------------------------------|
 ----------------------------------------------------------------|

 ----------------------------------------------------------------|
 --------5---------------5-------------------------------12------|
 7^--------------7^--------------7--------------14--------------|
 ----------------------------------------------------------------|
 ----------------------------------------------------------------|
 ----------------------------------------------------------------|

 ____________3__________         ___________3___________
 --------------------------------15^--------15--------14---------|
 15^--------15--------12-----------------------------------------|
 ----------------------------------------------------------------|
 ----------------------------------------------------------------|
 ----------------------------------------------------------------|
 ----------------------------------------------------------------|

 ____________3__________
 12-------------------12-----------------------------------------|
 -----------15-------------------15^---------------------17--17--|
 ----------------------------------------------------------------|
 ----------------------------------------------------------------|
 ----------------------------------------------------------------|
 ----------------------------------------------------------------|

 15----------15--17--15------15--19--17-(15)--s--21------19--22--|
 ----17--18--------------19--------------------------------------|
 ----------------------------------------------------------------|
 ----------------------------------------------------------------|
 ----------------------------------------------------------------|
 ----------------------------------------------------------------|

 22--19------22--22^-------------22^-----------------------------|
 --------x-------------------------------------------------------|
 -------------------------------------------End of solo 3--------|
 ----------------------------------------------------------------|
 ----------------------------------------------------------------|
 ----------------------------------------------------------------|


 --------------------------------|--------------------------------|
 --------------------------------|--------------------------------|
 --------------------R-----------|------7-7-------7---R-----------|
 0-2---2-2-------2---E-----------|0-2---7-7-------7---E-----------|
 0-2---2-2-------2---S-----------|0-2---5-5-------5---S-----------|
 ------0-0-------0---T-----------|--------------------T-----------|


 For the next part of the song there are 4 guitars playing from time
 to time. We are going to use the following:

 Rhy. Fig. 3
 --------------------------------|--------------------------------|
 --------------------------------|--------------------------------|
 --------------------------------|------7-7-----------------------|
 0-2---2-2-----------------------|0-2---7-7-----------------------|
 0-2---2-2-----------------------|0-2---5-5-----------------------|
 ------0-0-----------------------|--------------------------------|

                                                  (end Rhy. Fig. 3)
 --------------------------------|--------------------------------|
 --------------------------------|--------------------------------|
 --------------------------------|------5-5-------------4-4-------|
 0-2---3-3-----------------------|0-2---5-5-------5-4---4-4-------|
 0-2---3-3-----------------------|0-2---3-3-------3-2---2-2-------|
 ------1-1-----------------------|--------------------------------|

 Riff 1
 --------------------------------|--------------------------------|
 --------------------------------|--------------------------------|
 --------------------------------|2---------------2-2-2-----2-----|
 (5)-------------5-5-5-4---5-----|----------------------5---------|
 (7)-------------7-7-7-6---7-----|9---------------9-9-9-7---9-----|
 --------------------------------|--------------------------------|

                                                       (end Riff 1)
 --------------------------------|--------------------------------|
 --------------------------+-----|--------------------------------|
 ----4-5---------5-5-5-7---5-----|--------------------------4-----|
 5-----------------------------5-|----------------4-4-4-5-------5-|
 10--9-8---------8-8-8-10--8---7-|----------------6-6-6-7---9---7-|
 --------------------------+-----|--------------------------------|

 Until the end of solo 4 one guitar plays Rhy. Fig. 3, another one
 plays the following line...

 --------------------------------|--------------------------------|
 --------------------------------|--------------------------------|
 --------------------------------|--------------------------------|
 --------------------------------|--------------------------------|
 ------------5-s-7-7-7-5---7-----|9---------------9-9-9-7---9-----|
 --------------------------------|--------------------------------|

 --------------------------------|--------------------------------|
 --------------------------------|--------------------------------|
 --------------------------------|--------------------------------|
 --------------------------------|--------------------------------|
 10--9-8---------8-8-8-10--8---7-|----------------6-6-6-7---9-----|
 --------------------------+-----|--------------------------------|

 --------------------------------|--------------------------------|
 --------------------------------|--------------------------------|
 --------------------------------|--------------------------------|
 --------------------------------|--------------------------------|
 7---------------7-7-7-5---7-----|9---------------9-9-9-7---9---9-|
 --------------------------------|--------------------------------|

 --------------------------------|--------------------------------|
 --------------------------------|--------------------------------|
 --------------------------------|--------------------------------|
 --------------------------------|------------------------------5-|
 10--9-8---------8-8-8-10--8---7-|----------------6-6-6-7---9---7-|
 --------------------------+-----|--------------------------------|

 This last note on 5th fret of D string belongs to another guitar
 whose line is tabbed in the upper part of Riff 1. All three
 guitars play together Rhy. Fig. 3 and Riff 1 for 2 times, and then
 continue for 2 times under the following solo 4.

  ----------------------------------------------------------------|
  ----------------------------------------------------------------|
  ----------------------------------------------------------------|
  ----------------------------------------------------------------|
  -------------------------------7---7---7---6-------7------------|
 /7---------------------------------------------------------------|

 ----------------------------------------------------------------|
 ----------------------------------------------------------------|
 ----------------------------------------------------------------|
 ----------------------------------------------------------------|
 9-------10--12------------------12--12--12--10------12----------|
 ----------------------------------------------------------------|

 ----------------------------------------------------------------|
 ----------------------------------------------------------------|
 --------12--------------12------14^---------14^---------14^-----|
 ------------14------14------------------------------------------|
 12-s14----------------------------------------------------------|
 ----------------------------------------------------------------|

 ----------------------------------------------------------------|
 --------------------------------12----------12------------------|
 12------------------------------12----------12------------------|
 ----14------------------14--14------14--14--------------14--14--|
 ----------------------------------------------------------------|
 ----------------------------------------------------------------|

 ----------------------------------------------------------------|
 12----------12------------------__3___------------------12------|
 12----------12----------12--14--14^r12--14--14------14----------|
 ----14--14----------14------------------------------------------|
 ----------------------------------------------------------------|
 ----------------------------------------------------------------|

                                                         ___3____
 ----12----------------------12--15^---------r-----------12h15p12|
 --------12--15^---------15--------------------------------------|
 14^-------------------------------------------------------------|
 ----------------------------------------------------------------|
 ----------------------------------------------------------------|
 ----------------------------------------------------------------|

 ___3____
 15p12h15-------------------------------- ------------ ------------|
 --------12------------------------------ ------------ ------------|
 ------------14--12------12--14^-r----p12 14--14^-rp12 14--14^-rp12|
 --------------------14------------------ ------------ ------------|
 ---------------------------------------- ------------ ------------|
 ---------------------------------------- ------------ ------------|

 ----------------------------------------------------------------|
 ----------------------------------------------------------------|
 14--14^-rp1214--14^-------------11--11--11--12------14---s--16--|
 ----------------------------------------------------------------|
 ----------------------------------------------------------------|
 ----------------------------------------------------------------|

 ----------------------------------------------------------------|
 12-----s----17--17----------------------------------------------|
 ----------------------------------------------------------------|
 ------------------------------------End of solo 4---------------|
 ----------------------------------------------------------------|
 ----------------------------------------------------------------|

 Together with the note on 12th fret of B string the backing guitars
 go as follows until the end of the song.

 --------------------------------|--------------------------------|
 --------------------------------|--------------------------------|
 --------------------------------|------7-7-----------------------|
 0-2---2-2-----------------------|0-2---7-7-----------------------|
 0-2---2-2--------------(8)-----|0-2---5-5--------------(8)-----|
 ------0-0--------------(6)-----|-----------------------(6)-----|

 --------------------------------|--------------------------------|
 --------------------------------|--------------------------------|
 --------------------------------|------5-5-------------4-4-------|
 0-2---3-3-----------------------|0-2---5-5-------5-4---4-4-------|
 0-2---3-3--------------(8)-----|0-2---3-3-------3-2---2-2-------|
 ------1-1--------------(6)-----|--------------------------------|

 --------------------------------|--------------------------------|
 --------------------------------|----------------___3___---------|
 ----------------___3___---------|------7-7-------7--7--7-7-------|
 0-2---2-2-------2--2--2-2-------|0-2---7-7-------7--7--7-7-------|
 0-2---2-2-------2--2--2-2-------|0-2---5-5-------5--5--5-5-------|
 ------0-0-------0--0--0-0-------|--------------------------------|

 --------------------------------|--------------------------------|
 --------------------------------|----------------___3___---------|
 ----------------___3___---------|------5-5-------4--4--4-4-------|
 0-2---3-3-------3--3--3-3-------|0-2---5-5-------4--4--4-4-------|
 0-2---3-3-------3--3--3-3-------|0-2---3-3-------2--2--2-2-------|
 ------1-1-------1--1--1-1-------|--------------------------------|

 --------------------------------|--------------------------------|
 ___3___---------___3___---------|--------------------------------|
 4--4--4-4-------4--4--4-4-------|4-------2-----------------------|
 4--4--4-4-------4--4--4-4-------|4-------2-------5-------4-------|
 2--2--2-2-------2--2--2-2-------|2-------0-------5-------4-------|
 --------------------------------|----------------3-------2-------|

 --------------------------------|--------------------------------|----
 --------------------------------|--------------------------------|----
 --------------------------------|--------------------------------|----
 2-------------------------------|--------------------------------|2--
 2-------------------------------|--------------------------------|2--
 0-------------------------------|--------------------------------|0--
Вверх

Sanitarium

 INTRO
 |--------------------|-------------------------------|
 |--==guitar intro==--|-------7----7/5----5h7---------|
 |--------------------|---------------------------7---|
 |--------------------|-------------------------------|

 |------------------------|
 |--7----7/9---------5h7--|
 |--------------7---------|
 |------------------------|


 these verse riffs kinda go along with the bass drums or something...
 listen carefully.

 VERSE RIFF 1
 |-------------------------------------------|
 |-------------------------------------------|
 |---------3-----3-5----5--------------------|
 |-0-----0----------------5----3----3---5/2--|

 VERSE RIFF 2
 |------------------------------------------------------|
 |------------------------------------------------------|
 |---------3-----2--3--5--3--2--------------------------|
 |-0-----0----------------------3--5-----3-----3---2--2-|

 VERSE RIFF 3
 |-----------------------------------------------|
 |-----------------------------------------------|
 |---------3-----3-5------5----------------------|
 |-0-----0------------------5-----5--3-----3---5-|

 VERSE RIFF 4
 |-------------------------------------------------|
 |-------------------------------------------------|
 |---------3------3-5-----5------------------------|
 |-0-----0------------------5----5---3----3--2---2-|

 VERSE RIFF 5
 |-------------------------------------------------------|
 |-------------------------------------------------------|
 |---------3-------2--3--5--3--2-------------------------|
 |-0-----0------------------------3--5--5--5-5-3--3-2--2-|

 PRECHORUS
 |--------------------------------------------------------------|
 |--------------------------------------------------------------|
 |-------2--2--------3--3-----------5--5------------------------|
 |-0--0--------0--0---------0---0---------5--5--5-3--3--3--5--2-|

 CHORUS
 |--------------------------------------------------------|
 |-----------------------------------0h2p0----------------|
 |-----------------3/2-----3/2-------------3-2-0----------|
 |--0--x-x-3/2-x-x-----x-x-----------------------3-2-3-0--|

 |-------------------------------------------------------|
 |-------------------------------------------------------|
 |-------------x-x-3/2-x-x-3/2---2-2-2-2-2-2-3-2---------|
 |--0--x-x-3/2-----------------------------------3-x-1-0-|

 |--------------------------------------------------------|
 |-----------------------------------0h2p0----------------|
 |-----------------3/2-----3/2-------------3-2-0----------|
 |--0--x-x-3/2-x-x-----x-x-----------------------3-2-3-0--|

 |-----------------------------------------------|
 |-----------------------------------------------|
 |-----------------3/2-----3/2--3----2-------2---|
 |--0--x-x-3/2-x-x-----x-x-----------------------|

 CHORUS B
 |---------------------------------------------------------------------------|
 |-0h2p0------------------------------------------0h2p0----------------------|
 |-------3-2-0-----------------------3/2-----3/2--------3-2-0----------------|
 |-------------3-2-3-0---x-x-3/2-x-x-----x-x------------------3-2-3-0----(0)-|

 RIFF 3
 |-------------------------------------|
 |----------------------------------x2-|
 |-------------------------------------|
 |-0-0-0-0-0-0-0-0-0-0-0-0-0-0-0-0-----|

 RIFF 4
 |---------------------------------------------------------------|
 |---------------------------------------------------------------|
 |---------------------------------------------------------------|
 |-5h7--5h7-0-0-0-0-0-0-0-0-0-0-0--5h6--5h6--5h6--5h7--0-0-0-0-0-|

 RIFF 5
 |---------------------------------------------------------------|
 |---------------------------------------------------------------|
 |---------------------------------------------------------------|
 |-5h6--5h6-0-0-0-0-0-0-0-0-0-0-0--5h6--5h6--5h6--5h7--0-0-0-0-0-|

 RIFF 6
 |-----------------------------------------------------------------------|
 |-----------------------------------------------------------------------|
 |-0--2------------0-2--5--5-------0-2------------0--2--3--3--3--2--2--2-|
 |-------0--0---------------------------1--1-----------------------------|

 RIFF 6B
 |------------------------------------|
 |------------------------------------|
 |-0--2---------------0-2--5--5-----5-|
 |-------0--0-----0-------------------|

 RIFF 7
 |-------------------------------|
 |-------------------------------|
 |-------------------------------|
 |--0-0-0-0-0-0-0-0-0-0-0-0-/12--|

 RIFF 8
 |--------------------------------------------------------------------|
 |--------------------------------------------------------------------|
 |-0--2--------------------0--2--5--5---5-5-5-5---0--2----------------|
 |-------0--0----0-0-0-0--------------------------------1--1--1-1-1-1-|

 |-------------------------------------------------------------------------|
 |-------------------------------------------------------------------------|
 |-0--2--3--3---2--2-2-2--2-2-2-2-2-2-2-2---2---0--------------------------|
 |--------------------------------------------------3---2---0----------/7--|
                                                            /
                                                            /
                                                            /


 this is a rather complicated song, so heres the path...

 INTRO X 1
 VERSE RIFF 1 X 5
 VERSE RIFF 2 X 1
 VERSE RIFF 3 X 1
 VERSE RIFF 4 X 1
 VERSE RIFF 2 X 1
 VERSE RIFF 5 X 1
 PRECHORUS X 2
 CHORUS X 1
 VERSE RIFF 1 X 3
 VERSE RIFF 4 X 1
 VERSE RIFF 1 X 5
 VERSE RIFF 2 X 1
 VERSE RIFF 3 X 1
 VERSE RIFF 4 X 1
 VERSE RIFF 2 X 1
 VERSE RIFF 5 X 1
 PRECHORUS X 2
 CHORUS X 1
 CHORUS B X 1
 RIFF 3 X 1
 RIFF 4 X 1
 RIFF 5 X 3
 RIFF 6 X 2
 RIFF 7 X 1
 RIFF 5 X 4
 RIFF 6B X 1
 RIFF 5 X 4
 RIFF 6 X 7
 RIFF 8 X 1
Вверх

Seek And Destroy

                         _3_
 -------<12>---------3---353-2---|-------<12>---------2---2-----3-|
 -----------<12>-----------------|-----------<12>---------0-------|
 --------------------------------|--------------------------------|
 --------------------------------|--------------------------------|
 --------------------------------|--------------------------------|
 0-------------------------------|0-------------------------------|

 0------<12>---------------------|-------<12>---------------------|
 -----------<12>-----------------|-----------<12>-----------------|
 --------------------------------|--------------------------------|
 --------------------------------|--------------------------------|
 --------------------------------|--------------------------------|
 0-------------------------------|0-------------------------------|

 -------<12>---------------------|-------<12>---------------------|
 -----------<12>-----------------|-----------<12>-----------------|
 --------------------------------|---------------<12>-------------|
 --------------------------------|--------------------------------|
 --------------------------------|--------------------------------|
 0-------------------------------|0-------------------------------|

 Rhy. Fig. 1 (8th=--)
 ----------------|----------------|--------|   Repeat this figure 4 times
 ----------------|----------------|--------|   alone, then 4 times under
 ------0-------0-|------0---------|--------|   the solo and 6 times under
 ----4-------5---|----7-------0---|--0-----|   the verse. The notes with
 --2-------3-----|--5-------4-----|2-----0-|   a ~ under them are cue notes.
 0-------0-------|0-------5---5s3-|--3s5---|   They hardly take time to sound
                              ~      ~

 Now comes solo 1. Timing isn`t always exact but is close.

 ------------------------------|--------10-s12--15-s17--17----|----------------|
 ------------------------------|10-s12------------------------|----------------|
 --------11--12--9---------12--|------------------------------|----------------|
 ----9-------------------------|------------------------------|----------------|
 7-----------------------------|------------------------------|----------------|
 ------------------------------|------------------------------|----------------|

 --15--15--12--12s14---12^-r---|---12---------------__3___----|----------------|
 ------------------------------|15-----15--13--13---121312----|----------------|
 ------------------------------|--------------------------14--|12-s11----------|
 ------------------------------|------------------------------|--------12------|
 ------------------------------|------------------------------|------------14--|
 ------------------------------|------------------------------|----------------|

 ------------------------------|----19-----19-------------17--|171514----------|
 ------------------------------|--17---------17---------------|------171514----|
 12s14-------------------------|16-------------16-s14-14------|------------1614|
 ------------------------------|------------------------------|----------------|
 ------------------------------|------------------------------|----------------|
 ------------------------------|------------------------------|----------------|

                                __3___
 ----------------------------12|101210----------------5-------|----3-----------|
 --------------------------13--|------13--12------------------|----------------|
 12^-----r---------------14----|------------------6-----------|4-----------6---|
 ----------------------14------|-------------/7----------/5---|-------/7-------|
 ------------------------------|------------------------------|----------------|
 ------------------------------|------------------------------|----------------|

 Verses:  (with Rhy. Fig. 1)
 1. Welcome to where time stands still, noone lives and noone will
 Moon is full never seems to change, just labeled mentally deranged
 Dream the sane thing every night, I see our freedom in my sight
 No locked doors, no windows barred , no things to make my brain seem scared

 2. Build my fear of what`s out there, cannot breath the open air
 Whisper things into my brain, assuring me that I`m insane
 They think our heads are in their hands, but violent use brings violent plans
 Keep him tied, it makes him well, he`s getting better can`t you tell?

 1.Sleep my friend and you will see that dream is my reality
 2.No more can they keep us in, listen damn it we will win
 ----------------|----------------|--------|
 ----------------|----------------|--------|
 ----------------|----------------|--------| 8th=--
 ----------------|----------------|--------|
 ----2-2-----3-3-|----5-5---------|--------|
 0-0-----0-0-----|0-0-----5-5-5-3-|3-3-5-3-|

 1.Keep me locked up in this cage, can`t they see it`s why my brain says rage?
 2.They see it right, they see it well, but they think this saves from our hell
 ----------------|----------------|--------|
 ----------------|----------------|--------|
 ----------------|----------------|--------|8th=--
 ----------------|----------------|--------|
 ----2-2-----3-3-|----5-5---------|--------|
 0-0-----0-0-----|0-0-----5-5-5-3-|3-3-5-3-|

 CHORUS
                                                  Sa   -    ni   -
 --------------------------------|--------------------------------|
 --------------------------------|--------------------------------|
 --------------------5s4-----5s4-|----------------_3_-------------|
 ------------5s4-----5s4-----5s4-|----------------020-------------|
 ------------5s4-----3s2-----3s2-|--------------------3-2---------|
 0-------x-x-3s2-x-x-----x-x-----|------------------------5-3-2-3-|

 tarium                                           leave   me
 --------------------------------|--------------------------------|
 --------------------------------|--------------------------------|
 --------------------5s4-----5s4-|--------------------------------|
 ------------5s4-----5s4-----5s4-|--------------------------------|
 ------------5s4-----3s2-----3s2-|----2-2-2-2-2-2-3-2-------x-3---|
 0-------x-x-3s2-x-x-----x-x-----|--------------------3-----x-1---|

 be                                               Sa   -   ni    -
 --------------------------------|--------------------------------|
 --------------------------------|--------------------------------|
 --------------------5s4-----5s4-|----------------_3_-------------|
 ------------5s4-----5s4-----5s4-|----------------020-------------|
 ------------5s4-----3s2-----3s2-|--------------------3-2---------|
 0-------x-x-3s2-x-x-----x-x-----|------------------------5-3-2-3-|

 tarium                                  just leave me alone
 --------------------------------|--------------------------------| 1st time
 --------------------------------|--------------------------------| go on with
 --------------------5s4-----5---|4-------------------------------| the solo
 ------------5s4-----5s4-----5---|4-------------------------------| 2nd time
 ------------5s4-----3s2-----3---|2-------------------------------| skip to
 0-------x-x-3s2-x-x-----x-x-----|--------------------------------| CODA

 Now comes the second solo. The backing guitar plays a B chord for
 the next line and then goes on 4 times with the backing rhythm
 of solo 1.


  ----------------------------------------------------------------|
  --------------------------------------------------------10------|
  ----------------------------------------7---7---9--s11----------|
  ------------------------7---7--s9-------------------------------|
  --------5---5---7--s9-------------------------------------------|
 /7---------------------------------------------------------------|

 For the next two lines we have two guitars soloing together.
 For two notes they play on the same string (high E). In this
 case the highest note is indicated above the tablature.

                 22      22
 --------15--17--19------19------19------------------------------|
 17--19--------------------------17------------------------------|
 ----------------------------------------------------------------|
 ----------------------------------------------------------------|
 ----------------------------------------------------------------|
 ----------------------------------------------------------------|



 17-h19-p17------15------17-h19--17--------------17--19p17 17------|
 19-h20-p19------17------19-h20--19------19------19--20p19 17------|
 ----------------------------------------19------------ -- --------|
 ------------------------------------------------------ -- --------|
 ------------------------------------------------------ -- --------|
 ------------------------------------------------------ -- --------|


 15------------------------------|
 --------------------------------|
 16------------------------------|
 --------------------------------|
 --------------------------------|
 --------------------------------|

 14^---------------------r-------------------------------14--15--|
 15^---------------------r-------15------------------------------|
 ----------------------------------------------------------------|
 ----------------------------------------------------------------|
 ----------------------------------------------------------------|
 ----------------------------------------------------------------|
                 ___3____
 17--15--14--15--14h15p14  ----14---------------- -- --------------------|
 --------------------      17------17--17--14--15p14 16--14--------------|
 --------------------      ---------------------- -- --------16--14-s12--|
 --------------------      ---------------------- -- --------------------|
 --------------------      ---------------------- -- --------------------|
 --------------------      ---------------------- -- --------------------|

 --------------------------------|
 --------------------------------|
 14-p12------12------------------|
 --------16------16--14--12------|
 ----------------------------16--|
 --------------------------------|

 --------------------------------------------------------17------|
 ------------------------------------------------17-s15------15-s|
 ----------------------------------------------------------------|
 12-h14----------------------------------------------------------|
 ----------------------------------------------------------------|
 ----------------------------------------------------------------|

 ----15----------14----------12----------10----------7-----------|
 14------14-s12------12-s10------10-s8-------8-s-7-------7-------|
 ------------------------------------------------------------7---|
 ----------------------------------------------------------------|
 ----------------------------------------------------------------|
 ----------------------------------------------------------------|

 --------------------------------|
 --------------------------------|
 ----7---9-----9s11------9-------|
 9-------------~-----------------|
 --------------------------------|
 --------------------------------|

 ----------------------------------------------------------------|
 ----------------------------------------------------------------|
 9---------------------------------------9---9---9-------9-------|
 ----------------------------------------------------------------|
 ----------------------------------------------------------------|
 ----------------------------------------------------------------|

 ------------------------------------------------5---------------|
 ----------------------------------------------------------------|
 9-------7-------------------------------6-----------------------|
 ----------------5--------------/7----------------------/5-------|
 ----------------------------------------------------------------|
 ----------------------------------------------------------------|

 --------3-----------------------|
 --------------------------------|
 4-----------------------6-------| Now go back and play verse 2.
 ---------------/7---------------|
 --------------------------------|
 --------------------------------|

 CODA

 ----------------|--------------------------------|
 ----------------|--------------------------------|
 _3_-------------|--------------------5s4-----5---|
 020-------------|------------5s4-----5s4-----5---|
 ----3-2---------|------------5s4-----3s2-----3---|
 --------5-3-2-3-|0-------x-x-3s2-x-x-----x-x-----|


 --------------------------------|----------------|----------
 --------------------------------|----------------|----------
 4-------------------------------|_3_-------------|----------
 4-------------------------------|020-------------|2---------
 2-------------------------------|----3-2---------|2---------
 --------------------------------|--------5-3-2-3-|0---------

 This last E chord lasts rather long for Metallica, while the song
 doubles its tempo and the lyrics go "Just leave me alone".
 Then you make a pick slide down the neck and you go:

 ----------------|----------------|----------------|----------------|
 ----------------|----------------|----------------|----------------|
 ----------------|----------------|----------------|----------------|
 ----------------|----------------|----------------|----------------|
 ----------------|----------------|----------------|----------------|
 0-0-0-0-0-0-0-0-|0-0-0-0-0-0-0-0-|0-0-0-0-0-0-0-0-|0-0-0-0-0-0-0-0-|

 ----------------|----------------|----------------|----------------|
 ----------------|----------------|----------------|----------------|
 ----------------|----------------|----------------|----------------|
 0h2---0h2-------|----------------|0h1---0h1---0h1-|--0h2-----------|
 0h2---0h2-------|----------------|0h1---0h1---0h1-|--0h2-----------|
 ----------0-0-0-|0-0-0-0-0-0-0-0-|----------------|------0-0-0-0-0-|

 Rhy. Fig. 2                                         (end Rhy.Fig. 2)
 ----------------|----------------|----------------|----------------|
 ----------------|----------------|----------------|----------------| Repeat
 ----------------|----------------|----------------|----------------| this
 0h1---0h1-------|----------------|0h1---0h1---0h1-|--0h2-----------| line
 0h1---0h1-------|----------------|0h1---0h1---0h1-|--0h2-----------| 3 times
 ----------0-0-0-|0-0-0-0-0-0-0-0-|----------------|------0-0-0-0-0-|




              Fear of living on               Natives getting rest-
 --------------------------------|--------------------------------|
 --------------------------------|--------------------------------|
 --------------------------------|------7-7-----------------------|
 0-2---2-2-----------------------|0-2---7-7-----------------------|
 0-2---2-2-----------------------|0-2---5-5-----------------------|
 ------0-0-----------------------|--------------------------------|

 less now       mutiny in the air              got some death to do
 --------------------------------|--------------------------------|
 --------------------------------|--------------------------------|
 --------------------------------|------5-5-------------4-4-------|
 0-2---3-3-----------------------|0-2---5-5-------5-4---4-4-------|
 0-2---3-3-----------------------|0-2---3-3-------3-2---2-2-------|
 ------1-1-----------------------|--------------------------------|

          Mirror stares back hard        "Kill" it`s such a friend-
 --------------------------------|--------------------------------|
 --------------------------------|--------------------------------|
 --------------------------------|------7-7-----------------------|
 0-2---2-2-----------------------|0-2---7-7-----------------------|
 0-2---2-2-----------------------|0-2---5-5-----------------------|
 ------0-0-----------------------|--------------------------------|

 ly word       Seems the only way            for reaching out again
 --------------------------------|--------------------------------|
 --------------------------------|--------------------------------|
 --------------------------------|------5-5-------------4-4-------|
 0-2---3-3-----------------------|0-2---5-5-------5-4---4-4-------|
 0-2---3-3-----------------------|0-2---3-3-------3-2---2-2-------|
 ------1-1-----------------------|--------------------------------|

 --------------------------------|
 --------------------------------|
 --------------------------------|
 --------------------------------|
 --------------------------------|
 0-0-0-0-0-0-0-0-0-0-0-0-12-----|

 Now we have another solo played over Rhy. Fig. 2 (4 times)

 ----------------------------------------------------------------|
 ----------------------------------------------------------------|
 12--12--12--12--12--12--12--12--12--12--12--12--12--12--12--12--|
 ----------------------------------------------------------------|
 ----------------------------------------------------------------|
 ----------------------------------------------------------------|

 ----------------------------------------------------------------|
 ----------------------------------------------------------------|
 16--12--12--12--12--12--12--12--12--12--12--12--12--12--12--12--|
 ----------------------------------------------------------------|
 ----------------------------------------------------------------|
 ----------------------------------------------------------------|

 ------------------------------------------------------------12--|
 --------------------------------13--12--12--12--15--12--12------|
 14--12--12--12--16--12--12--12----------------------------------|
 ----------------------------------------------------------------|
 ----------------------------------------------------------------|
 ----------------------------------------------------------------|

                 ______3_______
 13--12--12--12--15----12----12--17---------------------12------|
 -----------------------------------------------/12--------------|
 ----------------------------------------------------------------|
 ----------------------------------------------------------------|
 ----------------------------------------------------------------|
 ----------------------------------------------------------------|

 17-p15-p12--------------12------17-p15-p12----------------------|
 ----------------17-p15--------------------------17-p15-p12------|
 ----------------------------------------------------------------|
 ----------------------------------------------------------------|
 ----------------------------------------------------------------|
 ----------------------------------------------------------------|

 17-p15-p12--------------12------17-p15-p12--------------12------|
 ----------------17-p15--------------------------15-p12----------|
 ----------------------------------------------------------------|
 ----------------------------------------------------------------|
 ----------------------------------------------------------------|
 ----------------------------------------------------------------|

                                                 ______3_______
 17^---------------------r-------^---------------------17----15--|
 ------------------------------------------------17--------------|
 ----------------------------------------------------------------|
 ----------------------------------------------------------------|
 ----------------------------------------------------------------|
 ----------------------------------------------------------------|

 14--------------14----------------------------------------------|
 --------15--------------15--------------------------------------|
 ------------------------------------------------2---------------|
 --------------------------------------------------------4-------|
 ----------------------------------------------------------------|
 ----------------------------------------------------------------|

 ----------------------------------------------------------------|
 ----------------------------------------------------------------|
 ----------------4-------2---------------2-------4---2-----------|
 4^------------------------------4-----------------------4-------|
 ----------------------------------------------------------------|
 ----------------------------------------------------------------|

 ----------------------------------------------------------------|
 ----------------------------------------------------------------|
 --------------------------------------------------------4-------|
 3-------2---------------2^--------------------------------------|
 ----------------5-----------------------------------------------|
 ----------------------------------------------------------------|

 ----------------------------------------------------------------|
 ----------------5-----------------------5---------------5-------|
 7^----------------------7^----------------------7^--------------|
 ----------------------------------------------------------------|
 ----------------------------------------------------------------|
 ----------------------------------------------------------------|

 ----------------------------------------------------------------|
 --------5---------------5-------------------------------12------|
 7^--------------7^--------------7--------------14--------------|
 ----------------------------------------------------------------|
 ----------------------------------------------------------------|
 ----------------------------------------------------------------|

 ____________3__________         ___________3___________
 --------------------------------15^--------15--------14---------|
 15^--------15--------12-----------------------------------------|
 ----------------------------------------------------------------|
 ----------------------------------------------------------------|
 ----------------------------------------------------------------|
 ----------------------------------------------------------------|

 ____________3__________
 12-------------------12-----------------------------------------|
 -----------15-------------------15^---------------------17--17--|
 ----------------------------------------------------------------|
 ----------------------------------------------------------------|
 ----------------------------------------------------------------|
 ----------------------------------------------------------------|

 15----------15--17--15------15--19--17-(15)--s--21------19--22--|
 ----17--18--------------19--------------------------------------|
 ----------------------------------------------------------------|
 ----------------------------------------------------------------|
 ----------------------------------------------------------------|
 ----------------------------------------------------------------|

 22--19------22--22^-------------22^-----------------------------|
 --------x-------------------------------------------------------|
 -------------------------------------------End of solo 3--------|
 ----------------------------------------------------------------|
 ----------------------------------------------------------------|
 ----------------------------------------------------------------|


 --------------------------------|--------------------------------|
 --------------------------------|--------------------------------|
 --------------------R-----------|------7-7-------7---R-----------|
 0-2---2-2-------2---E-----------|0-2---7-7-------7---E-----------|
 0-2---2-2-------2---S-----------|0-2---5-5-------5---S-----------|
 ------0-0-------0---T-----------|--------------------T-----------|


 For the next part of the song there are 4 guitars playing from time
 to time. We are going to use the following:

 Rhy. Fig. 3
 --------------------------------|--------------------------------|
 --------------------------------|--------------------------------|
 --------------------------------|------7-7-----------------------|
 0-2---2-2-----------------------|0-2---7-7-----------------------|
 0-2---2-2-----------------------|0-2---5-5-----------------------|
 ------0-0-----------------------|--------------------------------|

                                                  (end Rhy. Fig. 3)
 --------------------------------|--------------------------------|
 --------------------------------|--------------------------------|
 --------------------------------|------5-5-------------4-4-------|
 0-2---3-3-----------------------|0-2---5-5-------5-4---4-4-------|
 0-2---3-3-----------------------|0-2---3-3-------3-2---2-2-------|
 ------1-1-----------------------|--------------------------------|

 Riff 1
 --------------------------------|--------------------------------|
 --------------------------------|--------------------------------|
 --------------------------------|2---------------2-2-2-----2-----|
 (5)-------------5-5-5-4---5-----|----------------------5---------|
 (7)-------------7-7-7-6---7-----|9---------------9-9-9-7---9-----|
 --------------------------------|--------------------------------|

                                                       (end Riff 1)
 --------------------------------|--------------------------------|
 --------------------------+-----|--------------------------------|
 ----4-5---------5-5-5-7---5-----|--------------------------4-----|
 5-----------------------------5-|----------------4-4-4-5-------5-|
 10--9-8---------8-8-8-10--8---7-|----------------6-6-6-7---9---7-|
 --------------------------+-----|--------------------------------|

 Until the end of solo 4 one guitar plays Rhy. Fig. 3, another one
 plays the following line...

 --------------------------------|--------------------------------|
 --------------------------------|--------------------------------|
 --------------------------------|--------------------------------|
 --------------------------------|--------------------------------|
 ------------5-s-7-7-7-5---7-----|9---------------9-9-9-7---9-----|
 --------------------------------|--------------------------------|

 --------------------------------|--------------------------------|
 --------------------------------|--------------------------------|
 --------------------------------|--------------------------------|
 --------------------------------|--------------------------------|
 10--9-8---------8-8-8-10--8---7-|----------------6-6-6-7---9-----|
 --------------------------+-----|--------------------------------|

 --------------------------------|--------------------------------|
 --------------------------------|--------------------------------|
 --------------------------------|--------------------------------|
 --------------------------------|--------------------------------|
 7---------------7-7-7-5---7-----|9---------------9-9-9-7---9---9-|
 --------------------------------|--------------------------------|

 --------------------------------|--------------------------------|
 --------------------------------|--------------------------------|
 --------------------------------|--------------------------------|
 --------------------------------|------------------------------5-|
 10--9-8---------8-8-8-10--8---7-|----------------6-6-6-7---9---7-|
 --------------------------+-----|--------------------------------|

 This last note on 5th fret of D string belongs to another guitar
 whose line is tabbed in the upper part of Riff 1. All three
 guitars play together Rhy. Fig. 3 and Riff 1 for 2 times, and then
 continue for 2 times under the following solo 4.

  ----------------------------------------------------------------|
  ----------------------------------------------------------------|
  ----------------------------------------------------------------|
  ----------------------------------------------------------------|
  -------------------------------7---7---7---6-------7------------|
 /7---------------------------------------------------------------|

 ----------------------------------------------------------------|
 ----------------------------------------------------------------|
 ----------------------------------------------------------------|
 ----------------------------------------------------------------|
 9-------10--12------------------12--12--12--10------12----------|
 ----------------------------------------------------------------|

 ----------------------------------------------------------------|
 ----------------------------------------------------------------|
 --------12--------------12------14^---------14^---------14^-----|
 ------------14------14------------------------------------------|
 12-s14----------------------------------------------------------|
 ----------------------------------------------------------------|

 ----------------------------------------------------------------|
 --------------------------------12----------12------------------|
 12------------------------------12----------12------------------|
 ----14------------------14--14------14--14--------------14--14--|
 ----------------------------------------------------------------|
 ----------------------------------------------------------------|

 ----------------------------------------------------------------|
 12----------12------------------__3___------------------12------|
 12----------12----------12--14--14^r12--14--14------14----------|
 ----14--14----------14------------------------------------------|
 ----------------------------------------------------------------|
 ----------------------------------------------------------------|

                                                         ___3____
 ----12----------------------12--15^---------r-----------12h15p12|
 --------12--15^---------15--------------------------------------|
 14^-------------------------------------------------------------|
 ----------------------------------------------------------------|
 ----------------------------------------------------------------|
 ----------------------------------------------------------------|

 ___3____
 15p12h15-------------------------------- ------------ ------------|
 --------12------------------------------ ------------ ------------|
 ------------14--12------12--14^-r----p12 14--14^-rp12 14--14^-rp12|
 --------------------14------------------ ------------ ------------|
 ---------------------------------------- ------------ ------------|
 ---------------------------------------- ------------ ------------|

 ----------------------------------------------------------------|
 ----------------------------------------------------------------|
 14--14^-rp1214--14^-------------11--11--11--12------14---s--16--|
 ----------------------------------------------------------------|
 ----------------------------------------------------------------|
 ----------------------------------------------------------------|

 ----------------------------------------------------------------|
 12-----s----17--17----------------------------------------------|
 ----------------------------------------------------------------|
 ------------------------------------End of solo 4---------------|
 ----------------------------------------------------------------|
 ----------------------------------------------------------------|

 Together with the note on 12th fret of B string the backing guitars
 go as follows until the end of the song.

 --------------------------------|--------------------------------|
 --------------------------------|--------------------------------|
 --------------------------------|------7-7-----------------------|
 0-2---2-2-----------------------|0-2---7-7-----------------------|
 0-2---2-2--------------(8)-----|0-2---5-5--------------(8)-----|
 ------0-0--------------(6)-----|-----------------------(6)-----|

 --------------------------------|--------------------------------|
 --------------------------------|--------------------------------|
 --------------------------------|------5-5-------------4-4-------|
 0-2---3-3-----------------------|0-2---5-5-------5-4---4-4-------|
 0-2---3-3--------------(8)-----|0-2---3-3-------3-2---2-2-------|
 ------1-1--------------(6)-----|--------------------------------|

 --------------------------------|--------------------------------|
 --------------------------------|----------------___3___---------|
 ----------------___3___---------|------7-7-------7--7--7-7-------|
 0-2---2-2-------2--2--2-2-------|0-2---7-7-------7--7--7-7-------|
 0-2---2-2-------2--2--2-2-------|0-2---5-5-------5--5--5-5-------|
 ------0-0-------0--0--0-0-------|--------------------------------|

 --------------------------------|--------------------------------|
 --------------------------------|----------------___3___---------|
 ----------------___3___---------|------5-5-------4--4--4-4-------|
 0-2---3-3-------3--3--3-3-------|0-2---5-5-------4--4--4-4-------|
 0-2---3-3-------3--3--3-3-------|0-2---3-3-------2--2--2-2-------|
 ------1-1-------1--1--1-1-------|--------------------------------|

 --------------------------------|--------------------------------|
 ___3___---------___3___---------|--------------------------------|
 4--4--4-4-------4--4--4-4-------|4-------2-----------------------|
 4--4--4-4-------4--4--4-4-------|4-------2-------5-------4-------|
 2--2--2-2-------2--2--2-2-------|2-------0-------5-------4-------|
 --------------------------------|----------------3-------2-------|

 --------------------------------|--------------------------------|----
 --------------------------------|--------------------------------|----
 --------------------------------|--------------------------------|----
 2-------------------------------|--------------------------------|2--
 2-------------------------------|--------------------------------|2--
 0-------------------------------|--------------------------------|0--
Вверх

Seek & Destroy

E -------------------|---------------|-------------------|------------
B -----3-4-3---------|-----------1---|-----3-4-3---------|-----------1
G -------------2-3-2-|-------0-----2-|-------------2-3-2-|-------0----
D -------------------|---3-2---2-----|-------------------|---3-2---2--
A -0-0-------0-------|-0-------------|-0-0-------0-------|-0----------
E -------------------|---------------|-------------------|------------

E ---|-------------------|---------------|-------------------|--------
B ---|-----3-4-3---------|-----------1---|-----3-4-3---------|--------
G -2-|-------------2-3-2-|-------0-----2-|-------------2-3-2-|-------0
D ---|-------------------|---3-2---2-----|-------------------|---3-2--
A ---|-0-0-------0-------|-0-------------|-0-0-------0-------|-0------
E ---|-------------------|---------------|-------------------|--------

E -------|-------------------|---------------|-------------------|----
B ---1---|-----3-4-3---------|-----------1---|-----3-4-3---------|----
G -----2-|-------------2-3-2-|-------0-----2-|-------------2-3-2-|----
D -2-----|-------------------|---3-2---2-----|-------------------|---3
A -------|-0-0-------0-------|-0-------------|-0-0-------0-------|-0--
E -------|-------------------|---------------|-------------------|----

E -----------|-------------------|---------------|-------------------|
B -------1---|-----3-4-3---------|-----------1---|-----3-4-3---------|
G ---0-----2-|-------------2-3-2-|-------0-----2-|-------------2-3-2-|
D -2---2-----|-------------------|---3-2---2-----|-------------------|
A -----------|-0-0-------0-------|-0-------------|-0-0-------0-------|
E -----------|-------------------|---------------|-------------------|

E ---------------|-0---------------|-----------------|----------------
B -----------1---|---3-0-3-0-------|-----------------|----------------
G -------0-----2-|-----------3-2-0-|---------0-2-0-2-|----------------
D ---3-2---2-----|-----------------|---------0-2-0-2-|---------2-0----
A -0-------------|-----------------|-----------------|-------------2-1
E ---------------|-----------------|-0-0-0-0---------|-0-0-0-0--------

E -|-----------------|-----------------|-----------------|------------
B -|-----------------|-----------------|-----------------|------------
G -|---------0-2-0-2-|-----------------|---------0-2-0-2-|------------
D -|---------0-2-0-2-|---------2-0-----|---------0-2-0-2-|---------2-0
A -|-----------------|-------------2-1-|-----------------|------------
E -|-0-0-0-0---------|-0-0-0-0---------|-0-0-0-0---------|-0-0-0-0----

E -----|-----------------|-----------------|-----------------|--------
B -----|-----------------|-----------------|-----------------|--------
G -----|---------0-2-0-2-|-----------------|---------0-2-0-2-|--------
D -----|---------0-2-0-2-|---------2-0-----|---------0-2-0-2-|--------
A -2-1-|-----------------|-------------2-1-|-----------------|--------
E -----|-0-0-0-0---------|-0-0-0-0---------|-0-0-0-0---------|-0-0-0-0

E ---------|-----------------|-----------------|-----------------|----
B ---------|-----------------|-----------------|-----------------|----
G ---------|---------0-2-0-2-|-----------------|---------0-2-0-2-|----
D -2-0-----|---------0-2-0-2-|---------2-0-----|---------0-2-0-2-|----
A -----2-1-|-----------------|-------------2-1-|-----------------|----
E ---------|-0-0-0-0---------|-0-0-0-0---------|-0-0-0-0---------|-0-0

E -------------|-----------------|-----------------|-----------------|
B -------------|-----------------|-----------------|-----------------|
G -------------|---------0-2-0-2-|-----------------|-----------------|
D -----2-0-----|---------0-2-0-2-|---------2-0-----|-----------------|
A ---------2-1-|-----------------|-------------2-1-|-----------------|
E -0-0---------|-0-0-0-0---------|-0-0-0-0---------|-0-0-0-0-0-0-0-0-|

E -----------------|-----------------|-----------------|--------------
B -----------------|-----------------|-----------------|--------------
G -------------0---|-----------------|-------------0---|--------------
D ---------------2-|-----------------|---------------2-|--------------
A ---------2-1-----|-----------------|---------2-1-----|--------------
E -0-0-0-0---------|-0-0-0-0-0-0-0-0-|-0-0-0-0---------|-0-0-0-0-0-0-0

E ---|-----------------|-----------------|-----------------|----------
B ---|-----------------|-----------------|-----------------|----------
G ---|-------------0---|-----------------|-------------0---|----------
D ---|---------------2-|-----------------|---------------2-|----------
A ---|---------2-1-----|-----------------|---------2-1-----|----------
E -0-|-0-0-0-0---------|-0-0-0-0-0-0-0-0-|-0-0-0-0---------|-0-0-0-0-0

E -------|-----------------|-----------------|-----------------|------
B -------|-----------------|-----------------|-----------------|------
G -------|-------------0---|-----------------|-------------0---|------
D -------|---------------2-|-----------------|---------------2-|------
A -------|---------2-1-----|-----------------|---------2-1-----|------
E -0-0-0-|-0-0-0-0---------|-0-0-0-0-0-0-0-0-|-0-0-0-0---------|-0-0-0

E -----------|-----------------|-----------------|-----------------|--
B -----------|-----------------|-----------------|-----------------|-1
G -----------|-------------0---|-----------------|-------------0---|-0
D -----------|---------------2-|-----------------|---------------2-|--
A -----------|---------2-1-----|-----------------|---------2-1-----|--
E -0-0-0-0-0-|-0-0-0-0---------|-0-0-0-0-0-0-0-0-|-0-0-0-0---------|--

E -------------|---------------|---------------|-----------------|----
B -------1-3-1-|-1-------1-3-1-|-1-------1-3-1-|-3-1-------------|-1--
G -------0-2-0-|-0-------0-2-0-|-0-------0-2-0-|-----2-1-0-------|-0--
D -------------|---------------|---------------|-----------2-1-0-|----
A -------------|---------------|---------------|-----------------|----
E -0-0-0-------|---0-0-0-------|---0-0-0-------|-----------------|---0

E -----------|---------------|---------------|-0---------------|-0----
B -----1-3-1-|-1-------1-3-1-|-1-------1-3-1-|---3-0-3-0-------|---3-0
G -----0-2-0-|-0-------0-2-0-|-0-------0-2-0-|-----------3-2-0-|------
D -----------|---------------|---------------|-----------------|------
A -----------|---------------|---------------|-----------------|------
E -0-0-------|---0-0-0-------|---0-0-0-------|-----------------|------

E -----------|---|-----|-----------------|-----------------|---|-----|
B -3-0-------|-3-|-2-1-|-----------------|-----------------|-3-|-2-1-|
G -----3-2-0-|-0-|-----|-----------------|-----------------|-0-|-----|
D -----------|---|-4-3-|-----------------|-----------------|---|-4-3-|
A -----------|---|-----|-----------------|-----------------|---|-----|
E -----------|---|-----|-0-0-0-0-0-0-0-0-|-0-0-0-0-0-0-0-0-|---|-----|

E -----------------|-----------------|---|-----|-----------------|----
B -----------------|-----------------|-3-|-2-1-|-----------------|----
G -----------------|-----------------|-0-|-----|-----------------|----
D -----------------|-----------------|---|-4-3-|-----------------|----
A -----------------|-----------------|---|-----|-----------------|----
E -0-0-0-0-0-0-0-0-|-0-0-0-0-0-0-0-0-|---|-----|-0-0-0-0-0-0-0-0-|-0-0

E -------------|---|-----|-----------------|-----------------|--------
B -------------|-3-|-2-1-|-----------------|-----------------|--------
G -------------|-0-|-----|---------0-2-0-2-|-----------------|--------
D -------------|---|-4-3-|---------0-2-0-2-|---------2-0-----|--------
A -------------|---|-----|-----------------|-------------2-1-|--------
E -0-0-0-0-0-0-|---|-----|-0-0-0-0---------|-0-0-0-0---------|-0-0-0-0

E ---------|-----------------|-----------------|-----------------|----
B ---------|-----------------|-----------------|-----------------|----
G -0-2-0-2-|-----------------|---------0-2-0-2-|-----------------|----
D -0-2-0-2-|---------2-0-----|---------0-2-0-2-|---------2-0-----|----
A ---------|-------------2-1-|-----------------|-------------2-1-|----
E ---------|-0-0-0-0---------|-0-0-0-0---------|-0-0-0-0---------|-0-0

E -------------|-----------------|-----------------|-----------------|
B -------------|-----------------|-----------------|-----------------|
G -----0-2-0-2-|-----------------|-----------------|-------------0---|
D -----0-2-0-2-|---------2-0-----|-----------------|---------------2-|
A -------------|-------------2-1-|-----------------|---------2-1-----|
E -0-0---------|-0-0-0-0---------|-0-0-0-0-0-0-0-0-|-0-0-0-0---------|

E -----------------|-----------------|-----------------|--------------
B -----------------|-----------------|-----------------|--------------
G -----------------|-------------0---|-----------------|-------------0
D -----------------|---------------2-|-----------------|--------------
A -----------------|---------2-1-----|-----------------|---------2-1--
E -0-0-0-0-0-0-0-0-|-0-0-0-0---------|-0-0-0-0-0-0-0-0-|-0-0-0-0------

E ---|-----------------|-----------------|---------------|------------
B ---|-----------------|-----------------|-1-------1-3-1-|-1-------1-3
G ---|-----------------|-------------0---|-0-------0-2-0-|-0-------0-2
D -2-|-----------------|---------------2-|---------------|------------
A ---|-----------------|---------2-1-----|---------------|------------
E ---|-0-0-0-0-0-0-0-0-|-0-0-0-0---------|---0-0-0-------|---0-0-0----

E ---|---------------|-----------------|---------------|--------------
B -1-|-1-------1-3-1-|-3-1-------------|-1-------1-3-1-|-1-------1-3-1
G -0-|-0-------0-2-0-|-----2-1-0-------|-0-------0-2-0-|-0-------0-2-0
D ---|---------------|-----------2-1-0-|---------------|--------------
A ---|---------------|-----------------|---------------|--------------
E ---|---0-0-0-------|-----------------|---0-0-0-------|---0-0-0------

E -|---------------|-0---------------|-0---------------|---|-----|----
B -|-1-------1-3-1-|---3-0-3-0-------|---3-0-3-0-------|-3-|-2-1-|----
G -|-0-------0-2-0-|-----------3-2-0-|-----------3-2-0-|-0-|-----|----
D -|---------------|-----------------|-----------------|---|-4-3-|----
A -|---------------|-----------------|-----------------|---|-----|----
E -|---0-0-0-------|-----------------|-----------------|---|-----|-0-0

E -------------|-----------------|---|-----|-----------------|--------
B -------------|-----------------|-3-|-2-1-|-----------------|--------
G -------------|-----------------|-0-|-----|-----------------|--------
D -------------|-----------------|---|-4-3-|-----------------|--------
A -------------|-----------------|---|-----|-----------------|--------
E -0-0-0-0-0-0-|-0-0-0-0-0-0-0-0-|---|-----|-0-0-0-0-0-0-0-0-|-0-0-0-0

E ---------|---|-----|-----------------|-----------------|---|-----|-0
B ---------|-3-|-2-1-|-----------------|-----------------|-3-|-2-1-|-0
G ---------|-0-|-----|-----------------|-----------------|-0-|-----|--
D ---------|---|-4-3-|-----------------|-----------------|---|-4-3-|-2
A ---------|---|-----|-----------------|-----------------|---|-----|--
E -0-0-0-0-|---|-----|-0-0-0-0-0-0-0-0-|-0-0-0-0-0-0-0-0-|---|-----|-0

E -|-4-|------|------|------|-----------------|-----------------|-----
B -|-5-|------|------|------|-----------------|-1---------------|-0---
G -|-4-|------|------|------|-0-2---2-----2---|-0-----2-----2---|-----
D -|-2-|------|------|------|-----------------|-----------------|-4---
A -|---|------|------|------|-0-0-0---0-0---0-|---0-0---0-0---0-|---0-
E -|---|------|------|------|-----------------|-----------------|-----

E ----------|-----------------|-----------------|-----------------|---
B ----------|-----------------|-----------------|-1---------------|-0-
G --2-----2-|-----------------|-0-----2-----2---|-0-----2-----2---|---
D ----------|-------3-2-0-----|-----------------|-----------------|-4-
A 0---0-0---|-3-2-0-------3-0-|---0-0---0-0---0-|---0-0---0-0---0-|---
E ----------|-----------------|-----------------|-----------------|---

E ------------|-----------------|-----------------|-----------------|-
B ------------|-----------------|-----------------|-1---------------|-
G ----2-----2-|-----------------|-0-----2-----2---|-0-----2-----2---|-
D ------------|-------3-2-0-----|-----------------|-----------------|-
A 0-0---0-0---|-3-2-0-------3-0-|---0-0---0-0---0-|---0-0---0-0---0-|-
E ------------|-----------------|-----------------|-----------------|-

E --------------|-----------------|-----------------|-----------------
B 0-------------|-----------------|-----------------|-1---------------
G ------2-----2-|-----------------|-0-----2-----2---|-0-----2-----2---
D 4-------------|-------3-2-0-----|-----------------|-----------------
A --0-0---0-0---|-3-2-0-------3-0-|---0-0---0-0---0-|---0-0---0-0---0-
E --------------|-----------------|-----------------|-----------------

E |---------------|-----------------|---|-----|-----------------|-----
B |-0-------------|-----------------|-3-|-2-1-|-----------------|-----
G |-------2-----2-|-----------------|-0-|-----|-----------------|-----
D |-4-------------|-------3-2-0-----|---|-4-3-|-----------------|-----
A |---0-0---0-0---|-3-2-0-------3-0-|---|-----|-----------------|-----
E |---------------|-----------------|---|-----|-0-0-0-0-0-0-0-0-|-0-0-

E ------------|---|-----|-----------------|-----------------|---|-----
B ------------|-3-|-2-1-|-----------------|-----------------|-3-|-2-1-
G ------------|-0-|-----|-----------------|-----------------|-0-|-----
D ------------|---|-4-3-|-----------------|-----------------|---|-4-3-
A ------------|---|-----|-----------------|-----------------|---|-----
E 0-0-0-0-0-0-|---|-----|-0-0-0-0-0-0-0-0-|-0-0-0-0-0-0-0-0-|---|-----

E |-----------------|-----------------|---|-----|-----------------|---
B |-----------------|-----------------|-3-|-2-1-|-----------------|---
G |-----------------|-----------------|-0-|-----|-----------------|-0-
D |-----------------|-----------------|---|-4-3-|-0-2---2-----2---|-0-
A |-----------------|-----------------|---|-----|-----------------|---
E |-0-0-0-0-0-0-0-0-|-0-0-0-0-0-0-0-0-|---|-----|-----0---0-0---0-|---

E --------------|---------------|-----------------|-----------------|-
B --------------|---------------|-----------------|-----------------|-
G --------------|---------------|-----------------|-----------------|-
D ----2-----2---|-4-----2-----2-|-----------------|-0-2---2-----2---|-
A --------------|-4-------------|-------3-2-0-----|-----------------|-
E 0-0---0-0---0-|---0-0---0-0---|-3-2-0-------3-0-|-----0---0-0---0-|-

E ----------------|---------------|-----------------|-----------------
B ----------------|---------------|-----------------|-----------------
G 0---------------|---------------|-----------------|-----------------
D 0-----2-----2---|-4-----2-----2-|-----------------|-0-2---2-----2---
A ----------------|-4-------------|-------3-2-0-----|-----------------
E --0-0---0-0---0-|---0-0---0-0---|-3-2-0-------3-0-|-----0---0-0---0-

E |-----------------|---------------|-----------------|---------------
B |-----------------|---------------|-----------------|---------------
G |-0---------------|---------------|-----------------|---------------
D |-0-----2-----2---|-4-----2-----2-|-----------------|-0-2---2-----2-
A |-----------------|-4-------------|-------3-2-0-----|---------------
E |---0-0---0-0---0-|---0-0---0-0---|-3-2-0-------3-0-|-----0---0-0---

E --|-----------------|---------------|-----------------|-------------
B --|-----------------|---------------|-----------------|-------------
G --|-0---------------|---------------|-----------------|-------------
D --|-0-----2-----2---|-4-----2-----2-|-----------------|-------------
A --|-----------------|-4-------------|-------3-2-0-----|-------3-2-0-
E 0-|---0-0---0-0---0-|---0-0---0-0---|-3-2-0-------3-2-|-3-2-0-------

E ----|---|-------------------|---------------|-------------------|---
B ----|---|-----3-4-3---------|-----------1---|-----3-4-3---------|---
G ----|-2-|-------------2-3-2-|-------0-----2-|-------------2-3-2-|---
D ----|-2-|-------------------|---3-2---2-----|-------------------|---
A ----|-0-|-0-0-------0-------|-0-------------|-0-0-------0-------|-0-
E 3-2-|---|-------------------|---------------|-------------------|---

E ------------|-------------------|---------------|-------------------
B --------1---|-----3-4-3---------|-----------1---|-----3-4-3---------
G ----0-----2-|-------------2-3-2-|-------0-----2-|-------------2-3-2-
D 3-2---2-----|-------------------|---3-2---2-----|-------------------
A ------------|-0-0-------0-------|-0-------------|-0-0-------0-------
E ------------|-------------------|---------------|-------------------

E |---------------|-------------------|---------------|---------------
B |-----------1---|-----3-4-3---------|-----------1---|-----3-4-3-----
G |-------0-----2-|-------------2-3-2-|-------0-----2-|-------------2-
D |---3-2---2-----|-------------------|---3-2---2-----|---------------
A |-0-------------|-0-0-------0-------|-0-------------|-0-0-------0---
E |---------------|-------------------|---------------|---------------

E ----|---------------|-------------------|---------------|-----------
B ----|-----------1---|-----3-4-3---------|-----------1---|-----3-4-3-
G 3-2-|-------0-----2-|-------------2-3-2-|-------0-----2-|-----------
D ----|---3-2---2-----|-------------------|---3-2---2-----|-----------
A ----|-0-------------|-0-0-------0-------|-0-------------|-0-0-------
E ----|---------------|-------------------|---------------|-----------

E --------|---------------|-0---------------|-----------------|-------
B --------|-----------1---|---3-0-3-0-------|-----------------|-------
G --2-3-2-|-------0-----2-|-----------3-2-0-|---------0-2-0-2-|-------
D --------|---3-2---2-----|-----------------|---------0-2-0-2-|-------
A 0-------|-0-------------|-----------------|-----------------|-------
E --------|---------------|-----------------|-0-0-0-0---------|-0-0-0-

E ----------|-----------------|-----------------|-----------------|---
B ----------|-----------------|-----------------|-----------------|---
G ----------|---------0-2-0-2-|-----------------|---------0-2-0-2-|---
D --2-0-----|---------0-2-0-2-|---------2-0-----|---------0-2-0-2-|---
A ------2-1-|-----------------|-------------2-1-|-----------------|---
E 0---------|-0-0-0-0---------|-0-0-0-0---------|-0-0-0-0---------|-0-

E --------------|-----------------|-----------------|-----------------
B --------------|-----------------|-----------------|-----------------
G --------------|---------0-2-0-2-|-----------------|-----------------
D ------2-0-----|---------0-2-0-2-|---------2-0-----|-----------------
A ----------2-1-|-----------------|-------------2-1-|-----------------
E 0-0-0---------|-0-0-0-0---------|-0-0-0-0---------|-0-0-0-0-0-0-0-0-

E |-----------------|-----------------|-----------------|-------------
B |-----------------|-----------------|-----------------|-------------
G |-------------0---|-----------------|-------------0---|-------------
D |---------------2-|-----------------|---------------2-|-------------
A |---------2-1-----|-----------------|---------2-1-----|-------------
E |-0-0-0-0---------|-0-0-0-0-0-0-0-0-|-0-0-0-0---------|-0-0-0-0-0-0-

E ----|-----------------|-----------------|-----------------|---------
B ----|-----------------|-----------------|-----------------|-1-------
G ----|-------------0---|-----------------|-------------0---|-0-------
D ----|---------------2-|-----------------|---------------2-|---------
A ----|---------2-1-----|-----------------|---------2-1-----|---------
E 0-0-|-0-0-0-0---------|-0-0-0-0-0-0-0-0-|-0-0-0-0---------|---0-0-0-

E ------|---------------|---------------|-----------------|-----------
B 1-3-1-|-1-------1-3-1-|-1-------1-3-1-|-3-1-------------|-1-------1-
G 0-2-0-|-0-------0-2-0-|-0-------0-2-0-|-----2-1-0-------|-0-------0-
D ------|---------------|---------------|-----------2-1-0-|-----------
A ------|---------------|---------------|-----------------|-----------
E ------|---0-0-0-------|---0-0-0-------|-----------------|---0-0-0---

E ----|---------------|---------------|-0---------------|-0-----------
B 3-1-|-1-------1-3-1-|-1-------1-3-1-|---3-0-3-0-------|---3-0-3-0---
G 2-0-|-0-------0-2-0-|-0-------0-2-0-|-----------3-2-0-|-----------3-
D ----|---------------|---------------|-----------------|-------------
A ----|---------------|---------------|-----------------|-------------
E ----|---0-0-0-------|---0-0-0-------|-----------------|-------------

E ----|---|-----|-----------------|-----------------|---|-----|-------
B ----|-3-|-2-1-|-----------------|-----------------|-3-|-2-1-|-------
G 2-0-|-0-|-----|-----------------|-----------------|-0-|-----|-------
D ----|---|-4-3-|-----------------|-----------------|---|-4-3-|-------
A ----|---|-----|-----------------|-----------------|---|-----|-------
E ----|---|-----|-0-0-0-0-0-0-0-0-|-0-0-0-0-0-0-0-0-|---|-----|-0-0-0-

E ----------|-----------------|---|-----|-----------------|-----------
B ----------|-----------------|-3-|-2-1-|-----------------|-----------
G ----------|-----------------|-0-|-----|-----------------|-----------
D ----------|-----------------|---|-4-3-|-----------------|-----------
A ----------|-----------------|---|-----|-----------------|-----------
E 0-0-0-0-0-|-0-0-0-0-0-0-0-0-|---|-----|-0-0-0-0-0-0-0-0-|-0-0-0-0-0-

E ------|---|-----|-----------------|-----------------|---------------
B ------|-3-|-2-1-|-0---------------|---------------3-|-2-----2-1-----
G ------|-0-|-----|-----------------|---------------0-|---------------
D ------|---|-4-3-|-2---------------|-----------------|-4-----4-3-----
A ------|---|-----|-----------------|-----------------|---------------
E 0-0-0-|---|-----|---0-0-0-0-0-0-0-|-0-0-0-0-0-0-0---|---0-0-----0-0-

E --|-----------------|-----------------|-----------------|-----------
B 1-|---------------3-|-2-----2---------|---------------3-|-2-----2-1-
G --|---------------0-|---------2-----2-|---------------0-|-----------
D 3-|-----------------|-4-----4-0-----0-|-----------------|-4-----4-3-
A --|-2---------------|-----------------|-2---------------|-----------
E --|-0-0-0-0-0-0-0---|---0-0-----0-0---|-0-0-0-0-0-0-0---|---0-0-----

E ------|-----------------|-----------------|-----------------|-------
B ----1-|---------------3-|-2-----2---------|---------------3-|-2-----
G ------|---------------0-|---------2-----2-|---------------0-|-------
D ----3-|-----------------|-4-----4-0-----0-|-----------------|-4-----
A ------|-2---------------|-----------------|-2---------------|-------
E 0-0---|-0-0-0-0-0-0-0---|---0-0-----0-0---|-0-0-0-0-0-0-0---|---0-0-

E ----------|-----------------|-----------------|-----------------|---
B 2-1-----1-|---------------3-|-2-----2---------|---------------3-|-2-
G ----------|---------------0-|---------2-----2-|---------------0-|---
D 4-3-----3-|-----------------|-4-----4-0-----0-|-----------------|-4-
A ----------|-2---------------|-----------------|-2---------------|---
E ----0-0---|-0-0-0-0-0-0-0---|---0-
Вверх

Small Hours

  Tune all guitars down 1 full step
1)
d---------------------------------------0
A-----7----8----7----8---6---7---6---7--7
F--10---10---10---10---9---9---9---9----9
C---------------------------------------9
G----------------------------------------
D----------------------------------------
Intro with flange and delay


2)
C-----------------------------------------------------
G--2-2-4/5-4/5--2-2-4/5--2-2-4/5-4/5--2-2-4/5--54-43
D--0-0-2/3-2/3--0-0-2/3--0-0-2/3-2/3--0-0-2/3--32-21
Get on with it


3)
F------------
C------------
G-------7-5-4
D--0-0--5-3-2
  pm..
Don?t step into the deamons lair


4)
F-----------------------------------------------------
C-------------0-------------------------0-----2--2h4p2
G------2--0-2---2-0-2-0----------2--0-2---2-0---------
D--0-0-0----------------3~~--0-0-0--------------------
  pm..                       ...
And I try to get through to you...


5)
F-------------
C-------------
G--2--3--5-3-2
D--0--1--3-1-0
pre-solo (with intro riff)


6)
F-------------------------------------------------
C------------------2--4------------------2--------
G------------------0--2------------------0--------
D--0--0-0-0--0-0-0-------0--0-0-0--0-0-0---0-2-3-2
  pm.............................................
solo riff

___________________________________________
solo
1)
d--------------------------------
A--------------------------------
F------------7-9~~----------7-9~~
C--------7-9------------7-9------
G--7-9-10---------7-9-10---------
D--------------------------------
(4:23)


2)
d---------------------
A--9--7-----7--9--7---
F--------7-----------7
C---------------------
G---------------------
D---------------------
(4:26) all artifical harmonix and bends
(I?m not real sure about this part)


3)
d--bunch of fast triplets ending on-16~~
A----------------------------------------
F----------------------------------------
C----------------------------------------
G----------------------------------------
D----------------------------------------
(4:30)


4)
d--16p14----14--------------------------16p14----14-------------------------
A--------16----16p14-16p14----14--------------16----16p14-16p14----14-------
F--------------------------16----16p13--------------------------16----16p13-
C---------------------------------------------------------------------------
G---------------------------------------------------------------------------
D---------------------------------------------------------------------------
(4:34)


5)
d-------------------------------------------
A-------------------------------------------
F--16p13p11-13p11p9-11p9p7-9p7---9----------
C------------------------------9---9p7-7----
G---------------------------------------10p7
D-------------------------------------------
(4:37)


6)
d---------------------------------------17
A--------------------16-14--16-14-16-14-17
F--------------14----16-14--16-14-16-14---
C--------14-16----16----------------------
G--14-16----------------------------------
D-----------------------------------------
  pm.......
(4:40)
Вверх

So What

 F#  G# G#G#G#  F# G# G#G#G#
 F#  G# F#  G#  F# G# G#G#G# x2

 G#
 Well I`ve been to Hastings,
 and I`ve been to Brighton.
 I`ve been to Eastport too.

 F#  G#    F#  G#
 So what.  So what.

 G#
 And I`ve been here,
 I`ve been there.
 I`ve been everying fucking where.

 F#   G#  F#  G#
 So what. So what.

 F#  G#   F#  G#   F#   G#
 So what, so what, you boring little cunt.


      E          A         G#
      Who cares. Who cares what you do.
      E          A         G#    F#   F#   G#  F#   G#  F#   G#  F#   G#
 Yeah Who cares, Who cares about you,      you,     you,     you,     you.

 Well I`ve fucked a queen.
 I`ve fucked fucked.
 I`ve even sucked an old man`s cock.
 So what.
 So what.
 And I`ve fucked a sheep.
 I`ve fucked a goat.
 I rammed my cock right down his throat.
 So what.
 So what.
 So what, so what, you boring little fuck.

     Who cares.
     Who cares what you do.
     And who cares,
     Who cares about you, you, you, you, you.

 And I`ve drunk that,
 I`ve drunk this.
 I`ve spewed up on a pint of piss.
 So what.
 So what.
 I`ve had scank,
 I`ve have speed.
 I`ve jacked up until I bleed.
 So what.
 So what.
 So what, so what, you boring little cunt.

     Who cares.
     Who cares what you do.
     Yeah who cares,
     Who cares about you, you, you, you, you.

 I`ve had crabs,
 I`ve had lice,
 I`ve had the clap and that ain`t nice.
 So what.
 So what.
 I`ve fucked this,
 I`ve fucked that.
 I`ve even fucked a school girl`s twat.
 So what.
 So what.
 So what, so what you boring little fuck.

     Who cares.
     Who cares what you do.
     And who cares,
     Who cares about you, you, you, you, you, you.

 So fucking what!
 Yeah!
Вверх

So What (2 вариант)

 Bass Riff1
 |------------------------------------------------------------|
 |------------------------------------------------------------|
 |------------------------------------------------------------|
 |--3h5-5--5-5-5-5-3h5-5--5-5-5-5-3h5-5--3h5-5-3h5-5--5-5-5-5-|

 Bass Riff2
 |------------------------------------|
 |------------------------------------|
 |-3h5-5--5-5-5-5-5-5-5-5-5-5-5-5-5-5-|
 |------------------------------------|

 Bass Riff3
 |-------------------------------|
 |-------------------------------|
 |--------------1--1-1-1-1-1-----|
 |-1--1-1-1-1-1------------------|

 Bass Riff4
 |--------------------------------|
 |--------------------------------|
 |--------------------------------|
 |--3h5-5--5-5-5-5-3h5-5--5-5-5-5-|


 Bass Riff1 x 1
 Bass Riff2 x 4
 Bass Riff1 x 1
 Bass Riff2 x 4
 Bass Riff1 x 1
 Bass Riff3 x 1
 Bass Riff4 x 1
 Bass Riff3 x 1
 Bass Riff1 x 1
Вверх

St. Anger mp3

Intro
E---------------------------------
B---------------------------------
G---------------------------------
D---------------------------------
A--1-3-3-3-3-3-3-3-3----1-1-1-1---
E---------------------------------


Verse:

Сm  Bb     G#       G
St. Anger round my neck
St. Anger round my neck
He never gets respect
St. Anger round my neck

(Its rushing out, Its rushing out)
St. Anger round my neck
(It?s rushing out, It?s rushing out)
He never gets respect
(It?s rushing out, It?s rushing out)
St. Anger round my neck
(It?s rushing out, It?s rushing out)
He never gets respect


[Chorus:]
Fuck it all and no regrets
I hit the lights on these dark sets
I need a voice to let myself
To let myself go free
Fuck it all and fuck regrets
I hit the lights on these dark sets
Medallion noose I hang myself
St. Anger round my neck

I feel my world shake
I can?t look away
Hard to see clear
Is it me
Or is it fear?

I?m madly in anger with you [2x]

St. Anger round my neck
St. Anger round my neck
He never gets respect
St. Anger round my neck

(Its rushing out, Its rushing out)
St. Anger round my neck
(It?s rushing out, It?s rushing out)
He never gets respect
(It?s rushing out, It?s rushing out)
St. Anger round my neck
(It?s rushing out, It?s rushing out)
He never gets respect


[Chorus]

I feel my world shake
I can?t look away
Hard to see clear
Is it me
Or is it fear?

I?m madly in anger with you [4x]

I want my anger to be healthy
I want my anger just for me
I need my anger not to control
I want my anger to be me

I need set my anger free
I need to set my anger free
Set it free!

[Chorus]

I feel my world shake
I can?t look away
Hard to see clear
Is it me
Or is it fear?

I?m madly in anger with you [4x]



Chorus                                         Fifth time
E---------------------------------------------|--------------------------
B---------------------------------------------|--------------------------
G---------------------------------------------|--------------------------
D-1010101010101010-8-8-8-8-6-6-5-5------------|10-------------8----6--5--
A-1010101010101010-8-8-8-8-6-6-5-5------------|10-------------8----6--5--
E--8-8-8-8-8-8-8-8-6-6-6-6-4-4-3-3------------|-8----8-8--8-8-6----4--3--



Verse 2
E---------------------------
B---------------------------
G---------------------------
D-10------------------------
A-10------------------------
E--8----8-8--8-8--8-8--8-8--
Вверх

Stone Dead Forever

 Intro(many times)
 G I:-----------------------I
 D I:-----------------------I
 A I:--5-3-5--3--5-3-5------I
 E I:-----------------------I

 Verse(2x)
 G I:----------------------------------------------------I
 D I:----------------------------------------------------I
 A I:5-3-5---5-3-5---5-3-5---3-1-3--1--------------------I
 E I:----------------------------------------------5-3-5-I

 Chorus
 G I:------------------------------------------------------------------------------------I
 D I:------------------------------------------------------------------------------------I
 A I:------------------------------------------------------------------------------------I
 E I:5-5-5-5-5-5-5-5-5-5-5-5-5--8-8-8-8-8-8-8-8-8-8-8-8-8-8-8--3-3-3-3-3-3-3-3-3-3-3-3-3-I

 Chorus(cont`d)
 G I:------------------------------------------------------------------------------------I
 D I:------------------------------------------------------------------------------------I
 A I:------------------------------------------------------------------------------------I
 E I:-0-0-0-0-0-0-0-0-0-0-0-0-0-0--5-5-5-5-5-5-5-5-5-5-5-5-5-5-8-8-8-8-8-8-8-8-8-8-8-8-8-I

 Chorus(cont`d)
 G I:---------------------------------I
 D I:---------------------------------I
 A I:---------------------------------I
 E I:5-5-5-5-3-3-2-2-0-0-0-0-I

 Bridge
 G I:-------------------------------------------------------------------------I
 D I:-------------------------------------------------------------------------I
 A I:0-0-0-0-0-0-0-0-0-0-0-0/3-3-3-3-3-3-3-3-3-3-3-3/5-5-5-5-5-5-5-5-5-5-5-5/-I
 E I:-------------------------------------------------------------------------I

 Bridge(cont`d)
 G I:-------------------------------------I
 D I:-------------------------------------I
 A I:8-8-8-8-8-10-10-10-10-10-------------I
 E I:-------------------------------------I
Вверх

Struggle Within

 EACH BAR MEANS 4 BEATS
 guitarI:
 starting 3 Bars only with drums                        B5
 ---------------|---------------|---------------|-----------------|
 ---------------|---------------|---------------|-----------------|
 ---------------|---------------|---------------|-----------------|
 ---------------|---------------|---------------|------------9---|
 ---------------|---------------|---------------|------------9---|
 ---------------|---------------|---------------|------------7---|
 *****************************************************************

 GuitarI                         w/Fill1                        3x
 P.M. ........................................
 E5/ ! / / / / / / / ! / / !! /  / / ! / / / / / D5/ ! / / ! B5
 ---------------|---------------|---------------|-----------------|
 ---------------|---------------|---------------|-----------------|
 *--------------|---------------|---------------|-7--------------*|
 -2-------------|---------------|---------------|-7----------9---|
 *2-------------|---------------|---------------|-5----------9--*|
 -0-------------|---------------|---------------|------------7---|

                                 Fill1 (guitarIII) H  ~~~~~~~~~~
                                |-----------7-8-|-8^10----------|
                                |---------------|---------------|
                                |---------------|---------------|
                                |---------------|---------------|
                                |---------------|---------------|
                                |---------------|---------------|

                                                                3x
 guitarII                                          ~~~~~~~~~~~~
 ---------------|---------------|---------------|-----------------|
 ---------------|-7-8-7---------|-7-8----7--7-8-|10---------------|
 *-------7------|-7-9-7---------|-----9---------|----------------*|
 -/7--9--5----9-|---------------|--------9------|--------------9--|
 */5--7-------7-|---------------|---------------|--------------9-*|
 ---------------|---------------|---------------|--------------7--|

 Between this star lines is everything played together!!
                   |
                   |
 *****************************************************************

 guitarI
 E5/ ! / / / / / / / ! /                      ~~~~~~~~~~~~~~~
 ---------------|--------12-----|-(12)----(12)--|-----------(12)-|
 ---------------|---------------|---------------|-----------------|
 ---------------|---------------|---------------|-----------------|
 -2-------------|---------------|---------------|-----------------|
 -2-------------|---------------|---------------|-----------------|
 -0-------------|---------------|---------------|-----------------|

 FROM HERE EACH BAR MEANS TWO BEATS
 Rhy.fig I        (end rhy.fig.I)
 E5 /  !   /        /  /  /  /    w/Rhy.fig.I(play 4 times)
 P.M. .........................
 ---------------|---------------|---------------|-----------------|
 ---------------|---------------|---------------|-----------------|
 ---------------|---------------|---------------|-----------------|
 -2-------------|---------------|---------------|-----------------|
 -2-------------|---------------|---------------|-----------------|
 -0-------------|---------------|---------------|-----------------|

                 verse1
 ---------------|---------------|---------------|-----------------|
 ---------------|---------------|---------------|-----------------|
 ---------------|---------------|---------------|-----------------|
 ---------------|---------------|---------------|-----------------|
 ---------------|---------------|---------------|-----------------|
 ---------------|---------------|---------------|-----------------|
                Reaching out for something you`ve got-ta    feel__

  (rhy.fig.1 played for the 4th) E5  /   !   /     /   /    /.
 ---------------|---------------|---------------|-----------------|
 ---------------|---------------|---------------|-----------------|
 ---------------|---------------|---------------|-----------------|
 ---------------|---------------|-2-------------|-----------------|
 ---------------|---------------|-2-------------|-----------------|
 ---------------|---------------|-0-------------|-----------------|
         You`re  clutching  to   what you   had  thought was re-al

 GuitarI&II     Rhy.fig2
 E5  /   !   /    /    /   G5    E5   /  !   /    /    /  F#5slG5
 P.M....................         P.M....................
 ---------------|---------------|---------------|-----------------|
 ---------------|---------------|---------------|-----------------|
 ---------------|---------------|---------------|-----------------|
 ---------------|----------5----|-2-------------|------------4/5--|
 ---------------|----------5----|-2-------------|------------4/5--|
 ---------------|----------3----|-0-------------|------------2/3--|
                Kick-ing    at a dead horse      pleas-es   you__

 E5   /  !   /   /    /  F#5slG5 E5   /   !   /   /   /   G5
 P.M...................          P.M...........
 ---------------|---------------|---------------|-----------------|
 ---------------|---------------|---------------|-----------------|
 ---------------|---------------|---------------|-----------------|
 ---------------|----------4/5--|-2-------------|----------5------|
 ---------------|----------4/5--|-2-------------|----------5------|
 ---------------|----------2/3--|-0-------------|----------3------|
                 No way      of   showin`   your  grat-i-  tude___


                                (end Rhy.Fig2)  Rhy.fig3
 E5   /   !   /   /   /   F5      E5  /   !   /   /   /  F#5slG5
 P.M.................             P.M..................
 ---------------|---------------|---------------|-----------------|
 ---------------|---------------|---------------|-----------------|
 ---------------|---------------|---------------|-----------------|
 -2-------------|---------3-----|-2-------------|-----------4/5---|
 -2-------------|---------3-----|-2-------------|-----------4/5---|
 -0-------------|---------1-----|-0-------------|-----------2/3---|
 ______                          S______________ so   man -   y

 E5    /  !   /   /   / F#5slG5  E5  /   !    /   /    /    G5
 P.M..................           P.M....................
 ---------------|---------------|---------------|-----------------|
 ---------------|---------------|---------------|-----------------|
 ---------------|---------------|---------------|-----------------|
 -2-------------|---------4/5---|-2-------------|------------5----|
 -2-------------|---------4/5---|-2-------------|------------5----|
 -0-------------|---------2/3---|-0-------------|------------3----|
 things you don`t wan-na  do_______              What is     it,


 E5   /   !   /   /   /   G5     E5   /   !   /   /    /    F5
 P.M.................            P.M....................
 ---------------|---------------|---------------|-----------------|
 ---------------|---------------|---------------|-----------------|
 ---------------|---------------|---------------|-----------------|
 -2-------------|----------5----|-2-------------|------------3----|
 -2-------------|----------5----|-2-------------|------------3----|
 -0-------------|----------3----|-0-------------|------------1----|
 what have you got_  to   lose?____________________

 (end Rhy.Fig.3) Rhy.Fig.4
 E(open)F5 E F5  E5   /  !   /    /   /  F#5slG5 E5   /    !    /
                 P.M...................          P.M..............
 -0-------0-----|---------------|---------------|-----------------|
 -0-------0-----|---------------|---------------|-----------------|
 -1-------1-----|---------------|---------------|-----------------|
 -2---3---2---3-|-2-------------|----------4/5--|-2---------------|
 -2---3---2---3-|-2-------------|----------4/5--|-2---------------|
 -0---1---0---1-|-0-------------|----------2/3--|-0---------------|
                 (What the hell?)What the hell?____

                                                   (end Rhy.Fig.4)
 E5   /  F#5slG5  E5  /   !   /   /   /   G5     E    G5  E   G5
 P.M...           P.M..................          P.M.     P.M.
 ---------------|---------------|---------------|-0-------0-------|
 ---------------|---------------|---------------|-0-------0-------|
 ---------------|---------------|---------------|-1-------1-------|
 -2--------4/5--|-2-------------|---------5-----|-2---5---2---5---|
 -2--------4/5--|-2-------------|---------5-----|-2---5---2---5---|
 -0--------2/3--|-0-------------|---------3-----|-0---3---0---3---|
 What is     it  you think you`re gon-na  find?________________

 E5   /   !   /   /   /   G5      E5  /   !   /   /   /   G5
 P.M..................            P.M..................
 ---------------|---------------|---------------|-----------------|
 ---------------|---------------|---------------|-----------------|
 ---------------|---------------|---------------|-----------------|
 -2-------------|----------5----|-2-------------|----------5------|
 -2-------------|----------5----|-2-------------|----------5------|
 -0-------------|----------3----|-0-------------|----------3------|
 (Hyp-o-crite.)  Hyp - o- crite.                 Bore-dom sets


 E5  /   !   /    /   /   G5      E   G5  E   G5
 P.M.................. P.M.       P.M.    P.M.    (1/2 beat pause)
 ---------------|---------------|-0-------0-----|-----------------|
 ---------------|---------------|-0-------0-----|-----------------|
 ---------------|---------------|-1-------1-----|-----------------|
 -2-------------|----------5----|-2---5---2---5-|-----------------|
 -2-------------|----------5----|-2---5---2---5-|-----------------|
 -0-------------|----------3----|-0---3---0---3-|-----------------|
 into the   bor - ing    mind._________________________

 ************
 FROM HERE EACH BAR MEANS 4 BEATS
 I don`t bother with timing here.
 GuitarI
 Rhy.Fig.5A                                H                H
 ---------------|---------------|---------------|-----------------|
 ---------------|---------------|---------------|-----------------|
 ---------------|---------------|---------------|-----------------|
 --5--5----5/7--|-3--3----5/7---|--5--5---4^5---|--3--3----4^5----|
 --5--5---------|-3--3----------|--5--5---------|--3--3-----------|
 --3--3---------|-1--1----------|--3--3---------|--1--1-----------|

 GuitarII
 Rhy.Fig.5B
 ---------------|---------------|---------------|-----------------|
 ---------------|---------------|---------------|-----------------|
 ---------------|---------------|---------------|-----------------|
 --5--5----5/7--|-3--3----5/7---|--5--5---5/7---|--3--3----5/7----|
 --5--5---------|-3--3----------|--5--5---------|--3--3-----------|
 --3--3---------|-1--1----------|--3--3---------|--1--1-----------|

 GuitarI&II
 Rhy.Fig.6       (end Rhy.Fig.6) w/Rhy.Fig.6 (3 times)¬
 F#5 (let ring)  E5 (let ring)
 ---------------|---------------|---------------|-----------------|
 ---------------|---------------|---------------|-----------------|
 ---------------|---------------|---------------|-----------------|
 --4------------|--2------------|---------------|-----------------|
 --4------------|--2------------|---------------|-----------------|
 --2------------|--0------------|---------------|-----------------|
              It  suits  fine__              Your ru   -   in.
 (Struggle within)              (Struggle within)

                                 (Rhy.Fig.6 played for the 3rd time)
 ---------------|---------------|---------------|-----------------|
 ---------------|---------------|---------------|-----------------|
 ---------------|---------------|---------------|-----------------|
 ---------------|---------------|---------------|-----------------|
 ---------------|---------------|---------------|-----------------|
 ---------------|---------------|---------------|-----------------|
            You seal your own coffin.         The struggling within.
 (Struggle within)              (Struggle within)¬
 *******************************************************************
 GuitarI
 Rhy.fig.5C H               H
 ---------------|---------------|---------------|-----------------|
 ---------------|---------------|---------------|-----------------|
 ---------------|---------------|---------------|-----------------|
 --5---5---4^5--|--3---3---4^5--|--5---5---3/5--|--3---3---3/5----|
 --5---5--------|--3---3--------|--5---5--------|--3---3----------|
 --3---3--------|--1---1--------|--3---3--------|--1---1----------|

 GuitarII
 w/Rhy.fig.5B
 ---------------|---------------|---------------|-----------------|
 ---------------|---------------|---------------|-----------------|
 ---------------|---------------|---------------|-----------------|
 ---------------|---------------|---------------|-----------------|
 ---------------|---------------|---------------|-----------------|
 ---------------|---------------|---------------|-----------------|
 ¬
 *****************************************************************
 w/Fill2                                        GuitarII
 GuitarI                                         w/Rhy.Fig1(2&half
                                                 times)
 ---------------|---------------|---------------|----------------|
 ---------------|---------------|---------------|----------------|
 ---------------|---------------|---------------|----------------|
 --2------2-----|-(2)-----------|-(2)-----------|-(2)------------|
 --2------2-----|-(2)-----------|-(2)-----------|-(2)------------|
 --0------0-----|-(0)-----------|-(0)-----------|-(0)------------|

 GuitarII
 Fill2               H
 ---------------|---------------|---------------|
 ---------------|---3^5---------|-(5)------(5)-|
 ---------------|--X------------|---------------|
 --2------2-----|-X-------------|---------------|
 --2------2-----|---------------|---------------|
 --0------0-----|---------------|---------------|


 ******************************************************************

 GuitarI
 ---------------|---------------|---------------|-----------------|
 ---------------|---------------|---------------|-----------------|
 ---------------|---------------|---------------|-----------------|
 -(2)-----------|-(2)-----------|-(2)-----------|-(2)-------------|
 -(2)-----------|-(2)-----------|-(2)-----------|-(2)-------------|
 -(0)-----------|-(0)-----------|-(0)-----------|-(0)-------------|



 Verse2
 GuitarI&II
 w/Rhy.Fig2
  E5       G5     E5                     F#5 G5   E5
 ---------------|---------------|---------------|-----------------|
 ---------------|---------------|---------------|-----------------|
 ---------------|---------------|---------------|-----------------|
 ---------------|---------------|---------------|-----------------|
 ---------------|---------------|---------------|-----------------|
 ---------------|---------------|---------------|-----------------|
 Home is not a   home,it    be- comes a hell__________


 Substitute     Resume Rhy.Fig2
 by Rhy.Fill 1   E5                         G5    E5
 ---------------|---------------|---------------|-----------------|
 ---------------|---------------|---------------|-----------------|
 ---------------|---------------|---------------|-----------------|
 ---------------|---------------|---------------|-----------------|
 ---------------|---------------|---------------|-----------------|
 ---------------|---------------|---------------|-----------------|
 Turn-ing  it    in-to      a    pris-on   cell._________

 Rhy.Fill 1 (both guithars)
 ---------------|
 ---------------|
 ---------------|
 --2--2--4------|
 --2--2--4------|
 --0--0--2------|

 *****************************************************************
                                 GuitarI&II
                                 w/Rhy.fig.3(1st 9 bars only)
         F5            E5               F#5  G5   E5
 ---------------|---------------|---------------|-----------------|
 ---------------|---------------|---------------|-----------------|
 ---------------|---------------|---------------|-----------------|
 ---------------|---------------|---------------|-----------------|
 ---------------|---------------|---------------|-----------------|
 ---------------|---------------|---------------|-----------------|
                           Ad - van-tag-es   are tak-en       not

         F#5 G5  E5                       G5      E5
 ---------------|---------------|---------------|-----------------|
 ---------------|---------------|---------------|-----------------|
 ---------------|---------------|---------------|-----------------|
 ---------------|---------------|---------------|-----------------|
 ---------------|---------------|---------------|-----------------|
 ---------------|---------------|---------------|-----------------|
 hand-ed out.______              While      you struggle       in-

           G5     E5                   F5         E   F5   E  F5
 ---------------|---------------|---------------|-----------------|
 ---------------|---------------|---------------|-----------------|
 ---------------|---------------|---------------|-----------------|
 ---------------|---------------|---------------|-----------------|
 ---------------|---------------|---------------|-----------------|
 ---------------|---------------|---------------|-----------------|
 side    your    hell,_____________________________ow.

 GuitarI&II
 w/Rhy.Fig.4(2 times)
  E5                     F#5 G5   E5                       F#5 G5
 ---------------|---------------|---------------|-----------------|
 ---------------|---------------|---------------|-----------------|
 ---------------|---------------|---------------|-----------------|
 ---------------|---------------|---------------|-----------------|
 ---------------|---------------|---------------|-----------------|
 ---------------|---------------|---------------|-----------------|
 (Reaching out.) Reaching out______              Grab - bing  for

 E5                        G5      E  G5  E  G5   E5
 ---------------|---------------|---------------|-----------------|
 ---------------|---------------|---------------|-----------------|
 ---------------|---------------|---------------|-----------------|
 ---------------|---------------|---------------|-----------------|
 ---------------|---------------|---------------|-----------------|
 ---------------|---------------|---------------|-----------------|
 something you`ve got to feel._______            (Clo-s-ing in.)

         F#5 G5  E5                      F#5 G5  E5
 ---------------|---------------|---------------|-----------------|
 ---------------|---------------|---------------|-----------------|
 ---------------|---------------|---------------|-----------------|
 ---------------|---------------|---------------|-----------------|
 ---------------|---------------|---------------|-----------------|
 ---------------|---------------|---------------|-----------------|
 Clo-s-ing in.____          The  pres-surw   up - on   you     is

         F#5 G5   E5 G5  E5  G5  N.C.
 ---------------|---------------|---------------|-----------------|
 ---------------|---------------|---------------|-----------------|
 ---------------|---------------|---------------|-----------------|
 ---------------|---------------|---------------|-----------------|
 ---------------|---------------|---------------|-----------------|
 ---------------|---------------|---------------|-----------------|
 so    un-  real.____________________

 GuitarI&II
 w/Rhy.figs.5A&5B
 G5              F5              G5              F5
 ---------------|---------------|---------------|-----------------|
 ---------------|---------------|---------------|-----------------|
 ---------------|---------------|---------------|-----------------|
 ---------------|---------------|---------------|-----------------|
 ---------------|---------------|---------------|-----------------|
 ---------------|---------------|---------------|-----------------|
 ¬

 CHORUS
 GuitarI&II
 w/Rhy.fig.6
  F#5            E5              F#5             E5
 ---------------|---------------|---------------|-----------------|
 ---------------|---------------|---------------|-----------------|
 ---------------|---------------|---------------|-----------------|
 ---------------|---------------|---------------|-----------------|
 ---------------|---------------|---------------|-----------------|
 ---------------|---------------|---------------|-----------------|
             It  suits you fine.             Your  ru  -   in.___
 (Struggle within)               (Struggle within)

  F#5            E5               F#5             E5
 ---------------|---------------|---------------|-----------------|
 ---------------|---------------|---------------|-----------------|
 ---------------|---------------|---------------|-----------------|
 ---------------|---------------|---------------|-----------------|
 ---------------|---------------|---------------|-----------------|
 ---------------|---------------|---------------|-----------------|
             You seal your own coffin         S-truggl-ing within._
 (Struggle within)              (Struggle within)

 GuitarI&II
 w/Rhy.Figs.5B&5C
 G5              F5              G5              F5
 ---------------|---------------|---------------|-----------------|
 ---------------|---------------|---------------|-----------------|
 ---------------|---------------|---------------|-----------------|
 ---------------|---------------|---------------|-----------------|
 ---------------|---------------|---------------|-----------------|
 ---------------|---------------|---------------|-----------------|¬
 *****************************************************************
 Guitar I
 ---------------|---------------|---------------|-----------------|
 ---------------|---------------|---------------|-----------------|
 ---------------|---------------|---------------|-----------------|
 --2----2-------|--(2)----------|--(2)----------|--(2)------------|
 --2----2-------|--(2)----------|--(2)----------|--(2)------------|
 --0----0-------|--(0)----------|--(0)----------|--(0)------------|

 GuitarII                              feedback
 Fill3               H             ~~~~~~~~~~~~~~~~~~~~~~~~~~~
 ---------------|---------------|---------------|-----------------|
 ---------------|---3^5---------|-(5)-----------|-(5)--------(5)-|
 ---------------|--X------------|---------------|-----------------|
 --2----2-------|-X-------------|---------------|-----------------|
 --2----2-------|---------------|---------------|-----------------|
 --0----0-------|---------------|---------------|-----------------|

 *****************************************************************
 SOLO (I don`t bother with rhythm guitar part but it is based on
       E5 and G5 chord,and sometimes are used Bb5,F#5,Ab5,F5,Gb5
       chord)

 -----12-----12-----12-----12---|-----12-12-----12-12------12-----|
 -15F--X-15F----15F----15F------|-15F-------15F-----X--15F--------|
 -------------------------------|---------------------------------|
 -------------------------------|---------------------------------|
 -------------------------------|---------------------------------|
 -------------------------------|---------------------------------|¬
                                               ~~~~~~~~~
 -----12--12-----12-12------12--|-17FR------17F-------------------|
 -15F--------15F-----X--15F-----|---------------------------------|
 -------------------------------|--------------------------X-----|
 -------------------------------|---------------------------------|
 -------------------------------|---------------------------------|
 -------------------------------|---------------------------------|
      P P     P P     P P           P P P    P P    P P   P P
 -------------------------------|---------------------------------|
 --/10^8^7--10^7^0--10^8^7------|-10^8^7^0--------10^8^7----------|
 -------------------------------|-----------9^7^0--------9^7^0----|
 -------------------------------|---------------------------------|
 -------------------------------|---------------------------------|
 -------------------------------|---------------------------------|
    P P    P P    P P   P P        P P
 -------------------------------|---------------------------------|
 -10^8^7------------------------|---------------------------------|
 --------9^7^0--9^7^0-----------|---------------------------------|
 ----------------------9^7^0----|--9^7^0--------------------------|
 -------------------------------|---------10---7--------(7)/14----|
 -------------------------------|---------------------------------|

 -17--19--15--19--14--19----19--|----19----19--14--19--15--19-----|
 ------------------------17-----|-15----17------------------------|
 -------------------------------|---------------------------------|
 -------------------------------|---------------------------------|
 -------------------------------|---------------------------------|
 -------------------------------|---------------------------------|
 ¬
   P  P     P  P  H           P  H
 19^17^15-17^15^14^15--14-------|---------------------------------|
 --------------------17--17-15^14^15----14---15---17/19---X---8/--|
 -------------------------------|----16---------------------------|
 -------------------------------|---------------------------------|
 -------------------------------|---------------------------------|
 -------------------------------|---------------------------------|

       P    H  P     P      P       P        P
 -------------------------------|---------------------------------|
 15-18^15-14^17^15-18^15--17^14-|-18^15----17^14----18-18F--18----|
 --------X--------16----16----16|-------16-------16---------------|
 -------------------------------|---------------------------------|
 -------------------------------|---------------------------------|
 -------------------------------|---------------------------------|
 ¬
     P    P
 -------------------------------|---------------------------------|
 -------------------------------|---------------------------------|
 ------------3------------------|---------3-----------------------|
 --5`^0-5`^0----5---3-----------|--3---5------5-------(5)/--------|
 ----------------------5--------|---------------------------------|
 -------------------------------|---------------------------------|

 w/wah efects                                      wah off    P
 -------------------------------|---------------------------------|
 ---------14--14---14---14------|-(14)--14------14-----14---------|
 ---------14--14---14---14------|-(14)--14------14-----14---------|
 -------------------------------|---------------------------------|
 -------------------------------|---------------------------16^14-|
 -------------------------------|---------------------------------|¬
                                              P
 -------------------------------|---------------------------------|
 ----14------16-----------------|-------14--17^14------------16`--|
 ---(14)-----16---14-------14---|--16F------------16--14--14-16F--|
 -16-------------------16-------|-----------------------16--------|
 -------------------------------|---------------------------------|
 -------------------------------|---------------------------------|

 -------------------------------|---------------------------------|
 -(16)------------------16`-----|--(16)---------------------------|
 -(16)---14--------14---16F-----|--(16)---14----------------------|
 -------------16----------------|--------------16------16---------|
 -------------------------------|---------------------------------|
 -------------------------------|---------------------------------|¬

           H                 ~~~~~~~~~~~~~~~~~~~~~~~~~~~~~~~~~~~~
 -------------------------------|---------------------------------|
 -------------------------------|---17----------------------------|
 ---------------14-----14--16F--|-------------(16)----------------|
 --(16)--14^16------16----------|---------------------------------|
 -------------------------------|---------------------------------|
 -------------------------------|---------------------------------|
   P              P                P                 P
 18^15--15----------------------|---------------------------------|
 -----18--18-15-18^15----15-----|---------------------------------|
 ---------------------18---17-15|17^15-15-15----------------------|
 -------------------------------|------------17-15-17^15---15-----|
 -------------------------------|------------------------17--17-15|
 -------------------------------|---------------------------------|¬

   P        P                H
 -------------------------------|---------------------------------|
 -------------------------------|-------15------15-------(15)----|
 -------------------------------|-17----15------15-------(15)----|
 --------------------------15^17|(17)-----------------------------|
 17^15-13-15^13----13-15/17-----|---------------------------------|
 ---------------15--------------|---------------------------------|

 w/wah effects   wah off
 ---------------|----15---15-15-|---------------|-----------------|
 --X------------|-16F--16----16F|---------------|--18F---18--18---|
 --X------------|---------------|---------------|-----------------|
 ---------------|---------------|---------------|-----------------|
 ---------------|---------------|---------------|-----------------|
 ---------------|---------------|---------------|-----------------|

 *****************************************************************
 GuitarI&II

   H     P.M....   H     P.M....   H    P.M.....
 ---------------|---------------|---------------|-----------------|
 ---------------|---------------|---------------|-----------------|
 *--------------|---------------|---------------|----------------*|
 -----2--2-2-2-2|-----2--2-2-2-2|-----2--2-2-2-2|-76--5--54--3--|
 *2^5-2--2-2-2-2|-2^5-2--2-2-2-2|-2^5-2--2-2-2-2|-76--5--54--3-*|
 -0^3-0--0-0-0-0|-0^3-0--0-0-0-0|-0^3-0--0-0-0-0|-54--3--32--1--|
 ¬



                 Verse3
                 w/Rhy.fig.3(both guitars)
 P.M.....        E5      F#5 G5  E5                       F#5 G5
 ---------------|---------------|---------------|-----------------|
 ---------------|---------------|---------------|-----------------|
 ---------------|---------------|---------------|-----------------|
 -3--3--3-------|---------------|---------------|-----------------|
 -3--3--3-------|---------------|---------------|-----------------|
 -1--1--1-------|---------------|---------------|-----------------|
                Reaching out for something you`ve got to  feel.___


 E5                       G      E5                         G5
 ---------------|---------------|---------------|-----------------|
 ---------------|---------------|---------------|-----------------|
 ---------------|---------------|---------------|-----------------|
 ---------------|---------------|---------------|-----------------|
 ---------------|---------------|---------------|-----------------|
 ---------------|---------------|---------------|-----------------|
          While  clutching   to  what you   had thought was real._


                                 w/Rhy.fig.4(2 times)
 E5                          F5  E5                      F#5 G5
 ---------------|---------------|---------------|-----------------|
 ---------------|---------------|---------------|-----------------|
 ---------------|---------------|---------------|-----------------|
 ---------------|---------------|---------------|-----------------|
 ---------------|---------------|---------------|-----------------|
 ---------------|---------------|---------------|-----------------|
                                 What the hell?_______

 E5                      F#5 G5  E5                        G5
 ---------------|---------------|---------------|-----------------|
 ---------------|---------------|---------------|-----------------|
 ---------------|---------------|---------------|-----------------|
 ---------------|---------------|---------------|-----------------|
 ---------------|---------------|---------------|-----------------|
 ---------------|---------------|---------------|-----------------|
                 What is      it you think you`re   gonna find?____


                  E5                     F#5 G5  E5
 ---------------|---------------|---------------|-----------------|
 ---------------|---------------|---------------|-----------------|
 ---------------|---------------|---------------|-----------------|
 ---------------|---------------|---------------|-----------------|
 ---------------|---------------|---------------|-----------------|
 ---------------|---------------|---------------|-----------------|
 ____________                    Hypo-o-crite_______


         F#5 G5  E5                        G5
 ---------------|---------------|---------------|-----------------|
 ---------------|---------------|---------------|-----------------|
 ---------------|---------------|---------------|-----------------|
 ---------------|---------------|---------------|-----------------|
 ---------------|---------------|---------------|-----------------|
 ---------------|---------------|---------------|-----------------|
 Bore-dom   sets in-to       the bor-ing mind.____________________

                 w/Rhy.Figs.5A&5B(both guitars)
  N.C            G5              F5              G5
 ---------------|---------------|---------------|-----------------|
 ---------------|---------------|---------------|-----------------|
 ---------------|---------------|---------------|-----------------|
 ---------------|---------------|---------------|-----------------|
 ---------------|---------------|---------------|-----------------|
 ---------------|---------------|---------------|-----------------|
 ______________

                 w/Rhy.fig.6(both guitars)
 F5              F#5             E5              F#5
 ---------------|---------------|---------------|-----------------|
 ---------------|---------------|---------------|-----------------|
 ---------------|---------------|---------------|-----------------|
 ---------------|---------------|---------------|-----------------|
 ---------------|---------------|---------------|-----------------|
 ---------------|---------------|---------------|-----------------|
                             It  suits you fine.              Your
                (Struggle within)                (Struggle within)



 E5              F#5             E5              F#5
 ---------------|---------------|---------------|-----------------|
 ---------------|---------------|---------------|-----------------|
 ---------------|---------------|---------------|-----------------|
 ---------------|---------------|---------------|-----------------|
 ---------------|---------------|---------------|-----------------|
 ---------------|---------------|---------------|-----------------|
 ru -      in.             You  seal your own coffin._____     S--
                (Struggle within)                (Struggle wiithin)

 E5              E5              G5              F5
 ---------------|---------------|---------------|-----------------|
 ---------------|---------------|---------------|-----------------|
 ---------------|---------------|---------------|-----------------|
 ---------------|---------------|---------------|-----------------|
 ---------------|---------------|---------------|-----------------|
 ---------------|---------------|---------------|-----------------|
 truggling within.__________________



 G5              F5
 ---------------|---------------|
 ---------------|---------------|
 ---------------|---------------|
 ---------------|---------------|
 ---------------|---------------|
 ---------------|---------------|
 *****************************************************************
 Guitar I
 ---------------|---------------|---------------|-----------------|
 ---------------|---------------|---------------|-----------------|
 ---------------|---------------|---------------|-----------------|
 --2--2---------|--(2)----------|--(2)----------|--(2)------------|
 --2--2---------|--(2)----------|--(2)----------|--(2)------------|
 --0--0---------|--(0)----------|--(0)----------|--(0)------------|


 GuitarII             H
 ---------------|---------------|---------------|-----------------|
 ---------------|----3^5--------|---(5)---(5)--|-----------------|
 ---------------|---X-----------|---------------|-----------------|
 ---2----2------|--X------------|---------------|---2--2------2---|
 ---2----2------|---------------|---------------|---2--2------2---|
 ---0----0------|---------------|---------------|---0--0------0---|

 ******************************************************************
 Guitar I
 ---------------|---------------|---------------|
 ---------------|---------------|---------------|
 ---------------|---------------|---------------|
 --(2)----------|--(2)----------|--(2)----------|
 --(2)----------|--(2)----------|--(2)----------|
 --(0)----------|--(0)----------|--(0)----------|

 Guitar II
 ---------------|---------------|---------------|
 ---------------|---------------|---------------|
 ---------------|---------------|---------------|
 ---2--2--2--2--|---2--2----2---|---2--2--2--2--|
 ---2--2--2--2--|---2--2----2---|---2--2--2--2--|
 ---0--0--0--0--|---0--0----0---|---0--0--0--0--|

 *****************************************************************

 GuitarsI&II
 P.M............................................
 ---------------|---------------|---------------|-----------------|
 ---------------|---------------|---------------|-----------------|
 ---------------|---------------|---------------|-----------------|
 ---2--2----2---|---2--2--2--2--|---2--2----2---|--2--------------|
 ---2--2----2---|---2--2--2--2--|---2--2----2---|--2--------------|
 ---0--0----0---|---0--0--0--0--|---0--0----0---|--0--------------|



 Ufffffffff.       It`s enough. I`ve got it!:-)

 I spent much time to do this, so you have to enjoy it!!!:-)

 Comments to Pavel Holka (Xholp10@st.vse.cz)
 MY REQUESTIONS: ANY TABS OF `Wildhoney` BY TIAMAT
                 ANY TABS OF ALICE COOPER( I have only songs posted to
                 OLGA)
                 TABS OF OZZY OSBORNE ( I have only songs which were
                  posted to OLGA and Perry Mason)
Вверх

Sucking My Love

                                               Repeat a whole bunch of times.

 P.M -----|             P.M. -------|          P.M. -----------|
 ||------------------------------------------------------------------------||
 ||------------------------------------------------------------------------||
 ||*----------------------------------------------------------------------*||
 ||*----------------------------------------------------------------------*||
 ||------------10--7---------------------5h7------------------------5h7----||
 ||---0--0----------------------0--0--------------------0--5--7------------||



 ===============================================================================
 ==                           TABLATURE EXPLANATION                           ==
 ===============================================================================

 ----------                            ----------
 ----5h8--- Hammeron                   ----(8)--- Ghost Note
 ----------                            ----------
 ----5p8--- Pulloff                    ----------

 ----------                            ----------
 ----5/8--- Slide Up                   -----x---- Dead Note
 ----------                            ----------
 ----58--- Slide Down                 ----------

 ----------                            ||------|| Repeat Start & End
 ----5~~~-- Vibrato                    ||*----*||
 ----------                            ||*----*||
 ----------                            ||------||
Вверх

Sweet Amber

Key: * is palm mute

Настройка: C G C F A D
 (как System of a down)
Intro
D--------------------------------------------------------------
A--------------------------------------------------------------
F-5/7--5h7--10b12r10-5/7--5h7--10b12r10--5/7--5h7--10b12r10-5/7
C--------------------------------------------------------------
G--------------------------------------------------------------
C--------------------------------------------------------------

W/Distortion
Verse 1     3 раза            затем:
D-----------------------|----------------------
A-----------------------|----------------------
F-----------------------|----------------------
C-10/12-------10/12-----|-10/12----------------
G-10/12-------10/12-----|-10/12----------------
C-10/12-00-00-10/12br14-|-10/12-00-00-00-00-00-
        ** **                   ** ** ** ** **

Verse 2    3 раза            затем:
D-----------------------|----------------------
A-----------------------|----------------------
F-----------------------|----------------------
C-10/12-------10/12-----|-10/12----------------
G-10/12-------10/12-----|-10/12----------------
C-10/12-------10/12-14b-|-10/12-00-00-00-00-00-

 Then she took my head.....
Bridge 1 (wah wah pedal)
D-------------------------------
A-8/15--------8/13----8/11-8/10-
F-------------------------------
C-------------------------------
G-------------------------------
C-------------------------------

Bridge 2
D-------------------------
A-------------------------
F-------------------------
C-----0-----0-----3-3-3-3-
G-----0-----0-----3-3-3-3-
C-0-0-0-0-0-0-0-0-3-3-3-3-

Using what i want........
Chorus 1
D----------------------
A----------------------
F----------------------
C-0-------2-3------8-7-
G-0-------2-3------8-7-
C-0-------2-3------8-7-

How sweet are you....
Chorus 2
D----------------------
A----------------------
F----------------------
C-------3h5--------3p0-
G-------3h5--------3p0-
C-0-0-0-3h5--0-0-0-3p0-
   *   *   *             *   *  *
Verse 3
D-------------------------------------------------------------
A-------------------------------------------------------------
F-------------------------------------------------------------
C-------------------------------------------------------------
G-------------------------------------------------------------
C-12-0000-12-0000-12-0000-15-12-14-0000-14-0000-14-0000-20-19-
     ****    ****    ****          ****    ****    ****

Verse 4
D--------------------------------------------------------
A--------------------------------------------------------
F--------------------------------------------------------
C-0------0------0------3-0-2------2---------------------- play once
G-0------0------0------3-0-2------2----------------------
C-0-0000-0-0000-0-0000-3-0-2-0000-2-0000-0-0-1-0-0-0-1-0-
    ****   ****   ****       ****   ****

D--------------------------------------------------------
A--------------------------------------------------------
F--------------------------------------------------------
C-0------0-----------------2------2---------------------- play once
G-0------0-----------------2------2----------------------
C-0-0000-0-0-0-1-0-0-0-1-0-2-0000-2-0000-0-0-1-0-0-0-1-0-
    ****                     ****   ****

D--------------------------------------------------------
A--------------------------------------------------------
F--------------------------------------------------------
C-0-1-0-0------------------2------2---------------------- play twice
G-0-1-0-0------------------2------2----------------------
C-0-1-0-0--0-0-1-0-0-0-1-0-2-0000-2-0000-0-0-1-0-0-0-1-0-
                                   ****   ****
Вверх

The Call Of Ktulu

 Intro....play each part twice....

 ---5---------5---|---6---------6---|---8----------8---|---5---------5---
 -------6-------6-|-------6-------6-|-------8--------8-|-------6-------6-
 -----7-----7-----|-----7-----7-----|-----9------9-----|-----7-----7-----
 -0-------7-------|-0-------7-------|-0-------10-------|-0-------7-------
 -----------------|-----------------|------------------|-----------------
 -----------------|-----------------|------------------|-----------------



 The next part....play it a few times....

 ---------0------|---------0-------
 -------0---0----|-------0---0-----
 -----5------5---|-----5-------5---
 ---7------------|---7-----------7-
 -0------------7-|-6---------------
 ----------------|-----------------



 The next part....Dave Mustaine used this again in the intro to Hangar 18

 -------1-|-------1-|-------1-|-------5-
 -----3---|-----3---|-----3---|-----3---
 ---2-----|---3-----|---4-----|---5-----
 -0-------|-0-------|-0-------|-0-------
 ---------|---------|---------|---------
 ---------|---------|---------|---------



 That`s about all I can handle doing, typing in this tab is hell!
Вверх

The Call Of The Ktulu

1)
e---5---------5--- ---6---------6--- ---8----------8--- ---5---------5---
B-------6---5---6- -------6-------6- -------8--------8- -------6-------6-
G-----7----------- -----7-----9----- -----9------9----- -----7-----7-----
D-0-------7------- -0-------8------- -0-------10------- -0-------7-------
A----------------- ----------------- ------------------ -----------------
E----------------- ----------------- ------------------ -----------------
Каждая часть вступления играется по 2 раза.

2)
e---------0----------------0-------
B-------0---0------------0---0-----
G-----5-------5--------5-------5---
D---7----------------7-----------7-
A-0-------------7--6---------------
E----------------------------------
(0:32)

3)
e-------1-|-------1-|-------1-|-------5-
B-----3---|-----3---|-----3---|-----3---
G---2-----|---3-----|---4-----|---5-----
D-0-------|-0-------|-0-------|-0-------
A---------|---------|---------|---------
E---------|---------|---------|---------
Сначала играется чисто, а пото – с distortion.
(0:46)

4)
G--------------------------------
D-----------------9-8-8-8-8-8-8/9
A-7-7-7-7-6-7-6-7-7-6-6-6-6-6-6/7
E-5-5-5-5-4-5-4-5----------------
  pm.....................
Distorted
(2:25)

5)
e--1-1-1-1--1-1-1-1--1-1-1-1--5-5-5-5
B--3-3-3-3--3-3-3-3--3-3-3-3--3-3-3-3
G--2-2-2-2--3-3-3-3--4-4-4-4--5-5-5-5
D--0-0-0-0--0-0-0-0--0-0-0-0--0-0-0-0
A------------------------------------
E------------------------------------
(2:37)

6a)
D---------------------------------------------------------
A-2-------0-2-3-3-------0-2-3-4-------0-2-3-5-------3-2-0-
E-0-0-0-0-------1-1-1-1-------2-2-2-2-------3-3-3-3-------
Distorted

6b)
D---------------------------------------------------------
A-2-------0-2-3-3-------0-2-3-4-------0-2-3-5-------5-3-2-
E-0-0-0-0-------1-1-1-1-------2-2-2-2-------3-3-3-3-------

Distorted
(3:20 c a по b)

6c)
D--------------------------------------------------------
A--5-------3-5-6-6-------3-5-6-7-------5-6-8-8-----8-6-5-
E--3-3-3-3-------4-4-4-4-------5-5-5-5-------6-6-6-------
(3:47 для c)

7)
G----------------------------------------------------------
D-7---7-9-10-9-7----7-9-10-9-7----7-9-10-9-7-----7-9-10-9-7
A----------------8-------------9-------------10------------
E----------------------------------------------------------

8)
G--12--12-14-15-14-12-----12-14-15-14-12-----12-14-15-14-12-----12-14-15-14-12
D---------------------13-----------------14-----------------15----------------
A-----------------------------------------------------------------------------
E-----------------------------------------------------------------------------

Пре-соло
9a) Джеймс
G--------------------------------
D-----------------9--------------
A--5-4-4-4--5-2-2-7--5-4-4-4--5-2
E--3-2-2-2--3-0-0----3-2-2-2--3-0
  pm......    ...    .......  .

9b) Кирк
e------------------------------------------------------------
B--12-10-10-10--10h12---------12---12-10-10-10--10h12--------
G---------------------11h12-9-------------------------11h12-9
D------------------------------------------------------------
A------------------------------------------------------------
E------------------------------------------------------------
После соло(6:55) distorted

10)
G----------------------
D--7--5--7--3--7--10--7
A--5--3--5--1--5--8---5
E----------------------
Здесь сыграть чисто вступление ещё разок…

___________________________________________
соло:

Все 21лады подтягиваются чуть ли не на тон
E------------------------------21-21-21-21-21-21-21-21-21-17--21-17-
B-17-21-21-21-21-21-21-21-21-17-------------------------------------
G-------------------------------------------------------------------
D-------------------------------------------------------------------
A-------------------------------------------------------------------
E-------------------------------------------------------------------


E-------------------------------------------------------------------
B-21-17--17-21-17---------------------------------------------------
G------20--------20-17--17-20-17------------------------------------
D---------------------20--------20-17--17-20-17---------------------
A------------------------------------20--------20-17--17-20-17------
E---------------------------------------------------21--------21-17-


E-12-10-9--10-9-----9-----------------------------------------------
B--------12----12-10-12-10-9-12-10-9--------------------------------
G-----------------------------------11-9-13-11-9--11-9-----9--------
D-----------------------------------------------12----12-11-12-11-9-
A-------------------------------------------------------------------
E-------------------------------------------------------------------


E-------------------------------------------------------------------
B-------------------------------------------------------------------
G-------------------------------------------------------------------
D-12-11-9----11-9-------11------------------------------------------
A---------12------12-11----12-11-9-12-11-9----11-9-------9----------
E------------------------------------------12------12-10---12-10-9--


E-------------------------------------------------------------------
B-------------------------------------------------------------------
G-------------------------------------------------------------------
D-------------------------4h5h7----5-7-14t715t717t7-----------------
A-------------------4h5h7-------5-7---------------------------------
E-12-10-94-0h5h7-------------------------------------------------


Играется насколько раз.


E-------10/20-16---
B----10----------17
G-10---------------
D------------------
A------------------
E------------------

E--20-16---20-16---20-16---20-16------21-21-21-21-21-21-21-21-21-20-
B--------17------17------17-----17/19-------------------------------
G-------------------------------------------------------------------
D-------------------------------------------------------------------
A-------------------------------------------------------------------
E-------------------------------------------------------------------


E-18-21-20-18-20-19-17-20-19-17-18-17-15-18-17-15-15-13-12-15-13-12-
B-------------------------------------------------------------------
G-------------------------------------------------------------------
D-------------------------------------------------------------------
A-------------------------------------------------------------------
E-------------------------------------------------------------------


E-13-12-10-13-12-10-10-9-7-10-9-7-8-7-5-8-7-5-8-5-------------------
B-----------------------------------------------8-5-5-8-5----------
G---------------------------------------------------7-----7-5-5-7-5-
D------------------------------------------------------------7------
A-------------------------------------------------------------------
E-------------------------------------------------------------------


E-------------------------------------------------------------------
B-------------------------------------------------------------------
G-------------------------------------------------------------------
D-7-5-5-7-5---------------------------------------------------------
A----7-----7-5------------------------------------------------------
E-------------8-5-10-5-8-10-5-8-10-5-8-10-5-8-10-8-5-10-5-8-10-5-8--


E-------------------------------------------------------------------
B-------------------------------------------------------------------
G----------------12-5-7-13-5-7-14-5-7-15-5-7-16-5-7-17-5-7-18-5-7---
D---------5-7-9-----------------------------------------------------
A------5-7----------------------------------------------------------
E-10-8-5------------------------------------------------------------


E-------------------------------------------------------------------
B---------19-5-7-20-5-7-21-5-7-22-5-7-23-5-7-24-5-7-24--------------
G-------------------------------------------------------------------
D-------------------------------------------------------------------
A-------------------------------------------------------------------
E-------------------------------------------------------------------

Теперь бас:
(обозначения e, q и т.д. см. в последнем варианте Fade To Black)

                        h..        e     h.          q
G||-------------------||----------------|-------------------|
D|4:-Гитарное Intro.--||:---------------|------------------:|
A|4:------------------||:-0---------7---|-6----------(6)--:|  x4
E||-------------------||----------------|-------------------|

        w          w                       e e e e e e e e  e e e e  e e  q
G||----------------|----------------||    |----------------|------------------|
D||----------------|----------------||    |----------------|------------------|
A||-------R--------|-5--------------|| x3 |5-5-5-5-5-5-5-5-|5-5-5-5--5-5--5--|
E||----------------|----------------||    |----------------|------------------|


Басовый Fill (вставка)#1
========================
     e e e e     e e e e     e e e e e e e e
G||-----------------------|-------------------|
D||--------5-(5)H7-5-7----|-------------------|
A||--0-0-0-------------7--|--6-6-6-6-6-7------|
E||-----------------------|--------------8-7--|


Басовое соло
============
3ий и 4ый разы вместо Басового Fill #1

     e  e      e  e  q.  e     e e e e  e e  q      e e  q  e e e e
G||-------------------------|--------------------|----------9-9-9----|
D||:-------(5)H7--5--7------|--------------------|----------7-7-7----|
A||:-0--0----------------7--|--6-6-6-6--6-7--7--|--0-0--0--0-0-0-7--|
E||-------------------------|--------------------|-------------------|

     e e e e  e   e   e   e      e e e e     e  e s s e      e e e e  e e e e
G||---------------------------|---------------------------|--------------------|
D||---------------------------|--------5-(5)H7--7-7-7-----|--------------------|
A||--6-6-6-6--6-(10)-(6/(10))-|--0-0-0----------------7---|--6-6-6-6--6-7------|
E||---------------------------|---------------------------|---------------8-7--|

     e e e e  q    e  e     e e e e  e e  q      e e e e  e  e  e  e
G||----------------------|--------------------|------------------------|
D||--------5--7---(7)---|--------------------|--0-0-0-0--12-12-12-12--|
A||--0-0-0----0/------7--|--6-6-6-6--6-7--7--|------------------------|
E||----------------------|--------------------|------------------------|

     s s s s  s  s  s  s   s  s  s  s   s  s  s  s      e e e e  e  e  e  e
G||--9-9-9-9--10-10-10-10--12-12-12-12--12-12-12-12--|------------------------|
D||--------------------------------------------------|--0-0-0-0--12-12-12-12--|
A||--------------------------------------------------|------------------------|
E||--------------------------------------------------|------------------------|

                                                    [1.--------------------------
     q    q     e  e   q      e e e e  e  e  e  e      q     q     q     e  e
G||-------10----10-10--10-|------------------------|--10----12----14----12-14--|
D||--12---------12-12--12-|--0-0-0-0--12-12-12-12--|---------------------------|
A||------------------------|------------------------|---------------------------|
E||------------------------|------------------------|---------------------------|
                                                   ^
                                      Здесь уже по-другому.
                                      Когда доберётесь до этого момента,
                                      переходите к следующей партии 1-2-3-4 !

------------------------------------------------------------------------------]
     e  e   s  s  e  s  s  e  s  s  e     s  s  e   s  s  e    e  e  e  e
G||--15-14--12H14P12-14H15P14-12H14P12--|-14H15P14--12H14P12---15-14-12-14--||
D||-------------------------------------|-----------------------------------:||
A||-------------------------------------|-----------------------------------:||
E||-------------------------------------|------------------------------------||

[2.------------------------------------------------------------------------------------------]
     q     q     q.  s  s      e  e  e  e   e  e  e  e
G||--10----12----14--12-14--|--12-17-15-14-----15-14-----|-----14H15P14--------14H15P14-----||
D||-------------------------|---------------17-------17--|--17----------17--17----------17-:||
A||-------------------------|----------------------------|---------------------------------:||
E||-------------------------|----------------------------|----------------------------------||


[3.---------------------------------------------------------------------------------]
     q     q     h          e  e  e  e   e  e  e  e      e  e  e  e   e  e  e  e
G||--10----12----14------|------------------12-14-12--|--14-12-15-14--17-15-17-19---||
D||----------------------|--12-14-15-12--15-----------|-----------------------------:||
A||----------------------|----------------------------|-----------------------------:||
E||----------------------|----------------------------|------------------------------||

[4.--------------------------->
    e  e  e  e   e  e  e  e    s  s  s  s  s  s  s  s  s  s  s  s  s  s  s  s
G||--------------------------|-14-14-14-14-14-14-14-14-10-10-10-10-10-10-10-10-|
D||-12-12-12-12--12-12-12-12-|-------------------------------------------------|
A||--------------------------|-------------------------------------------------|
E||--------------------------|-------------------------------------------------|

::::Постепенная подтяжка:::::::::::::full-----------wah off-]
    s  s  s  s  s  s  s  s  s  s  s  s  s  s  s  s
G||-12-12-12-12-12-12-12-12-12-12-12-12-12-12-12-12-|
D||-------------------------------------------------|
A||-------------------------------------------------|
E||-------------------------------------------------|

С хорошим звуком.
     e  e  e  e  e  e  e  e     e  e  e  e e+s e+s e     e  e  e  e  e  e  e  e
G||--------------------------|------------------------|--------------------------|
D||:-------------------------|------------------------|--------------------------|
A||:-------------0-----2--3--|--------------0--2---3--|--------------0-----2--3--|
E||--0--0--0--0-----0--------|--1--1--1--1------------|--2--2--2--2-----0--------|

     e  e  e  e e+s e+s e
G||------------------------|
D||-----------------------:|  x4
A||--5-----------3--2-----:|
E||-----3--3--3---------3--|

     e  e  e  e  e  e  e  e     e  e  e  e e+s e+s e
G||--------------------------|------------------------|--------------------------|
D||:-------------------------|------------------------|--------------------------|
A||:-------------3-----5--6--|--------------3--5---6--|--------------3-----5--6--|
E||--3--3--3--3-----3--------|--4--4--4--4------------|--5--5--5--5-----5--------|

     e  e  e  e e+s e+s e
G||-------------------------|
D||------------------------:|
A||--8-----------6--5------:|
E||-----6--6--6---------6---|


Гитарное соло --> Эта часть играется с Wah

     e  e  e  s   q  e  e    e  e  e  e  e  e  e e    e  e  e  e  e  s s e e
G||------------------------|------------------------|------------------------|
D||:----------5-5H7--7-----|------------------------|----------5--7--7-7-7---|
A||:-0--0--0------------7--|-6--6--6--6--6--7--7/9--|-0--0--0--------------7-|
E||------------------------|------------------------|------------------------|

    e  e  e  e  e  e  q      e  e  e  e  e s s e  e     e  e  e  e  e  e  e  e
G||-----------------------|--------------------------|--------------------------|
D||----------------5--5--|-----------5--7-7-7-7-----|--------------------------|
A||-6--6--6--6--6--7--7--|--0--0--0--------------7--|--6--6--6--6--6--7--------|
E||-----------------------|--------------------------|--------------------8--7--|

     e  e  e  e    q.   s     e  e  e  e  e  e  e  e     e  e  e  e  e  e  e  e
G||------------------------|--------------------------|---------------------------|
D||----------------7------|--------------------------|--0--0--0--0--12-12-12-12--|
A||--0--0--0--0----0----7--|--6--6--6--6--6--7--7--7--|---------------------------|
E||------------------------|--------------------------|---------------------------|

    e  e  e  e  e  e  e  e
G||-------------------------|
D||-12-12-12-12-12-12-12-12-| Повторить 4 раза
A||-------------------------|
E||-------------------------|

[1.------------------------------------------------------------------------------]
    e  e  e  e  e  e  e  e    e  e  e  e  e  e  e  e    e  e  e  e  e  e  e  e
G||-------------------------|-------------------------|--------------------------|
D||-12-12-14-14-15-15-14-14-|-12-12-12-12-12-12-12-12-|-12-12-12-12-12-12-12-12-:|
A||-------------------------|-------------------------|-------------------------:|
E||-------------------------|-------------------------|--------------------------|

[2.------------------------------------------------------------------------------]
    e  e  e  e  e  e  e  e    e  e  e  e  e  e  e  e    e  e  e  e  e  e  e  e
G||-------------------------|-------------------------|--------------------------|
D||-12-12-12-12-12-12-12-12-|-12-12-12-12-12-12-12-12-|-12-12-12-12-12-12-12-12-:|
A||-------------------------|-------------------------|-------------------------:|
E||-------------------------|-------------------------|--------------------------|

      e  e  e  e  e  e  e  e    e  e  e  e  e  e  e  e    e  e  e  e  e  e  e  e
G||---------------------------|-------------------------|-------------------------|
D||:-----------5--7--5--7-----|-------------------------|----------5--7--5--7-----|
A||:--0--0--0--------------7--|-6--6--6--6--6--7--------|-0--0--0--------------7--|
E||---------------------------|-------------------8--7--|-------------------------|

     e  e  e  e  e  e  q
G||-------------------------|
D||-----------------5--5--:|
A||--6--6--6--6--6--7--7--:|
E||-------------------------|

     e  e  e  e  e  e  e  e     e  e  e  e  e  e  e  e
G||--------------------------|--------------------------|
D||--0--0--0--0--12-12-12-12-|--13-13-14-14-15-15-15-15-| х2
A||--------------------------|--------------------------|
E||--------------------------|--------------------------|

     e  e  e  e  e  e  e  e     e  e  e  e      h         s  e  s  e  s  e  s  e  s  e  s
G||--------------------------|------------------12------|-12-14-12-14-12-14-12-14-12-14-12-|
D||--0--0--0--0--12-12-12-12-|--14-14-15-15-------------|----------------------------------|
A||--------------------------|--------------------------|----------------------------------|
E||--------------------------|--------------------------|----------------------------------|

    e  s  e  s  e  s  e  s  q
G||-14-12-14-12-14-12-14-12-14-|
D||----------------------------|
A||----------------------------|
E||----------------------------|

     e  e  e  e  e  e  e  e     e  e  e  e  e. e. e
G||--------------------------|------------------------|
D||:-------------------------|-----------------------:|
A||:-0-----------0-----2--3--|--0-----------0--2--3--:|  x4
E||-----0--0--0-----0--------|-----1--1--1------------|

     e  e  e  e  e  e  e  e     e  e  e  e  e. e. e
G||--------------------------|------------------------|
D||:-------------------------|-----------------------:|
A||:-2-----------2-----4--5--|--2-----------2--4--5--:|  x4
E||-----2--2--2-----2--------|-----3--3--3------------|

     e  e  e  e  e  e  e  e     e  e  e  e  e. e. e
G||--------------------------|-----------------------|
D||:-------------------------|----------------------:|
A||:-3-----------3-----5--6--|--3-----------3--5--6-:|   x3
E||-----3--3--3-----3--------|-----4--4--4-----------|

     e  e  e  e  e  e  e  e     e  e  e  e  e. e. e
G||--------------------------|-----------------------|
D||:-------------------------|----------------------:|
A||:-5-----------5-----7--8--|--5-----------5--7--8-:|   x3
E||-----5--5--5-----5--------|-----6--6--6-----------|

         h..       s         w
G||---------------------|-------------------|
D||:--------------------|------------------:|
A||:-----0---------7----|----6-------------:|   x8
E||---------------------|-------------------|

                        [1.2.3.-------------][4.---------------------------------->
          h      h           w                     h      h
G||-------7------7------|-------------------|--------------------|--------------------|
D||:--------------------|------------------:|------0-------------|--------------------|
A||:--------------------|----0-------------:|--------------------|--------------------|
E||---------------------|-------------------|-------------0------|----(0)-------------|

       e  e  e e+q    q     q    q     h
G||----------------------|--------------------|
D||:---------------------|--------------------|
A||:---------------------|-------7-----7------|
E||----3--2--2--2-----3--|--0----------0------|

                         [1-7.----------------]
       e  e  e e+q    q     q.         h.
G||----------------------|--------------------|
D||----------------------|-------------------:|
A||----------------------|-------------7-----:|
E||----3--2--2--2-----3--|--0----------0------|

   [8.------------------->
      q.  h      e   e       q     e   e+h        w
G||----------------------|-------------------|----------------------|
D||----------------------|-------------------|----------------------|
A||----------------------|---------5----5----|---(5)----------------|
E||---0---0------2---2---|--(2)--------------|----------------------|


Теперь 15 тактов - барабаны. И последний кусок --->
       q    q    q    q       q    q    h             h.
G||----------------------|----------------------|-------------------|
D||----------------------|----------------------|3------------------|
A||----5----3----5----1--|----5----8----5-------|4---(5)------------|
E||----------------------|----------------------|-------------------|

       q    q    q    q       q    q    h       Быстро!                                h    h
G||---------------------|---------------------|1210/12/1412/14/1514/15/1715/17/|/19--------|
D||4--------------------|---------------------|------------------------------------|-----------|
A||4---5---3----5----1--|----5----8----5------|------------------------------------|------17---|
E||---------------------|---------------------|------------------------------------|-----------|
Вверх

The Cure

 ------------------------------------------------------------------|
 ------------------------------------------------------------------|
 ------------------------------------------------------------------|
 ------------------------------------------------------------------|
 -2-2----2------4-----4--2-2----2-----4----4---2----2------4----4--|
 -0-0-3~-0--4-5-- 4-5----0-0-3~-0--4-5--4-5----0-3~-0---4-5--4-5---|

 --------------------------------------------------------------|
 --------------------------------------------------------------|
 --------------------------------------------------------------|
 -3-3-->-------------------------------------------------------|
 -3-3-->-------------------------------------------------------|
 -1-1-->-------------------------------------------------------|
   Keep strumming F#, gradually lidting palm off of bridge


 --------------------------------------------------------------|
 --------------------------------------------------------------|
 --------------------------------------------------------------|
 --------------------------------------------------------------|
 --------------------------------------------7-6-5-------------|
 --0-3-0-6-0-0-0-3-0-6-0-0-0-3-0-6-0-0-0-3-0-------7-6-5-------|
   all open string notes - (E)

 -------------------------------------------------------------|
 ---7-7-7-6-6-7-----------------------------------------------|
 ---8-8-8-7-7-8-----------------------------------------------|
 -------------------------------------------------------------|
 -------------------------------------------------------------|
 -------------------------------------------------------------|

 The man takes another bullet
  He keeps them all within
  He must seek no matter how it hurts
  So don`t fool again
  He thinks the answer is cold and in his hand
  He takes his medicine
  The man takes another bullet
  He`s been fooled again
  Uncross your arms
  Take and throw them to the cure, say...
  I do believe

         Uncross your arms now
         Take them to it I say...
         I do believe
         Yeah, I do believe

  The lie is tempted and she follows
  Again she hits him in
  She must believe to feel the hollow
  She`s been fooled again

         Uncross your arms
         Take and throw them to the cure, say...
         I do believe
         Uncross your arms now
         Take them to it I say...
         I do believe
         Oh yeah, I do believe

  Betting on the cure
  It must get better than this
  Betting on the cure
  Yeah everyone`s gotta to have the sickness
  Cause everyone seems to need the cure
  Precious cure

  Betting on the cure
  Cause it must get better than this
  Betting on the cure
  Yeah everyone`s gotta to have the sickness
  Cause everyone seems to need the cure
  Precious cure
  I do beleive

  Betting on the cure
  It must get better than this
  Need to feel secure
  Yeah it`s got to get better than this
  It must get better than this
  Betting on the cure
  Everyone`s gotta to have the sickness
  Cause everyone seems to need the cure
  I do believe
Вверх

The Four Horsemen

D--5---7-5
A--3-5-5-3
E----3----
intro

D-----------------------------------------5h7
A--7p5-7p5-7p5-7p5---5-7p5-7p5-7p5----5h7----
E------------------7----------------7--------
pm...........................................
galloping

1st   2nd   3rd
D--------9-------9-------9-|-7-7-|-5-7-|-12-9-5---7-3 repeat.
A--------7-------7-------7-|-5-5-|-3-5-|-10-7-3-5-5-3
E--0-0-0---0-0-0---0-0-0---|-----|-----|--------3----
pm......   .....   .....
main

D--9--9-7--7-5--5-4-*-9--9-7--7-5--4-5-4-3
A--7--7-5--5-3--3-2-*-7--7-5--5-3--2-3-2-3
E-------------------*---------------------
pm                                 .......
The horsemen are drawing nearer.
*=slide pick

D----------------------------------9-9-----------10-10
A----------------------------------7-7-----------8--8-
E--0-0-0-0-0--0-0-0-0-0--0-0-0-0-0-----0-0-0-0-0------
pm................................     .........

D--------------------------------------------
A--7-5----5--------------------7-5----5------
E------7----7-5--7-5-3--5-3-0------7----7-5-7

D--5-6-7----------3-2-0-2-------5-6-7
A--3-4-5------0-3---------------3-4-5
E---------0-0-------------0-0-0------
pm        ...             .....
Time...  (soon replaced with open E and the C5 C#5 D5 (3-4-5))

G--------------------------4---------2----
D------9---------7---------------------2--
A--7-7---7---5-5---5---3-3---3---2-2-----2
E----------7---------5---------3----------
Not often played live (although I have heard it)
Вверх

The Frayed Ends Of Sanity

 Intro:

 G|----------------------|
 D|----------------------|
 A|------3----------2----|
 E|-0---------0----------|


   "Oh-ee-oh"
 G|--------------|
 D|--------------|
 A|---1------1---|
 E|-0---0-xx---0-|

   Whoosh
 G|----------|
 D|----------|
 A|---1-11-1-|
 E|----------|



 Verse (this style of Verse is complex. It alternates
 the 2nd and 1st riff. When singing, 2nd, and 1st when
 not. After a few of each, alternate between 3rd and 1st
 riff twice. Then go back and do the 1st riff twice):

 G|-----------------------------|
 D|-----------------------------|
 A|---------1-------1-----------|
 E|-0-0-0-0----0--0---0-0-0-0-1-|


 G|-------------------------------------------------|
 D|-------------------------------------------------|
 A|-------------------------------------------------|
 E|-7-0-0-7-0-0-6-0-0-6-0-0-5-0-0-5-0-0-4-0-0-3-0-0-|

 G|-----------------|
 D|-----------------|
 A|-----------------|
 E|-7-7-6-6-5-5-4-4-|



 Pre-Chorus:

 G|-----------------------------------------|
 D|-----------------------------------------|
 A|-----------------------------------------|
 E|-0-0-3-3-5-0-0-3-3-5-0-0-3-3-0-0-3-4-5-6-|

 G|-----------------------------------------|
 D|-----------------------------------------|
 A|-----------------------------------------|
 E|-0-0-3-3-5-0-0-3-3-0-0-0-3-3-0-0-3-4-5-6-|



 Chorus:

 G|----------|-----------|----------|---------|
 D|----------|-----------|----------|---------|
 A|----------|-----------|------2---|---------|
 E|-0---2----|-3-4-5-6---|-0--------|-3-4-5-6-|

 G|----------|-----------|----------|
 A|----------|-----------|----------|
 D|----------|-----------|-7-----5--|
 E|-0--3--2--|-3-4-5-6---|----------|

 G|--------------------------|
 D|--------------------------|
 A|----------3-4-5-6---------|
 E|-3-4-5-6----------3-4-5-6-|



 Bridge (do this, then go one note higher, ect.):

 G|--------------------------------|
 D|-2-4-2-5------------------------|
 A|---------4-2-2h4p2p-----------2-|
 E|--------------------5-3-2-3-5---|



   Pre-Solo
 G|-----------------------------|
 D|-----------------------------|
 A|-7p5h7-7p5h7-7p5h7-7p5h7-----|
 E|-------------------------7-6-|

 G|------------------------------|
 D|------------------------------|
 A|-7p5h7-7p5h7-7p5h7-7p5h7------|
 E|--------------------------6-8-|



   Post-Solo
 G|---------------------------|
 D|---------------------------|
 A|-7-----5-7---7---5h7-------|
 E|---0-0-----0---0-----0-0-0-|
Вверх

The God That Failed

 -------------------------------------------------------
 -------------------------------------------------------   | this is the intro
 -------------------------------------------------------   | also play this
 -2--2--0--0--5--5--0--0--2--2--0--5--0--2--2--0--7--0--   | part in between
                                                           | verses but i
 -----------------------------------------------------     | think its only
 -----------------------------------------------------     | the first part
 -----------------------------------------------------     |
 -2--2--0--8--8--9--9 --2--2--0--5--0--2--2--0--7--0--    /



 -------------------------------------------------          this li`l gem
 -------------------------------------------------         | is the verse
 -------------------------------------------------         |
 -2--2--2--0--2--2--2--0--2--2--2--5--0--2--2--0--        /

 may not be microscopic, but it`s defintely a start. glad to be of some
 service somewhere...
Вверх

The God That Failed (2 вариант)

 Tunning : Eb-Ab-Db-Gb-Bb-Eb



 Intro (two guitars)>>>(become one)
 Eb|-------------------|---------------------------------------------|
 Bb|-------------------|---------------------------------------------|
 Gb|-12-12-9---16-16-9-|---------------------------------------------|
 Db|-------------------|-----------9-9---------------9-----------7---|
 Ab|-10-107---14-147-|-10-10-7-------7-----10-10-7---7-10-10-7---7-|
 Eb|-------------------|---------0-------0---------------------------|
                      THIS THING ABOVE IS THE MAIN RIFF IN THE SONG!
                      MOST OTHER MINOR RIFFS ARE BASED ON THIS SUCKER!

 To finish off the main riff!
 Eb|-------------------------------------------------|
 Bb|-------------------------------------------------|
 Gb|-------------------------------------------------|
 Db|---------------------------9---4h5p4-------------|
 Ab|-10-10-7---5-5-7---10-10-7---7-2-----7-5-42-----|
 Eb|---------0-------0-------------0-------------5-3-|

 Verse riff.
 Palm Mute every chord except for the last E chords of every "miniriff" +
 The G chord and the following E chord!
 Eb|----------------------------------------|
 Bb|----------------------------------------|
 Gb|----------------------------------------|
 Db|----------------------------------------|
 Ab|-3-2-2-2---3-2-2-2---3-2-2-5-2--3-2-2-2-|
 Eb|-1-0-0-0---1-0-0-0---1-0-0-3-0--1-0-0-0-|


 "It feeds, it grows, it clouds all that you will know"
 Eb|-------------------------------------------|
 Bb|-------------------------------------------|
 Gb|-------------------------------------------|
 Db|-------------------------------------------|
 Ab|-------------------------------------------|
 Eb|-1-0-1-1---1-0-1-1---1-0-1/3-0-3---0-1-1-1-|

 "I see faith in your eyes"
 Eb|-------------------------------------------|
 Bb|-------------------------------------------|
 Gb|-------------------------------------------|
 Db|-----------------------9/7-----------------|
 Ab|------9----------9-----9/7-----------------|
 Eb|-10-7---10--7-10---10--7/5-----------------|

 Solo Rhythm (most of it anyway!)
 Eb|----------------------------------------|
 Bb|----------------------------------------|
 Gb|----------------------------------------|
 Db|----------------------------------------|
 Ab|-3-2-2-2---3-2-2-2---3-2-2-5-2--3-2-2-2-|
 Eb|-1-0-0-0---1-0-0-0---1-0-0-3-0--1-0-0-0-|

 Lyrics:
 Verse 1
 Pride you took
 Pride you feel
 Pride that you felt when you`d kneel

 Not the word
 Not the love
 Not that you felt from above

 It feeds
 It grows
 It clouds all that you will know
 Deceit
 Deceive
 Decide just what you believe

 Chorus
 I see faith in your eyes
 Never you hear the discouraging lies
 I hear faith in your cries
 Broken is the promise, betrayal
 The healing hand held back by the deepened nail....
 FOLLOW THE GOD THAT FAILED

 Verse 2
 Find your peace
 Find your say
 Find the smooth road on your way

 Trust you gave
 A child to save
 Left you cold and him in grave
Вверх

The God That Failed Solo

Here`s the Solo:
E|-------------------------|-------------------------|
B|-----12------------------|-------------------------|
G|-14~~---14-12-11-12-11---|-11h12p117---7---7-7-7/9-|
D|----------------------14-|---------------9---------|
A|-------------------------|-------------------------|
E|-------------------------|-------------------------|

E|-0--0--0--0--0--0--0--0--0--0-|-0--0--0--0--0--0--10/121/12-|
B|-5--7--8-10-12-10--8--7--8--7-|-5--4--5--7--8-10--10/121/12-|
G|------------------------------|-----------------------------|
D|------------------------------|-----------------------------|
A|------------------------------|-----------------------------|
E|------------------------------|-----------------------------|

E|-----------------------------
B|-----------------------------
G|-----12-14-14^p12---14^p12----
D|-7/14------------14-------14-
A|-----------------------------
E|-----------------------------

E|-----------------------------
B|----15^~~~-------------------
G|-12-14^~~~--9/11/12/14/161412
D|-----------------------------
A|------------7/9/-10/12/14129
E|-----------------------------

E|----------------------------
B|----------------------------
G|-/16-X-X-14--X-X-12-11-9--9--
D|----------------------------
A|-/14-X-X-12--X-X-10--9-7-----
E|----------------------------

E|-----------------------------
B|-------------14h15p14--14-15-
G|--7-6----6-7---------16------
D|------9----------------------
A|-----------------------------
E|-----------------------------

E|-----14h15p14-----14-15-17---
B|--17----------17-------------
G|-----------------------------
D|-----------------------------
A|-----------------------------
E|-----------------------------

E|--19---19-19-19-19-19---19-19
B|-----------------------------
G|-----------------------------
D|-----------------------------
A|-----------------------------
E|-----------------------------

E|-19-19---19-19-19-19-19---19-
B|-----------------------------
G|-----------------------------
D|-----------------------------
A|-----------------------------
E|-----------------------------

E|-19-19-19--19-19p17p15-19--
B|---------------------------
G|---------------------------
D|---------------------------
A|---------------------------
E|---------------------------

E|--19p17p15---15h17-19p17p15h17
B|----------17-----------------
G|-----------------------------
D|-----------------------------
A|-----------------------------
E|-----------------------------

E|----15h17-19-19p17p15-----
B|-17------------------17---
G|--------------------------
D|--------------------------
A|--------------------------
E|--------------------------

E|-19p17p15---19p17p15------
B|---------17---------17---
G|-------------------------
D|--------------------------
A|--------------------------
E|--------------------------

E|-19p17p15---15--19p17p1514--
B|---------17-----------------
G|----------------------------
D|----------------------------
A|----------------------------
E|----------------------------

E|--17p15p1412--15p14p1210---
B|----------------------------
G|----------------------------
D|----------------------------
A|----------------------------
E|----------------------------

E|--14p12p109--12p10p97--7----
B|----------------------8---8--
G|-----------------------------
D|-----------------------------
A|-----------------------------
E|-----------------------------

E|-----------------------------
B|-----------------------------
G|-----------------------------
D|-4h5p4----------4h5p4---------
A|------7-5-42--------7-5-42--
E|-------------5-3------------5

E|----22^--22^22^-22~~-19-22--
B|---------------------------
G|---------------------------
D|---------------------------
A|---------------------------
E|-3-------------------------

E|-19h22p19--19-19-19-19-19-19-
B|---------22-22-22^22^22^-22^22^
G|-----------------------------
D|-----------------------------
A|-----------------------------
E|-----------------------------

E|-19--22p19--19-22p19-22p19----
B|----------22--------------22-
G|-----------------------------
D|-----------------------------
A|-----------------------------
E|-----------------------------

E|-19-22p19-22p19--19-22p19-----
B|---------------22--------22--
G|-----------------------------
D|-----------------------------
A|-----------------------------
E|-----------------------------

E|-19-22p19-22p19-19-----------
B|------------------22-22^p19--
G|-----------------------------
D|-----------------------------
A|-----------------------------
E|-----------------------------

E|-----------------------------
B|-22^--22p19------------------
G|-----------21-19--19-21^-21^-
D|----------------21-----------
A|-----------------------------
E|-----------------------------

E|-----------------------------
B|-----------------------------
G|-21^-21^-21^-21^-21^-21^-21^-21^
D|-----------------------------
A|-----------------------------
E|-----------------------------

E|-----------------------------
B|-----------------------------
G|--19-------------------------
D|-----21~~~~~~~~~~~~~~~~~~~~~~
A|-----------------------------
E|-----------------------------
Вверх

The House That Jack Built

Tune all guitars down 1/2 step
The main part goes like this, I think:

D|--------------------------------|
G|--------------------------------|
A|--------------------------------|
E|--5-5--3-3---5-5--3-3---5-5--3--|

Then you have this other part that goes after the
first one from time to time:

D|--------------------------------------|
G|--------------------------------------|
A|-----------2-2-2-2--3-3-3-3--5-5-5-5--|
E|--5-5-5-5-----------------------------|
Вверх

The House That Jack Built (2 вариант)

Проигрыш:      Tune Guitars down 1/2 step
E|----------------|---------|-------------------------|
B|.--------------.|.-------.|-------------------------|
G|----------------|--3/5--7-|---3/5--7--10--12--5--7--|
D|--------3-----5-|---------|-------------------------|
A|.-----3-----5--.|.-1/3--5.|---1/3--5---8--10--3--5--|
E|---1/----3------|--Fill1--|--Fill2(Before Entrance)-|
     sl.      Open door so I walk inside.........

Entrance:                   Guitar1:           Fill 2(3rd time)
E|--------------------------|-------------------------------|
B|--------------------------|.------Н-p-p---^--------------.|
G|--------------------------|---5--3-5-3-0--2---------------|
D|---3--3--3--3--3--3--3--2-|--------------1/2--------------|
A|---3--3--3--3--3--3--3--2-|.-----------------------------.|
E|---1--1--1--1--1--1--1--0-|-----bend up and back down-----|

Fill 2:Guitar1              Fill 2:Guitar2
E|--------------------------|----------------|
B|---------0----------------|----------------|
G|---Н---2-----4-----2------|-----5----------|
D|--2-3-----/5---5\3---2--2-|--5--5--2-------|
A|------------------------2-|--5--3--2-------|
E|------------------------0-|--3-----0-------|

Guitar2: Fill 2(3rd time)(above)^
E|----------------|
B|.--------------.|
G|----------------|
D|---2---2--------|
A|.--2-r-2-------.|
E|---0---0--------|
r=very quick rest

Main Line: RytHm is way off,
so listen to the song yourself to get it

E|-------------------------------------------------------------|
B|.------------------------------------------------------------|
G|---3----------3-3-------3-3-----3----------3-3---3-3-------3-|
D|---3----------3-3-------3-3-----3----------3-3---3-3-------3-|
A|.--1----------1-1-------1-1-----1----------1-1---1-1-------1-|
E|------0--0--0-------0-------0-0-----0--0--0-----0------0--0--|
       pm...       pm        pm....     pm....     pm....

E|-------------------------------------------------------------|
B|-------------------------------------------------------------|
G|-------------------------------------------------------------|
D|-------------------------------------------------------------|
A|--4Н--4-4---5--5--5---7--7--7----8--8--8---------------------|
E|--0-2-2-2---3--3--3---5--5--5----6--6--6---------------------|

Припев:
E|-------------------------------------------------------------|
B|-------------------------------------------------------------|
G|-------------------5----7-----10-------12--------------------|
D|-------3-----5---5----7----10-------10--------5--5-5---------|
A|-----3-----5---3----5----8-------10---------3----3-3---------|
E|---1-----3---------------------------------------------------|
 The higher you are the farther you fall...

E|-------------------------------------------------------------|
B|-------------------------Bend 10-1/2-------------------------|
G|-------------------5----7---^--------------------------------|
D|-------3-----5---5----7----10---8----------------------------|
A|-----3-----5---3----5-------8---8--8----8--8-----------------|
E|---1-----3-------------------------8----6--6-----------------|

First Solo:         (Repeat 2x)
E|----^------------^-----------^-----------|
B|---12-----------12----------12-------15-.|
G|---14-----------14----------14---12------|
D|bend-14-full-----------------------------|
A|----------------------------------------.|
E|-----------------------------------------|

(Repeat 2x)             Then play this to lead into main solo

E|------------------------------|------------------------------|
B|------Н--p--p-----------^-----|-13-13-----15--15--15--15--15-|
G|-16-14-16-14-12--------16-----|-14-14--12-12--12--12--12--12-|
D|----------------16-14-Up&Down-|------------------------------|
A|------------------------------|------------------------------|
E|------------------------------|------------------------------|

Solo:w/Talk box

E|------------------------------------------------Full---------|
B|-12---------------Н-------------------------------^----------|
G|-12--~~~~---p---12-14--~~~----p------p---12--14--14--14\-----|
D|-----14---14-12-------14----14-12--14-12-------------sl.-----|
A|-------------------------------------------------------------|
E|-------------------------------------------------------------|

E|------12-------12--------12------12----12----12----12----12--|
B|---11----11-------11--------11------11----11----11----11---11|
G|/12---------12--------12-------12----------------------------|
D|-------------------------------------------------------------|
A|-------------------------------------------------------------|
E|-------------------------------------------------------------|

E|--------------------------1/2--------------------Full--------|
B|(11)\----------------------^-----------------------^---------|
G|-sl.------12-15-~~~~---12-12--(12)--------12--14--14---------|
D|------/14-------14--14-------------14--14-------Up&Down--14\-|
A|-------------------------------------------------------------|
E|-------------------------------------------------------------|
                              ^   (Repeat after solo)
E|----------------------------15--|--------Full----|
B|----------------------Full--Full|----Н-----^-----|
G|---------------------9--^-------|--10-12--12-----|
D|--~~~~--5--5/10---12---12-------|-------Up&Down--|
A|--/7--------sl.-----------------|----------------|
E|--------------------------------|----------------|

That's Basically the Entire Song.You can get the end.
It's just a mix of riffs that are all here.

^=bend
/=slide
p=pull off
Н=Hammer on
pm=palm mute

THE HOUSE JACK BUILT
(Hetfield/Ulrich/Hammett)

Open doors so I walk inside
Close my eyes find my place to hide
And I shake as I take it in
Let the show begin

Open my eyes
Just to Have them close again
Well on my way
On my way to where I graze
It swallows me
As it takes me in his home
I twist away
As I kill this world

Open doors so I walk inside
Close my eyes find my place to hide
And I shake as I take it in
Let the show begin

Open my eyes
Just to Have them close once again
Don't want control
As it takes me down and down again
Is that the moon
Or just a light that lights this deadend street?
Is that you there
Or just another demon that I meet?

The higher you walk
The farther you fall
The longer the walk
The farther you crawl
My body my temple
This temple it tells
"Step into the house that Jack built"

The higher you walk
The farther you fall
The longer the walk
The farther you crawl
My body my temple
This temple it tells
"Yes this is the house that Jack built"

Open doors as I walk inside
Swallow me so the pain subsides
And I shake as I take this in
Let the show begin
Let the show begin
Let the show begin

The higher you walk
The farther you fall
The longer the walk
The farther you crawl
My body my temple
This temple it tells
"Yes this is the house that Jack built"

The higher you walk
The farther you fall
The longer the walk
The farther you crawl
My body my temple
This temple it tells
"Yes I am I am I am"

Open my eyes
It swallows me
Is that you there
I twist away
Away
Away
Away
Вверх

The Memory Remains

tune all guitars down 1/2 step
|-----------------|-----------------|-----------------|---|
|------REST-------|------REST-------|------REST-------|---|
|-----------------|-----------------|-----------------|---|
|-----------------|-----------------|-----------------|-1-|

|-----------------|-----------------|-----------------|-----------------|
|-----------------|-----------------|-----------------|-----------------|
|---------7-------|------------/7---|---------7-------|------------/5---|
|-0---0---0-------|-0-----0-3-0-----|-0---0---0-------|-0-----0-3-0-----|

|-----------------|-----------------|-----------------|-----------------|
|-----------------|-----------------|-----------------|-----------------|
|---------7-------|------------/7---|---------2---2-2-|-7-------------7-|
|-0---0---0-------|-0-----0-3-0-----|-3---3-3---------|-0---------------|

|-----------------|
|-----------------|
|---7-5-4-5-7-5---|
|---------------7-|

|-----------------|-----------------|-----------------|-----------------|
|-----------------|-----------------|-----------------|-----------------|
|---------7-------|------------/7---|--------7--------|------------/5---|
|-0---0---0-------|-0-----0-3-0-----|-0---0--0--------|-0-----0-3-0-----|

|-----------------|-----------------|-----------------|-----------------|
|-----------------|-----------------|-----------------|-----------------|
|---------7-------|------------/7---|---------2---2-2-|---------7-------|
|-0---0---0-------|-0-----0-3-0-----|-3---3-3---------|-0---0---0-------|

|-----------------|-----------------|-----------------|-----------------|
|-----------------|-----------------|-----------------|-----------------|
|------------/7---|---------7-------|------------/5---|---------7-------|
|-0-----0-3-0-----|-0---0---0-------|-0-----0-3-0-----|-0---0---0-------|

|-----------------|-----------------|-----------------|-----------------|
|-----------------|-----------------|-----------------|-----------------|
|------------/7---|---------2---2-5-|-7---------------|-5-7-5-4-5-7-5---|
|-0-----0-3-0-----|-3---3-3---------|-0---------------|---------------7-|

|-----------------|-----------------|-----------------|-----------------|
|-----------------|-----------------|-----------------|-----------------|
|-5-7-----7-------|-5-7-----7-------|-5-7-----7-------|-5-------5-------|
|-----0-0-----0-0-|-----0-0-----0-0-|-----0-0-----0-0-|---3---3---3---3-|

|-----------------|-----------------|-----------------|-----------------|
|-----------------|-----------------|-----------------|-----------------|
|-5-7-----7-------|-5-7-----7-------|-5-7-----7---5---|-----------------|
|-----0-0-----0-0-|-----0-0-----0-0-|-----0-0---------|-1---------------|

|-----------------|-----------------|-----------------|-----------------|
|-----------------|-----------------|-----------------|-----------------|
|---------7-------|------------/7---|---------7-------|------------/5---|
|-0---0---0-------|-0-----0-3-0-----|-0---0---0-------|-0-----0-3-0-----|

|-----------------|-----------------|-----------------|-----------------|
|-----------------|-----------------|-----------------|-----------------|
|---------7-------|------------/7---|---------2---2-5-|-7-------------7-|
|-0---0---0-------|-0-----0-3-0-----|-3---3-3---------|-0---------------|

|-----------------|
|-----------------|
|-5-7-5-4-5-7-5---|
|---------------7-|

|-----------------|-----------------|-----------------|-----------------|
|-----------------|-----------------|-----------------|-----------------|
|---------7-------|------------/7---|---------7-------|------------/5---|
|-0---0---0-------|-0-----0-3-0-----|-0---0---0-------|-0-----0-3-0-----|

|-----------------|-----------------|-----------------|-----------------|
|-----------------|-----------------|-----------------|-----------------|
|---------7-------|------------/7---|---------2---2-2-|---------7-------|
|-0---0---0-------|-0-----0-3-0-----|-3---3-3---------|-0---0---0-------|

|-----------------|-----------------|-----------------|-----------------|
|-----------------|-----------------|-----------------|-----------------|
|------------/7---|---------7-------|------------/5---|---------7-------|
|-0-----0-3-0-----|-0---0---0-------|-0-----0-3-0-----|-0---0---0-------|

|-----------------|-----------------|-----------------|-----------------|
|-----------------|-----------------|-----------------|-----------------|
|------------/7---|---------2---2-5-|-7---------------|-5-7-5-4-5-7-5---|
|-0-----0-3-0-----|-3---3-3---------|-0---------------|---------------7-|

|-----------------|-----------------|-----------------|-----------------|
|-----------------|-----------------|-----------------|-----------------|
|-5-7-----7-------|-5-7-----7-------|-5-7-----7-------|-5-------5-------|
|-----0-0-----0-0-|-----0-0-----0-0-|-----0-0-----0-0-|---3---3---3---3-|

|-----------------|-----------------|-----------------|--------10-------|
|-----------------|-----------------|-----------------|----10------10---|
|-5-7-----7-------|-5-7-----7-------|-5-7-----7---5/--|-8---------------|
|-----0-0-----0-0-|-----0-0-----0-0-|-----0-0---------|-----------------|

|---------12------|-----------------|-----------------|-----------------|
|-----12------12--|-----------------|-----------------|---------5-------|
|-10--------------|---------7-------|-2---2---2h3-2---|-------------2h3-|
|-----------------|-0---0-------0---|-----------------|-3---3-----------|

|-----------------|-----------------|-----------------|-----------------|
|-----7-------4---|-----------------|-----------------|---------5-------|
|-5-------2-------|---------7-------|-2---2---2h3-2---|-------------2h3-|
|-----------------|-0---0-------0---|-----------------|-3---3-----------|

|-----------------|-----------------|-----------------|-----------------|
|-----7-------4---|-----------------|-----------------|---------5-------|
|-5-------2-------|---------7-------|-2---2---2h3-2---|-------------2h3-|
|-----------------|-0---0-------0---|-----------------|-3---3-----------|

|-----------------|-----------------|-----------------|-----------------|
|-----7-------4---|-----------------|-----------------|---------5-------|
|-5-------2-------|---------7-------|-2---2---2h3-2---|-------------2h3-|
|-----------------|-0---0-------0---|-----------------|-3---3-----------|

|-----------------|
|-----7-------4---|
|-5-------2-------|
|-----------------|
                                                                        3x
|------------------|-----------------|-----------------|------------------|
|o-----------------|-----------------|-----------------|-----------------o|
|o-5-7-----7-------|-5-7-----7-------|-5-7-----7-------|-5-------5-------o|
|------0-0-----0-0-|-----0-0-----0-0-|-----0-0-----0-0-|---3---3---3---3--|

|-----------------|-----------------|-----------------|-----------------|
|-----------------|-----------------|-----------------|-----------------|
|-5-7-----7-------|-5-7-----7-------|-5-7-----7---5---|-----------------|
|-----0-0-----0-0-|-----0-0-----0-0-|-----0-0---------|-1---------------|

                  |-----------------|-----------------|
                  |------REST-------|------REST-------|
                  |-----------------|-----------------|
                  |-----------------|-----------------|

|-----------------|-----------------|-----------------|-----------------|
|-----------------|-----------------|-----------------|-----------------|
|-----------------|-----------------|-----------------|-----------------|
|-3-3-3-3-3-3-3-3-|-3-3-3-3-3-3-3-3-|-3-3-3-3-3-3-3-3-|-3-3-3-3-3-3-3-3-|
 p.m.------------------------------------gradually release the palm mute

|-----------------|-----------------|-----------------|-----------------|
|-----------------|-----------------|-----------------|-----------------|
|---------7-------|------------/7---|---------7-------|------------/5---|
|-0---0---0-------|-0-----0-3-0-----|-0---0---0-------|-0-----0-3-0-----|

|-----------------|-----------------|-----------------|-----------------|
|-----------------|-----------------|-----------------|------REST-------|
|---------7-------|------------/7---|---------7-------|-----------------|
|-0---0---0-------|-0-----0-3-0-----|-0---0---0---1-1-|-----------------|

|-----------------|-----------------|-----------------|-----------------|
|-----------------|-----------------|-----------------|-----------------|
|---------7-------|------------/7---|---------7-------|------------/5---|
|-0---0---0-------|-0-----0-3-0-----|-0---0---0-------|-0-----0-3-0-----|

|-----------------|--------10-------|---------12------|
|-----------------|----10------10---|-----12------12--|
|---------7-------|-8---------------|-10--------------|
|-0---0---0-------|-----------------|-----------------|

                                                                        4x
|------------------|-----------------|-----------------|------------------|
|o-----------------|-----------------|---------5-------|-----7-------4---o|
|o---------7-------|-2---2---2h3-2---|-------------2h3-|-5-------2-------o|
|--0---0-------0---|-----------------|-3---3-----------|------------------|


|---|
|-9-|
|-7-|
|-0-|
Вверх

The More I See

Bass Intro: Tune Down 1 and Ѕ steps on 4 stg. Bass.

The more I see I see, pain, suffering and misery..

E-|----------------------------------------|
B-|----------------------------------------|
F#|----------------------------------------|
C#|-^5^5^5-03p0-000000--^5^5^5-03p0-000000-|

Note: the ^5 means that the 5 is pre-bent up a half step
And then released. E-Mail me if there are any questions.

Chorus Riff: Same as before only with a different ending.

E-|----------------------------------------|
B-|----------------------------------------|
F#|----------------------------------------|
C#|-^5^5^5 03p0-000000---0-5-00000-3-00000-|
Вверх

The Outlaw Torn

The Outlaw Torn

intro w/ wah
E|-0-----------------------0----------------------|
B|-0-----------------------0----------------------|
G|-2-----------------------2----------------------|
D|-3-2--2-2--2-2--2-2-2-2--3-2--2-2--2-2--2-2-2-2-|
A|-3-2--2-2--2-2--2-2-2-2--3-2--2-2--2-2--2-2-2-2-|
E|-1-0--0-0--0-0--0-0-0-0--1-0--0-0--0-0--0-0-0-0-|
  fade in                 repeat

ryth fig. 1
E|-------------------------------|---------------------------|
B|-------------------------------|---------------------------|
G|-------------------------------|---------------------------|
D|-------------------------------|-5-4-----5-4-------4-5-4---|
A|-5-7---7---5-7---5-7---5-7---7-|-5---5-5-5---5---5-5-----5-|
E|-0-0-0-0-0-0-0-0-0-0-0-0-0-0-0-|---------------------------|
repeat

fill 1
E|---sl.-up-------sl. down-|
B|-------------------------|
G|-7-/-9------(9)----------|
D|-7-/-9------(9)----------|
A|-5-/-7------(7)----------|
E|-0----------(0)----------|
                 big slide w/1sec deley setting

Verses (vocals with lower 4th harmony)

Bass riff fig. 1
G|----sl. up--sl. down-----------|-----------------------------|
D|*-----------------------------*|-----------------------------|
A|*-------7---------------------*|------7----------------------|
E|-0--/7-----7--0---3---4-5-4-3--|-0-/7---7--3-2-0---3-2-0-2-0-|
play 3x                          4th time

play ryth fig. 1 w/ fill 1

then play bass riff fig. 1

then ryth fig. 1 and so on and so on

then go back to the intro just with bass w/flanger
if your reaally cool you can improvise with volume swell
and these notes
E|---------------------|
B|---------------------|
G|----------------4----|
D|----------4-5-7------|
A|--2-3-5-7------------|
E|---------------------|
use this togeather with bass

now the solo, I`m no kirk Hammett so I just pass
Вверх

The Outlaw Torn (2 вариант)

  BASS FIG 1
|-------------------------------------------------------------------
|-------------------------------------------------------------------
|-5--7--------7-----7-----5--7--------7-----7-----9--5-5---5-5-5-5--
|-------0--0--0--0--0--0----------0-0-0--0--0--0--------------------

----------------------------------------------------|
----------------------------------------------------|
-5--------5-------9---5--5---5-5-5-5--5-----------5-|
---0-3-2-----0---------------------------0--3--0----|
 BASS FIG 2
|------------------------------------------------------------|
|--------2----------------------------2----------------------|
|------------------------------------------------------------|6X`s
|-0--3------3-2-3--3---5---3--3---3------3P2-3-2-3--3--3---3-|
 BASS FIG 3
|----------------------------------------------------------------
|----------------------------------------------------------------
|-----------5--------------5-----------------9-------------5-----
|-5-9-9-9-9----9-7-9-9-9-9-----7--5--7-7-7-7---9-7-9-7-9-7---5-0-
                                          END BASS FIG 3
--------------------------------------------------------|
--------------------------------------------------------|
---------3------------5---------------------------------|
-5-5-5-5----5-3-5-3-3----5-3--5-5-5-5-5--5-5-5--5-5-3-2-|

  CHORUS W/ BASS FIG 1 3X`s

2 verse w/ bass fig 2 4x`s

|---------------------------------------------------------------------|
|--------------------------5-5----------------------------------------|
|---------7--5-5-7---7-7-7-----5-5-5-5-5-5-5--9---5--5--5-5-5-------5-|
|-5-7-0-0-0--------0------------------------------------------0-3-2---|

|-----------------------------------------------------------------|
|-----------------------------------------------------------------|
|---------5--5----5-5-5-5-5--7-7-7-7--9--5--5-5-5-5-5-5-----------|
|-5-7-0-0-0--0--0---------0-----------------------------0-3-2-5-0-|

|-------------------------------------------------------------|
|-7--9--------------------------------------------------------|
|-5--7----------3---------------------------------------------|
|-------0-0-0-0---5---3-5-5-5-0--3-5-5-5-5-5-5-0-3--2-3-3-3-0-|
 BRIDGE
|-----------------------------------------------------------------|
|-7--9------------------------------------------------------------|
|-5--7----------5-------------------------------------------------|
|-------0-0-0-0----5---3-5-5-5-5-0--3-5-5-5-5--5-0-3H5------2-2-2-|

|-------------------------------------------------------------------|
|-7--9--------------------------------------------------------------|
|-5--7-----------5--------------------------------------------------|
|-------0-0-0-0----5---3-5-5-5-5-0--3-5-5-5-5-5-5-0-5-3---2-3-3-3-0-|
                                                                END FIG4
|----------------------------------------------------------------------|
|-7--9-----------------------------------------------------------------|
|-5--7-----------5-----------------------------------------------------|
|--------0-0-0-0----5---3-5-5-5-0-3-5-5-5-5--5-5-3H5--3-3-3-3-3-2-2-2-2|

  1. INTERLUDE W/ FIG 4 2X`s   2. W/ FIG 2 2X`s  W/ FIG 3

     3. GUITAR SOLO W/ FIG 4      4. OUTRO W/ FIG 4 2X`s

|-------------------------------------------------------------------|
|-------------------------------------------------------------------|
|-------------------------------------------------------------------|
|-0--0--0--1--1---1---2---2---2---3---3---3---0---0---0----1--1---1-|

|----------------------------------------------------------------------|
|----------------------------------------------------------------------|
|----------------------------------------------------------------------|
|-2---2---2---3---3---3---0---0-0-0---1--1--1--1--2--2--2--2--3-3-3-3-3|

|--------------------------------------------------------------------|
|--------------------------------------------------------------------|
|--------------------------------------------------------------------|
|-0----0----0----1----1----1----1---2---2---2---2---3----3----3----3-|

|--------------------------------------------------------------------
|--------------------------------------------------------------------
|--------------------------------------------------------------------
|-0--0-0-0-0-0-0--0-0-0-0-1-1-1-1-1-1-1-1-1-1-1-1-1--2-2-2-2-2-2-2-2-2

-------------------------|
-------------------------|
-------------------------|REPEAT AND FADE
-3-3-3-3-3-3-3-3-3-3-3-3-|
Вверх

The Shortest Straw

Intro:

G|------------------------------|
D|------------------------------|
A|------------------------------|
E|-0-0-0----0-0-0--0-0-0-3--0-0-|

G|------------------------------|
D|------------------------------|
A|------------------------------|
E|-0-0-0----0-0-0--0-0-0-5--0-0-|

G|------------------------------|
D|------------------------------|
A|------------------------------|
E|-0-0-0----0-0-0--0-0-0-3--0-0-|

G|------------------------------|
D|------------------------------|
A|------------------------------|
E|-0-0-0----0-0-0--0-0-0-0--0-0-|

Chorus:

G|-----------------------------------------------|
D|-----------------------------------------------|
A|-----------------------------------------------|
E|-0-1-0--0-0-000--0-1-0--0-3-0-5--0-1-0-0-0-000-|

G|----------------|
D|----------------|
A|----------------|
E|-0-1-0--0-5-0-3-|

A bar is repeatedly done after a number of the above
Chorus lick. The bar is below (very simple).

G|----------|
D|----------|
A|----------|
E|-3-3--2-2-|

Verse:

G|----------------------------------------|
D|----------------------------------------|
A|----------------------------------------|
E|-0-0-00--00-0-1-0-1--0-0-00--00-0-3-0-3-|

G|--------------------------------------|
D|--------------------------------------|
A|--------------------------------------|
E|-0-0-00-00-0-1-0-1--0-0-00-00-0-3-2-1-|

After 2 or more times of the above, the same lick goes
higher, demonstrated directly below.

G|--------------------------------------|
D|--------------------------------------|
A|--------------------------------------|
E|-2-2-22-22-2-3-2-3--2-2-22-22-2-5-2-5-|

G|--------------------------------------|
D|--------------------------------------|
A|--------------------------------------|
E|-2-2-22-22-2-3-2-3--2-2-22-22-2-5-4-3-|

Main lick (used in several parts of song, and after a
few of the Chorus`s...it is also used as a Pre-Chorus.
When used as a Pre-Chorus, just do the first bar twice):

G|------------------------------------|
D|------8-7-8-------------------------|
A|---/7-------------------------------|
E|-0-------------0-0-0-00--00-0-1-0-1-|

G|----------------------------------|
D|------8-7-8-----------------------|
A|---/7-----------------------------|
E|-0-------------0-0-00--00-0-3-0-3-|

G|----------------------------------|
D|-------8-7-8----------------------|
A|---/7-----------------------------|
E|-0-------------0-0-00--00-0-5-0-5-|

G|----------------------------------|
D|--------8-7-5---------------------|
A|---7-8----------------------------|
E|-0--------------3-3-33-33-3-2-2-1-|

Another Bridge or Pre-Chorus is shown below.

G|---------------|-------------------|
D|---------------|-------------------|
A|-2-2-2-2-------|-7----7-7-8--------|
E|---------------|---0---------7h8-8-|

G|-----------------|----------------|-----------------|
D|-----------------|----------------|-----------------|
A|-7h8p7p6-7h8p7p6-|----7-7-8-------|-7h8p7p6-7h8p7p6-|
E|-----------------|-5--------7h8-8-|-----------------|

Pre-Solo

G|---------|----------|---------|----------|
D|---------|----------|---------|----------|
A|---------|----------|---------|----------|
E|-0-------|-1--------|-2-------|-3--------|

G|----------|---------|----------|---------|-------|
D|----------|---------|----------|---------|-------|
A|----------|---------|----------|---------|-------|
E|-0--------|-1-------|-2--------|-3-------|-3-2-1-|

Chorus, then:

G|--------------|-------------|---------------|-------|
D|--------------|-------------|---------------|-------|
A|--------------|-------------|---------------|-------|
E|-0---0-1-0-1--|-0---0-3-0-3-|-0---0-1-0-1-0-|-3-2-1-|

G|-------------|-------------|---------------|-------|
D|-------------|-------------|---------------|-------|
A|-------------|-------------|---------------|-------|
E|-0---0-1-0-1-|-0---0-3-0-3-|-0---0-1-0-1-0-|-3-2-1-|

G|---------|---------|----------|
D|---------|---------|----------|
A|---------|---------|----------|
E|-2-3-4-5-|-2-3-4-5-|-5-4-3--1-|

Chorus, then back to the song (Verse and Chorus)

The ending is below:

G|---------|---------|-------|-----------------------|
D|---------|---------|-------|-----------------------|
A|---------|---------|-------|-----------------------|
E|-2-3-4-5-|-2-3-4-5-|-3-2-1-|-0-0-00-00-0-0-1-0-1-0-|
Вверх

The Small Hours

            Bass Part 1                                  where
   /-----------------------------                  /-fill goes- /--Part 1

F|------------------------|-------|-------|-------|--------------|----------|-----|
C|------------------------|---%---|---%---|---%---|--------------|----------|--%--|
G|------------------------|-------|-------|-------|--------------|----------|-----|
D|--0-0--2h3-2h3--0-0--3--|-------|-------|-------|--------------|----------|-----|

  Chorus

F|----------------------------------|-----------------------------------|
C|-o--------------------------------|---------------------------------o-|
G|-o----------------5---------------|--------------5-------7---7h8p7--o-|
D|----0-0-0---5-7-----7-5-7--5-3----|--0-0-0---5-7----7-5---------------|

After these, there`s a break and then a speeded up riff which serves as a guitar solo…….

                4 times,  then
F|----------------|-------|
C|----------------|-------|
G|----------------|-------|
D|--0-----1---2-1-|-(0)---|

      (this is the speeded up riff)
F|------------------------------|--------------------------------|
C|------------------------------|--------------------------------|
G|------------------------------|--------------------------------|
D|--0-000-000-000-000-006-0-008-|--0-000-000-000-000-006-0-0032--|

Play the above speed riff again and again until immediately after solo stops, then

F|-----------------------------|
C|-----------------------------|
G|-----------------------------|
D|-0-000-000-000-000-006-0-008-|

F|-------------------------------|--------------------------------|
C|-------------------------------|--------------------------------|
G|-------------------------------|--------------------------------|
D|-0-000-000-000-000-008--0-0010-|-0-000-000-000-000-0010--0-0012-|

F|-------------------------------|
C|-------------------------------|
G|-------------------------------|
D|-0-000-000-000-000-0012--0-012-|

Then back to the verse, chorus and then closing riff, which is
directly below:

              3 times,   then
F|--------------------|---------------------------|
C|--------------------|---------------------------|
G|--------------------|----------------------1----|
D|--0----0-1-2---2-1--|--0----0-1-2---2-1------0--|

   /--Fill 1--------
F|--------------------|
C|--------------------|
G|-----5--------------|
D|--/7----7-5---3---1-|

    /--Fill 2-----------------------
F|-----------------------------------|
C|--------3h5-------5-------5-----4--|
G|--3h5-------5p3--------------------|
D|-----------------------3-----2-----|

    /--Fill3-------------------
F|------------------------------|
C|------------------------------|
G|-7----------5-7-5-------------|
D|-------5h7---------5---3---1--|

  /--Fill 4-------------------
F|-----------------------------|
C|-------3h5-------------------|
G|--3h5------5-----------------|
D|-----------------5---3--2--1-|

    /--Fill 5----------------
F|----------------------------|
C|-------------------------22-|
G|-------1h3------------------|
D|--3h5-------3-3---2---1-----|

    /--Fill 6------------------------------------------
F|------------------------------------------------------|
C|--------4h6-------------------------------------------|
G|--4h6-------4-----------------------------------------|
D|-----------------5---3-3-3-3-3-3-3-3-2-2-2-2-1-1-1-1--|

(on the last fill, 6, pluck the hammer-on`s really strong, then
slow down, then on the rapidly declining low notes, go pretty
fast.)

Lyrics:

Look out at the darkness, and you will see.
Just call my name and I`ll be there.
You cannot touch me, you would not dare.
I am the chill that`s in the air.
And I try to get through to you, in my own special way,
As the barriers crumble at the end of the day.
Dark rivers are flowing back into the past.
You are the fish for which I cast.
And what of the future, what is to be.
As the rivers flow into the sea.
And I try to get through to you, in my own special way,
As the barriers crumble at the end of the day.
Do not take for granted, powers out there.
Don`t step into the demon`s lair.
Time is an illusion, rising from time.
Steep is the mountain which we climb.
And I try to get through to you, in my own special way,
As the barriers crumble at the end of the day.
Вверх

The Small Hours (2 вариант)

INTRO:
E|--0|------0---------0----|--|--------0-------0--------0-|--|
B|---|--6--------6--------6|--|---4--------4--------4-----|--|
G|-8-|8---8----8---8----8--|x2|-7---7----7---7----7---7---|x2|
D|---|---------------------|--|---------------------------|--|
A|---|---------------------|--|---------------------------|--|
E|---|---------------------|--|---------------------------|--|

    Main Riff
E|--------------------|--|---------|------------------------|
B|--------------------|--|---------|------------------------|
G|--------------------|--|---------|repeat-a-bunch-of-times-|
D|--------------------|x3|---------|------------------------|
A|-2-2--4/54/5--2-2--5|--|-5-4--4-3|------------------------|
E|-0-0--2/32/3--0-0--3|--|-3-2--2-1|------------------------|

    during verse play main riff 4 times then:
E|-------------|
B|-------------|
G|-------------|
D|-5---------3-|
A|-5---------3-|
E|-5---------3-|
    then main riff 2x

E|---------------------------------------|
B|---------------------------------------|
G|---------------------------------------|
D|---------------------------------------|
A|-0-0-0------0--3--------0-----0------3-|
E|-0-0-0---5-----------------5-------5-3-|


E|-------------------------------------------------------|
B|-------------------------------------------------------|
G|-----------------------------------------7------7----7-|
D|-----------------------------------------7------7----7-|
A|-0--0--0-------0--3-------0-----0--------5------5----5-|
E|-0--0--0----5----------------5-------5-----------------|

    Play intro with:
E|-------------------|
B|-------------------|
G|-------------------|
D|-1-----------1-1---|
A|-1-----------1-1---|
E|-1-----------1-1---|

    Rythem for the Solo
E|-----------------------------------------------------------|
B|-----------------------------------------------------------|
G|-----------------------------------------------------------|
D|-----------------------------------------------------------|
A|-------------------------------------------6------------8--|
E|-0---0-0-0----0-0-0----0-0-0---0-0-0---0-0-6-----0--0-0-8--|


E|------------------------------------------------------------|
B|------------------------------------------------------------|
G|------------------------------------------------------------|
D|------------------------------------------------------------|
A|------------------------------------------6-----------------|
E|-0--0-0-0--0-0-0--0-0-0-----0-0-0-----0-0-6------0--6--5--3-|

    After the solo play this
E|-------------------------------------------------------------|
B|-------------------------------------------------------------|
G|-------------------------------------------------------------|
D|-------------------------------------------------------------|
A|----------------------------------------------6------------8-|
E|-0--0-0-0---0-0-0-----0-0-0-----0-0-0-----0-0-6-----0--0-0-8-|


E|--------------------------------------------------------|
B|--------------------------------------------------------|
G|--------------------------------------------------------|
D|--------------------------------------------------------|
A|----------------------------------------7-------------9-|
E|-0---0-0-0--0-0-0----0-0-0--0-0-0---0-0-7-----0---0-0-9-|


E|-----------------------------------------------------------|
B|-----------------------------------------------------------|
G|-----------------------------------------------------------|
D|-----------------------------------------------------------|
A|-----------------------------------------8------------10---|
E|-0---0-0-0--0-0-0----0-0-0---0-0-0---0-0-8------0---0-0-10-|
Вверх

The Struggle Within

    (drums)
       4                                    (play 3 times)
|-------------||---------|---------|---------|-----------||
|-------------||o--------|---------|---------|----------o||
|-------------||o-7------|-(7)-----|-(7)-----|-5--------o||
|-------------||--0------|-(0)-----|-(0)-----|-------7---||

||-----------------|------------------|-------|
||-----------------|------------------|---r---|
||-----------------|-----------7------|-------|
||-0--0--0-0-0-0-0-|-0--0----0-0------|-------|

 (2/4)
||-----|-----|-----|-----|-----||
||--r--|--r--|--r--|--r--|--r--||
||-----|-----|-----|-----|-----||
||-----|-----|-----|-----|-----||

|-------|-------|-------|-------|-------|-------|---------|-------|
|---r---|---r---|---r---|---r---|---r---|---r---|---------|---r---|
|-------|-------|-------|-------|-------|-------|---------|-------|
|-------|-------|-------|-------|-------|-------|------3--|-------|

(2/4)       Bass fig.1a
|----------|------------|----------|------------|----------|------------|
|----------|------------|----------|------------|----------|------------|
|----------|------------|----------|------------|----------|------------|
|-0--0---0-|-0--0--2-/3-|-0--0---0-|-0--0--2-/3-|-0--0---0-|-0--0--2-/3-|

                                         (end Bass fig.1a) Bass fig.1b
|----------|------------|----------|-----------|----------|------------|
|----------|------------|----------|-----------|----------|------------|
|----------|------------|----------|-----------|----------|------------|
|-0--0---0-|-0--0--2-/3-|-0--0---0-|-0--0--1---|-0--0---0-|-0--0--2-/3-|

|----------|------------|----------|------------|----------|------------|
|----------|------------|----------|------------|----------|------------|
|----------|------------|----------|------------|----------|------------|
|-0--0---0-|-0--0--2-/3-|-0--0---0-|-0--0--2-/3-|-0--0---0-|-0--0--2-/3-|

|----------|------------|-------------|----------|------------|----------|
|----------|------------|-------------|----------|------------|----------|
|----------|------------|-------------|----------|------------|----------|
|-0--0---0-|-0--0--1----|--0--1--0--1-|-0--0---0-|-0--0--2-/3-|-0--0---0-|

|------------|----------|---------|-------------|
|------------|----------|---------|-------------|
|------------|----------|---------|-------------|
|-0--0--2-/3-|-0--0---0-|-0-0-3---|-0--3---0--3-|

                                                            (end Bass fig.1b)
|--------|------------|---------|------------|---------|---------|----------|
|--------|------------|---------|------------|---------|---------|----------|
|--------|------------|---------|------------|---------|---------|----------|
|-0-0--0-|-0--0--2-/3-|-0-0---0-|-0--0--2-/3-|-0-0---0-|-0-0-3---|-0-3--0-3-|

|-------|
|---r---|
|-------|
|-------|

Bass fig.2      (play 2 times)
|-------------|--------------|
|-------------|--------------|
|-------------|--------------|
|-3-3---3--3--|-1-1---1-1----|

Chorus          (play 2 times)
||-------------|-------------|
||-------------|-------------|
||-------------|-------------|
||-2------2----|-0----0-0--0-|

|------------|----------------|-------------|-----------|
|------------|------------2-4-|-------------|-----------|
|------------|----0---2-4-----|-------------|-----------|
|-2------2---|-0--------------|-2------2----|-0----0----|

Play bas fig.2 (2 times)

|----------|-----------|----------||
|----------|-----------|----------||
|----------|-----------|----------||
|-0----0---|-(0)-------|-(0)------||

(2/4)
||-------|-------|-------|-------|-------|-------||
||-------|-------|-------|-------|-------|-------||
||-------|-------|-------|-------|-------|-------||
||-(0)---|-(0)---|-(0)---|-(0)---|-(0)---|-(0)---||

2nd verse w/ Bass fig.1a

Play Bass fig.2 (4 times)

Chorus w/ Bass fig.3

Play Bass fig.2 (4 times)

Guitar solo
||-----------------|-------|-------|-----------------||
||o----------------|---%---|---%---|----------------o||
||o----------------|-------|-------|----------------o||
||--0-0--0-0-0-2-3-|-------|-------|-0-0---0-0-0-3---||

||-----------------|-------|-------|----------------||
||o----------------|---%---|---%---|---------------o||
||o------------0-1-|-------|-------|-------------1-o||
||--3-3--3-3-3-----|-------|-------|-3-3---3-3-3----||

Half time feel

||------------|--------------||
||o-----------|-------------o||
||o-----------|-------------o||
||--2-----2---|-0---0-0--0---||

|-----------|---------------|-----------|-------------|
|-----------|-----------2-4-|-----------|-------------|end half time feel
|-----------|-----0-2-4-----|-----------|-------------|
|-2-----2---|-0-------------|-2----2----|-0-----0-----|

      (play 3 times)
||-----------------|
||-----------------|
||-------------0-1-|
||-3-3---3-3-3-----|

|---------------|---------------|-------------|-------------|------------||
|---------------|---------------|-------------|-------------|------------||
|---------------|---------------|-------------|-------------|------------||
|-3-3---3-3-3-4-|-1--4----1--4--|-3-3-3-3-4---|-1--4---1--4-|-3-3-3------||

||------------------|-------|-------|----------------||
||o-----------------|---%---|---%---|---------------o||
||o-----------------|-------|-------|---------------o||
||--0-3-0-0-0-0-0-0-|-------|-------|-5-4-3---3-2-1--||

||-----------||
||-----------||
||-----------||
||-1-2-1-----||

3rd verse w/ Bass fig.1b

Play Bass fig.2 (4 times)

Chorus w/ Bass fig.3

Play Bass fig.2 (4 times)

|----------|-----------|----------||
|----------|-----------|----------||
|----------|-----------|----------||
|-0----0---|-(0)-------|-(0)------||

(2/4)
||-------|-------|-------|-------|---------|---------|----------|--------||
||-------|-------|-------|-------|---------|---------|----------|--------||
||-------|-------|-------|-------|---------|---------|----------|--------||
||-(0)---|-(0)---|-(0)---|-(0)---|-0-0----0|-0-0-0-0-|-0-0----0-|-0------||
Вверх

The Thing That Should Not Be

Tune all guitars down 1 full step

1)
F-----------------------------------
C-----------------------------------
G--2--4--------2--4----3-----4-----5
D--0--2--------0--2--2-----2-----2--
intro clean

2)
F-----------5-----6-----7-------------5------6------7-------
C-----------5-----6-----7-------------5------6------7-------
G-----------3-----4-----5-------------3------4------5------2
D--0--0-1-2-----2-----2------0--0-1-2----1-2----1-2----1-2-0
  pm.......     .     .      ........    ...    ...    ...
intro crunch
...Face the thing that should not be

3)
F|-7-------7---7-3-------3---3-4-------4---4-------------------|
C|-7-------7---7-3-------3---3-4-------4---4-6-----------------|
G|-----------9-------------5-------------6---3-3-3-3-3-3-3-3-3-|
D|---7-7-7---7-----3-3-3---3-----4-4-4---4---1-1-1-1-1-1-1-1-1-|

Great old one, forbidden site...

4)
F--------------------------------------------------------
C--2--4--------------------------------------------------
G--2--4-----------------------4-4-3-3-3-3-4-4-4-4-5-5-5-5
D--0--2-----------------------2-2-2-2-2-2-2-2-2-2-2-2-2-2
Messenger of fear in sight   Dark deception fills the light.
verse clean

5)
F--4---5------------------------------------------4--5
C--4---5------------------------------------------4--5
G--2---3---7-8-7-8-2-2-2-2-2-2-2-2-2-2-2-2-7-8-7--2--3
D----------5-6-5-6-0-0-0-0-0-0-0-0-0-0-0-0-5-6-5------
                   pm.....................
..is rising

6)
F--4--5-----4
C--4--5--3--4
G--2--3--3--2
D--------1---
In maddness you dwell.

7)
F--4--------------------4------------------4-5---4
C--4--------2-----------4-------2----------4-5-3-4
G--2------2---3-2-3-2-0-2-----2---3-2-3-2--2-3-3-2
D-----3-5-----------------3-5------------------1--
     pm..............   ...............
post solo

-----------------------
solo by Jake Horbol

------------------|----------------7h10p|--7~-|
------------------|---------------------|-----|
------------------|---------------------|-----|
------------------|---------------------|-----|
------------------|---------------------|-----|
------------------|---------------------|-----|

------------------10-10-10-10-|
----17b-----------------------|
------------------------------|
------------------------------|
------------------------------|
------------------------------|

       x12
-14p11p10-|----------------|
----------|--13r-------13-|
----------|----------------|
----------|----------------|
----------|----------------|
----------|----------------|

------------9-10-9h10p9----------------------|---------|
-------9-10-------------10-8-----------------|---------|
--9h10-----------------------11-10-----------|---------|
-----------------------------------12-11-8-7-|---------|
---------------------------------------------|--9---8~-|
---------------------------------------------|---------|
  dive
-----------14p11p10-14p11p10-14p11p10-14p11p10-14p11p|
-----------------------------------------------------|
--0--------------------------------------------------|
-----------------------------------------------------|
-----------------------------------------------------|
-----------------------------------------------------|

--10-14p11p10-14p11p10-14p12p10/------|
--------------------------------------|
----------------------------------12~-|
--------------------------------------|
--------------------------------------|
--------------------------------------|

Bass Fig1
G|---------------------------------|
D|---------------------------------|
A|--------------1-------2-------3--|
E|--0--0--1--2-------2-------2-----|

Bass Fig2
G|----------------------------------------|
D|----------------------------------------|
A|--------------1--------2--------3-------|
E|--0--0--1--2-----1--2-----1--2----0--2--|

Bass Fig3
G|-----------------------------------------------------------|
D|-----------------------------------------------------------|
A|-----------------------------------------------------------|
E|-7-7-7-7-10-7-10-6-3-3-3-6-3-6-7-4-4-4-7-4-7-4-1-1-1-1-1-1-|

Bass Fig4
G|------------|
D|------------|
A|------------|
E|--0--2------|
      Let ring

Bass Fig5
G|-------------------------------------------------------|
D|-------------------------------------------------------|
A|--0----1-----------------------------------------------|
E|------------5--6--5-6-0-0-0-0-0-0-0-0-0-0-0---5--6--5--|

Bass Fig6
G|--------------------|
D|--------------------|
A|--0----1---------0--|
E|------------1-------|

Bass Fig7
G|-----------------------------------|
D|-----------------------------------|
A|-----------------------------------|
E|--5--6--5-6-0-0-0-0-0-0-0-0-0-0-0--|

Bass Fig8
G|-----------------------------------------------------------|
D|-----------------------------------------------------------|
A|-----------0--------0--1-0---1-0--0--------0-3-1-0-1-0-0-1-|
E|--5--6--5-----3--5---------3---------3--5------------------|

Bass Fig9
G|--------------------------|
D|--------------------------|
A|--0--------0--5-1-0-1--0--|
E|-----3--5-----------------|
Вверх

The Unforgiven

Am     C             Em  E
New blood joins this earth
    D5             A5
And quicly he's subdued
   Am     C               Em
Through constant pain disgrace
       E                Am
The young boy learns they rules
     C                  Em
With time the child draws in
  D (G)               A
This whipping boy done wrong
     C                 Em
Deprived of all his thoughts
     E                       Am
The young man strunggles on and on
           C                 Em
He's known avow unto his own
      D             Am
That never from this day
    C               Em  E
His will they'll take a way

Am    C                 Em
What I've felt what I've known
   E                             Am
Never shined through in what I've shown
C               Em
Never be never see
       E                  Am
Won't see what might have been
     C                  Em
What I've left what I've known
            E                  Am
Never shined through in what I've shown
Am    C         G
Never free never me
      E             Am
So I dub thee unforgiven

They dedicate their lives to running all of his
He tries to please them all, this bitter man he is
Through out his life the same hes hattled constantly
This fight he cannot win a tired man they see no longe rooles
The old man then preperes to die regrettully
That old man here is me

What I've felt what I've known
Never shined through in what I've shown
Never be never see
Won't see what might have been
What I've felt what I've known
Never shined through in what I've shown
Never free never me
So I dub thee unforgiven
Вверх

The Unforgiven (2 вариант)

1)
e---------------------------
B--0-0-----0-----0-----1----
G------2-----2-----2-----2--  Repeat
D--------2-----2-----2-----2
A--0------------------------
E---------------------------
accoustic intro


2)
e------------------------
B------------------------
G--2-4-5--5-4-2--2-4-5--2
D------------------------
A------------------------
E------------------------
still clean intro


3)
e-----------------------------------------------------------
B--------------------------------------5-5-5-3--------------
G--2-4-5--5--5-5-4---4----2-4-2--2-4-5---------4-4-0-1/2-4-2
D--0---------------5---2--2------2--------------------------
A-----------------------------------------------------------
E-----------------------------------------------------------
chorus/intro


4a) Kirk
G----------------------12-12-11-11------
D--12-12-10-9-12p9-----0--0--0--0--10-10 twice
A--0--0--0--0-0--0-10--------------0--0-
E------------------0--------------------
pm......................................

4b) James
G-------------------2-2-2-2----
D--2-2-2-5----------0-0-0-0-2-2
A--0-0-0-3-2-2--------------0-0
E----------0-0--0-0------------
crunch verse


5)
G-------------------------------------------- twice --
D--10p0-----9p0-----7p0-----5p0-----5-------5 then  -2
A-------0-0-----0-0-----0-0-----0-0-3-3h5p3-5       -2
E-------------------------------------------3       -0
       pm..     ...     ...     ...
"falling" riff                         full


6)                                     ^  ^
G-------------------2-2-2-2----       -----
D--2-2-2-5----------0-0-0-0-2-2 twice -4--4 play twice then to
A--0-0-0-3-2-2--------------0-0 then  ----- falling riff
E----------0-0--0-0------------       -----
               pm..
solo riff


7)
e--0--0--0-0--0-0-0-0--3-3-3-3--0-0-0-0
B--1--1--1-1--1-1-1-1--3-3-3-3--0-0-0-0
G--2--2--2-2--0-0-0-0--0-0-0-0--1-1-1-1
D--2--2--2-2--2-2-2-2--0-0-0-0--2-2-2-2
A--0--0--0-0--3-3-3-3--2-2-2-2--2-2-2-2
E----------------------3-3-3-3--0-0-0-0
accoustic closing
______________________________________________________________________

pre-solo (clean):
e-------------------------0-0-0-0-0-0-0-------------------------
B-------------------------0-1/3/5\3\1/3--8/10\8-7--5-3-----3----
G----4-5-7-4h5p4---4---------------------7/9-\7-7------5-4---4--
D--7-------------5---5-7---------------------------------------5
A---------------------------------------------------------------
E---------------------------------------------------------------

e---------------------
B---------------------
G----------------5----
D--------------5---5-7
A------3-5/6/7--------
E--3-5----------------

e-------------------------7-----10------12-------14-------15----17
B--8-8p7---7-8---7-8-10-8---8-8----8/10----10/12----12/14----14---
G--------9-----9--------------------------------------------------
D-----------------------------------------------------------------
A-----------------------------------------------------------------
E-----------------------------------------------------------------


Solo (distorted)
   ^  ^      ^
e-----------------------------------
B--7--7-----------------------------
G--7--7-5---------------------------
D---------7~~7-5--------------------
A----------------7-5-3-5-3-------0-3
E--------------------------5-3-0----
                    pm..............

                                   AH       AH        AH
e----------------------------------10--------8--------10---
B-------------------7---7-8-7-8-10----10--10---10--10----10
G-----5-7-5-7/9-7-9---9------------------------------------
D--/7------------------------------------------------------
A----------------------------------------------------------
E----------------------------------------------------------

   ^   ^   ^    ^  ^                     ^
e---------------20-20--20-17-20p17----17---
B--20-20--20-17--------------------20----20
G------------------------------------------
D------------------------------------------
A------------------------------------------
E------------------------------------------

e--7-9-10-9----9-----------------------------12------- (7 times)
B-----------10---8-7-5-7-5-3-1-3-1-0------13----13----
G------------------------------------2/14----------14-
D-----------------------------------------------------
A-----------------------------------------------------
E-----------------------------------------------------

   ^  ^    ^     ^  ^
e-----------------------17-19-20-19-17-19-17----17---------
B---------------20--20-----------------------20----20-17---
G--19-19--19-17------------------------------------------19
D----------------------------------------------------------
A----------------------------------------------------------
E----------------------------------------------------------

e------------------------------------
B------------20---17h18p17~~~17h18p17
G--19--19-17-------------------------
D------------------------------------
A------------------------------------
E------------------------------------
Вверх

The Unforgiven II

Am C G E

Am    C       G E
Lay beside me, tell me what they?ve done
Am         C                G E
Speak the words I wanna hear, to make my demons run
Am    C                G  E
The door is locked now, but it's open if you're true
Am      C                  G             E
If you can understand the me, than I can understand the you

Lay beside me, under wicked sky
The black of day, dark of night, we share this paralyze
The door cracks open, but there?s no sun shining through
Black hearts scarring darkness still,
but there?s no sun shining through
No, there?s no sun shining through
No, there?s no sun shining
    Am              C
    What I've felt, what I've known
    G             E
    Turn the pages, turn the stone
    Am
    Behind the door
    C                       G E
    Should I open it for you'

    Yeah, what I've felt, what I've known
    Sick and tired, I stand alone
    Could you be there, 'cause I'm the one who waits for you
    Or are you unforgiven too?

Come lay beside me, this won?t hurt, I swear
She loves me not, she loves me still,
but she?ll never love again
She lay beside me, but she?ll be there when I'm gone
Black heart scarring darker steel, yes,
she?ll be there when I'm gone
Yes, she?ll be there when I'm gone
Dead sure she?ll be there

    What I've felt, what I've known
    Turn the pages, turn the stone
    Behind the door
    Should I open it for you'

    Yeah, what I've felt, what I've known
    Sick and tired, I stand alone
    Could you be there, 'cause I'm the one who waits for you
    Or are you unforgiven too?

Lay beside me, tell me what I've done
The door is closed, so are your eyes
But now I see the sun, now I see the sun
Yes, now I see it

    What I've felt, what I've known
    Turn the pages, turn the stone
    Behind the door
    Should I open it for you'

    Yeah, what I've felt, what I've known
    So sick and tired, I stand alone
    Could you be there, 'cause I'm the one who waits
    The one who waits for you

    Oh, what I've felt, what I've known
    Turn the pages, turn the stone
    Behind the door
    Should I open it for you'
    So I dub the unforgiven

    Oh, what I've felt
    Oh, what I've known

    I take this key
    And I bury it in you
    Because you're unforgiven too

    Never free
    Never me
    'cause you're unforgiven too
    Oh
Вверх

The Wait

First of all, this song is very random, so you just have to go
with the flow. Almost the whole song is based off of the Verse
riff and the Chorus riff. There are some improvisions and licks
which I will show, but you have to just go with the flow and
make up stuff to sound like it.

Intro: Fast
G|-----------------------|
D|-----------------------|
A|-----------------------|
E|-/8-0-----12-00-----1/-|

Verse: Fast (percussive; emphasize the notes with ( ) around
them)

G|------------------------------------------------|
D|----------------------------------------------3-|
A|---------------------------------------3---3----|
E|-0-(0)-0-0-(0)-0-0-(0)-0-(0)-0-0---1------------|
                                         A lot of times this
                                         whole end part is made
G|--------------------------------------|higher like down here:
D|--------------------------------------|
A|--------------------------------------|
E|-0-(0)-0-0-(0)-0-0-(0)-0-(0)-0-0-1111-|

A lot of times a (2)
is stuck in here
G|---------|
D|-------5-|
A|-3---3---|
E|---1-----|

Chorus:

G|----------------------------------------------------------|
D|o---------------------------------------3-3-3-3-3-3-----o-|
A|o-0-0-0-0-2---0-0-0-0-3---0-0-0-0---------------------0-o-|
E|----------------------------------------------------------|

G|-----------------------------------------------|
D|---------------------------------------------o-|
A|-0-0-0-0-2---0-0-0-0-3---0-0-0-0-------------o-|
E|---------------------------------1--1-1--111---|

Sometimes the A|-0-0-0-0- `s go A|-000-0-0- (if you don`t
understand what I mean by this, mail me).

Somewhere along the line, after a few Verses and Chorus`s,
there is a break like below:

G|------------|-------------|------------|-----------------|---|
D|------------|-------------|------------|---------5-------|---|
A|------------|-------------|------------|-------7---7-5---|---|
E|-00---------|-00--1111----|-00---------|-00------------7-|-0-|

G|----8---------------------------|----------------|
D|-11---11----7---5---5-----------|----------------|
A|---------------------7---7-5----|----------------|
E|------------------------------7-|-0--------------|

Then you do a lot of stuff like:

G|--------------------------------------|
D|----------------------------3-3-3-3-2-|
A|--------------------------------------|
E|-0-0-0-0-0-0-0-0-0-0-0-0-0------------|

And stuff like:

G|-----------------------------------------|
D|---------------------------------------3-|
A|---------------------------------3---3---|
E|-0-0-0-0-0-0-0-0-0-0-0-0-0---1-----------|

Just be inventive, and go with the flow of the song. It`ll go
in and out of muffled parts and the Main Verse.

Also, after the first, slow wa-wa solo, there is a muffled part
for a while. Then do the bass lick below, to open it up to the
next, faster, solo.

G|-----------------|
D|----5-7-5--------|
A|-7---------7-5---|
E|---------------7-|

The end, after one last Chorus, goes like:

G|----------------|
D|----------------|
A|----------------|
E|-0----------X-X-|

G|-----|
D|-(5)-|
Вверх

Thorn within

(Проигрыш Riff)        (Lead thing Проигрыш)
Gb|----------2-|     Bb|-1/3--4--3--1-----|
Db|-2---2----2-|     Gb|---------------2--|
Ab|-2---2----0-|     Db|------------------|
Eb|-0-3-0--3---|     Ab|------------------|

(Descend Riff)
Ab|---4---3---2---1---0-----4--4--4-4-0--5--4p0-:|
Eb|-2---2---2---2---2---0-0-2--2--2-2-0--3--2p0-:|

Eb|------------------------------------------------------|
Bb|------------------------------------------------------|
Gb|------------------------------------------4---4-6---6-|
Db|-7-(7)--4-7-7/9-(9)--9/10\9\7-5---5-4---4-------------|
Ab|------------------------------------------------------|
Eb|-5-(5)------------------------------------------------|

with distortion
Eb|----------------------------------------------------------|
Bb|----------------------------------------------------------|
Gb|----------------------------------------------------------|
Db|----------------------------------------------4--4-6--6-6-|
Ab|---5-5/7--(7)--7-7/9--(9)----------5---5-4--4-2--2-4--4-4-|
Eb|-0-3-3/5--(5)--5-5/7--(7)-7/8\7\5--3---3-2--2-------------|

before the solo
Ab|--7-6-|-5-5--5--5--5-5--5--5--5-5--
Eb|--5-4-|-3-3--3--3--3-3--3--3--3-3--

solo
Eb|------------------------------------------------------------|
Bb|----/Full\-------------------------/F\----------------------|
Gb|-12/------\12-------------------14/---\14-11------11^9 11^9-|
Db|--------------10----------10-12----------------12-----------|
Ab|-----------------12-10-12-------------------14--------------|
Eb|------------------------------------------------------------|

Eb|------------------------------------------------------------|
Bb|----/F\-----------------------------------------------------|
Gb|-11/---\11-9------------------------------------------------|
Db|------------12-11-11^12^11----------11-12-------11-12-14-11-|
Ab|---------------------------13-13-14-------14-14-------------|
Eb|------------------------------------------------------------|

THORN WITHIN
(Hetfield/Ulrich/Hammett)

Forgive me father
For I Have sinned
Find me guilty of the life I feel within

When I'm branded
This mark of shame
So I look down disgraced for saying I know that you must feel

I am, I am the secret
I am, I am the sin
I am, I am the guilty
And I, I am the thorn within

Forgive me father
For I Have sinned
Find me guilty with true guilt that's from within

So point your fingers
Point right at me
For I am shadows and will follow you whatever see my way

I am, I am the secret
I am, I am the sin
I am, I am the guilty
And I, I am the thorn within

I do your time
I take your fall
I'm branded guilty for a soul

So point your fingers
Point right at me
For I am shadows and will follow you whatever see my way

I am, I am your secrets
I am, I am your sin
I am, I am your guilty
And I, I am the thorn within
I am the thorn within
I am the thorn within
I am the thorn within
Вверх

Through The Never

         16x          Riff A         3x  Fill 1          Riff A 3x
||----------|--------|-----------------||---------------|         |----------|
||----------|--------|-----------------||---------------|         |----------|
||.--------.|--------|.---------------.||---------------|         |----------|
||.--------.|--------|.---------------.||---------------|         |----------|
||-----4----|-2-2---5|-----4-------3---||-----4-------5-|         |-2-2---5--|
||-0-2---2--|-0-0---3|-0-2---2-0-2---2-||-0-2---2-0-2-3-|         |-0-0---3--|
   PM.....             PM.............    PM.........

Riff A 3x  Fill 1  Riff A 3x
                             |-------------------------|
                             |-------------------------|
                             |---------2-3-2-0---------|
                             |---------2-3-2-0-3-2-0-3-|
                             |-2-2-------------3-2-0-3-|
                             |-0-0---------------------|
                                               PM.....

Rhy Fig 1
|---------|---------|---------|---------|-----------|---------------------|
|---------|---------|---------|---------|-----------|---------------------|
|.--------|---------|---------|---------|---2----3--|-2-3-2-0------------.|
|.--------|---------|---------|---------|---2----3--|---------3-2-0-2-3P2.|
|---------|---------|---------|---------|-----------|---------------------|
|-0-0-0-0-|-0-0-0-0-|-0-0-0-0-|-0-0-0-0-|-0----0----|---------------------|
  PM...................................  PM   PM
                                      3x
|---------|---------|---------|---------|-----------|---------|---------|
|---------|---------|---------|---------|-----------|---------|---------|
|.--------|---------|---------|--------.|---2----3--|---------|---------|
|.--------|---------|---------|--------.|---2----3--|---------|---------|
|---------|---------|---------|---------|-----------|---------|---------|
|-0-0-0-0-|-0-0-0-0-|-0-0-0-0-|-0-0-0-0-|-0----0----|-0-0-0-0-|-0-0-0-0-|
  PM...................................  PM   PM      PM...............

|---------|---------|---------|---------|---------|---------|---------|
|---------|---------|---------|---------|---------|---------|---------|
|---------|---------|---------|---------|---------|---------|---------|
|---------|---------|---------|---------|---------|---------|---------|
|---------|---------|---------|---------|---------|---------|---------|
|-0-0-0-0-|-0-0-0-0-|-3-3-3-3-|-3-3-3-3-|-3-3-3-3-|-3-3-3-3-|-2-2-2-2-|
  PM.................................................................
                                               end Rhy Fig 1
|---------|---------|---------|-----------|-----------------|
|---------|---------|---------|-----------|-----------------|
|---------|---------|---------|---2----3--|-2-3-2-0---------|
|---------|---------|---------|---2----3--|---------3-2-0-3-|
|---------|---------|---------|-----------|-----------------|
|-2-2-2-2-|-2-2-2-2-|-2-2-2-2-|-0----0----|-----------------|
  PM.........................  PM   PM

 GTR I (Rhy Fig 2)                                         (end Rhy Fig 2)
|-----------------|-----------------|-----------------|-------------------|
|-----------------|-----------------|-----------------|-------------------|
|-----------------|-----------------|-----------------|-------------------|
|-----------------|-----------------|-----------------|-------------------|
|-----4-------3---|-----4-------3---|-----4-------3---|-----4-------3-----|
|-0-2---2-0-2---2-|-0-2---2-0-2---2-|-0-2---2-0-2---2-|-0-2---2-0-2---2---|
| PM............. | ............... | ............... | ...............   |
|                 |                 |                 |                   |
|GTR II(Rhy Fig 2)|                 |                 |    (end Rhy Fig 2)|
|-----------------|-----------------|-----------------|-------------------|
|-----------------|-----------------|-----7-----------|-------------------|
|-----------------|-----------------|--------6--5--4--|-------------------|
|-----------------|-----------------|-----------------|-----4-------------|
|-----4-------3---|-----4-------3---|-----------------|--------4--3--2----|
|-0-2---2-0-2---2-|-0-2---2-0-2---2-|-----------------|-------------------|
  PM.............   ...............
 ________________________
 Rhy Fig 3               |
 3x                    3x       Riff A 3x  Fill 1  Riff A 3x
|------------||----------|-----|
|------------||----------|-----|
|.----------.||.--------.|-----|
|.----------.||.--------.|-----|
|-2-4--4-----||-2-4--2-4-|-5---|
|-0-2--2-2-2-||-0-2--0-2-|-3---|

                           Rhy Fig 1  Rhy Fig 2  Rhy Fig 3
|-------------------------|                                |---------------|
|-------------------------|                                |---------------|
|---------2-3-2-0---------|                                |-2-3-2-0-------|
|---------2-3-2-0-3-2-0-3-|                                |---------3-2-0-|
|-2-2-------------3-2-0-3-|                                |---------------|
|-0-0---------------------|                                |---------------|
                  PM.....
 (solo)              14x                       14x           3x    6x
|-------------||---------|-------------||---------|------------|-----|
|-------------||---------|-------------||---------|------------|-----|
|-------------||.-------.|------------.||.-------.|.----------.|.---.|
|-------------||.2-4-4-4.|------------.||.-------.|.----------.|.---.|
|-4-2--2--2-2-||-0-2-2-2-|-4-2--2--2-2-||-5-7-7-7-|-2-4--4-----|-2-4-|
|-2-0--0--0-0-||---------|-2-0--0--0-0-||-3-5-5-5-|-0-2--2-2-2-|-0-2-|
  Heavy PM...             Heavy PM...     PM..................

|---------|---------|---------|---------|---------|---------|---------|
|---------|---------|---------|---------|---------|---------|---------|
|---------|---------|---------|---------|---------|---------|---------|
|---------|---------|---------|---------|---------|---------|---------|
|---------|---------|---------|---------|---------|---------|---------|
|-0-0-0-0-|-0-0-0-0-|-0-0-0-0-|-0-0-0-0-|-0-0-0-0-|-0-0-0-0-|-0-0-0-0-|
  PM.................................................................
                                                 12x                   4x
|---------|---------|----------|--------------------|----------|---------|
|---------|---------|----------|--------------------|----------|---------|
|---------|---------|.---------|-------------------.|----------|.-------.|
|---------|---------|.---------|-------------------.|----------|.-------.|
|---------|---------|-2------5-|-----------5--7P5---|-2-4--2-4-|-----3---|
|-0-0-0-0-|-0-0-0-0-|-0--0-0-3-|-0-0-/6(6)--------6-|-0-2--0-2-|-0-2---2-|
  PM...............      PM.     PM.

Rhy Fig 2  Rhy Fig 3 |---| Riff A 3x  |-----|
                     |---|            |-----|
                     |---|            |-----|
                     |---|            |-----|
                     |-5-|            |-5-5-|
                     |-3-|            |-3-3-|
Вверх

Trapped Under Ice

Intro:
e|-------------------------------------------------------|
B|-------------------------------------------------------|
G|-------------------------------------------------------|
D|---------0---2-----------------0------0----------------|
A|---------0---2------------------------0----------------|
E|-0---0-----------------0---0-----------------0-0-0-0-0-|

Riff 1: I just can`t understand the rhythm of this guitar-line.

e|------------------------------------------|
B|------------------------------------------|
G|------------------------------------------|
D|---------0---2--------------0---2---3---3-|
A|---------0---2--------------0---2-0-3---3-|
E|-0---0-0------------0---0-0---------------|

This is played over Riff 1:

e|---------------------------------|
B|---------------------------------|
G|-----------------------9---12-11-|
D|-9------11-----12------7---10-9--|
A|-7------9------10----------------|
E|---------------------------------|

Verse riff:
e|-------------------------------------------------|
B|-------------------------------------------------|
G|-------------------------------------------------|
D|-------------------------------------------------|
A|-2---------------2---------------2---------------|
E|-0h2-2-2-2-2-2-2-0h2-2-2-2-2-2-2-0h2-2-2-2-2-2-2-|

E|--------------|
B|--------------|
G|--------------|
D|-5--4---2---4-|
A|-3--2---0---2-|
E|--------------|

First is the verse riff played 4 times while Kirk
does the solo, then it goes to this:

e|-----------|
B|-----------|
G|-----------|
D|-4-4-4-4-4-|
A|-2-2-2-2-2-|
E|-----------|

And then it`s time for the first verse with the verse riff:

 I don`t know how to live trough this hell
 Woken up, I`m still locked in this shell
 Frozen soul, frozen down to the core
 Break the ice, I can`t take anymore

Chorus:
e|---------------------------------------------------|
B|---------------------------------------------------|
G|---------------------------------------------------|
D|---------------------------------------------------|
A|-6-7------6-7-----2------6-7---6-7-------7-----4-5-|
E|-4-5------4-5---0-0------4-5---4-5---0-0-5---0-2-3-|

E|------------------------------------|
B|------------------------------------|
G|------------------------------------|
D|------------------------------------|
A|-4-5----------5-----6-7-----7-8-7-7-|
E|-2-3------0-0-3---0-4-5---0-5-6-5-5-|

   Freezing
   Can`t move at all
   Screaming
   Can`t hear my call
   I am dying to live
   Cry out
   I`m trapped under ice

Then it`s time for another solo and another verse:

 Crystallized, as I lay here and rest
 Eyes of glass stare directly at death
 From deep sleep I have broken away
 No one knows, no one hears what I say

Then again, a chorus and then to this riff:

Riff 2:
e|-----------------------------------------|
B|-----------------------------------------|
G|-----------------------------------------|
D|-----------------------------------------|
A|-7-8-7-8-8---5-5---7-7---3-3-3-3-3-3-3-3-|
E|-5-6-5-6-6---3-3---5-5---1-1-1-1-1-1-1-1-|

Then you play this, 2 times
Riff 3:
e|-------------------------------------|
B|-------------------------------------|
G|-------------------------------------|
D|-----------12---12-----------3p2-----|
A|-2---------10---10---3p2-0-------3p2-|
E|-0---0-0-0------------------3--------|

E|----------------------------------------------------|
B|----------------------------------------------------|
G|----------------------------------------------------|
D|-----------9----7-----------------------------------|
A|-2---------7----5---8-------8-------8-------8-------|
E|-0---0-0-0----0-----6---6-6-6---6-6-6---6-6-6---6-6-|

Followed by riff 3:
e|-------------------------------------------------|
B|-------------------------------------------------|
G|-9---9---9------7---7---7------5---5---4---------|
D|-9---9---9------7---7---7------5---5---4-------2-|
A|-7---7---7------5---5---5------3---3---2---5-4-2-|
E|-------------------------------------------3-2-0-|

 Scream from my soul
 Fate, mystified
 Hell, forever more

Then back to riff 3 again 4 times and then this:

e|-----------------------------------------------------------|
B|-----------------------------------------------------------|
G|-----------------------------------------------------------|
D|-----------------------------------------------------------|
A|-8-------8-------8-------8-------7-------7-------7-------7-|
E|-6---6-6-6---6-6-6---6-6-6---5-5-5---5-5-5---5-5-5---5-5-5-|

E|-----------------------------------------------------------|
B|-----------------------------------------------------------|
G|-----------------------------------------------------------|
D|-----------------------------------------------------------|
A|-----7------7------7------7--------------------------------|
E|-5-5-5--5-5-5--5-5-5--5-5-5--5-5-5-5-5-5-5-5-5-5-5-5-5-5-5-|

E|-------------------|
B|-------------------|
G|-------------------|
D|-----------3-2-----|
A|-5-3-2-0-------3-2-|
E|---------3---------|

Then it starts all over again with a solo and a verse:

 No release from my cryonic state
 What is this? I`ve been stricken by fate
 Wrapped up tight, cannot move, can`t break free
 Hand of doom has a tight grip on me

Verse 3 is followed by 2 choruses and after that, this,
played 3 times:

e|------------------------------|
B|------------------------------|
G|------------------------------|
D|------------------------------|
A|-----------------7---8-8--7-7-|
E|-5-5-5-5-5-5-5-5-5---6-6--5-5-|

Then this:

e|-------------------|
B|-------------------|
G|-------------------|
D|-------------------|
A|-8-8---5-5---7-7---|
E|-6-6---3-3---5-5---|

And the verse riff again 4 times. On the last time
you end up with this:

e|---------------|
B|---------------|
G|---------------|
D|-4-4-4-4-4-----|
A|-2-2-2-2-2---4-|
E|-------------2-|
Вверх

Trapped Under Ice (2 вариант)

(4/4)
Intro (Guitar)3X
||---------||     ||----------------||
||----R----||     ||----------------||
||---------||     ||-2-2-2-2-2--R---||
||---------||     ||----------------||

Double Time Feel
                                       (play 8 times)
||------------------------------|--------------------||
||o-----------------------------|-------------------o||
||o-----5---7-------------------|-----5---7-5-8-8-8-o||
||--0-0---0---0-0-0-0-0-0-0-0-0-|-0-0---0------------||

bass fig.1 (play 3 times)                             end bass fig.1
||----------------------------------|-----------------------------||
||o---------------------------------|----------------------------o||
||o---------------------------------|-----------------3--2--0--2-o||
||--0-2-2-2-2-2-2-2-0-2-2-2-2-2-2-2-|-0-2-2-2-2-2-2-2-------------||
     H               H                 H

||---------------------------------|----------------------------||
||---------------------------------|----------------------------||
||---------------------------------|-----------------2-2-2-2--3-||
||-0-2-2-2-2-2-2-2-0-2-2-2-2-2-2-2-|-0-2-2-2-2-2-2-2------------||
    H               H                 H

1st, 2nd, 3rd verses w/ bass fig.1 (4 times)

Chorus
  Bass fig.2
||----------------|----------------|-----------------|-----------------|
||----------------|----------------|-----------------|-----------------|
||----------------|----------------|-----------------|-----------------|
||-4--5--0-4--5--0|-4--5--0--0-0--0|-4--5--0-4--5--0-|-4--5--0--0-5-5-0|

                                  end bass fig. 2
|---------------|----------------|---------------|-----------------|
|---------------|----------------|---------------|-----------------|
|---------------|----------------|---------------|-----------------|
|-2-3--0-2-3--0-|-2-3--0--0-3-3-0|-4--5--0-4-5--0|--5--6---5--5----|

 _________________________
|1.                        ||
|  w/ Bass fig.1 (4 times) ||
|                          ||
|                          ||

 _________________________
|2.
|--------------|-------------|-----------------||
|--------------|-------------|-----------------||
|--------------|-------------|-----------------||
|-5-6--5-6-6---|-3-3---5-5---|-1-1-1-1-1-1-1-1-||

Bass fig.3
||----------------------|-----------------|
||o---------------------|---------3-2-----|
||o---------------------|-3-2---------3-2-|
||--0--0-0-0--3-----3-0-|-----5-4---------|

                                     (end bass fig.3)
|--------------------|-----------------------------||
|--------------------|----------------------------o||
|-----------7-----5--|----------------------------o||
|-0--0-0-0------0----|-6--6-6-6--6-6-6--6-6-6--6-6-||

  bass fig.4                                              end bass fig.4
||-------------------|------------------|----------------|--------------||
||o------------------|------------------|----------------|-------------o||
||o-7--7--7----------|-5--5--5----------|-3--3--2--------|-------------o||
||-------------------|------------------|------------3-2-|-0------------||

Bridge w/ Bass fig.4 (2 times)

then continue w/ Bass fig.3 (4 times)

||-----------------------------|-----------------------------|
||-----------------------------|-----------------------------|
||-----------------------------|-----------------------------|
||-6--6-6-6--6-6-6--6-6-6--6-6-|-5--5-5-5--5-5-5--5-5-5--5-5-|

|-----------------------------|---------------------------------|
|-----------------------------|---------------------------------|
|-----------------------------|---------------------------------|
|-5--5-5-5--5-5-5--5-5-5--5-5-|-5-5-5-5-5-5-5-5-5-5-5-5-5-5-5-5-|

|-----------------||
|---------3-2-----||
|-3-2---------3-2-||
|-----5-4---------||

Guitar solo w/ Bass fig.1 (4 times)

then continue w/ Bass fig.2

|------------------------------|---------------------------|
|------------------------------|---------------------------|
|------------------------------|---------------------------|
|-5--6----5--5--5--5-5-5-5-5-5-|-5--6----5--5--5-5-5-5-5-5-|

||------------------------------|--------------------|-----------------||
||------------------------------|--------------------|-----------------||
||------------------------------|--------------------|-----------------||
||-5--6----5--5--5--5-5-5-5-5-5-|-5--6----5--6--6----|-3--3----5--5----||

Bass fig.1 (3 times)

||---------------------------------|----------------|
||---------------------------------|----------------|
||-----------------2---2---2-------|----------------|
||-0-2-2-2-2-2-2-2-----------------|-2--------------|
Вверх

Tuesdays Gone

 INTRO

  Gtr.1
E||----|-------------------|
B||-14-|-14-----14*---(14)-|
G||-11-|-------------------|
D||----|-11*---(11)--------|
A||----|-------------------|
E||----|-------------------|
 Vocal:One,two,three
       One,two,three
  Gtr.2 Rhy.Fig 1
E|------------------|-----------------|
B|------------------|-2---------------|
G|----------------2-|--------2--------|
D|--------2---------|---------------2-|
A|-0----------------|-----------------|
E|------------------|-----------------|

E|----|-------------|-----------|
B|-12-|-12*----(12)-|-12-----10-|
G|----|-------------|-----------|
D|--9-|--9*-----(9)-|--7--------|
A|----|-------------|-----------|
E|----|-------------|-----------|

E|------------|-----------|-----------|
B|------------|-----------|-----------|
G|------------|-1---------|-----------|
D|----------2-|-----2-----|---------4-|
A|------2-----|---------2-|-----4-----|
E|-0----------|-----------|-2---------|

E|--------------|---|--------------------|
B|-10*-----(10)-|-7-|-7///10-10/12-12/14-|
G|--------------|---|--------------------|
D|-----7*---(7)-|-4-|-4////7--7//9--9/11-|
A|--------------|---|--------------------|
E|--------------|---|--------------------|

E|-------------|-------------|-2^3^2-----------|
B|-------------|-----------3-|----------3------|
G|-2-----------|------2------|---------------2-|
D|------4------|-0-----------|-----------------|
A|-----------4-|-------------|-----------------|
E|-------------|-------------|-----------------|

E|----|-----------|----------|
B|-14-|-14*--(14)-|-14----12-|
G|----|-----------|----------|
D|-11-|-11*--(11)-|--9-------|
A|----|-----------|----------|
E|----|-----------|----------|

E|-------------|-----------|-------------|
B|-------------|-2---------|-------------|
G|-----------2-|-----2-----|-------------|
D|------2------|---------2-|-----------2-|
A|-0-----------|-----------|------2------|
E|-------------|-----------|-0-----------|

  Rhy.Fill 1
E|--------------|---------12---------|-----|
B|-12*---(12)^10|-----------------15-|-----|
G|--------------|--------------------|-----|
D|--------------|-0------------------|--%--|
A|--------------|--------------------|-----|
E|--------------|--------------------|-----|

  (end Rhy.Fig.1) Rhy.Fill 1A
E|-----------------|----------0---------|-----|
B|-----------------|------------------3-|-----|
G|-1---------------|--------------------|-----|
D|--------2--------|-0------------------|--%--|
A|---------------2-|--------------------|-----|
E|-----------------|--------------------|-----|

  (end Rhy.Fill 1)
E|-----|-----|-------------------|
B|-----|-----|-------------------|
G|-----|-----|-4*-----(4)--4*-(4)|
D|--%--|--%--|-0-----------------|
A|-----|-----|-------------------|
E|-----|-----|-------------------|

  (end Rhy.Fill 1A)
E|-----|-----|----------------|
B|-----|-----|----------------|
G|-----|-----|----------------|
D|--%--|--%--|-0-----2--------|
A|-----|-----|----4-----2---0-|
E|-----|-----|----------------|

  Guitar solo 1
  w/Rhy.Fig 1(Gtr.2)
E|---|-------------------|---|
B|---|-------------------|---|
G|-2-|-4*--(4)^2--4*-(4)-|---|
D|---|-------------------|-2-|
A|---|-------------------|---|
E|---|-------------------|---|

E|--------------------|------|---|
B|--------------------|------|---|
G|-4*---4*---4*-(4)^2-|------|-2-|
D|--------------------|-4--4-|---|
A|--------------------|------|---|
E|--------------------|------|---|

E|--------------|-------------------|----|
B|--------------|-------------------|-5--|
G|--------------|---------------2^4-|-4*-|
D|--------------|--------2^4--------|----|
A|-4-/-5--4-/-5-|-2^4---------------|----|
E|--------------|-------------------|----|

E|-----------------|---|-----------------|
B|-5---------------|-5-|-5-/-7---------5-|
G|-4*----(4)-----2-|-4-|-4-/-6---------4-|
D|-----------------|---|-----------------|
A|-----------------|---|-----------------|
E|-----------------|---|-----------------|

w/Rhy.Fill 1 & 1A
E|---|
B|-3-|
G|-2-|
D|---|
A|---|
E|---|

E|----------------||
B|-2^3^5--------2-||
G|----------------||
D|----------------||
A|----------------||
E|----------------||

 1 VERSE

w/Rhy.Fig.1(Gtr.1)
Gtr.2(Accords)
A            E  F#m                  D
  Train roll on,   on down the line.Won't you
A                 E          D
  Please take me far , far away.Yeah.
A                       E  F#m           D
  Now I feel the wind blow   outside my door. Lord I'm
A                 E        D
  I'm leaving my woman at home.Oh,yeah.

Chorus
Gtr.2
Gtr.1
   A                                 G
E|---------------|-----------------|-3--------3----3-|
B|---------------|-----------------|-0--------0----0-|
G|-2-----------2-|-2-------------2-|-0--------0----0-|
D|-2-----------2-|-2-------------2-|-0--------0----0-|
A|-0-----------0-|-0-------------0-|-2--------2----2-|
E|---------------|-----------------|-3--------3----3-|
 Tues- day's gone___

                    D
E|-3------------3-|-2------2----2-|-2-------------|
B|-0------------0-|-3------3----3-|-3-----3-------|
G|-0------------0-|-2------2----2-|-2-----------2-|
D|-0------------0-|-0------0----0-|-0-------------|
A|-2------------2-|---------------|---------------|
E|-3------------3-|---------------|---------------|
 with the  wind___

                                     A
E|---------------|-----------------|---|
B|-3---------3---|---3-------------|-2-|
G|-2---------2---|---2-----------7-|-2-|
D|-0---------0---|---0-------------|-2-|
A|---------------|-----------------|-0-|
E|---------------|-----------------|---|
Yeah____

                 E
E|-------------|------0------|-------------|
B|-------------|-----------0-|-------------|
G|-2---------2-|-------------|-1-----------|
D|-2---------2-|-------------|--------2----|
A|-0---------0-|-------------|-----------2-|
E|-------------|-0-----------|-------------|
 My ba - by's gone gone with the

  w/Rhy.Fill 1A
E|---------0-------|---------0-------|---------0-------|
B|---------------3-|---------------3-|---------------3-|
G|-----------------|-----------------|-----------------|
D|-0---------------|-0---------------|-0---------------|
A|-----------------|-----------------|-----------------|
E|-----------------|-----------------|-----------------|
 wind___

E|--------------------||
B|--------------------||
G|-4*-(4)-(4)--4*-(4)-||
D|--------------------||
A|--------------------||
E|--------------------||
  Long gone

 Guitar solo 2
 w/Rhy.Fig 1(Gtr.2)
E|---|-------------------|
B|---|-------------------|
G|-2-|-4*--(4)---4*--(4)-|
D|---|-------------------|
A|---|-------------------|
E|---|-------------------|

E|---|-------------------|-------|
B|---|--------5----------|-------|
G|---|-4*--------4-(4)^2-|-4-----|
D|-2-|-------------------|-----4-|
A|---|-------------------|-------|
E|---|-------------------|-------|

E|------------------|------------|-------------------|
B|------------------|------------|-------------------|
G|----------------2-|------------|---------------2^4-|
D|-4---------4------|------------|--------2^4--------|
A|------------------|-4/54/54/54-|-2^4---------------|
E|------------------|------------|-------------------|

E|---------------|------------------|----------|
B|---------------|------------------|----------|
G|-4*---------4*-|-4----------(4)^2-|-4-/-6--4-|
D|---------------|------------------|----------|
A|---------------|------------------|----------|
E|---------------|------------------|----------|

w/Rhy.Fill 1 & 1A
E|--------------|---|
B|-5-/-7------5-|-3-|
G|-4-/-6------4-|-2-|
D|--------------|---|
A|--------------|---|
E|--------------|---|

E|-----------------||
B|-2^3^5---------2-||
G|-----------------||
D|-----------------||
A|-----------------||
E|-----------------||

2nd,3rd Verses
w/Rhy.Fig.1(Gtr.1)
Accords(Gtr.2)

Chorus
Gtr.2
Gtr.1
   A                             G
E|--------------|--------------|-3-------3----3-|
B|--------------|--------------|-0-------0----0-|
G|-2----------2-|-2----------2-|-0-------0----0-|
D|-2----------2-|-2----------2-|-0-------0----0-|
A|-0----------0-|-0----------0-|-2-------2----2-|
E|--------------|--------------|-3-------3----3-|
 Tues- day's gone__

                     D
E|-3------------3--|-2----------2----2-|-2----------------|
B|-0------------0--|-3----------3----3-|-3-------3--------|
G|-0------------0--|-2----------2----2-|-2--------------2-|
D|-0------------0--|-0----------0----0-|-0----------------|
A|-2------------2--|-------------------|------------------|
E|-3------------3--|-------------------|------------------|
 with the  wind__

                                      A
E|----------------|-----------------|----------------|
B|-3------------3-|-3---------------|----------------|
G|-2------------2-|-2-------------7-|-2------------2-|
D|-0------------0-|-0---------------|-2------------2-|
A|----------------|-----------------|-0------------0-|
E|----------------|-----------------|----------------|
 Oh,Yeah______

                 G
E|-------------|-3--------3----3-|-3------3-|
B|-------------|-0--------0----0-|-0------0-|
G|-2---------2-|-0--------0----0-|-0------0-|
D|-2---------2-|-0--------0----0-|-0------0-|
A|-0---------0-|-2--------2----2-|-2------2-|
E|-------------|-3--------3----3-|-3------3-|
  Tues- day's gone____ with the

   D
E|-2----------2----2-|-2-----------------|----------------|
B|-3----------3----3-|-3-------3---------|-3------------3-|
G|-2----------2----2-|-2---------------2-|-2------------2-|
D|-0----------0----0-|-0-----------------|-0------------0-|
A|-------------------|-------------------|----------------|
E|-------------------|-------------------|----------------|

                    A
E|----------------|---------------|-------------------|
B|-3--------------|---------------|-------------------|
G|-2------------7-|-2-----------2-|-2---------------2-|
D|-0--------------|-2-----------2-|-2---------------2-|
A|----------------|-0-----------0-|-0---------------0-|
E|----------------|---------------|-------------------|
 Yeah____ Tues- day's

   G                                 D
E|-3--------3----3-|-3-----------3-|-2---------2----2-|
B|-0--------0----0-|-0-----------0-|-3---------3----3-|
G|-0--------0----0-|-0-----------0-|-2---------2----2-|
D|-0--------0----0-|-0-----------0-|-0---------0----0-|
A|-2--------2----2-|-2-----------2-|------------------|
E|-3--------3----3-|-3-----------3-|------------------|
 gone___ gone with the wind__

E|-2------------2---------------|----------------------------|
B|-3-----3------3-----3---------|-8---10/12---------10----12-|
G|-2-----2------2-----2------/9-|--------------11------------|
D|-0-----0------0-----0---------|----------------------------|
A|------------------------------|----------------------------|
E|------------------------------|----------------------------|

    A                          E
E|---------------|-----------|------0-------|
B|-10-------(10)-|-----------|------------0-|
G|---------------|-2-------2-|--------------|
D|---------------|-2-------2-|--------------|
A|---------------|-0-------0-|--------------|
E|---------------|-----------|-0------------|
My ba - by's gone

                    w/Rhy.Fill 1A
E|-----------------|---------0-------|-------0-------|
B|-----------------|---------------3-|-------------3-|
G|-1---------------|-----------------|---------------|
D|--------2--------|---0-------------|-0-------------|
A|---------------2-|-----------------|---------------|
E|-----------------|-----------------|---------------|
with the   wind____

E|---------0--------|-------------------||
B|----------------3-|-------------------||
G|------------------|-4*---------4*-(4)-||
D|-0----------------|-------------------||
A|------------------|-------------------||
E|------------------|-------------------||

Соло на губной гармошке
Rhy.Fig.1(Gtr.1)
Accords(Gtr.2)

Interlude

  w/Fill 1A
E|-----------------||----|-5---------0-|
B|-2^3---------5^2-||.---|-5-----------|
G|-----------------||--2-|-------------|
D|-----------------||.-2-|-------------|
A|-----------------||--0-|-------------|
E|-----------------||----|-------------|

2nd time substitute
Fill 2

E|-x-------0-------|-------------|-0--------0-------|
B|-x-------------0-|-------------|-3--------------3-|
G|-x---------------|-1-----------|-2----------------|
D|-x---------------|------2------|-0----------------|
A|-x---------------|-----------2-|------------------|
E|-x---------------|-------------|------------------|

 2nd time substitute
 Fill 3
E|-2------0--------|-2------------------|-12------------||
B|---------------3-|------------10---12*|-------12-(12).||
G|-----------------|-----/11------------|---------------||
D|-----------------|--------------------|--------------.||
A|-----------------|--------------------|---------------||
E|-----------------|--------------------|---------------||

E|------2---0------|-2^0-----2-----2--||--------------------|
B|---------------3-|-3-------3-----3-.||------10-10---10--10|
G|-2---------------|-2-------2-----2--||-/11----------------|
D|-----------------|-0-------0-----0-.||--------------------|
A|-----------------|------------------||--------------------|
E|-----------------|------------------||--------------------|

E|-----------------||-------------------|-12---------------||
B|----10-10----10-.||----10-12----10-12*|----12(12)--12--10||
G|-12-------11-----||/11-------11-------|------------------||
D|----------------.||-------------------|------------------||
A|-----------------||-------------------|------------------||
E|-----------------||-------------------|------------------||

   *Fill 2*
E||---|---------|---------------|
B||-3-|---------|---------------|
G||-2-|---------|-----5---7---7-|
D||-0-|-------5-|-7-------------|
A||---|-/7------|---------------|
E||---|---------|---------------|

E|--------------------|---||
B|--------------------|---||
G|-5^7----7------7--5-|---||
D|--------------------|-7-||
A|--------------------|---||
E|--------------------|---||

   *Fill 3*
E||------5------5-------|---------------------||
B||-/5------8*-----8--5-|--------------------8||
G||---------------------|-7--5-----5--7--7/9--||
D||---------------------|-------7-------------||
A||---------------------|---------------------||
E||---------------------|---------------------||

 Guitar solo 3
 w/Rhy.Fig.1
E|-12*--(12)----12*-|-(12)---------------|--------------------|
B|------------------|-------------10-----|-10----------10--10-|
G|------------------|-----------------11-|---------11---------|
D|------------------|--------------------|--------------------|
A|------------------|--------------------|--------------------|
E|------------------|--------------------|--------------------|

E|------------|-------------------------|
B|-10------10-|-10--12*-(12)^10--12-----|
G|-----11-----|----------------------11-|
D|------------|-------------------------|
A|------------|-------------------------|
E|------------|-------------------------|

E|-----------------------------|-------------------------|
B|-10--12--12*-(12)^10--12-----|-10----13*-----------13*-|
G|--------------------------11-|-------------------------|
D|-----------------------------|-------------------------|
A|-----------------------------|-------------------------|
E|-----------------------------|-------------------------|

E|------------------------|-----------------------|
B|-10------10--12--10-----|-10---------(10)/(2)/5-|
G|-----11--------------11-|-----------------------|
D|------------------------|-----------------------|
A|------------------------|-----------------------|
E|------------------------|-----------------------|

E|-----------|--------------------|
B|-3^5-------|--------------------|
G|-------5^7-|-7----5----7^5------|
D|-----------|------------------7-|
A|-----------|--------------------|
E|-----------|--------------------|

E|-----------------|---|
B|-----------------|---|
G|-----------------|-5-|
D|-5-----------7^5-|---|
A|------7----------|---|
E|-----------------|---|

E|---------------------|-------------------------|
B|-------------------5-|-------------------------|
G|-------------------5-|-5*--------------------5-|
D|-5^7-----5^7---------|--------7----5----7------|
A|------7-------7------|-------------------------|
E|---------------------|-------------------------|

E|----------------------------|----------------------------|
B|----------------------------|-----8-----8-----8-----8----|
G|-7*-(7)^5---7-------5----6/-|-/9-----9-----9-----9-----9-|
D|----------------7-----------|----------------------------|
A|----------------------------|----------------------------|
E|----------------------------|----------------------------|

E|-----------8--8--8--8--8--8-|---------------------|
B|-8-----8---8--8--8--8--8--8-|-/10------10------10-|
G|----9------9--9--9--9--9--9-|---------------------|
D|----------------------------|---------------------|
A|----------------------------|---------------------|
E|----------------------------|---------------------|

E|-8--8--------8---10*-|-10*-------10--------10-|
B|--------10-----------|------------------------|
G|---------------------|------------------------|
D|---------------------|------------------------|
A|---------------------|------------------------|
E|---------------------|------------------------|

E|-10*------10*------10*-|-10*-------10-|
B|-10*------10*------10*-|-10*-------10-|
G|-----------------------|--------------|
D|-----------------------|--------------|
A|-----------------------|--------------|
E|-----------------------|--------------|

E|-8--------8---10---8---10-|------------------------------|
B|-----10-------------------|-10---(10)------10---12-------|
G|--------------------------|-----------/11-------------11-|
D|--------------------------|------------------------------|
A|--------------------------|------------------------------|
E|--------------------------|------------------------------|

E|------------12---------12-|------12-----------12------12-|
B|-10--12*---------12*------|-12*-----12*---12------12-----|
G|--------------------------|------------------------------|
D|--------------------------|------------------------------|
A|--------------------------|------------------------------|
E|--------------------------|------------------------------|

E|-----12------12------12*-|--------------------------|
B|-12------12------12--12*-|-10---------10---10-------|
G|-------------------------|------/11--------------11-|
D|-------------------------|--------------------------|
A|-------------------------|--------------------------|
E|-------------------------|--------------------------|

E|-----------------------------|-----------------5------|
B|-10--12--12*-(12)^10--12-----|-10---------5---------5-|
G|--------------------------11-|------7*----------------|
D|-----------------------------|------------------------|
A|-----------------------------|------------------------|
E|-----------------------------|------------------------|

E|-----------------------|-------------------------|
B|-8-------5-------------|-/10--------10^8------10-|
G|-----7-------5---7-----|-------------------------|
D|---------------------7-|-------------------------|
A|-----------------------|-------------------------|
E|-----------------------|-------------------------|

E|-8--------10*-------10*-|-10*-----(10)-|
B|------------------------|--------------|
G|------------------------|--------------|
D|------------------------|--------------|
A|------------------------|--------------|
E|------------------------|--------------|

E|-10---------8---10---8*-|----------------------|
B|------------------------|-10-------10^8-----10-|
G|------------------------|----------------------|
D|------------------------|----------------------|
A|------------------------|----------------------|
E|------------------------|----------------------|

E|-8*--------------10*-|-8-----------------------|
B|--------10^8---------|----------10^8-----------|
G|---------------------|--------------------97^5-|
D|---------------------|-------------------------|
A|---------------------|-------------------------|
E|---------------------|-------------------------|

E|-----------------------------|----5---------5---------5-|
B|-----------------------------|-5---------5---------5----|
G|-7------5^7----7----5-----7*-|--------7*--------7*------|
D|-----7-----------------------|--------------------------|
A|-----------------------------|--------------------------|
E|-----------------------------|--------------------------|

E|-------5---------5---------5-|-------5---------5---------5-|
B|----5---------5---------5----|----5---------5---------5----|
G|-7*--------7*--------7*------|-7*--------7*--------7*------|
D|-----------------------------|-----------------------------|
A|-----------------------------|-----------------------------|
E|-----------------------------|-----------------------------|

E|-------5---------5-----------|-----------------------------|
B|----5---------5--------------|-----------------------------|
G|-7*--------7*-------7*-(7)^5-|-7^5-----5--7^5--------------|
D|-----------------------------|------7----------7^5---------|
A|-----------------------------|-----------------------7^6^5-|
E|-----------------------------|-----------------------------|
 I can't change_____

E|----------------|---------------------|
B|----------------|---------------------|
G|----------------|---------------7-----|
D|----------------|-----------5---7---7-|
A|-5^3------------|-3---5/7-------------|
E|-------5^3----5-|---------------------|

E|---------------------------||
B|-----------5----5*---------||
G|-----------5----5*---------||
D|-5----7------------------7-||
A|---------------------------||
E|---------------------------||
 Train__ roll__ on__

  OUTRO

E|---|---|---|
B|---|-2-|---|
G|---|-2-|-2-|
D|---|-2-|-2-|
A|-0-|---|-2-|
E|---|---|-0-|

E|---------|-2-|
B|---------|-3-|
G|-1-----1-|-2-|
D|-2-----2-|-0-|
A|-2-----2-|---|
E|-0-----0-|---|

 Ride    on     train___

E|-5----8----5-----------|-----------------------------|
B|----------------8----5-|-5^8^5-----------------------|
G|-----------------------|---------7--5---------5----5-|
D|-----------------------|-----------------7-----------|
A|-----------------------|-----------------------------|
E|-----------------------|-----------------------------|

E|-----------------|---------------|
B|---------------8-|-10------------|
G|-------/9--------|----------4/11-|
D|-7---------------|---------------|
A|-----------------|---------------|
E|-----------------|---------------|
   Lord, I can't change____

E|--------------------------|----|
B|--10---12--------10---12*-|-12-|
G|------------11------------|----|
D|--------------------------|----|
A|--------------------------|----|
E|--------------------------|----|
                  no_____

E|-----------0-|---------0-------|
B|-3-----------|---------------3-|
G|-2-----------|-----------------|
D|-0-----------|-0---------------|
A|-------------|-----------------|
E|-------------|-----------------|
 I    can't   change____

E|-3-----2-----0-|------------------------|
B|-3-----3-----3-|-3--------2---3---5---2-|
G|-2-----2-----2-|-2----------------------|
D|-0-----0-----0-|-0----------------------|
A|---------------|------------------------|
E|---------------|------------------------|
                 Ride on      train___

E|-5------(5)-------|---|
B|-2------(2)-------|---|
G|-2------(2)-------|-2-|
D|------------------|-2-|
A|----------------0-|-0-|
E|------------------|---|

E|-0-----2-|---------------|
B|-3-----3-|-2-------------|
G|-2-----2-|-2-------------|
D|-0-----0-|-2----------/7-|
A|---------|-0-------------|
E|---------|---------------|

E|---------------------|---|
B|---------------------|---|
G|---------------------|-2-|
D|-7------7/11------11-|-2-|
A|-0------0----------0-|-0-|
E|---------------------|---|

E|---|------------|---|
B|---|------------|---|
G|---|----2-----2-|-2-|
D|---|------------|-2-|
A|-0-|-0-----4----|-0-|
E|---|------------|---|

E|-----------------|----------||
B|-----------------|----------||
G|-----------------|----------||
D|-12---12/14---14/|/17----19-||
A|--0----0--0----0-|--------0-||
E|-----------------|----------||

Train roll on, on down the line.Won't you
Please take me far,far away.Yeah
Now, I feel the wind blow outside my door.Lord, I'm
I'm leaving my woman at home.Oh,yeah

Tuesday's gone with the wind.Yeah
My baby's gone,gone with the wind.Long gone.

And I don't know  where I'm going
I just want to be left alone.Yeah
When this train ends,well, I'll try again,oh no
I'm leaving my woman at home.

My baby's gone
Tuesday's gone with the wind.Oh,yeah
Tuesday's gone with the wind.Yeah
Tuesday's gone,gone with the wind.Yeah
My baby's gone with the wind

Train roll on,
Train roll on, many miles from my home
See, I'm riding my blues,babe,blues away.Yeah
Well,Tuesday, you see,oh, she had to be free
But somehow, I've got to,to carry on

My baby's gone
Tuesday's gone with the wind
Tuesday's gone with the wind
Tuesday's gone with the wind
My baby's gone with the wind
Вверх

Turn The Page

tune all guitars down 1/2 step
1a) James
eb--0--0-0-0-0-0-0-0-------------0--0-0-0-0-0-0-0
Bb--0--0-0-0-0-0-0-0-------------0--0-0-0-0-0-0-0
Gb--0--0-0-0-0-0-0-0-------------0--0-0-0-0-0-0-0
Db--2--------2------------2------2--------2------
Ab--2--------------------------------------------
Eb--0-----------------0-3----0-------------------
intro (strummed chords mostly repeated on the higher strings))

1b) Kirk
eb--/15-14~~------------------------
Bb----------15-15~---12~------------
Gb----------------14----12-11~~-----
Db-----------------------------12-14
Ab----------------------------------
Eb----------------------------------

2a) James
   Emin Dmaj Amaj Emin
eb--0----2----0-----0
Bb--0----3----2-----0
Gb--0----2----2-----0
Db--2----0----2-----2
Ab--2---------0-----2
Eb--0---------------0
clean verse (strummed chords)
"On a long and lonely highway"

2b) Kirk
eb------------------------------------
Bb------------------------------------
Gb------------------/12-11------------
Db--14-12~~~5-7~~~~~-------12-12~~~7-9
Ab------------------------------------
Eb------------------------------------

3)
eb--0-----------0---------------------------------------
Bb--0-----------0----7--7--7-8-8-7----2--2--2-3-3-2--2--
Gb--0-----------0--9-7--7--7-7-7-7--7-2--2--2-2-2-2--2--
Db--2--2--2-2-2-2--9-7--7--7-7-7-7--7-2--2--2-2-2-2--2-2
Ab--2--2--2-2-2-2--7-5--5--5-5-5-5--5-0--0--0-0-0-0--0-2
Eb--0--0--0-0-0-0--0-----------------------------------0
Crunch verse
The heavy chords have quite a bit of decoration (4ths
especially).
but the basic chord progression is the same as the clean verse
There is the little fill from riff 1) in one of the verses too.

4a)
Gb--7---7--7-7--7-7-------------------
Db--7---7--7-7--7-7----2---2--2-2--2-2
Ab--5---5--5-5--5-5----2---2--2-2--2-2
Eb---------------------0---0--0-0--0-0
distorted
but here I am,     on the road again

4b)
Gb--7---7--7-7--7-7----2---2--2-2--2-2
Db--7---7--7-7--7-7----2---2--2-2--2-2
Ab--5---5--5-5--5-5----0---0--0-0--0-0
Eb------------------------------------
here I go,         playing the star again

4c)
Gb--5-5-5/7-7-7----
Db--5-5-5/7-7-7---2
Ab--3-3-3/5-5-5---2
Eb----------------0
there I go,  turn the page

5)  ^V
eb---------------         ------------------------
Bb--7~~----------         -5--5--7--5--7--10--7--9
Gb--7~~---------- 3 times -5--5--7--5--7--10--7--9
Db-------------9-         -5--5--7--5--7--10--7--9
Ab---------5---7-         ------------------------
Eb-----5-7---7---         ------------------------
      pm....
with wah
...what she said

Lyrics:

on a long and lonely highway east of omaha
you can listen to the engine, moanin out as one long song
you can think about the woman, or the girl you knew the night
before

and your thoughts will soon be wandering the way they always do
when you?re riding sixteen hours and there?s nothing much to do
you don?t feel much like travelin?, you just wish the trip was
through

CHORUS:
but here I am, on the road again
here I am, up on the stage
here I go, playing the star again
there I go, turn the page

you walk into a restaraunt, strung out from the road
and you feel the eyes upon you, as you?re shaking off the cold
you pretend it doesn?t bother you, but you just want to explode
sometimes you can here ?em talk, other times you can?t

all the same ?ole cliches: is that a woman or a man?
and you always seem outnumbered, you dare not make a stand

CHORUS

out there in the spotlight, your a million miles away
every ounce of energy, you try to give away
and the sweat pours from your body, like the music that you play
later in the evening, as you lie awake in bed
echos of the amplifiers, ringin? in your head
as you smoke the days last cigarette, remembering what she said
Вверх

Until it sleeps mp3

Bass Проигрыш:       Tune Guitars down 1/2 step

e|----------------------------------|
b|----------------------------------|
g|------------------------------0---|
d|---0-5--7/8--7--0-5--7/8--1-------|
          sl.          sl.

Main Line:                            Fill2(at 3rd Версия )

E|---------0------------------5--|-------0----------------|
B|------------3--1--0---------5--|----------3--1--0-------|
G|---------------------2--0---5--|-------------------2--0-|
D|------2---------------------7--|----2-------------------|
A|---0------------------------7--|--0---------------------|
E|----------------------------5--|------------------------|

Where Do I take this pain of mine?I run but it stays
right by my side
Just Like a curse just like a stray,You feed it once
and now it stays
So tell me why you've chosen me,Don't want your grip
don't want your greed

Припев:Guitar1     (Repeat 4x)               Fill 1 (at bottom)

E|-----------|-----------------------------------|
B|-----------|.---------------------------------.|
G|-----------|-----5---7--5---4--4--5---2--3--2--|
D|---5--5--5-|-----7---7--7---5--5--5---3--3--3--|
A|---5--5--5-|.-0----0--------------------------.|
E|---3--3--3-|-----------------------------------|
                    pm.
Припев:Fill2(4th time 1st and last Припев:

E|----------------------------------------|
B|.--------------------------5--5--6-----.|
G|-------5---7--5---4--4--5--5--5--5---2--|
D|-------7---7--7---5--5--5------------2--|
A|.---0----0---------------------------0-.|
E|----------------------------------------|
     So Hold me Until it Sleeps.......

Припев:Guitar2
       The 5 on the first string is optional,
       sometimes Kirk uses it other times he doesn't. x=muffle

E|-------|--5--5--5-------------5--5--5------------------------|
B|-------|.-x--x--x-------------x--x--x-----------------------.|
G|-------|--x--x--x-------------x--x--x------------------------|
D|-5-5-5/|--7--7--5--7--7--7--5/7--7--7---7--7--7----5/--------|
A|-5-5-5/|.-7--7--5--7--7--7--5/7--7--7---8--8--8----5/-------.
E|-3-3-3/|--5--5--5--5--5--5--3/5--5--5--------------3/--------|
           sl. So tear me open... sl.                     sl.

Bridge:                                                   ~~~~

E|---------0--------------------------0---------------------5--|
B|------------3--1--0--------------------3--1---------------5--|
G|---------------------2--0----------------------0----0---5----|
D|------2---------------------------2------------0----3-7------|
A|---0---------------------------0---------------2----3--------|
E|---------------------------0-3--------------3----1-----------|

 (Go back to main,then Припев:,then to post Припев:)

Post Припев:Guitar1

E|-----------------------------------------------------|
B|.---------------------------------------------------.|
G|----------------------9--9/-------------------9--9/--|
D|------5--7--5---4--4--9--9/---5--7--5---4--4--9--9/--|
A|.-----7--7--7---5--6--7--7/---7--7--7---5--6--7--7/-.|
E|---0----0-----------------------0--------------------|
         p.m.             sl.    p.m.             sl.

Post Припев:Guitar2

E|----------------------------------------------|
B|.--12--10--8--7------------------------------.|
G|-----------------8--9-------------------------|
D|----9---7--5--4------------5--7--5---4--4--9--|
A|.----------------6--7------7--7--7---5--6--7-.|
E|-----------------------------0----------------|
                              p.m.
(Go Back to bridge,then main,then Припев:,and to post Припев:)

Solo:With Wah

E|---17--17--17---19--19--19---17--17---20--20--20--19--19--19-|
B|---17--17--17---17--17--17---17--17---17--17--17--17--17--17-|
G|-------------------------------------------------------------|
D|-------------------------------------------------------------|
A|-------------------------------------------------------------|
E|-------------------------------------------------------------|

               ^     ^
E|---17--17---17----17---0--0---0---17--15--12--12---15--12----|
B|---17--17---20----20--17/15--17---17--15--12--12---15--12----|
G|----------Bend-20-------sl.----------------------------------|
D|-----------Full----------------------------------------------|
A|-------------------------------------------------------------|
E|-------------------------------------------------------------|


E|-17-17-17-0--0--0--17--17--20--20--20---19--19--19--0--0--0--|
B|-17-17-17-17-17-17-17--17--17--17--17---17--17--17--17-17-17-|
G|-------------------------------------------------------------|
D|-------------------------------------------------------------|
A|-------------------------------------------------------------|
E|-------------------------------------------------------------|

      ^      ^
E|--17-----17-----0--0-0--17-15-12-12-15-12--------------------|
B|--20-----20----17/15-17-17-15-12-12-15-12-----------~~-~~~~--|
G|Bend-20---------sl.-----------------------~~~-----7-9-9/14-14|
D|Full---------------------------------------7--9-10-----------|
A|-------------------------------------------------------------|
E|-------------------------------------------------------------|

Ah=Artificial harmonic

E|--------------------------------------------------12--14--15-|
B|-------------------~~~~--------------------12--15------------|
G|~~~-----7--9--9/12-12--~~~-----7-9-9/12--14------------------|
D|-7-9-10-----------------7-9-10-------------------------------|
A|-------------------------------------------------------------|
E|-------------------------------------------------------------|

    ^  ^   ^   ^
E|--17-17--17--17~~~~~~~~~~~|
B|--------------------------|
G|------------All-17s-Full--|
D|--------------------------|
A|--------------------------|
E|--------------------------|

Guitar1:During Solo
Listen to the song for the rytHm and when it's played.

E|-0---0-|
B|-1---1-|
G|-2---2-|
D|-2---2-|
A|-0---0-|
E|-------|

E|----------------0------------------0------0-----0----------0-|
B|-------------------3--1--0-----------3-1--1-------3--1--0--1-|
G|-----------------------------------------------------------2-|
D|------------2--------------------2-------------------------2-|
A|--0--2--3----------------------3--------------2------------0-|
E|--------------------------------------------3----------------|

Now go to Припев: and play it twice,
The 2nd time Both guitars play
Guitar2's part,Finally,go back to
the main line and let the bass
finish it off.

Fill 1:

E|---------------------------|
B|----^-----~~~~----Н---~~~~-|
G|----7--7--5------5-7--5----|
D|Bend-Full------------------|
A|---------------------------|
E|---------------------------

There's things inside without a care

Fill 2

E|---5------5------5-----5-----|
B|-----5-------5-----5-----5---|
G|-------2-------2-----2-------|
D|-----------------------------|
A|-----------------------------|
E|-----------------------------

So tell me why you've chosen me

E|---5-----5-----5-----5-----5-|
B|-----5-----5-----5-----5----5|
G|-------5-----5-----5-----5---|
D|-----------------------------|
A|-----------------------------|
E|-----------------------------|

Don't want your grip......

Bass Finish:

E|----------------------------------|
B|----------------------------------|
G|------------------------------0---|
D|---0-5--7/8--7--0-5--2/3--1-------|
          sl.          sl.

Н=hammer on

/=slide
^=bend
~=vibrato
pm=palm mute
Ah=Artificial harmonic
x=muffled string

Well, there it is the new Metallica hit off
of Load.

UNTIL IT SLEEPS
(Hetfield/Ulrich)

Where do I take this pain of mine
I run but it stays right by my side
So tear me open and pour me out
There's things inside that scream and shout,
And the pain still hates me
So hold me until it sleeps

Just like a curse, just like a stray
You feed it once and now it stays,
Now it stays
So tear me open but beware
There's things inside without a care,
And the dirt still stains me
So wash me until I'm clean

It grips you so hold me
It stains you so hold me
It hates you so hold me
It holds you so hold me
Until it sleeps

So tell me why you've chosen me
Don't want your grip
Don't want your greed
Don't want it
Now tear me open make you gone
No more can you hurt anyone,
And the fear still shakes me
So hold me, until it sleeps

It grips you so hold me
It stains you so hold me
It hates you so hold me
It holds you, holds you, holds you
Until it sleeps

Don't want it want it want it want it want it no
So tear me open but beware
There's things inside without a care,
And the dirt still stains me,
So wash me till I'm clean

Now tear me open make you gone
No longer will you hurt anyone,
And the hate still shapes me,
So hold me until it sleeps
Until it sleeps, until it sleeps, until it sleeps
Вверх

Wasting my hate

Quiet Проигрыш

E|--------------------------------------------------------|
B|--------------------------------------------------------|
G|--------------------------------------------------------|
D|--------------------------------------------------------|
A|-----------5-5Н7--7--7p5----5-5------5------------------|
E|-0-0-5-7-----------------7------5Н7-----3Н5-5p0-3Н5-7-0-|

Play that once than the below riff a until
the fast part of the song.

E|----------------------------------------------------|
B|----------------------------------------------------|
G|----------------------------------------------------|
D|-----------------------------------------------1/2--|
A|-----------5-5Н7-7-7p5----5-5------5------------^---|
E|-0-0-5-7---------------7------5Н7-----3Н5-5p0-5-3-0-|

Fast Bridge Riff A

E|----------------------------|
B|----------------------------|
G|---7-9----7-9----7-9----7-9-|
D|---7-9----7-9----7-9----7-9-|
A|-0-5-7--0-5-7--0-5-7--0-5-7-|
E|----------------------------|

Fast Bridge Riff B

E|---------------------------------------------------------|
B|---------------------------------------------------------|
G|---------------------------------------------------------|
D|------9-9s8-7--------------------------------------------|
A|------7-7s6-5-------9-9s8-7------7-7s5--5s7-7-7--5s7-7-7-|
E|-0-0-----------0-0--7-7s6-5--0-0-5-5s3--3s5-5-5--3s5-5-5-|
* * * * * *

Версия

E|-------------------------------------------------------------|
B|------------------play-----------------------------play------|
G|-4-4-4-5-5-5-5-2-(раза)-fast----4-4-4-5-5-5-2-2-3-3-3-3-fast-|
D|-2-2-2-2-2-2-2----bridge--2-2-2-2-2-2-2-0-0-0-0-0--bridge----|
A|------------------riff A---------------------------riff A----|
E|-------------------------------------------------------------|

Припев:

E|--------------------------------------------------------|
B|--------------------------------------------------------|
G|--------------------------------------------------------|
D|--------------------------------------------------------|
A|-----------5-5Н7--7--7p5----5-5------5------------------|
E|-0-0-5-7-----------------7------5Н7-----3Н5-5p0-3Н5-7-0-|


Doing dead
I would do in the same
A smile to you
Don't waste
Waste your breath

Now I will waste my hate on you

Ain't gonna waste my hate
Ain't gonna waste my hate on you
I think I'll keep it for myself

Ain't gonna kill no more
Ain't got the time to help you score
I think it's time you pleased yourself
Yourself

Doing dead
I would do in the same
A smile to you
Don't waste
Waste your breath
Now I will waste my hate on you
Waste my hate on you

And I think your working now
You think enough to even raise the brow
And to life that tip that you belong
Come on

When I see my hate I see my feet
I feel that blood that pumps in me
Where the hell's my mind
Don't know
Don't know now

Doing dead
I would do in the same
A smile to you
Don't waste
Waste your breath
Now I will waste my hate on you
Waste my hate on you

Then I'll keep it for myself
Hate

Ain't gonna waste my hate
But I don't clean it when they say
Better to give then to receive

Ain't gonna waste my hate
Ain't got time to waste my hate on you
I think I'll keep it all for myself
For myself

Doing dead
I would do in the same
A smile to you
Don't waste
Waste your breath
Now I will waste my hate on you
Waste my hate on you

Think I'll keep it for myself
Yeah

Hate
Вверх

Where The Wild Things Are

eb|--------------------------------------------|
Bb|--------------------------------------------|
Gb|--4-4--4-4--4-----4--4-----3--3-----0-------|
Db|--5-5--5-5----5-2------5-2------5-2---------|
Ab|--------------------------------------------|
Eb|--------------------------------------0-3~~0|

   Guitar 1            Guitar 2
Gb|--4-4-4-4------  --------------|
Db|--5-5-5-5-----9  --------------|
Ab|--------------7  -5-5-5-5-----2|
Eb|----------0-0--  -3-3-3-3-0-0-0|

Gb|-------------------41-|
Db|--5-5-5-5-5-5-5-2--52-|
Ab|--5-5-5-5-5-5-5-2-----|
Eb|--3-3-3-3-3-3-3p0-----|

"Steal dreams and give to you."

                   x2        x1
Gb|--------------------       -------------------|
Db|--7-7--6-6----------       -7-7--6-6--4-4--5-5|
Ab|--5-5--4-4--8-8--5-5       -5-5--4-4--2-2--3-3|
Eb|------------6-6--3-3       -------------------|
chorus

So wake up sleepy one
It`s time to save your world

Steel dreams and give to you
Shop lift a thought or two
All children touch the sun
Burn your fingers one by one
By one

Will this earth be good to you
Keep you clean or stained through

So wake up sleepy one
It`s time to save your world
You`re where the wild things are
Yeah, toy soldiers off to war

Big eyes to open too
Beating now under sun and moon
But does heaven know you`re here?
And did they give you smiles or tears?
No, no tears

Will this earth be good to you?
Keep you clean or stained through

So wake up sleepy one
It`s time to save your world
You`re where the wild things are
Yeah, toy soldiers off to war

You swing your ass all down
Call to arms are drawn out sound
Toy horses start the charge
Robots, chessmen standing guard
We shall never surrender

All children touch the sun
Burn your fingers one by one
Will this earth be good to you?
Keep you clean or stained through

So wake up sleepy one
It`s time to save your world
You`re where the wild things are
Yeah, toy soldiers off to war
Off to war
Off to war

So close your ?....?
Вверх

Where The Wild Things Are (2 вариант)

Intro:
So wake up sleepy one

G|-----|
D|-----|
A|-7\3-|
E|-----|

Its time to save your world

G|---------------------|
D|---------------------|
A|-7\3---3//////////14-|
E|---------------------|

G|----------------------------------------|
D|----------------------------------------|
A|----------------------------------------|
E|-12\\1-00---00001111-1000-0000/3333-000-|

Steal Dreams and Give to you.

G|--------------------|
D|--------------------|
A|--------------------|
E|-03333333h5p3003000-| repeat x9

All you children touch the sun

G|-------------------------------------------|
D|-777777766666663333333------Play as--------|
A|-555555544444441111111------Power Chords---|
E|----------------------------------03333333-|
So wake up sleepy one

G|----------------5-----------------------|
D|----------------------------------------|
A|-7///////3---------------3--------------|
E|----------------------------01////////8-|
B|--------------------1-------------------|

This Riff occurs throughout the chorus part, it has a few
slight variations, but If this is played it will sound fine.
The Low C on the 1st fret of the B-stg. Can be substituted an
octave higher. These Riffs make up most of the song.

Guitar Solo Backing-

G|------------------------------------|
D|------------------------------------|
A|------------------------------------|
E|-33330333-----033333033-3333300-12\-|

Bride Riff: You swing your rattle down (Crossfire from the
marionettes.) Let all the Low E`s ring throughout the riff.
The 19`s and 20`s mean 19th and 20th fret on the E-stg.

G|-----------------------------------|
D|-----------------------------------|
A|-2020202020-19----19--19--19-------|
E|---------------------00----0---0-0-|

A|-888887-----7----7---7-|
E|-----------00-0-0--0---|

Then

E|-111110-00010110----1111110-|
Вверх

Wherever I May Roam mp3

1)
sitar arrangement for guitar
e-----0-0-0-0-----0-0-0--0-----0-0-0-0
B-----5-5-6-5-----8-8-10-6-----5-5-6-5
G-------------------------------------
D-------------------------------------
A-------------------------------------
E--0-----------0------------0---------
intro clean
pick it near the bridge to sound more like sitar

2)
D--9-----------9--5-5-7----9----------------------------
A--7--7-7-8-7~~7--------8~~7--7-7-8-7~~7-8-9-10--5-6-7-8
E--0-----------0-----------0-----------5-6-7-8----------
 pm.           .           .                     .......
main riff
slight variations to this riff are played going either back
into this riff or to the next one here... or to the chorus

3)
G----------------------0-----------
D--2------3-3-3------2--------3-3-3
A--2----3----------2--------3------
E--0--1----------0--------1--------
whispered part

4)
G-----3--2--3-----3-----3---4--5--------
D--2--3--2--3--2--3--5--3---4--5--------
A--2--1--0--1--2--1--5--1---2--