accordS-land.ru Аккорды и табулатуры к гитаре.
Главная | Песенник | Аккорды | Учебник
Руссике песни 180
5nizza
7Б
9-й Район
Animal ДжаZ
Billy's Band
Butch
Para Bellum
TequilaJazzz
Worms
Zdob Si Zdub
Автоматические удовлетворители
Агата Кристи
Агузарова Жанна
Агутин Леонид
Адо
Аквариум
Алиса
Алсу
Амирамов Е.
Антонов Ю.
Арефьева Ольга
Ария
АукцЫон
Барыкин
Башаков Михаил
Башлачев Александр
БекХан
Бернес М.
Би - 2
Бони неМ
Борзов Найк
Боярский Михаил
Браво
Братья Грим
Ва-Банкъ
Вертинский Александр
Визбор Юрий
Високосный год
Воскресенье
Восьмая Марта
Высоцкий В.С.
Високосный год
Газманов О.
Галич Александр
Герман А.
Городницкий Александр
Глызин А.
Градский Александр
Гражданская Оборона
Гребещенков
Данко
ДДТ
Дидюля
Диоды
Дискотека Авария
Дягилева Янка
Ёлка
Жуки
Заблудовский Андрей
Запрещенные Барабанщики
Звери
Земляне
Земфира
Зинчук Виктор
Зоопарк
Иван Кайф
Иванов А.
Иваси
ИЗ КИНО И МУЛЬТФИЛЬМОВ
Империя
Калинов мост
Кашин Павел
Кельми К.
КИНО
Кипелов
Конец Фильма
Контингент
Корни
Король и Шут
Коррозия металла
Крематорий
Крупнов Анатолий
Кузьмин Владимир
Куликов Е.
Кукрыниксы
Курехин Сергей
Лаэртский Александр
Ласковый май
Ленинград
Леонидов Максим
Лесоповал
Лещенко Л.
Линда
Лицей
Лоза Юрий
Любэ
Люмен
Ляпис Трубецкой
Мальчишник
Манго-манго
Мара
Маркин В.
Маршал Александр
Маша и медведи
Машина времени
Мечтать
Мистер Кредо
Митяев Олег
Многоточье
Монгол Шуудан
Моральный Кодекс
Мультfильмы
Мумий Тролль
Настя
Науменко Майк
Наутилус Помпилиус
Непара
Неприкасаемые
Несчастный случай
Никоваев И.
Никольский Константин
Ногу свело
Ноль
Носков Николай
Ночные Снайперы
Окуджава Булат
Оркрист
Осин Е.
Оскар
Отиева И.
Паперный Т.А.М.
Парк Горького (Gorky Park)
Пикник
Пилот
Пламя
Полковник и однополчане
Пугачева А.
ПЭХ
Приключения Электроников
Просто прикольные песни
Рада и Терновник
Римский-Корсаков
Розенбаум Александр
Рок-Острова
Рондо
Сансара
Саруханов
Сегодня Ночью
Секрет
Сектор газа
Сенчина Л.
СерьГа
Смысловые Галлюцинации
Сплин
Солодуха А.
Старые блатные песни
Сукачев Гарик
Сурганова и Оркестр
Сюткин Валерий
Тальков Игорь
Танцы минус
Тараканы
Тату
Технология
УмаТурман
Умка и Броневичок
Ундервудъ
Фабрика звезд
Х.З. (Хуй Забей)
Центр
ЧайФ
Черный кофе
Черный Лукич
Чиж и Ко
Чистяков Федор
Шанхай
Щербаков Михаил
Ю-Питер

Классика 22

Албениз Исаак
Албениз Матео
Бах Иоган Себостьян
Бетховен Людвиг ван
Бизе Жорж
Брамс Иоганнес
Вивальди Антонио
Гендель Георг Фридрих
Гершвин Джордж
Григ Эдвард
Дебюсси Клод
Камиль Сен-Санс
Мендельсон
Моцарт Вольфгант Амадей
Мусоргский Модест Пертрович
Норис Крис
Огинский Михал Клеофас
Паганини Никколо
Рахманинов Сергей Васильевич
Римский-Корсаков
Чайковский Пётр Ильич
Шуберт Франц
 

 

Nirvana

About a girl
Aero Zeppelin
All apologies
Aneurysm
Been a son
Big Long Now
Blew
Breed
Come as you are
D7
Downer
Drain You
Dumb
Frances Farmer Will Have Her Revenge On Seattle
Heart Shaped Box
I Hate Myself And Want To Die
In Bloom
In His Hands
In His Room
Jesus wants me for a sunbeam
Lake of fire
Lithium
Man who sold the world
Milk It
Moist Vagina
Molly`s Lips
Molly`s Lips (2 вариант)
Mrs Robinson
My Sharona
Oh me
Oh, The Guilt
Old Age
On A Plain
On a plane
Opinion
Pen Cap Chew
Pennyroyal tea
Plateau
Polly
Rape Me
Return Af The Rat
Sappy
School
Sliver
Smells Like Teen Spirit
Something in the way
Something in the way (2 вариант)
Son of a Gun
Son of a Gun (2 вариант)
Spank Thru
Stain
Talk To Me
Territorial Pissings
The Man Who Sold The World
Where Did You Sleep Last Night
Where did you sllep last night
You Know Youre Right
Вверх

About a girl mp3

Voicings:

E5  - 022x00
G   - 320033 or 320003
C#5 - x466xx
G#5 - 466xxx
F#5 - 244xxx
A5  - x022xx
C5  - x355xx

 E5 G      E5   G
I need an easy friend
 E5   G      E5      G
I do with a hand to lend
 E5   G         E5       G
I do think you fit this shoe
 E5   G        E5     G
I do what you have a clue

 C#        G#        F#
I'll take advantage while
 C#          G#     F#
You hang me out to dry
 E5                  A5    C5    E5  G  E5  G
But I can't see you every night free
 E5  G  E5  G
I do

I'm standing in your light
I do hope you have the time
I do pick up number two
I do keep a date with you

[Repeat Припев:]

Solo: Repeat 3x
E|-------------------------|
B|-------------------------|
G|----------------7--7/9-9-|
D|-----5-7-7/9--9----------|
A|-7-7---------------------|
E|-------------------------|

[Repeat first Версия  and Припев:]

 E5              A5    C5    E5   G  E5  G
I can't see you every night free
 E5  G  E5  G  E5  G  E5  G  E5  G  E5  G
I do,      I do,         I do
Вверх

Aero Zeppelin

Riff A:

E|------0-0-0---------------0-0-0-------0-|
B|------------3---3---------------3---3---|
G|--------------3---3---------------3-----|
D|-2-2------------------2-2---------------|
A|-2-2------------------2-2---------------|
E|-0-0------------------0-0---------------|

Сыграть данную часть 2 раза как вступление
Во время куплеты играть 3 раза, затем вот это:

E|-----0-0-0---------------0-0-----------0-0-----|
B|-----------3---3-------------3-------------3---|
G|-------------3---3-------------3-------------3-|
D|-2-2-----------------2-2-----------2-2---------|
A|-2-2-----------------2-2-----------2-2---------|
E|-0-0-----------------0-0-----------0-0---------|

What’s the season of love if you can’t have everything?
E|------0-0-0---------------------0-0-0-------0-|
B|------------3---3---------------------3---3---|
G|--------------3---3---------------------3-----|
D|-2-2------------------------2-2---------------|
A|-2-2------------------------2-2---------------|
E|-0-0------------------------0-0---------------|

What’s the reason of love if you can lose everything?
What’s the meaning of love? – It’s a crime if anything.
What’s the meaning of love? – It’s grand. It’s grand.
How a culture can forget it’s plan of yesterday?
And you swear it’s not a trend, does it matter anyways?
Barely heat the top of friend like it moves everyday
You could shit upon the stairs. You’ll be friends.
You’ll be friends. You’ll be friends. You’ll be friends.

Проигрыш
Riff B:

D|-2-2---------------2-2---------------|
A|-2-2--2-2-2-2/5--5-2-2-2-2-2-1---1---|
E|-0-0---------------0-0---------3---3-|

Сыграть это 4 раза, как проигрыш, затем:

Riff C:

G|-4-4-4/7--7--7--7-7---------------------------------------|
D|-4-4-4/7--7--7--7-7-------4--4-----3--3-----2--2-----1--1-|
A|-2-2-2/5--5--5--5-5-------4--4-----3--3-----2--2-----1--1-|
E|--------------------------4--4--0--3--3--0--2--2--0--1--1-|

Сыграть это 3 раза, затем:

G|-4-4-4/7--7--7--7-7-|
D|-4-4-4/7--7--7--7-7-|
A|-2-2-2/5--5--5--5-5-|
E|--------------------|

D|-4--4-----3--3-----2--2-----1--1-|
A|-4--4-----3--3-----2--2-----1--1-| (Х4 раза)
E|-4--4--0--3--3--0--2--2--0--1--1-|

Затем:

D|-2-2--------------|
A|-2-2--------------|
E|-0-0-5--5-4-0-5^4-|

Сыграть это 4 раза, после чего тоже самое, но со словами:

 And the kids have laid it out (Слова идут очень быстро)
D|-2-2------------------------------|
A|-2-2------------------------------|
E|-0-0-5-----5--4-----0---5---^---4-|
And it’s back is probably.
Still it’s subtle in the tape
Keep a form on equally.
Now you know it’s just the fact,
Where the world is nowadays.
And the day is what we learn.
Does it matter anyways? Ways! Ways!…

(Это был все Riff C)

Затем идет соло

После соло  Riff B 4 раза, затем:

Riff C:

G|-4-4-4/7--7--7--7-7---------------------------------------|
D|-4-4-4/7--7--7--7-7-------4--4-----3--3-----2--2-----1--1-|
A|-2-2-2/5--5--5--5-5-------4--4-----3--3-----2--2-----1--1-|
E|--------------------------4--4--0--3--3--0--2--2--0--1--1-|

Сыграть это 3 раза, затем:

G|-4-4-4/7--7--7--7-7-|
D|-4-4-4/7--7--7--7-7-|
A|-2-2-2/5--5--5--5-5-|
E|--------------------|

D|-4--4-----3--3-----2--2-----1--1-|
A|-4--4-----3--3-----2--2-----1--1-| (Х4 раза)
E|-4--4--0--3--3--0--2--2--0--1--1-|

Затем:

D|-2-2--------------|
A|-2-2--------------|
E|-0-0-5--5-4-0-5^4-|

Сыграть это 4 раза, после чего тоже самое, но со словами:

And the kids have laid it out
D|-2-2------------------------------|
A|-2-2------------------------------|
E|-0-0-5-----5--4-----0---5---^---4-|
And it’s back is probably.
Still it’s subtle in the tape
Keep a form on equally.
Now you know it’s just the fact,
Where the world is nowadays.
And the day is what we learn.
Does it matter anyways? Ways! Ways!…

Потом Riff A 2 раза.

В конце по-моему следует вот этот аккорд:

E|-0-|
B|-3-|
G|-3-|
D|-2-|
A|-2-|
E|-0-|

Очень резко, практически с моментальным мутированием струн.
Вверх

All apologies

Voicings: (Dropped-D tuning!)

 G5 - 555xxx
 D5 - 000xxx
 A5 - 777xxx or x022xx

Main Riff
E|----------------------|----------------------|
B|----------------------|----------------------|
G|----------------------|----------------------|
D|----------------------|----------12-12-9-10--|
A|---9-10-9-12-12-9-10--|---9-10-9-------------|
D|-0--------------------|-0--------------------|

E|----------------------|----------------------|
B|----------------------|----------------------|
G|----------------------|----------11-11-9-----|
D|----------------------|------------------12--|
A|---9-10-9-12-12-9-10--|---9-10-9-------------|
D|-0--------------------|-0--------------------|

Припев:
  G5    D5 G5    D5 G5    D5 G5    D5 A5 D5 A5
E|---------------------------------------------|
B|---------------------------------------------|
G|---------------------------------------------|
D|-5-5-5--0-5-5-5--0-5-5-5--0-5-5-5--0-7--0-7--|
A|-5-5-5--0-5-5-5--0-5-5-5--0-5-5-5--0-7--0-7--|
D|-5-5-5--0-5-5-5--0-5-5-5--0-5-5-5--0-7--0-7--|

What else should I be
All apologies
What else should I say
Everyone is gay
What else could I write
I don't have the right
What else should I be
All apologies

In the sun
In the sun I feel as one
In the sun
In the sun
I'm married
Buried

I wish I was like you
Easily amused
Find my nest of salt
Everything is my fault
I'll take all the blame
Aqur scafoam shame
Sunburn with freezeburn
Choking on the ashes of her enemy

[Repeat Припев:]

I'm married
Buried, yeah, yeah, yeah, yeah

All in all we all are [Repeat 13x]
Вверх

Aneurysm

Aneurysm - Incesticide
Tuning: Normal (E, A, D, G, B, E)

Riff 1 (with Припев:, played 2x)
E|------------------------------------|
B|------------------------------------|
G|--------------5--------4-------2-0--|
D|-4---4--------5--------4-------2-0--|
A|-4---4---s3-3-3-3-2-2-2-2-0-0-0-----|
E|-2---2-0----------------------------|

The run is played from the 3rd fret of the G string
to the 19th(?).

Riff 1 (w/ distortion, played 8x)

Версия
G|--------------------------|----------------------------------|
D|----Bass plays here-------|-7-7-7-7-7-7-7-7-7-7-7-7-7-7-7-7--|
A|--------------------------|-7-7-7-7-7-7-7-7-7-7-7-7-7-7-7-7--|
E|--------------------------|-5-5-5-5-5-5-5-5-5-5-5-5-5-5-5-5--|

Припев: (w/ distortion, played 4x)
E|----------------------------------|
B|----------------------------------|
G|----------------------------------|
D|-4-4-6-7---7-7-8-9---9-8-7---7----|
A|-4-4-6-7---7-7-8-9---9-8-7---7----|
E|-2-2-4-5---5-5-6-7---7-6-5---5-0--|

It then goes on to the run, and then the outro,
                                       which os the same as the
Припев:

Lyrics to Aneurysm - Incesticide

Come on over, Do the twist
Overdo it, have a fit
Love you so much, Makes me sick
Come on over, Do the twist

Beat me out of me (Beat up, Beat up) x4

Come on over, Do the twist
Overdo it, have a fit
Come on over, Shoot the shit
Come on over, Do the twist

Beat me out of me (Beat up, Beat up) x4

She gave the perfect strain to my heart (xbunch of times)

Aneurysm - "Smells Like Teen Spirit"
Tuning: Normal (E, A, D, G, B, E)

This version is played much more slowly.

Riff 1 (Clean sound, played 2x)
e|------------------------------------|
B|------------------------------------|
G|--------------0--------0-------2-0--|
D|-4---4--------0--------0-------2-0--|
A|-4---4---s3-3-3-3-2-2-2-2-0-0-0-----|
E|-2---2-0----------------------------|

The run is played from the 3rd fret of the G
string to the 19th(?).

Riff 1 (w/ distortion, played 8x)

Версия
G|---------------------------|---------------------------------|
D|-----Bass plays here-------|-7-7-7-7-7-7-7-7-7-7-7-7-7-7-7-7-|
A|---------------------------|-7-7-7-7-7-7-7-7-7-7-7-7-7-7-7-7-|
E|---------------------------|-5-5-5-5-5-5-5-5-5-5-5-5-5-5-5-5-|

Припев: (w/ distortion, played 4x)

E|----------------------------------|
B|----------------------------------|
G|----------------------------------|
D|-4-4-6-7---7-7-8-9---9-8-7---7----|
A|-4-4-6-7---7-7-8-9---9-8-7---7----|
E|-2-2-4-5---5-5-6-7---7-6-5---5-0--|

It then goes on to the run, and then the outro,
which os the same as the

Припев:

Lyrics to Aneurysm - Incesticide

Come on over, Do the twist
Overdo it, have a fit
Come on over, Shoot the shit
Come on over, Do the twist

Beat me out of me (Beat up, Beat up) x4

Come on over, Do the twist
Overdo it, have a fit
Come on over, Shoot the shit
Come on over, Do the twist
Вверх

Been a son mp3

Версия s:
                        ^-upstroke if you play this one...all
                                                    others down
E|---0--0-----------0---(0)--0--------|
B|---3--3-----------3---(3)--3--------|
G|---2--2-----------2---(2)--2--------| repeat many times
D|---0--0-----------0---(0)--0--------|
A|---0--0---3-2-0---0---(0)--0---3-2-0|
D|---0--0-----------0---(0)--0--------|

Припев:

E|------------------------------------|
B|------------------------------------|
G|------------------------------------|  Repeat
D|---5-5--3--X-2--2-------------------|
A|---5-5--3--X-2--2--3-2-0------------|
D|---5-5--3--X-2--2-------------------|

Solo-
There are many ways to play this solo...sometimes Kurt
                                                just played the
Версия  guitar part as the solo...but my version of the solo
                                                         (quite
pathetic unless you're playing with some other people to help
                                               make more noise!

G|--6-6--4-3-1/6--6-6--4-3-1--|

repeat a couple times then

G|--/4-4--2--2-1--1-1-1-0-1-0--1/4--4--2--2-1--1-1-1-0-1-0-|

etc.
Вверх

Big Long Now

Intro/Verse:
E|-----------------|
B|-----------------|
G|-------------0---|
D|-----0---------8-|
A|---8---8---8-----|
E|-9-------9-------|

"Can We Show Our Faces Now?"
Bb5 A5 G#5

Chorus
D5 C#5 D5 C#5 G5

End Of Chorus
F#5 F5 F5

It's not cold enough
please put his side up
can we show our faces now
I'm not in a string
she's not turning gray
simple as it seems
can we show our faces now
endless climb
I am blind
what can I hear
call a lie
speaking a phrase
instantly grown
I am blind
waiting in line
Вверх

Blew

 Проигрыш / Версия  / Outro
E|---------------------------|
B|---------------------------|
G|---------------------------|
D|---------------------------|
A|-0--3--5--6--6--5--3--0--5-|
E|-0--3--5--6--6--5--3--0--5-|

 Версия  Riff
E|----------------------------------|----------------6-|
B|----6--8--9--9--9--8--6--8--8--6--|--8p--6Н--8--8----|
G|-7--------------------------------|------------------|
D|----------------------------------|------------------|
A|----------------------------------|------------------|
E|----------------------------------|------------------|
  Oh if you...

 Припев:
E|----------------------------------------------------|
B|----------------------------------------------------|
G|----------------------------------------------------|
D|----------------------------------------------------|
A|-3--5-|--5--5--3-|--3--3--5-|--5--5--3--6-|-/7-...--|
E|-3--5-|--5--5--3-|--3--3--5-|--5--5--3--6-|-/7-...--|
Is There  another...                       ...Shame!!!
Вверх

Breed

Проигрыш:

e|-------------------------------|-----------------------------|
B|-------------------------------|-----------------------------|
G|-*---------------------------*-|-*---------------------------|
B|-*--4--4--4--4--7---------2--*-|-*-4--4--4--4--7-------------|
A|----4--4--4--4--7-Bend----2----|---4--4--4--4--7-Bend--------|
E|----2--2--0--2--5---------0----|---2--2--0--2--5------0------|

e|----------------------------|--------------------------------|
B|----------------------------|--------------------------------|
G|----------------------------|----------------------------*---|
B|----4--4--4--4--7-----------|-4--4--4--4--7--------------*---|
A|----4--4--4--4--7-Bend------|-4--4--4--4--7-Bend-------------|
E|----2--2--0--2--5---------0-|-2--2--0--2--5-----------0------|

Riff 1:

e|----------------------------|--------------------------------|
B|----------------------------|--------------------------------|
G|-*--------------------------|--------------------------------|
B|-*--4--4--------------------|--4--4--------------------------|
A|----4--4--------------------|--4--4--------------------------|
E|----2--2--0--2--5-Bend---0--|--2--2--0--2--5-Bend------0-----|

e|-----------------------------|-------------------------------|
B|-----------------------------|-------------------------------|
G|-----------------------------|----------------------------*--|
B|----4--4---------------------|--4--4----------------------*--|
A|----4--4---------------------|--4--4-------------------------|
E|----2--2--0--2--5-Bend--0----|--2--2--0--2--5-Bend-----0-----|

Версия :

e|--------------------------|-----|-----|----------------------|
B|--------------------------|-----|-----|----------------------|
G|--------------------------|-----|-----|----------------------|
B|-11-11-11-11--11-11-11-11-|--%--|--%--|-11-11-11-------------|
A|-9--9--9--9---9--9--9--9--|-----|-----|-9--9--9--9-Bend-9-7--|
E|--------------------------|-----|-----|----------------------|

e|----------------------------|-|-|-|--------------------------|
B|----------------------------|-|-|-|--------------------------|
G|-*--------------------------|-|-|-|-----------------------*--|
B|-*-11-11-11-11--11-11-11-11-|%|%|%|--11-11-11-------------*--|
A|---9--9--9--9---9--9--9--9--|-|-|-|--9--9--9--9-Bend--9-7----|
E|----------------------------|-|-|-|--------------------------|

e|-----------------------------|
B|-----------------------------|
G|-----------------------------|
B|----4-4-4-4---4-4-4-0--------|
A|----4-4-4-4---4-4-4-1--------|
E|----2-2-2-2---2-2-2----------|

I don't care, I don't care, I don't care, I don't care,
I don't care,care if I'm old

I don't mind, I don't mind, I don't mind, I don't mind,
I don't mind,if I don't have a mind

Get away, get away, get away, get away, get away,
get away, get away,way, way from your home

I'm afraid, I'm afraid, I'm afraid, I'm afraid,
I'm afraid, I'm afraid,of a ghost

Припев:

     D           A                  C5          B5
e|---2--2--2---------------------|-----------------------------|
B|---3--3--3--X--2------2--X-----|-----------------------------|
G|---2--2--2--X--2------2--X-----|---5--5--5--X--4------4--X---|
B|---0--0--0--X--2------2--X-----|---5--5--5--X--4------4--X---|
A|-------------------------------|---3--3--3--X--2------2--X---|
E|-------------------------------|-----------------------------|

Even if you have
Even if you need
I don't mean to stare
We don't have to breed
We could plant a house
We could build a tree
I don't even care
We could have all three

She said (with Riff 1)
Вверх

Come as you are

Voicings:

 F# - 244322
 A  - x0222x
 B  - 22444x
 D  - x0023x

Main Riff (with Припев:-effect pedal)
E|---------------------------------------------|
B|---------------------------------------------|
G|---------------------------------------------|
D|---------------------------------------------|
A|---------------0-----0--------------2--------|
E|--0--0--1--2------2-----2--2--1--0-----0--0--|

[The 'memoria' part:  F# A ]
[The 'And I swear that I don't...' part:  B D ]

Проигрыш; Repeat main riff 3x

Come as you are, as you were
As I want you to be
As a friend, as a friend
As an old enemy
Take your time, hurry up
The choice is your
Don't be late, take a rest
As a friend
As an old memoria
memoria, memoria, memoria

Come dowsed in mud, soaked in bleach
As I want you to be
As a trend, as a friend
As an old memoria
memoria, memoria, memoria

And I swear that I don't have a gun
No I don't have a gun
No I don't have a gun

Solo: Repeat 4x
E|---------------------|------------------------|
B|--6-9-11-11\6-6-9\11-|-6-9-11-11-13-11-11-9\6-|
G|---------------------|------------------------|
D|---------------------|------------------------|
A|---------------------|------------------------|
E|---------------------|------------------------|

memoria, memoria, memoria, memoria

And I swear that I don't have a gun
No I don't have a gun  [Repeat 5x]

memoria
Вверх

D7

D|-------2----------0---------|-2-|
A|----2-----2----3-----3------|-2-|
E|-0-----------1----------1---|-0-|

Standing on the stairs                           |
Cold,cold morning          Играется медленно     |
Gohstly image of fear      когда допеваете - Е5--/
Mayday, mayday!!!
Gonna leave this region
They`ll take me with them
Demelted seven

DISTORTION
E5,F5,G5------С боем разберетесь
проигрыш 10-13 вступают ударные потом:

     N.C.(!)
Strain as an arrow
Deffect deffect
Not strain not so strain
Reject reject
Towards aint social
Solo solo
Standing on the stairs
Cold cold morning ------guitar & bass comes!!!
Gohstly image of fear
Mayday Mayday!!!
Gonna leave this region
They`ll take me with them
Demelted seven!!!!!!!!!!!!!!!!!!!!!!
Вверх

Downer

Starts off with bass doing:

E|-0-0-0-0-0-8-8-8--0-0-0-0-0-8-8-8-|

Then the gitter comes in:

E|-----------5-------------------5-|
B|-2---------5---------2---------5-|
G|-2---------5---------2---------5-|
D|-2---------5---------2---------5-|
A|-2---------3---------2---------3-|
E|-0-------------------0-----------|

The Версия  is bass only, doing the same the Проигрыш stuff.

On "Fight!", the gitter comes in again:

D|-10\-|---------------------------------------|
A|-10\-|--5--6-7-6--5-6-7-6--5--6-7-6--5-6-7-6-|
E|--8\-|---------------------------------------|

Then the gitter does this (in sync w/the bass):

G|-----------5-5-5------------5-5-5-|
D|-2-2-2-2-2-5-5-5--2-2-2-2-2-5-5-5-|
A|-2-2-2-2-2-3-3-3--2-2-2-2-2-3-3-3-|
E|-0-0-0-0-0--------0-0-0-0-0-------|

Then it goes into the Припев: ("Somebody served a dinner..."):

G|-----------8----9--------------8----9-|
D|-7----8----8----9----7----8----8----9-|
A|-7----8----6----7----7----8----6----7-|
E|-5----6--------------5----6-----------|
Вверх

Drain You

Verse: A5 C#5 F#5 B5

Chorus: A5 G5 F#5
        A5 F#5 play that 3x
        E5 D5 D#5
Solo

feedback for a few bars then this:

   dist. on       dist. off
B|-3--------------3-|
G|-2--------------2-|
D|-3--------------3-|
   +
play that 4x, then play this:

B|-76543------------------------------------------|
G|-65432--------6/7~~-4~~-5-6~~-7-8~~-9 10~~~~~~~-|
D|-76543------------------------------------------|
Вверх

Dumb

Voicings:

 E5    - 022x00
 G(i)  - 355433
 G(ii) - 320033 or 320003
 B     - 2 (раза)444x
 C     - x3555x

[During Версия  strum :  E5  G(i)]
[During Припев: strum:  E5  G(ii)]
[In bridge switch to:  B   C]

I'm not like them
But I can pretend
The sun is gone
But I have a light
The day is done
But I'm having fun
I think I'm dumb
Or maybe just happy

Think I'm just happy [Repeat 3x]

My heart is broke
But I have some glue
help me inhale
And mend it with you
We'll float around
And hang out on clouds
Then we'll come down
And I have a hangover

have a hangover [Repeat 3x]

Skin the sun
Fall asleep
Wish away
The soul is cheap
Lesson learned
Wish me luck
Soothe the burn
Wake me up

[Repeat first Версия  and Припев:]

I think I'm dumb [Repeat 12x]
Вверх

Frances Farmer Will Have Her Revenge On Seattle

G|---------------------------------|
D|---------------------------------|
A|---------------------------------|
E|-2---2----2--2----2--2------2--2-|

G|--------------|
D|--------------|
A|--------------|
E|-2----2----3/-|

G|---------------------------------------|
D|---------------------------------------|
A|---------------------------------------|
E|-/4--4--4--4--4--4--4--4----0--0--0--0-|

G|----------------------------------------|
D|----------------------------------------|
A|----------------------------------------|
E|-/3--3--3--3----0--0--0--0--/3--3--3--0-|

G|---------------------------------------|
D|---------------------------------------|
A|---------------------------------------|
E|-/4--4--4--4--4--4--4--4----0--0--0--0-|

G|----------------------------------------|
D|----------------------------------------|
A|----------------------------------------|
E|-/3--3--3--3----0--0--0--0--/3--3--3--0-|

G|---------------------------------|
D|---------------------------------|
A|---------------------------------|
E|-2---2----2--2----2--2------2--2-|

G|--------------|
D|--------------|
A|--------------|
E|-2----2----3/-|

G|------------------------------|
D|------------------------------|
A|------------------------------|
E|-3--3--4--4---x-------4--4--4-|

G|-------------------------------------|
D|-------------------------------------|
A|-----------------------------------0-|
E|-3---3--------3---------x---3--------|

G|---------------------------------|
D|---------------------------------|
A|-2---2----2--2----2--2------2--2-|
E|---------------------------------|

G|--------------------------------------|
D|--------------------------------------|
A|-2-----2--2------2---2----------------|
E|-------------------------2----2----3/-|

G|---------------------------------------------|
D|---------------------------------------------|
A|-------------------------------------7----7--|
E|-4---4----4--4---4-------/7----------------7-|

G|----------------------------------------|
D|----------------------------------------|
A|-----------0------------2---2---2-------|
E|-5---5-------2---2--------------2-----2-|

G|----------------------|
D|----------------------|
A|----------------------|
E|-2---2--2--2--2--2--3-|

G|---------------------------------------|
D|---------------------------------------|
A|---------------------------------------|
E|-4---4----4--4---4-------/7----------7-|

G|----------------------------------------|
D|----------------------------------------|
A|----------0-------------0---0---0-------|
E|-5---5-------2---2--------------2-----2-|

G|----------------------|
D|----------------------|
A|----------------------|
E|-2---2--2--2--2--2--3-|

G|---------------------------------------|
D|---------------------------------------|
A|---------------------------------------|
E|-4---4----4--4---4-------/7----------7-|

G|-----------------------|
D|-----------------------|
A|----2---2--2---2--2--2-|
E|-5---5-------2---2-----|

G|---------------------------------------|
D|---------------------------------------|
A|-0--------------0--1---2--2--2---2---1-|
E|---------------------------------------|

G|-------------------------------------------|
D|-------------------------------------------|
A|-0-0-0-0-0-0-------0-----------------------|
E|----------------0-0-0--3-0-0-0-0-0-0-3---3-|

G|------------------------|
D|------------------------|
A|------------------------|
E|-2--2--2--2--2--2--2--3-|

G|----------------------|
D|----------------------|
A|------------------0h1-|
E|-2--2--2--2-----------|

  Interlude
G|---------------------------------|
D|---------------------------------|
A|---------------/7--7--7---7----0-|
E|-4---4----0----------------------|

G|------------------------------------|
D|------------------------------------|
A|------------------/7--7--7---7----0-|
E|-4---4----0-------------------------|

G|----------------------------------------------|
D|----------------------------------------------|
A|-4---4---4--4--4--4---4---5--5--5----5--4-2p0-|
E|----------------------------------------------|

G|------------------------------------------------|
D|-------------------------------3------------2p0-|
A|-2---2--2--2--2--2-2-2-2----2-2-2-2--0----------|
E|------------------------------------------------|

G|-----------------------------------------------|
D|-----------------------------------------------|
A|-----------------------------------------------|
E|-3---------------3------2--2--2--2--2--2--2--3-|

  And you finish with this stuff:
G|----------|
D|----------|
A|----------|
E|-4------4-|

It's so relieving to know that you're
leaving as soon as you get paid
It's so relaxing to hear you're asking wherever you get your way
I's so soothing to know that you'll sue me,
this is starting to sound the same
I miss the comfort in being sad

In her false withness, we hope you're still with us,
to see if they float or drown
Our favorite paitent, A display of patience,
disease-covered Puget Sound
She'll come back as fire, to burn all the liars,
and leave a blanket of ash on the ground
I miss the comfort in being sad
Вверх

Heart Shaped Box

riff A                          riff B
   G#               E             C#
E|---------------------------- E|-----------------------
B|---------------------------- B|-----------------------
G|---------------------------- G|--6------6------ 6-----
D|--------6-----------2------- D|--6---6-------6-----6--
A|-----6-----6-----2-----2---- A|--4--------------------
E|--4-----------0------------- E|-----------------------

riff C
    C#
E|------------------------------
B|--------6--6--6--6------------
G|--6-------------------4--4--6-
D|--6---------------------------
A|--4---------------------------
E|------------------------------


Intro: Riff A (G#-E) - Riff B(C#) - Riff-A (G#-E)- Riff C(G#)

Verse 1:
Riff A    - Riff B -      Riff-A-        Riff C

She eyes me like a pisces when I am weak
I?ve been locked inside your Heart-Shaped box for a week
I was drawn into your magnet tar pit trap
I wish I could eat your cancer when you turn back

CHOURUS:
G#   E     C#(riff B)                     |
 Hey, wait, I?ve got a new conplaint      |X2
G# E       C#                             |
 Forever in debt to your priceless advice |
E  C#  pause  E C#(riff C)
     Goin? by

Verse 2:
Meat-eating orchids forgive no one just yet
Cut myself angel?s hair and baby?s breath
Broken hymen of your highness I?m left black
Throw down your umbilical noose so I can climb right back

CHORUS

Solo:                                  x2           let ring
E|------------------------------------------------|------|
B|o-------9~~--------7~~--------5--4-2-0---------o|------|
G|----------------------------------------3-------|------|
D|-----6---------4----------2---------------------|-6----|
A|o----------------------------------------------o|-6----|
D|------------------------------------------------|-4----|

Verse 1

CHORUS

Перевод:

Шкатулка в форме сердца

Когда я теряю силы, она смотрит на
меня во все глаза как на рыбу.
Долгие дни - недели я был пленником
твоей шкатулки в форме сердца.
Меня засосала твоя манящая яма, полная дегтя.
Я хотел бы съесть твою раковую опухоль, когда ты злишься.

Эй, подожди,
У меня есть еще одна жалоба -
Я перед тобой в вечном долгу за данный тобой бесценный совет.
Твой бесценный совет.

Орхидеи, пожирающие мясо еще никого не простили.
Расчленяю себя волосом ангела и дыханием ребенка.
Порвана плева вашего высочества, оставив меня во мраке.
Сбрось мне вниз петлю из пуповины,
чтобы я по ней вскарабкался обратно.
Вверх

I Hate Myself And Want To Die

Verse
G|-5--5------------5--5------------|
D|-5--5-00-2-2-1-2-5--5-00-2-2-1-0-|
A|-3--3-00-2-2-1-2-3--3-00-2-2-1-0-|
E|------00-2-2-1-2------00-2-2-1-0-|

Chorus:
D|-3--3-3 7--7-7-3--3-3-7--7-7-|
A|-3--3-3-7--7-7-3--3-3-7--7-7-|
E|-3--3-3-7--7-7-3--3-3-7--7-7-|

Ending:
D|-7---------|
A|-7---------|
E|-7--xx--xx-|

I Hate Myself and Want to Die
Runny nose and runny yolk
Even if you have a cold still
You can cough on me again
I still haven?t had my fulfill
In the someday what's that sound?
In the someday
what's that song? (x2)
Broken heart and broken bones
Think of how a castrated horse feels
One more quirky clich''d phrase
You're the one I wanna refill
In the someday what's that sound?
In the someday
what?s that song? (x3)
(Guitar Solo)
(During solo:)
most people don't realize
that two large pieces of coral,
painted brown, and attached to his skull
with common wood screws can
make a child look like a deer
In the someday what's that sound?
In the someday
what's that song? (x3)
Runny nose and runny yolk
Even if you have a cold still
You can cough on me again
I still haven't had my fulfill
In the someday what's that sound?
In the someday
what's that song? (x3)
Вверх

In Bloom

Intro: C Am G A# |2 times
       C G# F C# H

C        G#         F   C# H
Sell the kids for food
C        G#         F   C# H
Weather changes moods
Spring is here again
Reproductive glands

Chorus:
     C             Am            C               Am
     Hey, he?s the one who likes all the pretty songs
             C              Am
     And he likes to sing along
             C                 Am
     And he likes to shoot his gun
             D                 F
     But he knows not what it means
       D                 F
     Knows not what it means, And I say |2 times

     C Am G A# |2 times

Chorus: He's the one...

We can have some more
Nature is a whore
Bruises on the fruit
Tender age in bloom

Chorus: 2 times
Вверх

In His Hands

Куплет:  C5  G#5  G5  F5  C5  D#5  A#5  C#5
Припев:   F#5  D5   A5   C5
Риф  довольно легко подобрать слушая песню

In His Room (In His Hands)
He is gonna chase you in and out of a dream
You're not gonna thank him and I'm tired of this dream
Take him on occassion in the back of the room
If they don't show any affection he'll died in June
See the stab wounds in his hands
See him dying in his room
He's dying in his room
He's dying in his room
Heading for me, heading this way
He is coming, I don't care
I don't want to thank you, well I don't mind
Gave his only pleasures to a friend of mine
He's not gonna catch you in a lighted room
You don't thank him I know I should
See the stab wounds in his hands
You killed him, I don't care
Keep a promise, you would too
Keep a promise, you would too
See the silence in his head
He is coming, I don't care
We're not gonna make it, well I don't mind
They don't want to thank him, they don't have any time
In a conversation whom they don't know
They don't have any patience, they're becoming slow
See a famine in his head
See him coming at their heels
He loves you, give him a chance
I don't love him, I don't care
See him starving, give her hell
It is over, we don't care In His Room
Вверх

In His Room

**Intro and Verse**
E|---------------------------------------------------------|
B|---------------------------------------------------------|
G|-4-4----------------------------4-4/--7-7-7--------------|
D|-4-4---5-5-5--4-4--2-2-2--4-4/--7-7-7--7-7--5-5-5-5------|
A|-2-2---5-5-5--4-4--2-2-2--2-2/--5-5-5--7-7--5-5-5-5------|
E|--------3-3-3--2-2--0-0-0-------------------5-5--3-3-3-3-|

**Chorus**(part one)
E|------------------------------------|
B|------------------------------------|
G|---------8--8--------------7---7--7-|
D|-6--6---8--8--9--9--9---7--7--7-----|
A|-6--6---6--6--9--9--9---5--5--5-----|
E|-4--4-----------7--7--7-------------|
Play the chorus part one 6 times then play the chorus part
two 1 time.

**Chorus**(part two)
E|-----------------------------|
B|-----------------------------|
G|-----------------------------|
D|-6--6--6--6--6----4--4--4--4-|
A|-6--6--6--6--6----4--4--4--4-|
E|-4--4--4--4--4----2--2--2--2-|

**Interlude**
E|------------------------------------------------------|
B|------------------------------------------------------|
G|------4-----------------------------0---------------0-|
D|------------------------5-----------------------------|
A|-2----------------------------------------------------|
E|------------0----3-------------2-----------2----------|

**Verse1:
He is gonna chase you in and out of a dream
You?re not gonna thank him and I?m tired of this dream
Take him on occassion in the back of the room
If they don?t show any affection he?ll died in June

**Chorus1:
See the stab wounds in his hands
See him dying in his room
He?s dying in his room
He?s dying in his room
Heading for me, heading this way
He is coming, I don?t care

**Verse2:
I don?t want to thank you, well I don?t mind
Gave his only pleasures to a friend of mine
He?s not gonna catch you in a lighted room
You don?t thank him I know I should

**Chorus2:
See the stab wounds in his hands
You killed him, I don?t care
Keep a promise, you would too
Keep a promise, you would too
See the silence in his head
He is coming, I don?t care

**Verse3:
We?re not gonna make it, well I don?t mind
They don?t want to thank him, they don?t have any time
In a conversation whom they don?t know
They don?t have any patience, they?re becoming slow

**Chorus3:
See a famine in his head
See him coming at their heels
He loves you, give him a chance
I don?t love him, I don?t care
See him starving, give her hell
It is over, we don?t care In His Room
Вверх

Jesus wants me for a sunbeam

Voicings:

 E5    - 022x00
 D     - xx0232
 A     - x02220
 Asus4 - x02230

Проигрыш:  E5  D  A  Asus4  A [Repeat 2x]

 E5         D              A      Asus4 A
Jesus don't want me for a sunbeam
       E5          D                A    Asus4 A
'Cause sunbeams are never made like me
 E5                D                 A           Asus4   A
Don't expect me to cry, for all the reasons you had to die
 E5        D                 A   Asus4 A
Don't ever ask your love of me

 E5                 D
Don't expect me to cry
 E5                 D
Don't expect me to lie
 E5                 D       A     Asus4 A
Don't expect me to die for thee
Вверх

Lake of fire

Main Riff
  Gm   G5\F5  Bb5   Gm   C5        Bb5
E|------------------------------------|
B|------------------------5b6r5b6r5-3-|
G|------------------------5b6r5b6r5-3-|
D|------------------------------------|
A|------------------------------------|
E|------------------------------------|

  Gm   G5\F5   Bb5    C5       F5    G5
E|---------------------------------------|
B|---------------------------------------|
G|----------------------5--5--5----------|
D|----------------------5--5--5--3--3--5-|
A|----------------------3--3--3--3--3--5-|
E|-------------------------------1--1--3-|

  Gm           F5   G5   Gm                        F5       G5
E|---------------------|---------------------------------------|
B|---------------------|----11~-11~-11~-11~-11~-11~\--6~--6~/8~|
G|---------------------|-/10--10~-10~-10~-10~-10~--\5~--5~--/7~|
D|-----------------3---|---------------------------------------|
A|-5-5-5-5-5-5-5-3-1-5-|---------------------------------------|
E|-3-3-3-3-3-3-3-1---3-|---------------------------------------|

 Gm                 F            Bb
Where do bad folks go when they die?
     Gm                           C5     Bb
They don't go to heaven where the angels fly
        Gm                  F        Bb
They go down to the lake of fire and fry
      C                      F         Gm  Gm F G F G5
Won't see 'em again till the fourth of july

 Dm                Bb
I knew a lady who came from duluth
 Dm                          A
She got bit by a dog with a rabid tooth
 Dm                           Bb
She went to her grave just a little too soon
        C                        Dm     Dsus2
And she flew away howling on the yellow moon

[Repeat Припев:]

Now the people cry and the people moan
And they look for a dry place to call their home
And try to find some place to rest their bones
While the angels and the devils
Fight to claim them for their own

[Repeat Припев:]  Gm  F  G5 Gm  F  G5

SOLO

E|-----3---------3--------------------------------------|
B|-2-3---3--6b7------6----------------------------------|
G|---------------------5-3------------------------------|
D|-------------------------5-3----------------------3-5-|
A|-----------------------------5-4-3----------3-4-5-----|
E|-----------------------------------6-3----6-----------|

E|------------------------------------------------------|
B|--3b4---------------6~----6~--------------------------|
G|--3b4-------(0)-5/7----7~----7\5--3-------------------|
D|-------5----------------------------5-------0-3---3---|
A|-----------------------------------------/5-----5---5-|
E|------------------------------------------------------|

E|-------------------------------3-----------------|
B|--------------------6~------/3---3-7-3-----------|
G|----------------5/7----7\--------------3-5-------|
D|-------------------------------------------3---5-|
A|--3----------------------------------------------|
E|----6-3-3-3----------------------------------3---|

E|----------------------------------------------------|
B|--3b4------3b4-----3b4------------------------------|
G|--3b4------3b4-----3b4------------------------------|
D|------5-5------5-------5-3------------------------3-|
A|---------------------------5-4-3------------3-4-5---|
E|---------------------------------6-3----3-6---------|

E|----------------------|
B|----------------------|
G|------(3)-----(4)-----|
D|--3Н5-----(3)-----5---|
A|----------------------|
E|----------------------|
Вверх

Lithium mp3

 Muted guitar
E||------------------|--------------------|--------------------|
B||------------------|--------------------|--------------------|
G||-------------1----|----6----------2----|--------------------|
D||----2-------------|--------------------|---------------0--0-|
A||------------------|-4------4--0------0-|-3----3--3--3-------|
E||-0-----0--4-----4-|--------------------|--------------------|

E|-------------------|--------------------|--------------------|
B|-------------------|--------------------|--------------------|
G|-------------------|--------------------|-----6---------2----|
D|--------------0--0-|-----2---------6----|-----4---------2----|
A|-2---2--2--2-------|-----2---------6----|-4------4--0------0-|
E|-------------------|-0------0--4------4-|--------------------|

E|-------------------|--------------------|--------------------|
B|-------------------|--------------------|--------------------|
G|-----5-----------7-|------4-----------7-|--------------------|
D|-----5-----------7-|------4-----------7-|-----2---------6----|
A|-3---3--3--3--5--5-|-2----2--2--2--5--5-|-----2---------6----|
E|-------------------|--------------------|-0------0--4------4-|

E|-------------------|--------------------|--------------------|
B|-------------------|--------------------|--------------------|
G|----6---------2----|------5-----------7-|------4-----------7-|
D|----4---------2----|------5--------0--7-|------4-----------7-|
A|-4-----4--0------0-|-3----3--3--3-----5-|-2----2--2--2--5--5-|
E|-------------------|--------------------|--------------------|

E|-------------------|--------------------|--------------------|
B|-------------------|--------------------|--------------------|
G|-------------------|-----6---------2----|------5-----------7-|
D|-----2--------6----|-----4---------2----|------5-----------7-|
A|-----2--------6----|-4------4--0------0-|-3----3--3--3--5--5-|
E|-0------0--4-----4-|--------------------|--------------------|

E|-------------------|--------------------|--------------------|
B|-------------------|--------------------|--------------------|
G|-----4-----------7-|--------------------|-----6---------2----|
D|-----4-----------7-|-----2---------6----|-----4---------2----|
A|-2---2--2--2--5--5-|-----2---------6----|-4------4--0------0-|
E|-------------------|-0------0--4------4-|--------------------|

dist. guitar
E|----------------------|----------------------|---------------|
B|----------------------|----------------------|---------------|
G|-5--5--5--5-5-5--7--7-|-4--4--4--4-4-4--7--7-|---------------|
D|-5--5--5--5-5-5--7--7-|-4--4--4--4-4-4--7--7-|-2---2---6---6-|
A|-3--3--3--3-3-3--5--5-|-2--2--2--2-2-2--5--5-|-2---2---6---6-|
E|----------------------|----------------------|-0---0---4---4-|

E|---------------|----------------------|----------------------|
B|---------------|----------------------|----------------------|
G|-6---6---2---2-|-5--5--5--5-5-5--7--7-|-4--4--4--4-4-4--7--7-|
D|-6---6---2---2-|-5--5--5--5-5-5--7--7-|-4--4--4--4-4-4--7--7-|
A|-4---4---0---0-|-3--3--3--3-3-3--5--5-|-2--2--2--2-2-2--5--5-|
E|---------------|----------------------|----------------------|

E|------------------|------------------|----------------------|
B|------------------|------------------|----------------------|
G|------------------|-6----6----2----2-|-5--5--5--5-5-5--7--7-|
D|-2----2----6----6-|-6----6----2----2-|-5--5--5--5-5-5--7--7-|
A|-2----2----6----6-|-4----4----0----0-|-3--3--3--3-3-3--5--5-|
E|-0----0----4----4-|------------------|----------------------|

E|----------------------|
B|----------------------|
G|-4--4--4--4-4-4--7--7-|
D|-4--4--4--4-4-4--7--7-|
A|-2--2--2--2-2-2--5--5-|
E|----------------------|

Muted guitar
E|----------------------|----------------------|
B|----------------------|----------------------|
G|----------------------|------6----------2----|
D|------2----------6----|------4----------2----|
A|------2----------6----|-4-------4--0-------0-|
E|-0-------0--4-------4-|----------------------|

E|--------------------|-------------------|--------------------|
B|--------------------|-------------------|--------------------|
G|------5-----------7-|-----4-----------7-|--------------------|
D|------5-----------7-|-----4-----------7-|-----2---------6----|
A|-3----3--3--3--5--5-|-2---2--2--2--5--5-|-----2---------6----|
E|--------------------|-------------------|-0------0--4------4-|

|------------------------|------------------------|
|------------------------|------------------------|
|-------6----------2-----|-------5-----------7----|
|-------4----------2-----|-------5-----------7----|
|--4-------4--0-------0--|--3----3--3--3--5--5----|
|------------------------|------------------------|

------------------------|
------------------------|
-------4-----------7----|
-------4-----------7----|
--2----2--2--2--5--5----|
------------------------|

|------------------------|------------------------|
|------------------------|------------------------|
|------------------------|-------6----------2-----|
|-------2----------6-----|-------4----------2-----|
|-------2----------6-----|--4-------4--0-------0--|
|--0-------0--4-------4--|------------------------|

------------------------|
------------------------|
-------5-----------7----|
-------5-----------7----|
--3----3--3--3--5--5----|
------------------------|

|------------------------|------------------------|
|------------------------|------------------------|
|-------4-----------7----|------------------------|
|-------4-----------7----|-------2----------6-----|
|--2----2--2--2--5--5----|-------2----------6-----|
|------------------------|--0-------0--4-------4--|

------------------------|
------------------------|
-------6----------2-----|
-------4----------2-----|
--4-------4--0-------0--|
------------------------|

|------------------------|------------------------|
|------------------------|------------------------|
|-------5-----------7----|-------4-----------7----|
|-------5-----------7----|-------4-----------7----|
|--3----3--3--3--5--5----|--2----2--2--2--5--5----|
|------------------------|------------------------|

------------------------|------------------------|
------------------------|------------------------|
------------------------|-------6----------2-----|
-------2----------6-----|-------4----------2-----|
-------2----------6-----|--4-------4--0-------0--|
--0-------0--4-------4--|------------------------|

dist.
|--------------------------|
|--------------------------|
|--5--5--5--5-5-5--7--7----|
|--5--5--5--5-5-5--7--7----|
|--3--3--3--3-3-3--5--5----|
|--------------------------|

--------------------------|
--------------------------|
--4--4--4--4-4-4--7--7----|
--4--4--4--4-4-4--7--7----|
--2--2--2--2-2-2--5--5----|
--------------------------|

|----------------------|----------------------|
|----------------------|----------------------|
|----------------------|--6----6----2----2----|
|--2----2----6----6----|--6----6----2----2----|
|--2----2----6----6----|--4----4----0----0----|
|--0----0----4----4----|----------------------|

--------------------------|
--------------------------|
--5--5--5--5-5-5--7--7----|
--5--5--5--5-5-5--7--7----|
--3--3--3--3-3-3--5--5----|
--------------------------|

|--------------------------|----------------------|
|--------------------------|----------------------|
|--4--4--4--4-4-4--7--7----|----------------------|
|--4--4--4--4-4-4--7--7----|--2----2----6----6----|
|--2--2--2--2-2-2--5--5----|--2----2----6----6----|
|--------------------------|--0----0----4----4----|

----------------------|
----------------------|
--6----6----2----2----|
--6----6----2----2----|
--4----4----0----0----|
----------------------|

|--------------------------|--------------------------|
|--------------------------|--------------------------|
|--5--5--5--5-5-5--7--7----|--4--4--4--4-4-4--7--7----|
|--5--5--5--5-5-5--7--7----|--4--4--4--4-4-4--7--7----|
|--3--3--3--3-3-3--5--5----|--2--2--2--2-2-2--5--5----|
|--------------------------|--------------------------|

-----------------------|
-----------------------|
--2----2--7--5----5----|
--2----2--7--5----5----|
--0----0--5--3----3----|
-----------------------|

|-----------------------|-----------------------|
|-----------------------|-----------------------|
|--2----2----0--2----0--|--2----2--7--5----5----|
|--2----2----0--2----0--|--2----2--7--5----5----|
|--0----0----x--0----x--|--0----0--5--3----3----|
|------------3-------3--|-----------------------|

-----------------------|
-----------------------|
--2----2----0--2----0--|
--2----2----0--2----0--|
--0----0----x--0----x--|
------------3-------3--|

|-----------------------|-----------------------|
|-----------------------|-----------------------|
|--2----2--7--5----5----|--2----2----0--2----0--|
|--2----2--7--5----5----|--2----2----0--2----0--|
|--0----0--5--3----3----|--0----0----x--0----x--|
|-----------------------|------------3-------3--|

-----------------------|
----------3------------|
--2----2--2--5----5----|
--2----2--0--5----5----|
--0----0-----3----3----|
-----------------------|

|-----------------------|--------------------------|
|-----------------------|--3--3--3--3--3--3--3--3--|
|--2----2----0--2----0--|--2--2--2--2--2-----2--2--|
|--2----2----0--2----0--|--0--0--0--0--0--0--0--0--|
|--0----0----x--0----x--|--------------------------|
|------------3-------3--|--------------------------|

-------------------------|-------------------||
-------------------------|-------------------||
--4--4--4--4--4-----0----|-------------------||
--4--4--4--4--4--2--0----|--2----------------||
--2--2--2--2--2--2--x----|--2----------------||
-----------------0--3----|--0----------------||

Lithium
I'm so happy because today
I've found my friends
They're in my head
I'm so ugly, but that's okay, cause so are you
We've broken our mirrors
Sunday morning is everyday for all I care
And I'm not scared
Light my candles in a daze
Cause I've found god
Hey, hey, hey
I'm so lonely but that's okay I shaved my head
And I'm not sad
And just maybe I'm to blame for all I've heard
But I'm not sure
I'm so excited, I can't wait to meet you there
But I don't care
I'm so horny but that's okay
My will is good
Hey, hey, hey
I like it, I'm not gonna crack
I miss you, I'm not gonna crack
I love you, I'm not gonna crack
I kill you, I'm not gonna crack

Перевод:

Литий

Я так счастлив, ведь сегодня я нашел своих друзей,
Они у меня в голове.
Я такой безобразный, но все в порядке - ты и сам такой же,
Мы расколотили наши зеркала.
Воскресное утро - это все, что мне нужно каждый день,
И я не напуган.
Пораженный, я зажигаю свечи,
Ведь я нашел  Бога.
Хей, хей, хей.

Я так одинок, но все в порядке - я побрился наголо,
И я не грущу.
Может быть, меня стоит обругать за то, что я слышал,
Но я не уверен.
Я так взволнован, я не могу дождаться встречи с тобой,
И мне по фигу.
Я так возбужден, но все в порядке,
У меня нет дурных намерений.
Хей,хей,хей.

Мне нравиться это - я не хочу свихнуться.
Я теряю тебя - я не хочу слететь с катушек долой.
Я люблю тебя - я не хочу сбрендить.
Я убил тебя - я не хочу сойти с ума.
Вверх

Man who sold the world

Voicings:

A  - x0222x
D5 - xx023x
F  - 133211
C  - x3555x
G  - 355433
Bb - x1333x

Проигрыш (with distortion); Repeat 6x
E|--------------------|- -|-----|-
B|--------------------|- -|-----|-
G|--2-2-2-0--2Н3p2-0--|- -|--2~-|-
D|--------------------|- -|-----|-
A|--------------------|- -|-----|-
E|--------------------|- -|-----|-

                    A
We passed upon the stairs,
                    D
We spoke of was and when
                  A
Although I wasn't there
                  F
He said I was his friend
                    C
Which came as a surprise
                 A                           D
I spoke into his eyes - I thought you died alone
                    C
A long long time ago

   C - Riff                F - Riff
E|-----------------|-   -|-----------------|-
B|-----------------|-   -|-----------------|-
G|-----------2-4-5-|-   -|-----------------|-
D|-----2-3-5-------|-   -|-----------0-2-3-|-
A|-3-5-------------|-   -|-----0-1-3-------|-
E|-----------------|-   -|-1-3-------------|-

           F
Oh no, not me,
   Bb                F
We never lost control,
          C        F

You're face to face,
         Bb               A
With the man who sold the world

[Repeat Проигрыш]

                        A
I laughed and shook his hand,
                  D
I made my way back home,
                        A
I searched for form and land,
                      F
Years and years I roamed,
                 C
I gazed a gazely stare,
                     A                         D
We walked a million hills - I must have died alone,
                    C
A long long time ago.

               F
Who knows, not me,
  Bb                F
I never lost control,
          C       F
You're face, to face,
         Bb               A
With the man who sold the world.

[Repeat Проигрыш]
[Repeat second Припев:]
[Repeat Проигрыш]

Outro: (Not very accurate, but at least the right notes)
E|-------------------------------------------------------|
B|-------------------------------------------------------|
G|--2-2-2-0--2Н3p2-0--2-2-2-0--2Н3p2-0--/9-9-9-9-9-9-9-9-|
D|-------------------------------------------------------|
A|-------------------------------------------------------|
E|-------------------------------------------------------|

E|-------------------------------------------------------|
B|-------------------------------------------------------|
G|--\2-2-2-0--2Н3p2-0--2-2-2-0--2Н3p2-0-/10-10-10-10-10--|
D|-------------------------------------------------------|
A|-------------------------------------------------------|
E|-------------------------------------------------------|

E|-------------------------------------------------------|
B|-------------------------------------------------------|
G|-\9-\7-7-7-7-7-7-/9-9-9-9-9-\2-2-2-0-2Н3p2-0-/10-10-10-|
D|-------------------------------------------------------|
A|-------------------------------------------------------|
E|-------------------------------------------------------|

E|-------------------------------------------------------|
B|-------------------------------------------------------|
G|-10-10-\9-\7-7-7-7-7-7-/9-9-9-9-9-\2-2-2-0-2Н3p2-0--2--|
D|-------------------------------------------------------|
A|-------------------------------------------------------|
E|-------------------------------------------------------|
Вверх

Milk It

Intro:

Guitar 1

1|-12--------11---5-x-x-x-7-----------------------|
2|---11-12-10----5---------6-7/9-------8-6/7------|
3|--------9---------------------6-8-5-4-----7/6-8-|
4|-------------9----------------------------------|
5|--------------0---------------------------------|
6|------------------------------------------------|

Guitar 2

1|-7--5-------------7-7-7-7/9-6--4-----------10-11-16dontpick--|
2|---6---7-6-5-4-3-----------8--5-5/0-rake--9------------------|
3|--5---6---------4/----------------------------------/x-------|
4|-----7------------------------------------------8---/x-------|
5|-----------------------------0-------------------------------|
6|-------------------------------------------------------------|

Chorus:

1|---------------------------------|
2|-------9-9-----------------------|
3|-------9-9-----------------------|
4|-------9-9-----------------------|
5|-8-8-8-7-7-5-5---5-5-5-6-6-2-2-2-|
6|-6-6-6-----3-3-0-3-3-3-4-4-0-0-0-|

Bridge:

1|-----------------8----------------3-|
2|---5-5------------------------------|
3|--------------8-8----------------2--|
4|---------------7--------------------|
5|-1----3-3---------------------------|
6|--0---6--6-6-0----6-6-6-6-6-6-6-0---|

1|----------------------3-|
2|------------------------|
3|---------------------2--|
4|------------------------|
5|------------------------|
6|-6-6-6-6-6-6-6-0-0-0----|

Verse:

6|-6-6-6-6-6-6-6-6-0-0-0-0-0-|
Вверх

Moist Vagina

ИнтроКуплет
E|-------2----------2-|
B|-------2--------2---|
G|--------------------|
D|--------------------|
A|--------------------|
E|-0--2-----0--2------|

2раза, + A5 C5
Припев: E5 B5

Moist Vagana
She had a moist vagina
I?ve been tickling the circumference
I?ve been sucking the walls of her anus
Marijuana [I don?t wanna](No wonderNirvana)
I preferred her to any other
Marijuana (x4)(No wonderNirvana)
She had a moist vagina
I prefer her to any other
Marijuana (x11)(No wonderNirvana)
Ahh... yeah
Ahhhhhhhhhhhh.....
(He moans for about a minute)
Вверх

Molly`s Lips

Intro:         Fast Rock

G5   (Esus4)C     (Asus4)C        (Asus4)G5      (Esus4)C x2

Verse:
G5       C              G5
She said she?ll take me anywhere
C              G5
She?ll take me anywhere
 C           G5        C
As long as she stays with me
G5           C            G5
She said she?ll take me anywhere
C           G5
She?ll take me anywhere
C           G5       C
As long as i stay clean

Chorus:
 G5    C    G5     C
Kiss, kiss Molly?s lips x4

All repeat 3 times

Kiss, kiss Molly?s lips x4
Вверх

Molly`s Lips (2 вариант)

VERSE/CHORUS:

    G5      C5      G5     C5
E|---------------------------------|
B|---------------------------------|
G|----------5---5-----------5-5-5--|
D|--5---5---5---5---5---5---5-5-5--|
A|--5---5---3---3---5---5---3-3-3--|
E|--3---3-----------3---3----------|

ENDING:

    G5       NH-|
E|--------3---3-----|
B|------5---5---53--|
G|------------------|
D|--5---------------|
A|--5---------------|
E|--3---------------|
Вверх

Mrs Robinson

entire song: G  Em
interlude:
3|-----------0-------0----0--
4|-0---0---0-------0----0----
5|-2-2---2-------2----2------
6|-3-------------------------
играется дважды


So it?s to you Mrs Robinson
It?s let you more then knew now
Whahahaha

Got let you please Mrs Robinson
Ever all the plays for these you play (pray)
Hehehehey
Hehehey

(what I want to seek to stoping this(her, these) plays)

It like to know and let?em out you for I files
And lot of learnd I help yourself

Go out you are, you see at seemed prepare to climb

Turn around the guardens and to you feel it all

So it?s to you Mrs Robinson
It?s let you more then knew now
Вверх

My Sharona

Intro/Verse:

G--------------------------------------------|
D-----5-5---5---5-----5------5-5---5---------|
A------------------------------------3-1-3-1-|
E-3-3-----3---3---3-3----3-3-----3-----------|

Chorus:

G-----------------------------------------------------------------------|
D---5-5-5---5-5-5-----5-5-5---5-5-5-----8-8-8---8-8-8-----8-8-8---8-8-8-|
A-----------------------------------------------------------------------|
E-3-------3---------3-------3---------6-------6---------6-------6-------|

G-------+---------|
D-------|---------|
A-----6-|-6-6-6-8-|
E-8-8---+---------|

1st Variation

G------------------------------------------------------------------------|
D-----5-5---5----5---5-5---*-----5-5---5----5---5-5-5-------------------*|
A--------------------------*---------------------------3-3-6--6-6-8-6-8-*|
E-3-3-----3----3---3-----1/--3-3-----3----3---3--------------------------|

G---------------------------------|
D---------------------------------|
A-5-5-5-5-5-5-5-5--5-5-5-5-5-10X-|
E---------------------------------|

2nd Variation

G------------------------------------------------------------------------|
D-----5-5---5----5---5-5-5-------------------*-----5-5---5----5-----5---*|
A---------------------------3-3-6--6-6-8-6-8-*--------------------------*|
E-3-3-----3----3---3---------------------------3-3-----3----3---3-3---3--|

G-----------------------------------------------------|
D-----5-5---5----5-----5------------------------------|
A-------------------------3--3------------------------|
E-3-3-----3----3---3-3---------3/-8--8-8-10-10-10-8-3-|

Solo

G--------------------------------------------------------------------|
D*-----------------*---------------------*--------------3-3----------|
A*-3---------------*-3---------------0-1-*-3-----------------3-------|
E----3-3-1-1-1-1-3-----3-3-1-1-1-3-3---------3-3-1--1-1--------3-3-1-|

G-----------------------------------------------------------|
D-----------------------------------------------------------|
A----------3--------------3-----------------5-5-5-5-5-5-5-5-|
E-1-1-1-3----3-3-1-1-1-1----3-3-1--1-1-1-3------------------|


G-----------------------|
D-----------R-2:-R------|
A-5-5-5-5-5---4:---10X-|
E-----------------------|

End

G------------------------------|
D*4:-----5-5---5----5---5-5---*|
A*4:--------------------------*|
E----3-3-----3----3---3-----1/-|
Вверх

Oh me

Voicings:

 E  - 2 (раза)2100
 D  - x0023x
 C  - x32010
 G  - 320003
 C5 - x3555x
 D5 - x5777x
 E5 - x7999x

Main Riff
  (NC)     E      (NC)   D    (NC)   D            C         E
E-------------0-|-------------|-----------------|----0-------0-|
B-------------0-|-----------3-|-----------3-----|----1-0-0---0-|
G-------------1-|-----------2-|-----------2-0-0-|----0-0-0---1-|
D-------2-2-2---|-----2-0-0-0-|-----2-0-0-0-0-0-|2-2-------2---|
A---0-2---2-2---|-0-2---0-0---|-0-2---0-0-------|3-3-------2---|
E-4-------------|4------------|4----------------|----------0---|

Припев: [Repeat 4x]      End Of Припев:
 G         E               C          D         E
E-3--3-3-3-----0-|-     -|------------0-----|---------------0-|
B-0--0-0-0-----0-|-     -|------------1-----|-----3---------0-|
G-0--0-0-0-----1-|-     -|--------0-0-0-0-0-|-2-2-2-2-2-----1-|
D-----------2-2--|-     -|------2-2-2---2-2-|-0-0-0-2-2-0-0---|
A-----------2-2--|-     -|--0-2---3-3---3-3-|-0-0---0-0-0-0---|
E-----------0-0--|-     -|-4----------------|-----------------|

If I had to lose a mile
If I had to touch feelings
I would lose my soul
The way I do

I don't have to think
I only have to do it
The results are always perfect
And that's old news

Would you like to hear my voice
Sweetened with emotion
Invented at your birth?

I can't see the end of me
My whole expanse I cannot see
I formulate infinity
And store it deep inside of me

Solo

|---------------------3/2----------2/5-5-5-3-2-----------------|
|---------------3-3^5~----5-(3-5)-5------------5/3---------3-5~|
|-----------2-4~-----------------------------------4-2-2/4-----|
|-----2-2Н4----------------------------------------------------|
|--0-2---------------------------------------------------------|
|-4------------------------------------------------------------|

Outro:  C5 D5 E5
Вверх

Oh, The Guilt

Интро:
4: 7 7 7   6 6
5: 7 7 7   6 6
6: 5 5 5 0 4 4 94
4 раза,потом

4: 7 7 7      7 7 7     7 7 7    7 7 7   6 6
5: 7 7 7      7 7 7     7 7 7    7 7 7   6 6
6: 5 5 5      5 5 5     5 5 5    5 5 5 0 4 4 94

Куплет:
4: 7 7 7      7 7 7     7 7 7    7 7 7   6 6
5: 7 7 7      7 7 7     7 7 7    7 7 7   6 6
6: 5 5 5      5 5 5     5 5 5    5 5 5 0 4 4 94
4 раза
Припев: A5 G#5 C#5


Oh, The Guilt
She seems to think
She seems too weak
She takes a week to get over it
She likes the sea
She likes to see
She likes to think she has all of it
She likes the sound
She likes the sand
She likes to stand, she can?t afford to sit
She likes to be (x3)
She?s into guilt(Alternative: She likes to go)
Guilt(x3)
She likes to think
she likes to drink
She seems too weak, she takes all the rent
She likes the time
she owns the time
She borrows time to self-invent
She seems too weak
she likes to see
She likes to think she has all of it
She likes the sand
she likes to stand
She likes to sit
she likes to go
Go (x3)
(Guitar solo)
She seems to think
She seems too weak
She takes a week to get over it
She likes the sea
She likes to see
She likes to think she has all of it
She likes the sound
She likes the sand
She likes to stand, she can?t afford to sit
She likes to be (x3)
She like to go
Go (x7)
Вверх

Old Age

main part
1|----------------------------
2|----------------------------
3|--------------5-5-5-5-5-5---
4|-2-2-2-2-2-2--5-5-5-5-5-5---
5|-2-2-2-2-2-2--3-3-3-3-3-3---
6|-0-0-0-0-0-0----------------

     E5            C5
Somebody finally freed my brother
One more day to free my brother
Help me I won?t find a way, no

I?m going there to free my brother
No one there to free my brother (Don?t go there to free my brother?)
Help me I won?t find a way, brother

He?s the friend to revive
With all the love I got
In every way I love you (In every way I?ll help you?)
Help me know

Going my way

Вверх

On A Plain

Intro (w/distortion)
B(b5)/D# (fdbk pitch D#)
----------------|---------------------------
----------------|----------------------h12--
--10------------|------------------h10------
---9------------|----------------h9---------
----------------|---------------------------
--11------------|--10h11p10h11-------------

play that second part three times and hammer-on all notes with the fretting
hand.

Verse
    D                   G              F                    E5       F5  E5
--2--------------------------------------------------
--3---3-------0----0---------------------------------
--2---2---0---0----0---2---2----2----------------0--
--0---0---0---0--------3---3----3----------------0--
--0--------------------4---3----3---2--2--3--2------
--------------3------------1----1---0--0--1--0------

it goes like this (dashes included to line up some syllables with notes):
D       G              F    E5           F5 E5
   I?ll start this off with-out an-y words...

then the "I love myself line...":
    D               C5                  B5              A5
--2---------------------------------------------
--3---3-----------------------------------------
--2---2--0--5--5--5--5--4---4--0--2--2--2--0--
--0---0--0--5--5--5--5--4---4--0--2--2--2--0--
------------3--3--3--3--2---2-----0--0--0------
------------------------------------------------

D      C5         B5     A5
     I love myself    better than you...

So the verse follows the first rythym figure twice, then the second figure
for the refrain, then back to the first figure for the "I know it?s wrong..."
line.
D     G      F      E5  F5  E5
D     G      F      E5  F5  E5
D     C5    B5    A5
D     G      F      E5  F5  E5

As the chorus starts, play this figure and repeat it for the chorus:
    D5             G5                  Bb6sus2
--------------------------------------------------
--3---3-----3---3----------1--1--1--1--1--1------
--2---2-----0---0----------0--0--0--0--0--0--0---
--0---0--0--0---0--0----3--3--3--3--3--3--3--0--
---------0---------0--0h1--1--1--1--1--1--1------
------------3---3---------------------------------

D5   G5   Bb6sus2           D5   G5   Bb6sus2
                       I?m on a plain                  I can?t complain

The bridge is the only easy part:
F5 (133xxx)  E5 (022xxx)  A5 (x022xx)  G5 (355xxx)

Lyrics:
I?ll start this off without any words
I got so high [that] I scratched ?till I bled
I love myself better than you
I know it?s wrong so what should I do
The finest day that I?ve ever had
Is when I learned to cry on command

I?m on a plain, I can?t complain

My mother died every night
It?s safe to say don?t quote me on that
The black sheep got blackmailed again
Forgot to put on the zip code

Somewhere I have heard this before
In a dream my memory has stored
As defense I?m neutered and spayed
What the hell am I trying to say

It is now time to make it all clear
To write off lines that don?t make sense
One more special message to go
And then I?m done and I can go home
Вверх

On a plane

Voicings: (dropped-D tuning!)

 D    - x 5 7 7 7 x
 D/G  - 5 5 7 7 7 x
 A    - x 0 2 2 2 x
 F/Bb - 8 8101010 x
 F5   - 3 3 3 x x x
 E5   - 2 2 2 x x x
 G5   - 5 5 5 x x x

[Main Riff:  D  D/G  A (F#) (G) (F#) (E)]
[Припев:   :  D  D/G  F/Bb]
[Bridge   :  F5 E5   A  G5]

I'll start this off
Without any words
I got so high that
I scratched 'til I bled

Love myself
Better than you
I know it's wrong
So what should I do?

The finest day
That I ever had
Was when I learned
To cry on command

[Repeat "Love myself..." part]

I'm on a plain
I can't complain
I'm on a plain

My mother died
Every night
It's safe to say
Don't quote me on that

[Repeat "Love myself..." part]

The black sheep got
Blackmailed again
Forgot to put
On the zip code

[Repeat "Love myself..." part]
[Repeat Припев:]

Somewhere I have heard this before
In a dream my memory has stored
As defense I'm neutered and spayed
What the hell am I trying to say?

It is now time
To make it unclear
To write off lines
That don't make a sense

[Repeat "Love myself..." part]

One more special
Message to go
And then I'm done
And I can go home

[Repeat "Love myself..." part]
[Repeat Припев:]
Вверх

Opinion

  Bb F#5 C#5 F5
e-----------------     Бой подберёте-он типичный
b-----------------
G-3-------6-------
D-3---4---6---3---
A-1---4---4---3---
E-----2-------1---

Lyrics:
Congradulations you have won
It`s a useless subscription of bad puns.
And it makes your story our concern
You said it all your glory burns

My opinion Mmmm x4


There is seems to be a problem here
Your state of emotion seems to clear
You rise & fall like Wall street stock
And you have an affect on our happy talk

Opinion Mmmm
Your opinion Mmmm x3

Verse 1

My opinion Mmmm x2
Your opinion Mmmm x2
Your opinion ----здесь последний раз по струнам
Вверх

Pen Cap Chew

Вступление:
4: 2 2 2 2
5: 2 2 2 2
6: 0 0 0 0 3~~~
играть 3 раза, затем
4: 2 2 2 2  )~~~
5: 2 2 2 2 4
6: 0 0 0 0
повторить начало, после этого
4: 2 2 2 2  )~~~
5: 2 2 2 2 4    4 2
6: 0 0 0 0
играется дважды

Куплет: E5
Припев: B5 A5 F#5 A5 E5 G5 D5 F5

Ummm, lies again (it hurts again?)
Ummm, mine x3
Ummm, mmmm

You get (kill?), you get, you get, you get to me
All the years of tyrants such an easy way to go
You get, you get, you get, you get to me
Time to struggle and the scaling of fingernails

Ummm, lies again
Ummm, mine x3
Ummm, mmmm, You?re lonely

Waste your time by saying he was gullible (sp?)
Give up all additions in there where it?s cold
Push that gate, it is the age of red eye shame
Protest swine, go to jail, the travesty

Two minutes slow...slow...slow...oh
Вверх

Pennyroyal tea

Voicings:

 Am - x02210
 G  - 320033 or 320003
 C  - x3555x
 D  - x5777x
 Bb - 688xxx

Проигрыш; Repeat 2x
 Am  G  (E) (G) (E)

 Am                  G
I'm on my time with everyone
 Am              G
I have very bad posture

 C            D           Bb
Sit and drink Pennyroyal Tea
 C               D                 Bb
Distill the life that's inside of me
 C            D           Bb
Sit and drink Pennyroyal Tea
 C      D        Bb
I'm anemic royalty

Give me a Leonard Cohen afterworld
So I can sigh eternally

I'm so tired I can't sleep
I'm anemic royalty
I'm a liar and a thief
I'm anemic royalty

I'm on warm milk and laxatives
Cherry-flavored antacids

Sit and drink Pennyroyal Tea
Distill the life that's inside of me
I'm anemic royalty
I'm anemic royalty

Outro: Am
Вверх

Plateau

Voicings:

 G     - 320x33
 Bb    - 650x66
 Fsus2 - 1xx011
 G#    - 4xx044

Main Riff
 E--3-------6-------3-------6-------3-------6-------1---------|
 B------------------------------------------------------1-----|
 G----------------------------------------------------0-------|
 D-----(0)-----(0)-----(0)-----(0)-----(0)-----(0)------------|
 A---(2)-----(5)-----(2)-----(5)-----(2)-----(5)--------------|
 E--3-------6-------3-------6-------3-------6-------1---------|

Pre-Припев:            Припев:
 E--4------|-         -|--1/3------------------------3--------|
 B------4--|-         -|--1/3-------------3-----3----3-----6--|
 G----0----|-         -|------------------3-----3----------7--|
 D---------|-         -|---------5--x-----3-----3----------8--|
 A---------|-         -|---------5--x--1-----------5----------|
 E--4------|-         -|-------3-------------1-----3---/6-----|

Many a hand has scaled the grand old face of the plateau
Some belong to strangers and some to folks you know
Holy ghosts and talk show hosts are planted in the sand
To beautify the foothills and shake the many hands

There's nothing on the top but a bucket and a mop
And an illustrated book about birds
You see a lot up there but don't be scared
Who needs action when you got words

When you're finished with the mop then you can stop
And look at what you've done
The plateau's clean, no dirt to be seen
And the work it took was fun

[Repeat Припев:]

Well the many hands began to scan around for the next plateau
Some said it was in greenland and some in mexico
Others decided it was nowhere except for where they stood
But those were all just guesses, wouldn't help you if they could

Pre-outro

E--4----------------4---6-----------------6--------------------|
B---------4-------4------------6--------6----------------------|
G--------------------------------------------------------------|
D------0-------0------------0-------0--------------------------|
A----3-------3------------5-------5----------------------------|
E--4--------------------6--------------------------------------|

Outro

E|-(0)--------------------------0------------------------------|
B|--------------0-------2---------1p0--------------------------|
G|------2-----2---2---2-------2--------------------------------|
D|----2-----2-------0-------0----------------------------------|
A|--0-----0---------------3------------------------------------|
E|-------------------------------------------------------------|

E|-------------------------------------------------------------|
B|--------2----------0-----------0--------1p0------------------|
G|-----2----------2-----2-----2---------2----------------------|
D|--2----------2-----------3----------0------------------------|
A|----------0----------------------3---------------------------|
E|-------------------------------------------------------------|
Вверх

Polly

Voicings:

 E5 - 022x00
 G  - 320033 or 320003
 D  - x0023x
 C  - x3555x
 Bb - x1333x

[During Версия  strum each line :  E  G  D  C]
[During Припев: strum each line:  D  C  G Bb]

Polly Wants a Cracker
I think I should get off her first
I think she wants some water
To put out the blow torch

It isn't me, we have some seed
Let me clip your dirty wings
Let me take a ride, don't hurt yourself
I want some help to help myself
I've got some rope, you have been told
I promise you, I've been true
Let me take a ride, don't hurt yourself
I want some help to help myself

Polly wants a cracker
Maybe she would like more food
She asks me to untie her
A chase would be nice for a few

[Repeat Припев:]

Bass bridge: Repeat 2x
G|-------------------------|
D|----------0-0-0----------|
A|----------------3-3-3-3--|
E|--0-3-3-3----------------|

Polly said
Polly says her back hurts
And she's just as bored as me
She caught me off my guard
It amazes me, the will of instinct

[Repeat Припев:]

Перевод:

Полли

Полли хочет печеньице-крекер.
Думает, что я слезу с нее первым.
А мне сдается, нужна ей водичка,
Чтобы потушить огонь паяльной лампы.

Это не я , у нас есть семя,
Позволь мне подрезать твои грязные крылья.
Позволь мне проехаться верхом, но не поранься.
Мне всего лишь нужно немного помочь,
чтобы я получил удовольствие.
У  меня есть веревка - я тебе уже несколько раз говорил,
Я обещаю тебе, а я всегда говорил правду.
Позволь мне проехаться верхом, не поранься.
Мне всего лишь нужно немного помочь,
чтобы я получил удовольствие.

Полли хочет печеньице-крекер.
Сдается мне, она не прочь перекусить.
Она просит, чтобы я развязал ее.
Мало кому эта погоня может показаться восхитительной.

Полли говорила - у нее спина болит,
И ей так же скучно, как и мне.
Она застала меня врасплох.
Желание удовлетворить инстинкт забавляет меня.
Вверх

Rape Me mp3

Intro:
Am C E G

Am    C  E G
Rape me
Am    C          E  G
Rape me, my friend
Am    C  E G
Rape me
Am    C     E  G
Rape me again

Chorus:
Am          C        E G
I`m not the only one
I`m not the only one
I`m not the only one
I`m not the only one

Hate me
Do it and do it again
Waste me
Rape me, my friend

Chorus:
Bridge in the same accords


Verse 1.

Clean guitar
Am,C,Am, C,Am,C,Am,C,Am
Вверх

Return Af The Rat

Куплет: G#5 B5 F#5
припев: Bb5 B5 G#5 play 3x then:
        Bb5 B5 Bb5 G#5
окончание припева: F#5 B5 C#5
Соло:
4: 4/6

2: /12 11 11 12 12 12 12 12 11 9 9 9/11 12 11 12 12 12 11 12 11 9 9 9

2: /14 12
3:        12~~~ 11 11^12^11
4:                          14
играть раза 4, затем:
4: 6   5
5:       6   5 4 3

You better watch out
You better beware
They?re coming from all sides of the country
You better beware

Return of the rat
No, no, no, no!

They better confess
Well, they better confess
I know, I seen them do it
They better confess
Вверх

Sappy

6.------
5.--4---
4.---6--
3.---6--

6.--5---
5.---7--
4.---7--

6.--2---
5.---4--
4.---4--

6.--4---
5.---6--
4.---6--

6.--5---
5.---7--
4.---7--

6.--7---
5.---9--
4.---9--

And if you kill yourself
You will think you?re happy
He?ll keep you in a jar
Then you?ll think you?re happy
He?ll give you breathing holes
Then you?ll think you?re happy
He?ll cover you with dust
Then you?ll think you?re happy now

*Chorus*:

You?re in a laundry room
You?re in a laundry room
The clue that came to you, oh

*Guitar solo over verse chords*:

Not present yet.

*Chorus*:

You?re in a laundry room
You?re in a laundry room
The clue that came to you, oh

*Verse*:

And if you fool yourself
You will make him happy
He?ll keep you in a jar
Then you?ll think you?re happy
He?ll give you breathing holes
Then you?ll seem happy
You?ll wallow in the shit
Then you?ll think you?re happy now

*Chorus*:

You?re in a laundry room
You?re in a laundry room
The clue that came to you, oh
Вверх

School

E||-------------------|-----------------------------------------|
B||-------------------|-----------------------------------------|
G||-------------------|-----------------------------------------|
D||-------------------|-----------------------------------------|
A||-------------------|-----------------------------------------|
E||--0----------------|--0--0-0-5b0-0-5b0-0-0-0-0-0-5b-|



-----------------------------------------|----------------------------------------|
-----------------------------------------|----------------------------------------|
-----------------------------------------|----------------------------------------|
-----------------------------------------|----------------------------------------|
-----------------------------------------|----------------------------------------|
--0--0-0-5b0-0-5b0-0-0-0-0-0-5b-|--0--0-0-5b0-0-5b0-0-0-0-0-0-5b-|



-----------------------------------------|----------------------------------------|
-----------------------------------------|----------------------------------------|
-----------------------------------------|----------------------------------------|
-----------------------------------------|----------------------------------------|
-----------------------------------------|----------------------------------------|
--0--0-0-5b0-0-5b0-0-0-0-0-0-5b-|--0--0-0-5b0-0-5b0-0-0-0-0-0-5b-|



----------------------------------------|-----------------------------------------|
----------------------------------------|-----------------------------------------|
----------------------------------------|-----------------------------------------|
----------------------------------------|-----------------------------------------|
----------------------------------------|-----------------------------------------|
--0--0-0-5b0-0-5b0-0-0-0-0-0-5b-|--0--0-0-5b0-0-5b0-0-0-0-0-0-5b-|



---------------------------------------|----------------------------------|
---------------------------------------|--5---5-5--5-5-5---------------|
---------------------------------------|--5---5-5--5-5-5--2-2--2--2-2-|
---------------------------------------|--5---5-5--5-5-5--2-2--2--2-2-|
---------------------------------------|--3---3-3--3-3-3--0-0--0--0-0-|
--0--0-0-5b0-0-5b0-0-0-0-0--0---|----------------------------------|



-------------------------------------|-------------------------------------|
-------------------------------------|--5---5-5--5-5-5------------------|
-------------------------7--7--7-7-|--5---5-5--5-5-5--2-2--2-2-2-2-|
--2---2-2---2-2-2-2---7--7--7-7-|--5---5-5--5-5-5--2-2--2-2-2-2-|
--2---2-2---2-2-2-2---5--5--5-5-|--3---3-3--3-3-3--0-0--0-0-0-0-|
--0---0-0---0-0-0-0---5--5--5-5-|-------------------------------------|



----------------------------------------|-----------------------------------------|
----------------------------------------|-----------------------------------------|
----------------------------------------|-----------------------------------------|
----------------------------------------|-----------------------------------------|
----------------------------------------|-----------------------------------------|
--0--0-0-5b0-0-5b0-0-0-0-0-0-5b-|--0--0-0-5b0-0-5b0-0-0-0-0-0-5b-|



---------------------------------------|---------------------------------------|
---------------------------------------|---------------------------------------|
----------------------------------------|-----------------------------------------|
----------------------------------------|-----------------------------------------|
----------------------------------------|-----------------------------------------|
--0--0-0-5b0-0-5b0-0-0-0-0-0-5b-|--0--0-0-5b0-0-5b0-0-0-0-0-0-5b-|



-----------------------------------------|-----------------------------------------|
-----------------------------------------|-----------------------------------------|
-----------------------------------------|-----------------------------------------|
-----------------------------------------|-----------------------------------------|
-----------------------------------------|-----------------------------------------|
--0--0-0-5b0-0-5b0-0-0-0-0-0-5b-|--0--0-0-5b0-0-5b0-0-0-0-0-0-5b--|



----------------------------------|-------------------------------------|
--5---5-5--5-5-5---------------|-------------------------------------|
--5---5-5--5-5-5-2-2--2--2-2-|-------------------------7--7--7-7-|
--5---5-5--5-5-5-2-2--2--2-2-|---2---2-2---2-2-2-2--7--7--7-7-|
--3---3-3--3-3-3-0-0--0--0-0-|---2---2-2---2-2-2-2--5--5--5-5-|
-----------------------------------|---0---0-0---0-0-0-0--5--5--5-5-|



------------------------------------|-------------------------------------------------11-11------|
--5---5-5--5-5-5-----------------|-------------------------------------------------10-10------|
--5---5-5--5-5-5-2-2--2-2-2-2-|--------------------------------------------------------------|
--5---5-5--5-5-5-2-2--2-2-2-2-|-------------8--10--11--11--11—11--11-11-------------|
--3---3-3--3-3-3-0-0--0-0-0-0-|--0--0-0---7---9---10--10--10---10--10-10-------------|
------------------------------------|--0--0-0------------------------------------------------0-0-|



-------------------------------------------------11-11------|
-------------------------------------------------10-10------|
--------------------------------------------------------------|
------------11--11--11--11------11-----11---------------|
------0-0--10--10--10--10--10-----10-------------------|
--0--0-0-----------------------------------------------0-0-|



-------------------------------------------------------------------|
-------------------------------------------------------------------|
-----10--10—10--10---11--11---12---12--12--14-14-14--|
-----9----9---9-----9----10--10—11—11--11--13-13-13--|
-----8----8---8-----8----9----9----10---10--10--12-12-12--|
--0----------------------------------------------------------------|



----------------------------------------------------|-----------------------------------|
----------------------------------------------------|--2r--0-2r-0-2r-0-2r------------|
-----14-14-14-14--12--12-12-12-12-12-12/-|--2r--0-2r-0-2r-0-2r--2h0------|
-----13-13-13-13--11--11-11-11-11-11-11/-|-------------------------2h0------|
-----12-12-12-12--10--10-10-10-10-10-10/-|------------------------------------|
--0------------------------------------------------|--------------------------------3b-|



-----------------------------------------------------|
-----------------------------------------------------|
-----------------------------------------------------|
--0--7-7-7-12--12--12-12h14-14h12h14h12-|
--0--7-7-7-----------------------------------------|
-----------------------------------------------------|



---------------------------------------------------------|
---------------------------------------------------------|
-----------------------------------------------------12-|
--14--14h0-14h0-0-14~-x-12-14-14h12-14------|
---------------------------------------------------------|
-------------------------------------------------------------|



-------------------------------------------------------------|
---------------14-14---------------------------------------|
--12--12-14-14-14-14-15~-14-14-12-14-12-14-12-|
-------------------------------------------------------------|
-------------------------------------------------------------|
-------------------------------------------------------------|



-------------------------------------------------------------|
-------------------------------------------------------------|
---14b-14h0-14h0-12-14b-14-14h12-14h12-14h12-|
---------------------------------------------0-----0--------|
-------------------------------------------------------------|
-------------------------------------------------------------|



----------------------------------------------------|
-------------0-0-----------------------------------|
--14r---14-0-0----------14-14-12-12-12-12--|
-------------0-0-12--14-14-14-14-14-14-14--|
-------------0--------------------------------------|
-----------------------------------------------------|



--------------------------------------------------|--------------------|------------------|
--------------------------------------------------|--------------------|------------------|
--------------------------------------------------|--------------------|------------------|
--14~---14/12-12-12/11-11-11/9-9/7-7/6--|--7r--------------0-|------------------|
--------------------------------------------------|--------------------|------------------|
--------------------------------------------------|--------------------|------------------|



------------------|------------------|------------------|------------------|
------------------|------------------|------------------|------------------|
------------------|------------------|------------------|------------------|
------------------|------------------|------------------|------------------|
------------------|------------------|------------------|------------------|
------------------|------------------|------------------|------------------|



------------------|------------------|---------12---------|
------------------|------------------|---------------------|
------------------|------------------|---------------------|
------------------|------------------|----------------5---|
------------------|------------------|---------------------|
------------------|------------------|---------------------|



-----------------------------------|-----------------------------------|
--5---5-5--5-5-5----------------|-----------------------------------|
--5---5-5--5-5-5-2-2--2--2-2-|-----------------------7--7--7-7-|
--5---5-5--5-5-5-2-2--2--2-2-|--2---2-2--2-2-2-2--7--7--7-7-|
--3---3-3--3-3-3-0-0--0--0-0-|--2---2-2--2-2-2-2--5--5--5-5-|
-----------------------------------|--0---0-0--0-0-0-0--5--5--5-5-|



-----------------------------------|-----------------------------------|
--5---5-5--5-5-5----------------|-----------------------------------|
--5---5-5--5-5-5-2-2--2--2-2-|-----------------------7--7--7-7-|
--5---5-5--5-5-5-2-2--2--2-2-|--2---2-2--2-2-2-2--7--7--7-7-|
--3---3-3--3-3-3-0-0--0--0-0-|--2---2-2--2-2-2-2--5--5--5-5-|
-----------------------------------|--0---0-0--0-0-0-0--5--5--5-5-|



-----------------------------------|----------------------------------|
--5---5-5--5-5-5----------------|-----------------------------------|
--5---5-5--5-5-5-2-2--2--2-2-|-----------------------7--7--7-7-|
--5---5-5--5-5-5-2-2--2--2-2-|--2---2-2--2-2-2-2--7--7--7-7-|
--3---3-3--3-3-3-0-0--0--0-0-|--2---2-2--2-2-2-2--5--5--5-5-|
-----------------------------------|--0---0-0--0-0-0-0--5--5--5-5-|



---------------------------------||
--5---5-5--5-5-5--------------||
--5---5-5--5-5-5-2-2--2--2--||
--5---5-5--5-5-5-2-2--2--2--||
--3---3-3--3-3-3-0-0--0--0--||
---------------------------------||

Won?t you believe it
It?s just my luck
(x4)
No recess
(x3)
Won?t you believe it
It?s just my luck
(x4)
No recess
(x3)
You?re in high school again
(x8)
No recess
(x7)
Вверх

Sliver

ПРОИГРЫШ + 1st ВЕРСИЯ:
 e ------------------------------|
 B ------------------------------|
 G ------------------------------|
 D ------------------------------|
 A ---3--3-3--------3--1-0---0-1-|
 E ----------1--1-1---------3----|

ПРИПЕВ:
       A        C     G
 e -------------------------|
 B -------------------------|
 G --------------5-5-5------|
 D -----7-7-7----5-5-5-5----|
 A -----7-7-7----3-3-3-5----|
 E -----5-5-5----------3----|

2nd + 3rd ВЕРСИЯ  :
    C      F      C   Bb A  G A Bb
 e -----------------------------------|
 B -----------------------------------|
 G --5--5-5--------5------------------|
 D --5--5-5-3--3-3-5----8-7--5-7-8----|
 A --3--3-3-3--3-3-3----8-7--5-7-8----|
 E ---------1--1-1------6-5--3-5-6----|

4th ВЕРСИЯ  :
     C
 e ----------|
 B ----------|
 G ---5-5-5--|  Play this between every line of the Версия
 D ---5-5-5--|
 A ---3-3-3--|
 E ----------|

LYRICS :
My mom and dad went to a show
They dropped me off at Grandpa Joe's
I kicked and screamed, said please don't go

Grandma take me home   (8x)

I had to eat my dinner there
Had mashed patatoes and stuff like that
I couldn't chew my meat too good

Grandma take me home   (8x)

She said why don't you stop your crying
Go outside and ride your bike
Thats what I did, I killed my toes

Grandma take me home   (8x)

And after dinner I had ice cream
I fell asleep and watched tv
I woke up in my mothers arms

Grandma take me home    (19x)
I wanna be alone
Вверх

Smells Like Teen Spirit mp3

INTRO/CHORUS
(Thanks too En-Ming Tham)

e|----------------------------------------|
B|----------------------------------------|
G|-------------3-3-----------------6-6----|
D|-3-3-3-x-x-x-3-3-0-6-6-6-x-x-x-x-6-6-0--|
A|-3-3-3-x-x-x-1-1-0-6-6-6-x-x-x-x-4-4-0--|
E|-1-1-1-x-x-x-----0-4-4-4-x-x-x-x-----0--|

VERSE

e|---1-|
b|-1---|
g|-----|
D|-----|
A|-----|
E|-----|

CHORUS

F Bb G# C#

THEN

e|------------------------------------------|
b|------------------------------------------|
g|-----------------4b-----------------------|
D|---3--2-2-3--4-4-----3--2-2-3--8-8--6-----|
A|---3--2-2-3--4-4-----3--2-2-3--8-8--6-----|
E|---1--0-0-1--2-2-----1--0-0-1--6-6--4-----|

Solo

e|---------------------------------------------------|
b|--1--4--4s6-----4b6b4--2--1--2-1-------------------|
g|-------------1--------------------3--1--3b5b3-1-0--|
D|---------------------------------------------------|
A|---------------------------------------------------|
E|---------------------------------------------------|

e|--------------------------------|
a|--------------------------------|
d|---1-0---1-0---1-0---1p0--------|
g|---------------------------3----|
b|--------------------------------|
E|--------------------------------|

or start higher

e|--------------------------------|
B|--------------------------------|
G|---8-10-8b----------------------|
D|-10-----6--6-5-6-5--------------|
A|------------------8-6-8-8b-6-5--|
E|--------------------------------|


Load up on guns, bring your friends
It's fun to lose, and to pretend
She's overboard, myself assured
I know I know, A dirty word

 chorus:

Hello, hello, hello, hello...hello, hello, hello, hello,
hello, hello, hello, hello...hello, hello, hello, hello

	With the lights out it's less dangerous
	Here we are now, entertain us
	I feel stupid and contagious
	Here we are now, entertain us.
	A mulatto, an albino, a mosquito, my libido, Yea!

I'm worse at what I do best,
and for this gift I feel blessed.
I met a group that's always been
And always will until the end.

 	chorus, solo

And I forget, just what the taste
And yes I guess it makes me smile
I found it hard. . .Its hard to find
Oh well, whatever, nevermind

 	chorus.

Перевод:

Несет как от тинейджера

Заряжайте свои ружья, зовите своих друзей.
Забавно проигровать и притворяться.
Она заскучала и слишком самоуверенна.
О нет, я знаю этот грязный мир.

Привет, привет, привет, что, очень паршиво?

С выключенным светом безопасней.
Вот и мы, развлекай нас.
Я чувствую себя тупицей и заразным.
Вот и мы, развлекайте нас.
Мулатка, альбинос,
Комар, мое либидо.
Да, да

Я что-то истощился в том, что делаю лучше всего,
И я чувствую, что этот дар дан мне свыше.
Наша небольшая команда существовала всегда,
И будет существовать всегда, до самого конца.

И я просто не помню, зачем мне вкус.
О да, кажется это доставляет мне радость.
Я с трудом нашел это, это очень трудно разыскать.
Но что бы не случилось, все-по фигу.

Да, мы в отказе.
Вверх

Something in the way

Voicings: (Dropped-D tuning!)

 F#5    - 444xxx
 D5(i)  - 000xxx
 D5(ii) - x0023x

[Pick during Версия   :  F#5  D5(i)]
[Strum during Припев:  F#5  D5(ii)]

Underneath the bridge
The tarp has sprung a leak
And the animals I've trapped
Have all become my pets
And I'm living off of grass
And the drippings from the ceiling
But it's ok to eat fish
Cause they don't have any feelings

Something in the way,  Mmmm...
Something in the way, yeah,  Mmmm...
Something in the way,  Mmmm...
Something in the way, yeah,  Mmmm...

[Repeat Версия ]
[Repeat Припев: 2x]
Вверх

Something in the way (2 вариант)

Проигрыш/Версия :

D|---------------------------------|
A|---------------------------------|
F|---------------------------------|
C|---4-----4---4-4-0-----0---0-0---|
G|---4-----4---4-4-0-----0---0-0---|
C|---4-----4---4-4-0---------0-----|

Underneath the bride
the tarp has sprung a leak
And the animals I've trapped
Have all become my pets
And I'm living off of grass
and the drippings from the ceiling
But it's okay to eat fish
'cause they haven't any feelings

Припев:

e|--------------------------------------|
B|-------------------------3-3----3-3---|
G|-------------------------2-2----2-2---|
B|---4-----4-4----4-4-0----0-0----0-0---|
A|---4-----4-4----4-4-0----0-0----0-0---|
E|---4-----4-4----4-4-0-----------------|

Something in the way
Mmmm...
Something in the way, yeah
Mmmm...
Вверх

Son of a Gun

[ПРОИГРЫШ]

 A   E   D   B

[ВЕРСИЯ ]

 A     E
Up up up and down
 D         B
Turn turn turnaround
 A           E
Round round roundabout
 D        B
And over again
 A       E
Gun gun son of a gun

 D           B
You are the only one
 A         E          D      B
Makes any difference what I say

[ПРИПЕВ:]
 G                     C
The sun shines in the bedroom
 D       C
When we play
 G           C
The raining always starts
 D           C
When you go away

[SOLO]

 G - D   G - D
 A - E   A - E
 G - D   G - D
 G - D   G - D

 ======
Chords used   :   A   : 577xxx
                  B   : 2 (раза)44xx
                  C   : x355xx
                  D   : x577xx
                  E   : 022xxx
                  G   : 355xxx
Вверх

Son of a Gun (2 вариант)

Intro
Fdbk.

E|------------------------------|
B|-------2---2--2---------------|
G|-------2---2--2-----4---4--4--|
D|-------0---0--0-----2---2--2--|
A|--------------------2---2--2--|
E|--------------------0---0--0--|

E|------------------------------|
B|----3--3--3--3----------------|
G|----2--2--2--2----4--4--4-----|
D|----0--0--0--0----2--2--2-----|
A|------------------2--2--2-----|
E|------------------0--0--0-----|

 rhy.fig. 1
E|------------------------------|
B|-------2---2--2---------------|
G|-------2---2--2-----4---4--4--|
D|-------0---0--0-----2---2--2--|
A|--------------------2---2--2--|
E|--------------------0---0--0--|

                end of rhy.fig. 1
E|------------------------------|
B|--3---3--3--------------------|
G|--2---2--2-----4--4--4--4-----|
D|--0---0--0-----2--2--2--2-----|
A|---------------2--2--2--2-----|
E|---------------0--0--0--0-----|

(the giutar goes slower in the verse)

w/rhy.fig. 1
Up, up, up and down.
Turn, turn, turn around
Round, round, round a bout and over again.
gun, gun son of a gun.
You are the only one
that makes any difference
to what I say.

rhy.fig. 2
------------------------------------------------
------------------------------------------------
----------------------5---5--5--5---5--5--5-----
-5---5--5--5--5--5----5---5--5--5---5--5--5-----
-5---5--5--5--5--5----3---3--3--3---3--3--3-----
-3---3--3--3--3--3------------------------------

                             (end of rhy.fig. 2)
------------------------------------------------
------------------------------------------------
--7----7--7--7---7--7--7--5--5--5--5--5--5------
--7----7--7--7---7--7--7--5--5--5--5--5--5------
--5----5--5--5---5--5--5--3--3--3--3--3--3--0---
--------------------------------------------0---

w/rhy. fig 2
The sun shines in the bedroom
when we play.
The rain, it always starts
when you go away
The sun shines in the bedroom
when we play.
The rain, it always starts
when you go away

w/rhy.fig. 1
Up, up, up and down.
Turn, turn, turn around
Round, round, round a bout and over again.
gun, gun son of a gun.
You are the only one
that makes any difference
to what I say.

w/rhy. fig 2
The sun shines in the bedroom
when we play.
The rain, it always starts
when you go away
The sun shines in the bedroom
when we play.
The rain, it always starts
when you go away

  Interlude
E|------------------------------------------------|
B|------------------------------------------------|
G|------------------------/7--7--7--7--7--7--7--7-|
D|--5---5--5--5--5--5--5--/7--7--7--7--7--7--7--7-| X2
A|--5---5--5--5--5--5--5--/5--5--5--5--5--5--5--5-|
E|--3---3--3--3--3--3--3--------------------------|

E|------------------------------------------------|
B|------------------------------------------------|
G|------------------------/9--9--9--9--9--9--9--9-|
D|--7---7--7--7--7--7--7--/9--9--9--9--9--9--9--9-|  X2
A|--7---7--7--7--7--7--7--/7--7--7--7--7--7--7--7-|
E|--5---5--5--5--5--5--5--------------------------|

E|------------------------------------------------|
B|------------------------------------------------|
G|------------------------/7--7--7--7--7--7--7--7-|
D|--5---5--5--5--5--5--5--/7--7--7--7--7--7--7--7-| X4
A|--5---5--5--5--5--5--5--/5--5--5--5--5--5--5--5-|
E|--3---3--3--3--3--3--3--------------------------|

w/rhy.fig. 1
Up, up, up and down.
Turn, turn, turn around
Round, round, round a bout and over again.
gun, gun son of a gun.
You are the only one
that makes any difference
to what I say.

w/rhy. fig 2
The sun shines in the bedroom
when we play.
The rain, it always starts
when you go away
The sun shines in the bedroom
when we play.
The rain, it always starts
when you go away

And it ends like this.-

E|-----|
B|-----|
G|-----|
D|--5--|
A|--5--|
E|--3--|
Вверх

Spank Thru

Начало и куплет
A G D
Припев: D5 A5 F5 G5

Вторая часть
Куплет2:
4:
5: 2
6: 0  0 3 (3) 2^5
Припев2:
B5 D5 A5 3раза и B5 G5 F5

Spank Thru
This song is for lovers out there
And the little lights in the trees
And all the flowers have gingivitis
And the birds fly happily
We?re together once again my love
I need you back, oh baby baby
I can?t explain just why we lost it from the start
Living without you girl, you?ll only break my heart...
Yeaaaaaah!
I can beat it! I can hold it! I can pet it! I can shape it!
I can mold it! I can cut! it I can taste! it! And spank it!
Beat it! masturbate it!
I been looking for days now
Always hearing the same ol"
City boy won?t you spank thru?
I can make it do things you won?t think it ever could
I can beat it! I can hold it! I can pet it! I can shape it!
I can mold it! I can cut! it I can taste! it! And spank it!
Beat it! masturbate it!
I been looking for days now
Always hearing the same ol"
City boy won?t you spank thru?
I can make it do things you won?t think it ever could
I been looking for days now
Always hearing the same ol"
City boy won?t you spank thru?
I can make it do things you won?t think it ever could
You won?t think it ever could

Еще один вариант того же

There?s a soft-pretentious mountain
Listen to the light of the trees
And all the flowers sing D minor
And the birds fly happily
We?re together once again my love
I need you back oh baby baby

I can?t explain just why we lost it from the start
Living without you girl You?ll only break my heart...yeaaaaaaaaaah!

I can feel it! I can hold it!
I can bend it, I can shape it, I can mould it
I can kill(eat) it! I can taste it!
I can spank it! I can beat it, masturbate it.

I been looking for day it go
Always hearing the same old
City boy won?t you spank thru
I can make it do things you wouldn?t think it ever could
Вверх

Stain

Intro:      Fast Rock
  D5  D#5 E5 D5 D#5 E5 D5 D#5 и т.д.
Verse:
 D5 D#5    E5        D5  D#5
Well he never bleeds and he never fucks
And he never leaves cause he^s got bad luck
Well he never reads and he never roughs
And he never sleeps cause he^s got bad luck.   Yeahhhhhhhh.

Chorus:
    Bbem A5      D5
            I^m a staaaaaaain
            I^m a staaaaaain
            I^m a staaaaaain
            I^m a staaaaaaain

 All repeat 2x times
 Chorus.
 Verse 1.
 Chorus
Вверх

Talk To Me

G5 C5 F#5 F5 Bb5

 Talk to Me
Shake it down easy, shake it down sleazy, come on
Shake it down easy, shake yourself, Suzy, come on
Don?t let me detain you
Try to ride along
Don?t you lie, knowing
I am not sad
I am not silly
I am not chippin?
I am not chippin? away

Talk to me
In your own language, please
In your own
Talk to me
In your own language please

Shake it down easy, make it sound seamy, doll man
Make it sound now, make it full house, sad man
Leader of the band
Makes a mental hell
I won?t weather it well
Well I never
Saw it with my arm
Paint it with my heart
Paint it with my eyes and make it right

Talk to me
In your own language, please
In your own
Talk to me
In your own language please

Lay down easy, lay it down seamy, sad man
Lay down easy, lay it down seamy, sad man
You don?t want to hear this
Nothin? but a whore
I will play the leader
With pain
Now you know I?m needy
Lay them down easy
Lay them down easy

Talk to me
In your own language please
Talk to me
In your own language, please
In your own
Talk to me
In your own language please
Talk to me
In your own language, please
In your own
Talk to me
In your own language please
Вверх

Territorial Pissings

intro:
A5   F    D    A5   F   D
A5      F        D
When I was an alien
A5        F           D
Cultures weren't opinions?
chorus:
A5
Gotta find a way
   F
To find a way
  D
When I'm there
A5
Gotta find a way
   F
A better way
      D
I had better wait.
------------------------------
intrelude:
A5    A5   A5   A5    A5    A5  A5  A5
E----------------------------
B----------------------------
G----------------------------
D----------------------------
A----------7-----------7---
E--5--5--5---5--5--5--
-------------------------------
A5        F         D
Never met a wise man
A5     F        D
If so it's a woman.
chorus.x2

Just because you're paranoid

Don't mean they're not after you.
chorus.x4
Вверх

The Man Who Sold The World mp3

Советую настроить гитару как у Курта иначе не получиться похожего звучания,
также лучше использовать примочку  Grunge.

Intro(with mild distortion) :
E --------------------------
B --------------------------
G --2-2-2-0--2/32-0--------
D --------------------------
A --------------------------
E --------------------------

{ Play Intro 6x }

                    A
We passed upon the stairs,
                  D
Spoken walls and wells,
                  A
Although I was a friend
                F
Sat on walls astrand,
                    C
Which came as so surprised,
                 A                           D
I spoke into his eyes -- I thought you died alone
                    C
A long long time ago

(First chorus):
C
Oh no, not me,
   C#
We never lost control,
C
The face, to face,
         C#                   A
With the man who sold the world.

{ Play intro 6x }
                        A
I laughed and shook his hand,
                  D
Made my way back home,
                         A
I searched from farther land,
                      F
Years and years I roamed,
                      C
I gazed all gazers there
                     A                         D
We walked a million hills -- I must have died alone,
                    C
A long long time ago.

(Second chorus)
C
Who knows, not me,
  C#
I never lost control,
C
Your face, to face,
         C#            A
With the man who sold the world.

{ Play intro 6x }

Repeat second chorus.

{ Play intro 8x }

Outro:

E -------------------------------------------------------
B -------------------------------------------------------
G -/9-9-9-9-9-9--2-2-2-0--2/32-0--2-2-2-0--2/32-0-----
D -------------------------------------------------------
A -------------------------------------------------------
E -------------------------------------------------------

E -------------------------------------------------------
B -------------------------------------------------------
G -/10-10-10-10-10-10-9-7-7-7-7-7-7-/9 2-2-2-0 2/32-0
D -------------------------------------------------------
A -------------------------------------------------------
E -------------------------------------------------------

E -------------------------------------------------------
B -------------------------------------------------------
G -/10-10-10-10-10-10-9-7-7-7-7-7-7-/9 2-2-2-0 2/32-0
D -------------------------------------------------------
A -------------------------------------------------------
E -------------------------------------------------------

[Applause]
[Kurt:] "That was a David Bowie song."
[Kurt:] "I didn?t screw it up, did I?"
[Dave?:] "No."
[Kurt:] "Okay, but here?s another one I?m gonna screw up."
[Dave:?] "What is it?"
[Kurt:] "Am I gonna do this by myself?"
[Dave?:] "Yeah, why don?t you do it by yourself? Do it by yourself!"
[Kurt:] "Okay, well. I think I?ll try it in a different key. I?ll try
it in a normal key. Yeah. If it sounds bad, these people are just gonna
have to wait."
[Laughter]

Перевод

Прошли мы горы стен
И сплетений вен.
Хотя и другом был,
Пропуск я просил
У тех, кто вечно за ...

Сказал ему в глаза: - ведь умер ты давно
Один, давным-давно.

О, нет, не я.
Контроль – наш командир.
Лицом к лицу
Я с тем, кто продал мир.

Смеясь, простился с ним.

В путь ушел домой
И вновь стал одержим
Той, родной землей.
Годами я бродил,

Проверил (измерил) сеть дорог -
Но я не умер вновь

Один, давным-давно (и все равно)

Вы что, не я!
Контроль – мой командир.
Лицом к лицу
Ты с тем, кто продал мир.
Вверх

Where Did You Sleep Last Night

При игре этой песни надо перенастроить гитару на D#.

E        E        A           G
My girl, my girl, don?t lie to me...
        Hm            Hm          E
Tell me where did you sleep last night...

In the pines, in the pines
Where the sun don?t ever shine
I would shiver the whole night through

My girl, my girl, where will you go
I?m going where the cold wind blows
In the pines, in the pines
Where the sun don?t ever shine
I would shiver the whole night through

Her husband, was a hard working man
Just about a mile from here
His head was found in a driving wheel
But his body never was found

My girl, my girl, don?t lie to me
Tell me where did you sleep last night
In the pines, in the pines
Where the sun don?t ever shine
I will shiver the whole night through


My girl, my girl, where will you go
I?m going where the cold wind blows
In the pines, in the pines
Where the sun don?t ever shine
I would shiver the whole night through

My girl, my girl, don?t lie to me
Tell me where did you sleep last night
In the pines, in the pines
Where the sun don?t ever shine
I will shiver the whole night through

My girl, my girl, where will you go
I?m going where the cold wind blows
In the pines, the pines
The sun, the shine
I?ll shiver the whole night though
Вверх

Where did you sllep last night

Voicings:

 E5   - 022x0x or 022x00
 A    - x0222x
 G    - 320033 or 320003
 B    - 2 (раза)444x
 B/F# - 22444x

Проигрыш:  E5 (E) (F#) (G) (E) A G B B/F# E5 [Repeat 2x]

 E5                      A      G
My girl, my girl, don't lie to me
        B             B/F#       E5
Tell me where did you sleep last night
 E5
In the pines, in the pines
          A              G
Where the sun don't ever shine
        B          B/F#        E5
I would shiver the whole night through

My girl, my girl, where will you go
I'm going where the cold wind blows
In the pines, in the pines
Where the sun don't ever shine
I would shiver the whole night through

Her husband, was a hard working man
Just about a mile from here
His head was found in a driving wheel
But his body never was found

[Repeat first Версия ]

Interlude: play Версия  progression

[Repeat second Версия  gently]
[Repeat first Версия  loudly]

My girl, my girl, where will ya go
I'm going where the cold wind blows
In the pines, the pines
The sun, the shine
I'll shiver the whole night through

[Repeat Interlude]
Вверх

You Know Youre Right

(строй гитары опустить на полтона вниз)


Intro: E*, F5 (x10) (см. табулатуру Riff1)

E*     F5        E*       F5
I will never bother you
I will never promise to
I will never follow you
I will never bother you

D5 (V) (см. Riff2)
Never speak a word again
E5 (VII)
I will crawl away for good

E*     F5        E*       F5
I won?t move away from here
You wont be afraid of fear
No thought was put into this
I always knew it would come to this

D5 (V) (см. Riff3)
Things have never been so swell
E5 (VII)
I have never failed to fail

E*, F5
Pain [x3]  (см. Riff4)
D5, E5
You Know you?re Right [x3]

I?m so warm and calm inside
I no longer have to hide
Let?s talk about someone else
Steaming soup against her mouth
Nothing really bothers her
She just wants to love herself

I will move away from here
You wont be afraid of fear
No thought was put into this
I always knew to come like this

Things have never been so swell
I have never failed to fail
Pain [x5]

You know You?re Right [x17]

 Riff1
I will never bother you...
e |---------------------------|
B|----------------------------|
G|----------------------------|
D|---------------4-------4----|
A|------------4-4-------4-----|
E|----0h2-2-------0-0---------|

Riff2
e|-----------------------------------------|
B|-----------------------------------------|
G|----7---7--7777--7-7---9--9--9999--------|
D|----7---7--7777--7-7---9--9--9999--------|
A|----5---5--5555--5-5---7--7--7777--------|
E|-----------------------------------------|

Riff3
e|----------------------------------------------------|
B|-----------7--------7-------------9-------9---------|
G|-------------7--------7-------------9-------9-------|
D|--------7---------------7------9--------------9-----|
A|-----5----------5---------5/7----------7---------7--!
E/----------------------------------------------------|

Riff4
hey...
 e|------------------------------------------------|
B|-------------------------------------------------|
G|-------------------------------------------------|
D|------------------------4------4------4----4-4-4-|
A|-------5/105-----------4------4------4----4-4-4-|
E|----------------------0h2------2-----2u----0-0-0-|

e|-----------------------------------------|
B|-----------------------------------------|
G|----7---7--7777--7-7---9--9--9999--------|
D|----7---7--7777--7-7---9--9--9999--------|
A|----5---5--5555--5-5---7--7--7777--------|
E|-----------------------------------------|
Вверх
English songs 109

ABBA
AC-DC
Adams Bryan
Adriano Celentano
Aerosmith
A-Ha
Animals
Antonio Banderos
Apocalyptica
Armstrong Louis
Billy's Band
Bjork
Blink 182
Blondie
Blur
Bob Dylan
Boney M
Bon Jovi
Bowie David
Brainstorm
Braxton Toni
Butch
Celine Dion
Chris De Burgh
Chris Isaak
Chuck Berry
Clapton Eric
Cohen Leonard
Cranberries
Deep Purple
Depeche Mode
Dire Straits
Donovan Jason
Eagles
Electric Light Orchestra
Elton John
Elvis Presley
Era
Europe
Evanescence
Garbage
Gary Moore
Glen Wiston
Gorillaz
Green Day
Guano Apes
Guns N Roses
Hendrix Jimi
Iggy Pop
Iron Maiden
Joe Dassin
Kansas
King Crimson
Kiss
Led Zeppelin
Leonard Cohen
Limp Bizkit
Linkin Park
Louis Amstrong
Madonna
Marilyn Manson
Marley Bob
Metallica
Moby
Morricone Ennio
Muse
Nazareth
Nelly Furtado
Nick Cave
Nirvana
No Doubt
Oasis
Offspring
Ottawan
Outkast
Ozzy Osbourne
Pain
Para Bellum
Pink Floyd
Placebo
P.O.D.
Queen
RadioHead
Rainbow
Rammstein
Rea Chris
Red Hot Chili Peppers
Ritchie Blackmore
Rolling Stones
Roxette
Rufus Wainwright
Santana
Sarah Brightman
Scorpions
Sex Pistols
Simon & Garfunkel
Shocking Blue
Soul Asylumx
Status Quo
Sting
System of a down
Sum 41
The Beatles
The Doors
Tito & Tarantula
U2
UB 40
Uriah Heep
Van Halen

Українські пісні 109

Boom Box
Escape
Flit
Kapela Drewutnia
Lama
LЮK
Mad Heads (XL)
Motor' rolla
NEON
Ot Vinta
The Вйо
Абздольц
Аероплан
Акорд
Ані Лорак
Бандурна розмова
Білик Ірина
Борщ
Брати Гадюкіни
Вася Club
Вій
Воплі Відоплясова
Гайдамаки
Гончар Олесь
Гринжоли
Гроно
Гуляйгород
Дарка і Славко
Дивні
Друга Ріка
Другий подих
Дударик
Експампей
Євтушенко Андрій
Жарівка (Дяк Олесь)
Журбовіз
Зібров Павло
Зінкевич Василь
Злотник Олександр
Івасюк Володимир
Калєкція
Карна
Карпа Ірена
Клямка
Козловський Віталій
Кому вниз
Крихітка Цахес
Курінь
Лесик-Band
Лорд Юрія
Львівські музики
Мандри
Менестрелі
Мері
Мертвий Півень
Міпеніум
Монте Крісто
Морозов Віктор
Нахтіґаль
Не журись!
Неборак Віктор
НеДІля
НЕМО
Нічлава блюз
Океан Ельзи
ПереBANDя
Перкалаба
Петрович
Піккардійська Терція
Піпа Олександр
Плач Єремїі
Пономарьов Олександр
Пророк
Росава
Ротару Софія
Руслана
Рутенія
С.К.А.Й.
САД
Самі свої
Серцевий Напад
Скрябін
Смерічка
Сокира Перука
Соколи
Таліта Кум
Тартак
Тінь сонця
Ткач Михайло
ТНМК
Тостер
Тріо Мареничів
Фарбований лис
Фестиваль Снів
Хвилю тримай
Цісик Квітка
Черемош
Черемшина
Четвертий кут
Чорний вересень
Чорні черешні
Шевченко Тарас
Щастя
Юркеш
Юрченко Юрко
Юрчишин Ярослав
Явір
Яка існуЄ
Яремчук Назарій

   
 sait@i.ua



Рейтинг@Mail.ru