accordS-land.ru Аккорды и табулатуры к гитаре.
Главная | Песенник | Аккорды | Учебник
Руссике песни 180
5nizza
7Б
9-й Район
Animal ДжаZ
Billy's Band
Butch
Para Bellum
TequilaJazzz
Worms
Zdob Si Zdub
Автоматические удовлетворители
Агата Кристи
Агузарова Жанна
Агутин Леонид
Адо
Аквариум
Алиса
Алсу
Амирамов Е.
Антонов Ю.
Арефьева Ольга
Ария
АукцЫон
Барыкин
Башаков Михаил
Башлачев Александр
БекХан
Бернес М.
Би - 2
Бони неМ
Борзов Найк
Боярский Михаил
Браво
Братья Грим
Ва-Банкъ
Вертинский Александр
Визбор Юрий
Високосный год
Воскресенье
Восьмая Марта
Высоцкий В.С.
Високосный год
Газманов О.
Галич Александр
Герман А.
Городницкий Александр
Глызин А.
Градский Александр
Гражданская Оборона
Гребещенков
Данко
ДДТ
Дидюля
Диоды
Дискотека Авария
Дягилева Янка
Ёлка
Жуки
Заблудовский Андрей
Запрещенные Барабанщики
Звери
Земляне
Земфира
Зинчук Виктор
Зоопарк
Иван Кайф
Иванов А.
Иваси
ИЗ КИНО И МУЛЬТФИЛЬМОВ
Империя
Калинов мост
Кашин Павел
Кельми К.
КИНО
Кипелов
Конец Фильма
Контингент
Корни
Король и Шут
Коррозия металла
Крематорий
Крупнов Анатолий
Кузьмин Владимир
Куликов Е.
Кукрыниксы
Курехин Сергей
Лаэртский Александр
Ласковый май
Ленинград
Леонидов Максим
Лесоповал
Лещенко Л.
Линда
Лицей
Лоза Юрий
Любэ
Люмен
Ляпис Трубецкой
Мальчишник
Манго-манго
Мара
Маркин В.
Маршал Александр
Маша и медведи
Машина времени
Мечтать
Мистер Кредо
Митяев Олег
Многоточье
Монгол Шуудан
Моральный Кодекс
Мультfильмы
Мумий Тролль
Настя
Науменко Майк
Наутилус Помпилиус
Непара
Неприкасаемые
Несчастный случай
Никоваев И.
Никольский Константин
Ногу свело
Ноль
Носков Николай
Ночные Снайперы
Окуджава Булат
Оркрист
Осин Е.
Оскар
Отиева И.
Паперный Т.А.М.
Парк Горького (Gorky Park)
Пикник
Пилот
Пламя
Полковник и однополчане
Пугачева А.
ПЭХ
Приключения Электроников
Просто прикольные песни
Рада и Терновник
Римский-Корсаков
Розенбаум Александр
Рок-Острова
Рондо
Сансара
Саруханов
Сегодня Ночью
Секрет
Сектор газа
Сенчина Л.
СерьГа
Смысловые Галлюцинации
Сплин
Солодуха А.
Старые блатные песни
Сукачев Гарик
Сурганова и Оркестр
Сюткин Валерий
Тальков Игорь
Танцы минус
Тараканы
Тату
Технология
УмаТурман
Умка и Броневичок
Ундервудъ
Фабрика звезд
Х.З. (Хуй Забей)
Центр
ЧайФ
Черный кофе
Черный Лукич
Чиж и Ко
Чистяков Федор
Шанхай
Щербаков Михаил
Ю-Питер

Классика 22

Албениз Исаак
Албениз Матео
Бах Иоган Себостьян
Бетховен Людвиг ван
Бизе Жорж
Брамс Иоганнес
Вивальди Антонио
Гендель Георг Фридрих
Гершвин Джордж
Григ Эдвард
Дебюсси Клод
Камиль Сен-Санс
Мендельсон
Моцарт Вольфгант Амадей
Мусоргский Модест Пертрович
Норис Крис
Огинский Михал Клеофас
Паганини Никколо
Рахманинов Сергей Васильевич
Римский-Корсаков
Чайковский Пётр Ильич
Шуберт Франц
 

 

Offspring

Bad Habit
Come Out Swinging
Da Hui
Dammit, I Changed Again
Defy You
Dirty Magic
Feelings
Genocide
Gone Away
Gotta Get Away
Have You Ever
Kids Arnt Alright
Killboy Powerhead
Living In Chaos
Million Miles Away
Mota
No Brakes
Not The One
Original Pranckster
Original Pranckster (2 вариант)
Pretty Fly
Self Esteem
Session
She's Got Issues
She's Got Issues (2 вариант)
Smash
So Alone
Something To Believe In
Staring At The Sun
The Child Arent Alright
The End Of The Line
The Kids Arent Allright
The Kids Arent Allright (2 вариант)
Vultures
Walla Walla
Want You Bad
What Happened To You?
Why Don't You Get A Job?
Вверх

Bad Habit

В самом начале  песни на басу играется такая вещица:
                    x6
G|--------2----------|--------0-----------|
D|-------------------|----------------2---|
A|----0--------------|--------------------|
E|-3-----------3h5-5-|-0--3--------0------|

Hey man you know I'm really okay
The gun in my hand will tell you the same
But when I'm in my car
Don't give me no crap
Cause the slightest thing and I just might snap


Intro:
E|-------------------|
B|-------------------|
G|---2---2-2---2-2---|
D|---2---2-2---2-2---|
A|---0---0-0---0-0---|
E|-------------------|


Verse:  X2
E|-------------------------|
B|-------------------------|
G|-----5-7--5--------5-----|
D|---7-5-7--5-7-5--7-5-7---|
A|---7-3-5--3-7-5--7-3-7---|
E|---5--------5-3--5---5---|

When I go driving I stay in my lane
But getting cut off makes me insane

Pre-chorus:
e|--------------------------------------|
B|--------------------------------------|
G|--------------------------------------|
D|---5-5-5-5--5-5-5-5--5-5-5-5--5-5-5-5-|
A|---5-5-5-5--5-5-5-5--5-5-5-5--5-5-5-5-|
E|---3-3-3-3--3-3-3-3--3-3-3-3--3-3-3-3-|

e|--------------------------------------|
B|--------------------------------------|
G|-9-9-9-9--9-9-9-9--9-9-9-9--9-9-9-9---|
D|-9-9-9-9--9-9-9-9--9-9-9-9--9-9-9-9---|
A|-7-7-7-7--7-7-7-7--7-7-7-7--7-7-7-7---|
E|--------------------------------------|

I open the glove box
Reach inside
I'm gonna wreck this fucker's ride
I guess I got a bad habit

Chorus:   X4
e|----------------------|
B|----------------------|
G|---2--9-10--5--7--9---|
D|---2--9-10--5--7--9---|
A|---0--7--8--3--5--7---|
E|----------------------|

And it ain't goin' away Yeah
I got a bad habit
And it ain't goin' away Yeah

End-chorus:   X2
e|------------------------------|
B|------------------------------|
G|---2--2-2-2-10---7--7-7-7-9---|
D|---2--2-2-2-10---7--7-7-7-9---|
A|---0--0-0-0--8---5--5-5-5-7---|
E|------------------------------|

End-chorus2(*=play 14X)
e|-----------|
B|----*------|
G|---9--(2)--|
D|---9--(2)--|
A|---7--(0)--|
E|-----------|

Verse:
Well they say the road's a dangerous place
If you flip me off I'm the danger you'll face

Pre-Chorus:
You drive on my ass
You're foot's on the gas
And your next breath is your last
Cause I got a bad habbit

Chorus
And it ain't goin' away Yeah
I got a bad habit
And it ain't goin' away Yeah

End-chorus:
End-chorus2:


 N.C.
Drivers are rude
Such attitudes
But when I show my piece
Complaints cease
Something's odd
I feel like I'm God
You stupid dumbshit goddam motherfucker


Bridge:  X4
e|-----------------------------------|
B|-----------------------------------|
G|---14-14-13-12-12-12--9-8-7--5-2---|
D|---14-14-13-12-12-12--9-8-7--5-2---|
A|---12-12-11-10-10-10--7-6-5--3-0---|
E|-----------------------------------|

Pre-chorus:
I open the glove box
Reach inside
I'm gonna wreck this fucker's ride

Chorus:
And it ain't goin' away Yeah
I got a bad habit
And it ain't goin' away Yeah


End-chorus:
End-chorus2
Вверх

Come Out Swinging

riff A:
d|---------------------------------------------|
A|---------------------------------------------|
F|-11---9-11---9-11-13-14-14---14-------14-13--|
C|-11---9-11---9-11-13-14-14---14-14-14-14-13--|
G|-9----7--9---7--9-11-12-12---12-14-14-12-11--|
D|--------------------------------12-12--------|

riff B:
d|---------------------------------------------|
A|---------------------------------------------|
F|-11-xxxx-11-xxxx-11-xx-11-xxxx-11-xxxx-11-xx-|
C|-11-xxxx-11-xxxx-11-xx-11-xxxx-11-xxxx-11-xx-|
G|-9--xxxx--9-xxxx--9-xx--9-xxxx--9-xxxx--9-xx-|
D|---------------------------------------------|

riff B?:
d|----------------------------|
A|----------------------------|
F|-11-xx-11-xx-11-11-11-11-11-|
C|-11-xx-11-xx-11-11-11-11-11-|
G|-9--xx--9-xx--9--9--9--9--9-|
D|----------------------------|

riff B??:
d|------------------------|
A|------------------------|
F|------------------------|
C|-11-xxxx-11-xxxx-11-xx--|
G|-11-xxxx-11-xxxx-11-xx--|
D|-9--xxxx--9-xxxx--9-xx--|


riff C:
d|-------------------------------------------------------------|
A|-------------------------------------------------------------|
F|----------------------------------------------------7-7--9-9-|
C|----------------------6-7-6-------------------------7-7--9-9-|
G|-999999-777777-999999-------7--999999-777777-999999-5-5--7-7-|
D|-------------------------------------------------------------|

riff D:
d|------------------------------------------------------|
A|------------------------------------------------------|
F|-11--9-11--11-11---------------------------7--7--9--9-|
C|-11--9-11--11-11-7--7-7--7-7--7/9--9-97--7-7--7--9--9-|
G|-9---7--9---9--9-7--7-7--7-7--7/9--9-97--7-5--5--7--7-|
D|-----------------5--5-5--5-5--5/7--7-75--5------------|

riff D?:
d|------------------------------------------------------|
A|------------------------------------------------------|
F|-11--9-11--11-11----------------------------4--2------|
C|-11--9-11--11-11-7--7-7--7-7--7/9--9-97--7-4--2--4--2-|
G|-9---7--9---9--9-7--7-7--7-7--7/9--9-97--7-2--0--4--2-|
D|-----------------5--5-5--5-5--5/7--7-75--5-------2--0-|

riff E:
d|-------------------------------------------------------------|
A|-------------------------------------------------------------|
F|---------------444444-444444----------------4---4---7-7--9-9-|
C|-444444-777777-444444-444444-444444-777777--4---4---7-7--9-9-|
G|-444444-777777-222222-222222-444444-777777--2---2---5-5--7-7-|
D|-222222-555555---------------222222-555555-------------------|

riff F:
d|------------------------|
A|------------------------|
F|-7---7---6---6---9---11-|
C|-7---7---6---6---9---11-|
G|-5---5---4---4---7----9-|
D|------------------------|

riff G:
d|-------------------------------|
A|-------------------------------|
F|-------------------------------|
C|----------------------6--7-6---|
G|-999999-777777-999999--------7-|
D|-------------------------------|

riff H: (каждый аккорд по 8 раз)
d|-------------------------|
A|-------------------------|
F|-11----7---------9-------|
C|-11----7----9----9----11-|
G|-9-----5----9----7----11-|
D|------------7----------9-|

outro:
d|--------------------------------------|
A|--------------------------------------|
F|-7---7-7---7-9---9--------------------|
C|-7---7-7---7-9---9-9-7-9-7-9-7-4-2-4:-|
G|-5---5-5---5-7---7-9-7-9-7-9-7-4-2-4:-|
D|-------------------7-5-7-5-7-5-2-0-2:-|

Структура песни:

riff A x2
riff B x2
riff B?

riff C
riff D
riff D?
riff A x2

riff E
riff D x3
riff F

riff G
riff H x4
riff B?? x3

riff D x3
outro

You brace and hold it all inside
It?s more than you can stand
No one around even tries
Tries to understand

Don?t turn away, don?t turn away
Come out swinging
Come out alone
They?re in your way
But as long as you?re swinging
Strong then you?ll get by

Your pacing?s wearing out a line
Right beside your bed
The scene replays a million times
Stuck inside your head

And though you stand in place
Your mind escapes
Read between the lies
Smile?s on your face
You fake like you?re ok

Don?t turn away, don?t turn away
Come out swinging
Out on your own
They?re in your way
You may be stinging
But you?ll get by
Don?t turn away, don?t turn away
Come out swinging
Never alone again
The pain inside can guide your way

Midnight, no sleep
Inside, you scream to
No one, hears you fall
Daylight, prove me today
One more try

Don?t turn away, don?t turn
Come out swinging
Come out alone
They?re in your way
You may be stinging
But you?ll get by
Don?t turn away, don?t turn away
Come out swinging
Never alone again
Pain inside
Leads you through so you?ll get by
Вверх

Da Hui mp3

Intro, Chorus

   Am Fm Cm (Dm/Cm)
E|-5--8--8---10-8---|    переходы на последние Dm, Cm
B|-5--8--8---10-8---|   очень быстрые - можно не играть
G|-5--10-8---10-8---|
D|-7--10-10--12-10--|
A|-7--8--10--12-10--|
E|-5--8--8---10-8---|

Version:

   Fm Gm Am
E|-8--10-12---|
B|-8--10-12---|
G|-10-12-14---|
D|-10-12-14---|
A|-8--10-12---|
E|-8--10-12---|
Вверх

Dammit, I Changed Again

Intro 1 (Distortion)

B|-8--11-10-11---11-10-11----11-10-11--13-11-10-11-8-|
G|-------------8----------10-------------------------|

Intro 2, Version (Palm Muting) & Chorus

   Gm D# Am# Fm
E|-10--6--13--8--|
B|-10--6--13--8--|
G|-12--8--15--10-|
D|-12--8--15--10-|
A|-10--6--13--8--|
E|-10--6--13--8--|

Hey, come inside
While I stand here acting bold
Can't stand to feel this way
Clear out the cobwebs in my soul

This time I turn around
And things have changed
Now I don't feel the same

Start a fight
I can't defend
One more time
Dammit, I changed again

Now I don't see
Things the way I did before
Can't stand to feel this way
Things important yesterday
Don't matter anymore
It doesn't make any sense
To feel so different day to day
(Can't stand to feel this way)
When nothing's changed except for me
Вверх

Defy You

Intro 1

   Fm Gm# Am# Gm# Fm
E|--1--4--6---4---1--|
B|--1--4--6---4---1--|
G|--1--4--6---4---1--|
D|--3--6--8---6---3--|
A|--3--6--8---6---3--|
E|--1--4--6---4---1--|

Intro 2

   Fm Gm# Am# Gm# Am# Gm# Fm
E|--1--4---6---4---6--4---1--|
B|--1--4---6---4---6--4---1--|
G|--1--4---6---4---6--4---1--|
D|--3--6---8---6---8--6---3--|
A|--3--6---8---6---8--6---3--|
E|--1--4---6---4---6--4---1--|

Version (Palm Muting) Intro 1

Chorus (Intro 1, Intro2)
Вверх

Dirty Magic

Intro & verse

G|-------------------------------------------------------------|
D|-------------------------------------------------------------|
A|-----------7------7---------10----------9--------------------|
E|-0-3/5-5-5---5-5----5-5/8-8----8-87-7-7--7-0-7-8-7-0-7-0-8-7-|

Well, I know the intro is right, but I am not sure if the
chorus is correct. This is what I get from looking at some
guitar tab, but it just doesn't sound "perfect"

G|-------------------------------------------------------------|
D|-----------------------------------9--------------7----------|
A|--5/7--7--7--7----5-7-7-7------------9--------------7--------|
E|----------------------------7-7-7------7---5-5-5------5------|

G|-----------------------------------------|
D|-----------------------------------------|
A|-----------------------------------------|
E|----5-5-5-5-5-5-5-5/8--8--8--8---7--7--0-|

Lyrics-

In my own simple way
I think she wants me only
she said 'come over right away'
But she's just not that way
her little soul is stolen
see her put on her brand new face

Pull the shades, razor blades you're so tragic
Hate you so, love you more, so elastic
things you say, games you play, dirty magic I...

I should know better than
to think i'd reach inside her
it's all a cloudy kind of daze
she's not so sweet today
she mocks me, i'm no fighter
it always seems like such a waste.

it's oversimplified...
Вверх

Feelings

  Проигрыш:    *=play 9X with fast palm-muting   #=play 4-6X
e|-----------------------------------------------|
B|----*---*---*---*---*---*-------#---#---#---#--|
G|---5---5---5---7---7---7----#--9---9---9---9---|
D|---7---6---5---4---3---5---7---9---9---9---9---|
A|---------------------------7---7---7---7---7---|
E|---------------------------5-------------------|

  Версия 2 (РАЗА)  *=play 9X with fast palm-muting #=play 4-6X
e|-----------------------------------|
B|--------------------------------#--|
G|----------------------------#--9---|
D|----*---*---*---*---*---*--7---9---|
A|---3---3---3---5---5---5---7---7---|
E|---5---4---3---2---1---3---5-------|
Feelings
Nothing more than feelings
Trying to forget my
Feelings of hate

Imagine
Beating on your face
Trying to forget my
Feelings of hate

  Припев: !play all notes 6X!
G|---------5---5---7---9------------------5---5---7---4---1--2-|
D|-3---3---5---5---7---9---7---7---3---3--5---5---7---4---2--2-|
A|-3---3---3---3---5---7---7---7---3---3--3---3---5---2---2--2-|
E|-1---1-------------------5---5---1---1------------------0--0-|

Feelings
For all my life i'll feel it
I wish I'd never met you
You'll make me sick again
Feelings, oh oh feelings
Of hate on my mind

  Версия :
Feelings
Feelings like I never liked you
Feelings like I want to kill you
Live in my heart

Feelings
Feelings like I wanna deck you
Feelings like I've gotta get you
Out of my life

  Припев:2: !play all notes 6X!   *=play once
e|----------------------------------------------------------*-|
B|-------------------------------------------------9--10---9--|
G|-------5---5---7---9---------------5---5---7--4--9---9---9--|
D|-3--3--5---5---7---9---7---7-3-3---5---5---7--4--9---9---9--|
A|-3--3--3---3---5---7---7---7-3-3---3---3---5--2--7---7---7--|
E|-1--1------------------5---5-1-1----------------------------|
Feelings, oh oh feelings
The hate's in my eyes
Feelings, oh oh feelings
You're not very nice

Solo:
e|----------------------------------------------8--------------|
B|-------------8-----------------5-------5-8Н1010--10----------|
G|-9v9v9v9v9v9v--9-9-------------5----5----------------9-9-9-9-|
D|----------------10-7-------5Н7--------7----------------------|
A|-------------------------7-----------------------------------|
E|-------------------------------------------------------------|

e|-----------------------1715-----------------20b22-20-17-17Н-|
B|-15b17-15k15k15k15k15k-----17-----------13------------------|
G|-----------------------------1714-14Н17-14------------------|
D|------------------------------------------------------------|

e|--------------------------------------|
B|-----------101010101313131317171717---|
G|---9-9-9-9----------------------------|
D|--------------------------------------|

Припев:3: !play all notes 6X!  *=play once #=play 8X palm-muted
e|--------------2 (РАЗА)-----------|---------------------------|
B|---------------------------------|----------------#---#------|
G|-----------5---5---7---9---------|---------5-----7---9-------|
D|---3---3---5---5---7---9---7---7-|-3-------5-----7---9---7---|
A|---3---3---3---3---5---7---7---7-|-3-------3-----5---7---7---|
E|---1---1-------------------5---5-|-1---------------------5---|

Feelings, oh oh feelings,
Oh oh feelings into my mind
Feelings, oh oh feelings,
Oh oh feelings get out of my life

Feelings,oh oh feelings,
Oh oh feelings get out of my ... life

  Outro:   Н=hammer-on
e|------|------15----|--------------------|
B|---17-|-15Н17--Н17-|15----15------------|
G|------|------------|---17----17----14\--|
D|------|------------|--------------------|
A|------|----16X-----|--------------------|
E|------|-real-fast--|--------------------|
Вверх

Genocide

Intro:  X4
E|--------------------------------------------------------|
B|--------------------------------------------------------|
G|-------------------------------------------5-5-5--5--5--|
D|-5-5-5--5--5---5-5-5--5--5---3-3-3--3--3---5-5-5--5--5--|
A|-5-5-5--5--5---5-5-5--5--5---3-3-3--3--3---3-3-3--3--3--|
E|-3-3-3--3--3---3-3-3--3--3---1-1-1--1--1----------------|


Solo:   X2
E|-6-6--6-5-5-6-6-8-8-6--6-6-5---5--6--6-6-5---------------|
B|-----------------------------6-------------5-6--5--53/5--|
G|---------------------------------------------------------|
D|---------------------------------------------------------|

N.C.
Our lives run different ways
Through the rain I see you in the sun
Our star shines anyway

End-verse:    X7
E|--------------------|
B|--------------------|
G|---0-0-0-0--0-0-0---|
D|--------------------|
If you wish upon it we are one


Pre-chorus:
e|----------------|
B|----------------|
G|---5--5--5--5---|
D|---5--5--5--5---|
A|---3--3--3--3---|
E|----------------|
One, two, three, four

Chorus:   X 2   *=play 7X
E|-------------------|
B|------------*------|
G|----*---*-10----*--|
D|---5---8--10--10---|
A|---5---8---8--10---|
E|---3---6-------8---|

Dog eat dog
Every day
All about a man that we prey (?)
Dog eat dog
To get by
Hope you like my genocide

Intro:

Verse:
N.C.
I find it such a shame
Through the pain I see things as they are
We?re served up on a plate
The pedestal is high enough to fall

End-verse2:
e|-------------|
B|-------------|
G|---8---8-5---|
D|---8---8-5---|
A|---6---6-3---|
E|-------------|
And if in time
We can see the errors of our ways
Would anyone change it anyhow

Pre-chorus2:
e|----------------|
B|----------------|
G|---5--5--7--7---|
D|---5--5--7--7---|
A|---3--3--5--5---|
E|----------------|

Our time is up

Chorus:  X2


Bridge:  X7
e|-------------------------------------|
B|-------------------------------------|
G|-------------------------------------|
D|-------------------------------------|
A|---5---5---5---5----8---8---8---8--8-|
E|-3---3---3---3----6---6---6---6------|

e|--------------------------------------|
B|--------------------------------------|
G|--------------------------------------|
D|-10---10---10---10--------------------|
A|----8----8----8------10---10---10---10|
E|-------------------8----8----8----8---|


Bridge2:     (over bridge)
e|-------------------------------------------|
B|-------------------------------------------|
G|----------------------10-10----------------|
D|---5-5-----5-5---8-8--10-10--10-10---5-5---|
A|---5-5-----5-5---8-8---8--8--10-10---5-5---|
E|---3-3-----3-3---6-6----------8--8---3-3---|

I bet you?d only run
If you saw what goes inside our own
I bet you?d lead the way
If it were up to you to decide
But it?s not

Chorus: X2
Вверх

Gone Away

F             G#              D#              B
e|-------------------------------------------------------------|
B|-------------------------------------------------------------|
G|------------------------------8-8-8-8-8-8-8-8----------------|
D|3-3-3-3-3-3-3-6-6-6-6-6-6-6-6-8-8-8-8-8-8-8-8-8-8-8-8-8-8-8-8|
A|3-3-3-3-3-3-3-6-6-6-6-6-6-6-6-6-6-6-6-6-6-6-6-8-8-8-8-8-8-8-8|
E|1-1-1-1-1-1-1-4-4-4-4-4-4-4-4-----------------6-6-6-6-6-6-6-6|

  F             G#              D#              B
e|-------------------------------------------------------------|
B|-------------------------------------------------------------|
G|------------------------------8-8-8-8-8-8-8-8----------------|
D|3-3-3-3-3-3-3-6-6-6-6-6-6-6-6-8-8-8-8-8-8-8-8-8-8-8-8-8-8-8-8|
A|3-3-3-3-3-3-3-6-6-6-6-6-6-6-6-6-6-6-6-6-6-6-6-8-8-8-8-8-8-8-8|
E|1-1-1-1-1-1-1-4-4-4-4-4-4-4-4-----------------6-6-6-6-6-6-6-6|

e|-------1--------------------------|
B|---1------------4-----------8-----|
G|-2-----------5------------8-------|
D|-----3-----6----------8---------8—|
A|--------------6-----6---6-------8-|
E|--------------------------------6-|

Verse 1:
F          G#
Maybe in another life
D#                 B
I could find you there
F              G#
Pulled away before your time
D#                 B
I can?t deal it?s so unfair

Chorus:
        F
And it feels
        G#
And it feels like
D#                B
Heaven?s so far away
        F
And it feels
         G#
Yeah it feels like
     D#
The world has grown cold
B
Now that you?ve gone away

Verse 2:
Leaving flowers on your grave
Show that I still care
But black roses and Hail Mary?s
Can?t bring back what?s taken from me

I reach to the sky
And call out your name And if I could trade
I would

Chorus:
And it feels
And it feels like
Heaven?s so far away
And it stings
Yeah it stings now
The world is so cold Now that you?ve gone away

I reach to the sky
And call out your name And if I could trade
I would

Chorus:
And it feels
And it feels like
Heaven?s so far away
And it feels
Yeah it feels like
The world has grown cold
Now that you?ve gone away
Вверх

Gotta Get Away

Intro:
e|---------------------------------------------|
B|--------8--X--75----------------8--X--8--105-|
G|--7--7--7--X--74---------7--7---7--X--7---74-|
D|---------------------------------------------|
A|---------------------------------------------|
E|---------------------------------------------|

Intro2:   X2
e|-----------------------------------------------|
B|-----------------------------------------------|
G|-----7-7-----7-7-----9-9-----9-9-----12-12-----|
D|-----7-7-----7-7-----9-9-----9-9-----12-12-----|
A|-----5-5-----5-5-----7-7-----7-7-----10-10-----|
E|-0-0-----0-0-----0-0-----0-0-----0-0-------0-0-|

e|------------------------|
B|------------------------|
G|-14-14---9--9-10-9-10-9-|
D|-14-14---9--9--9-9--9-9-|
A|-12-12---7--7--7-7--7-7-|
E|------------------------|

Verse:    X2
e|-----------------------------------------------|
B|-----------------------------------------------|
G|-----7-7-----7-7-----9-9-----9-9-----12-12-----|
D|-----7-7-----7-7-----9-9-----9-9-----12-12-----|
A|-----5-5-----5-5-----7-7-----7-7-----10-10-----|
E|-0-0-----0-0-----0-0-----0-0-----0-0-------0-0-|

e|------------------------|
B|------------------------|
G|-14-14---9--9-10-9-10-9-|
D|-14-14---9--9--9-9- 9-9-|
A|-12-12---7--7--7-7--7-7-|
E|------------------------|

I'm getting edgy all the time
There's someone around me just a step behind
It's kinda scary, the shape I'm in
The walls are shakin' and they're closing in
Too fast or a bit too slow
I'm paranoid of people and it's starting to show
There's one guy that I can't shake
Over my shoulder is a big mistake

Chorus:   X4
e|---------------------------------------------------|
B|---------------------------------------------------|
G|---9-9--------------12-12-12-12---------------*9---|
D|---9-9-10-10-10-10--12-12-12-12--12-12-12-12--*9---|
A|---7-7-10-10-10-10--10-10-10-10--12-12-12-12--*7---|
E|--------8--8--8--8---------------10-10-10-10-------|

Sitting on the bed
Or lying wide awake
There's demons in my head
And it's more than I can take
I think I'm on a roll
But I think it's kinda weak
Saying all I know is
I gotta get away from me

Verse:
I tell you something just ain't right
My head is on loose but my shoes are tight
Avoiding my friends cause they all bug
Life is a riddle and I'm really stumped
If you reason, don't you know
Your own preoccupation is where you'll go
I think I'm being followed, I look around
It's only my shadow creepin' on the ground

Chorus:  X2
Вверх

Have You Ever

Проигрыш:

E|-------X6----------|-----------------------------------|
B|-------/-p-mute--\-|-----------------------------------|
G|---9---------------|-9-9-9-9-9-9-9-9-9-9-9-9-9-9-9-9---|
D|---9---------------|-9-9-9-9-9-9-9-9-9-9-9-9-9-9-9-9---|
A|---7---7-7-7-7-7-7-|-7-7-7-7-7-7-7-7-7-7-7-7-7-7-7-7---|
E|-------0-0-0-0-0-0-|-----------------------------------|

  Проигрыш2  2 (РАЗА)  !play all notes X6!
G|---9-------9---------------7---|
D|---9-------9-------5-------7---|
A|---7-------7-------5-------5---|
E|-------------------3-----------|

Falling, I'm falling

  Версия   2 (РАЗА)  *=play 6X
E|-------------------------------------2-0-2-2-0-2------------|
B|--/--palm-muted---\------------------3-3-3-3-3-3---*-----*--|
G|--------------------------------------------------2---5-4---|
D|--5-4-5-----5-4-5-----5-4-5----5-4-5--------------2---5-4---|
A|--------------------------------------------------0---3-2---|
E|------------------------------------------------------------|

Have you ever walked through a room
But it was more like the room passed around you
Like there was a leash around your neck that pulled you through

Have you ever been at someplace
Recognizing everybody's face
Until you realized that there was no one there you knew

Well I know

  Припев: X4  !play all notes X6! (play last note last time X12)
G|---9-------5---------------7---|
D|---9-------5-------5-------7---|
A|---7-------3-------5-------5---|
E|-------------------3-----------|

Some days, my soul's confined and out of mind
Sleep forever
Some days, I'm so outshined and out of time
Have you ever

Falling, I'm falling

  Версия  2 (РАЗА)

Have you ever buried your face in your hands
Cause no one around you understands
Or has the slightest idea what it is that makes you be

Have you ever felt like there was more

Like someone else was keeping score
And what could make you whole was simply out of reach

Well I know

  Припев: X6

Someday I'll try again and not pretend
This time forever
Someday I'll get it straight but not today
Have you ever

Falling, I'm falling

  Bridge:
G|-------X8--------|-----|
D|---2-2-2-2-2-2---|-2---|
A|-----------------|-2---|
E|-----------------|-0---|

  Проигрыш

  Outro X6

G|---9-9-9-------7-7-7-9-9-9-5-5-5-7-----------9---|
D|---9-9-9-5-5-5-7-7-7-9-9-9-5-5-5-7---------2-9---|
A|---7-7-7-5-5-5-5-5-5-7-7-7-3-3-3-5---------2-7---|
E|---------3-3-3---------------------0-2-3-2-0-----|

When the truth walks away
Everybody stays
Cause the truth about the world is that crime does pay

So if you walk away
Who is gonna stay
Cause I'd like to think the world is a better place

When the truth walks away
Everybody stays
Cause the truth about the world is that crime does pay

So if you walk away
Who is gonna stay
Cause I'd like to make the world be a better place

When the truth walks away
Everybody stays
Cause the truth about the world is that crime does pay

So if you walk away
Who is gonna stay
Cause I'd like to think the world is a better place

  Outro2:

G|---5-5-5-7-----------9-5-5-5-5-7---|
D|---5-5-5-7---------2-9-5-5-5-5-7---|
A|---3-3-3-5---------2-7-3-3-3-3-5---|
E|-----------0-2-3-2-0---------------|

I'd like to leave the world as a better place
I'd like to think the world...
Вверх

Kids Arnt Alright

The whole song goes like this (Em)(C)(G)(D)

[solo]

E|-------------|-------------|---3--5--7---|---------------|
B|--7--9--11---|---3--5--7---|-------------|---5--7--9--11-|
G|-------------|-------------|-------------|---------------|
D|-------------|-------------|-------------|---------------|
A|-------------|-------------|-------------|---------------|
E|-------------|-------------|-------------|---------------|

(Em)
When ...
(C)
(G)	 (D)

(Em)
 Now ...
(C)
(G) 	(D)

[Chorus:]
(Em)
Chances thrown
(C)
(G)
(D)

(Em)
(C)
(G)
(D)

[Verse] [Chorus]
(Em) . . . .
(C) . . . .
(G) . . . .
(D) . . . .

(Em) . . . .
(C) . . . .
(G) . . . .
(D) . . . .
[Chorus] - Fade out
Вверх

Killboy Powerhead

Intro:   X6
e|----------------------------------------------|
B|----------------------------------------------|
G|---9--9-9--7-7--9-9--12-12-12--11--11-11-11---|
D|---9--9-9--7-7--9-9--12-12-12--11--11-11-11---|
A|---7--7-7--5-5--7-7--10-10-10---9---9--9--9---|
E|----------------------------------------------|
He's a pistol grip
And a lightning rod hammer step
He always busts his knuckles
When he's wrenchin' up his shit

Chorus:  *=play 8X
e|-------------------------------|
B|----*---*---*------------------|
G|---9---5---7--(9-9--5-5--7-7)--|
D|---9---5---7--(9-9--5-5--7-7)--|
A|---7---3---5--(7-7--3-3--5-5)--|
E|-------------------------------|
He just a Killboy Powerhead...yeah

Verse2:   X3
e|-------------------------------------------------------------|
B|-------------------------------------------------------------|
G|---------------------------------------------------------9---|
D|--(7-9-9--7-9-9--7-9-9-12-9)--7-9-9--7-9-9--7-9-9-12-9---9---|
A|--(7-9-9--7-9-9--7-9-9-12-9)--7-9-9--7-9-9--7-9-9-12-9---7---|
E|--(5-7-7--5-7-7--5-7-7-10-7)--5-7-7--5-7-7--5-7-7-10-7-------|

You know I saw his woman
She was writing his name in blood
You know I saw his woman
Hard as a rock
She said she was his baby
Who looked just like the Hoover Dam
You know I saw his woman
Hard as a rock

Chorus:
He just a Killboy Powerhead...yeah

Bridge:   X4
e|-------------------------------------|
B|-------------------------------------|
G|-------------------------------------|
D|---8-10-10--8-10-10--8-10-10-13-10---|
A|---8-10-10--8-10-10--8-10-10-13-10---|
E|---6--8--8--6--8--8--6--8--8-11--8---|

Bridge2:    *=play 8X
e|--------------------------------|
B|--------------------------------|
G|----*---*---*-------------------|
D|--10---6---8--10-10--6-6--8-8---|
A|--10---6---8--10-10--6-6--8-8---|
E|---8---4---6---8--8--4-4--6-6---|

Intro: X4
He's a pistol grip
And a lightning rod hammer step
He always busts his knuckles
When he's wrenchin' up his shit

Chorus:  X3
He just a Killboy Powerhead...yeah

Outro:
e|--------------------------|
B|--------------------------|
G|--------------------------|
D|--7-9-9--7-9-9--7-9-9-12-9| X4
A|--7-9-9--7-9-9--7-9-9-12-9|
E|--5-7-7--5-7-7--5-7-7-10-7|

e|----------------------------------|
B|----------------------------------|
G|--9--9-9--7-7--9-9--12-12-12-11---|
D|--9--9-9--7-7--9-9--12-12-12-11---|
A|--7--7-7--5-5--7-7--10-10-10--9---|
E|----------------------------------|
Вверх

Living In Chaos

Guitar 1/intro:
e|-----------------------------|
B|-----------------------------|
G|-----------------------------|
D|-----------------------------|
A|-6h8-----6-6-6h8-----6-6-6h8-|
E|-----------------------------|

Guitar 2/intro:
e|---------------------------------------------|
B|---------------------------------------------|
G|---------------------------------------------|
D|-6-6--------3-3----------6-6-x-3-1h3-3-3h4-3-|
A|---------------------------------------------|
E|---------------------------------------------|

Guitar 1/riff A:
e|----------|
B|----------|
G|-10/11-10-|
D|-10/11-10-|
A|-8-/9--8--|
E|----------|

Guitar 1/riff B:
e|-------------------------------------------------------------|
B|-------------------------------------------------------------|
G|-8/10-10--10--8-8-8/10--10--10--8-8-8/10--10--10--8/10-10-10-|
D|-8/10-10--10--8-8-8/10--10--10--8-8-8/10--10--10--8/10-10-10-|
A|-6/8--8---8---6-6-6/8---8---8---6-6-6/8---8---8---6/8--8--8--|
E|-------------------------------------------------------------|

Guitar 1/riff B?:
e|---------------------------------------------------------|
B|---------------------------------------------------------|
G|-8/10--10--10--8-8-8/10--10--10--8-8-8/10--10--10--------|
D|-8/10--10--10--8-8-8/10--10--10--8-8-8/10--10--10---4--6-|
A|-6/8---8---8---6-6-6/8---8---8---6-6-6/8---8---8----4--6-|
E|----------------------------------------------------2--4-|

Guitar 1/riff C:
e|---------------------------------------------------------|
B|---------------------------------------------------------|
G|-6-6--6--6--6-6-6--6--6--6-8-8--8--8--8-8-8--8--8--8-10:-|
D|-6-6--6--6--6-6-6--6--6--6-8-8--8--8--8-8-8--8--8--8-10:-|
A|-4-4--4--4--4-4-4--4--4--4-6-6--6--6--6-6-6--6--6--6-8:--|
E|---------------------------------------------------------|

Guitar 2/riff D:
e|-8--9-8-------------|
B|---------9--8--5--6-|
G|--------------------|
D|--------------------|
A|--------------------|
E|--------------------|

Guitar 1/riff E:
e|------------|
B|-1-1-1/6-6:-|
G|------------|
D|------------|
A|------------|
E|------------|

Guitar 1/riff F:
e|-4-4-4--3--3-31--1:-|
B|--------------------|
G|--------------------|
D|--------------------|
A|--------------------|
E|--------------------|

Guitar 1/riff G:
e|-----------------------------------------------------------|
B|-----------------------------------------------------------|
G|-----------------------------------------------------------|
D|-8----8-8--8--8--8-11:---------6----6-6--6--6--6-4:---4--6-|
A|-8----8-8--8--8--8-11:---------6----6-6--6--6--6-4:---4--6-|
E|-6----6-6--6--6--6-9:----------4----4-4--4--4--4-2:---2--4-|

Guitar 1/riff H:
e|---------|
B|---------|
G|-8-8-8-8-|
D|-8-8-8-8-|
A|-6-6-6-6-|
E|---------|

Guitar 1/riff I:
e|-------------|
B|-------------|
G|-------------|
D|-3-3-3-3h4-3-|
A|-------------|
E|-------------|

Guitar 2/riff J:
e|-------------------------|
B|-------------------------|
G|-------------------------|
D|-----6-6--4-1h3--4-1h3-4-|
A|-6h8---------------------|
E|-------------------------|

Guitar 1/outro:
e|-------------------------------------------------------------|
B|-------------------------------------------------------------|
G|-8/10-10-10-8-8-8/10-10--10--8-8-8/10--10-10-10-10-10-10--10-|
D|-8/10-10-10-8-8-8/10-10--10--8-8-8/10--10-10-10-10-10-10--10-|
A|-6/8--8--8--6-6-6/8--8---8---6-6-6/8---8--8--8--8--8--8---8--|
E|-------------------------------------------------------------|

Структура песни:

Guitar 1/intro + Guitar 2/intro
Guitar 1/intro + Guitar 2/intro + Guitar 1/riff A
Guitar 1/riff B + Guitar 2/intro + Guitar 1/riff A
Guitar 1/riff B + Guitar 2/intro + Guitar 1/riff A
Guitar 1/riff C
Guitar 2/riff D
Guitar 1/riff E
Guitar 2/riff D
Guitar 1/riff F
Guitar 2/riff D
Guitar 1/riff E
Guitar 2/riff D
Guitar 1/riff F
Guitar 2/riff D
Guitar 1/riff E
Guitar 2/riff D
Guitar 1/riff H
Guitar 1/riff B + Guitar 1/riff A
Guitar 1/riff B + Guitar 1/riff A
Guitar 1/riff B + Guitar 2/intro + Guitar 1/riff A
Guitar 1/riff B + Guitar 2/intro
Guitar 1/riff I
Guitar 2/riff D
Guitar 1/riff E
Guitar 2/riff D
Guitar 1/riff F
Guitar 2/riff D
Guitar 1/riff E
Guitar 2/riff D
Guitar 1/riff H
Guitar 1/riff B + Guitar 1/riff A
Guitar 1/riff B + Guitar 1/riff A
Guitar 1/riff B + Guitar 2/intro + Guitar 1/riff A
Guitar 1/riff B + Guitar 2/intro + Guitar 1/riff A
Guitar 1/riff G
Guitar 1/riff G
Guitar 1/riff B?
Guitar 1/riff B?
Guitar 1/riff B?
Guitar 1/intro + Guitar 2/intro
Guitar 2/riff D
Guitar 1/riff E
Guitar 2/riff D
Guitar 1/riff F
Guitar 2/riff D
Guitar 1/riff E
Guitar 2/riff D
Guitar 2/riff J
Guitar 1/riff G
Guitar 1/riff G
Guitar 1/riff B?
Guitar 1/riff B?
Guitar 1/riff B?
Guitar 1/outro
Вверх

Million Miles Away

Intro 1 (Palm Muting), Chorus

   Gm# Bm Fm#
1:-4---7--9--
2:-4---7--9--
3:-4---7--11-
4:-6---9--11-
5:-6---9--9--
6:-4---7--9--

Intro 2 (Distortion)

   Gm# Bm Cm# Em Fm#
1:-4---7--4---7--9---
2:-4---7--4---7--9---
3:-4---7--6---9--11--
4:-6---9--6---9--11--
5:-6---9--4---7--9---
6:-4---7--4---7--9---

Version (Palm Muting)

   Gm# Bm Fm#
1:-11--7--9--
2:-11--7--9--
3:-13--7--11-
4:-13--9--11-
5:-11--9--9--
6:-11--7--9--

Pre-Chorus

6:-9/9--11/11--12/12--11/11--9--7-6-

Chorus = Intro 1

There was a time, looking through myself
Wanting to pretend
If I escaped, I could fill myself
I don?t think you can
Been far and wide
But that hole inside
Never really leaves
When I went away, what I really left
Left behind was me

It?s telling me
To be on my way home
Million miles away
I can?t stay

Each passing day, every passing face
Seems like such a blur
I long to be
Home, silently
Lying next to her
Just to get back, by her side is all
All I need to be
Cause I went away
But what I really left
Left behind was me

I need to be
Getting on my way home
A million miles away
Million miles away
I can?t take
Вверх

Mota

Проигрыш:
E||--------------------------------------------------|
B||--------------------------------------------------|
G||--------------------------------------------------|
D||---5-5--5-5-5--5--5--5-5-5-5--5--5--5-5-5-5-------|
A||---5-5--5-5-5--5--5--5-5-5-5--5--5--5-5-5-5-------|
E||---3-3--3-3-3--3--3--3-3-3-3--3--3--3-3-3-3-------|

Mota!

Проигрыш2:
E|-------------------------------------------------------------
B|-------------------------------------------------------------|
G|---12-12--12-12-12--12--12--12-12-12-12--12--12--12-12-12-12-|
D|---12-12--12-12-12--12--12--12-12-12-12--12--12--12-12-12-12-|
A|---10-10--10-10-10--10--10--10-10-10-10--10--10--10-10-10-10-|
E|-------------------------------------------------------------|

Проигрыш3:  2 (РАЗА)   *=play 8X
E|-------------------------------------------------------------|
B|-----*-------------------------------------------------------|
G|---12---14-15-14-12-10-8-8--8-8-8-8-10-10--14--15-14-12-10---|
D|---12---14-15-14-12-10-8-8--8-8-8-8-10-10--14--15-14-12-10---|
A|---10---12-13-12-10--8-6-6--6-6-6-6--8--8--12--13-12-10--8---|
E|-------------------------------------------------------------|

Версия :   2 (РАЗА)     *=play 5X
E|----------------------|
B|-----*----*---*----*--|
G|---12---12---8---10---|
D|---12---12---8---10---|
A|---10---10---6----8---|
E|----------------------|


Everyday, well it's the same
That bong that's on the table starts to call
My name
I take a hit and zone out again
I'll be paranoid and hungry by a quarter to ten
Watching reruns on my TV
I'm laughing off my ass at Three's Company
I don't know if I'm understood
Buy hearing Jimmy Buffett never sounded so good


Припев:  X4  *=play 6X

E|-------------------|
B|--------*----------|
G|----*--5----*---*--|
D|---3---5--(5---5)--|
A|---3---3--(5---5)--|
E|---1------(3---3)--|

Your memory's gone and so is your life (your life)
Mota Boy
But losing out just never felt so right
Your enemy's you and so is your life (your life)
Mota Boy
But losing out might feel okay all night

Проигрыш2:

N.C.
Mota!

Проигрыш3:

Версия :
I'm driving down to the barrio
Going 15 miles an hour cause I'm already stoned
Give the guy a twenty and wait in the car
He tosses me a baggie then he runs real far
I take a hit but it smells like a clove
Oh fuck I got a baggie of oregano
This ritual is destroying me
But I guess it could be worse
It could be methedrine

Припев: X3:

Your memory's gone and so is your life (your life)
Mota Boy
But losing out just never felt so right
Your enemy's you and your couch is your life
(Your Life)

End-Припев:2:  *=play 6X
E|-------------------|
B|--------*-------*--|
G|----*--5----*-10---|
D|---3---5---8--10---|
A|---3---3---8---8---|
E|---1-------6-------|

Проигрыш2:

N.C.
Mota!

Проигрыш3:

Припев: X5 (third time with palm-muting):

Your memory's gone and so is your life (your life)
Mota Boy
But losing out just never felt so right
Your enemy's you and your couch is your life
(Your Life)

Проигрыш2:
Вверх

No Brakes

  Версия :
G|-------------------------------------------------------|
D|--9-9-----9\------------------12-12-12-12\11-11/12-12\-|
A|--7-7-----7\5-5----5/7-7----7/10-10-10-10\9--9-/10-10\-|
E|------------3-3----3/5-5----5/-------------------------|
Lay awake
I don't give a shit
If I even ever wake up in the morning
Down below
There's a pile of sin
Always waiting for a
Waiting for a warning
Burned at the stake
Inside I'm blistering
Not a whisper
Looking in you'd never know it
Miles below
I look up again
When you snap they say
Before you never show it

  Припев:
G|-----------------------------------------------------------|
D|----------------7-7---7---7--7\5-5---5---5--5-5-4--5--7-77-|
A|-5-5---5---5--5/5-5---5---5--5\3-3---3---3--3-3-2--3--5-55-|
E|-3-3---3---3--3/-------------------------------------------|

Someone said it's all right
Save it now, don't say it for my sake
Someone said it's all right
Faster now, you know I got no brakes
Lay awake
I don't give a shit
If I even ever wake up in the morning
Down below
There's a pile of sin
Always waiting for a
Waiting for a warning

  Bridge:
G|----------------------------------------------|
D|--9--9-7--9---12-12-11--9--9-7--9---14-14-12--|
A|--7--7-5--7---10-10-9---7--7-5--7---12-12-10--|
E|----------------------------------------------|
No brakes, no brakes

  Версия :
Fuses glow
Wounds festering
Till the wind comes up
And takes it to the last pow

Back and forth
Staring at the wall
This room's a cage
I know that something's got to give now

  Припев:
Someone said it's all right
Save it now, don't say it for my sake
Someone said it's all right
Faster now, you know I got no brakes
No brakes

  Outro:
G|-----------------------------------|
D|--9--9-7--9---12-12-11--9--9-7--9\-|
A|--7--7-5--7---10-10-9---7--7-5--7\-|
E|-----------------------------------|
Вверх

Not The One

Intro:  C (Cadd2) A  X4

Verse:

C                  Cadd2    A
I'm not the one who made the world what it is today
C                  Cadd2      A
I'm not the one who caused the problems started long ago
C                   Cadd2   A
But now I deal with all the consequence that troubles our times
C              Cadd2 A
I carry on and never once have even questioned why

CHORUS:

A Asus2 C
  I'm   innocent
        C                   Cadd2  A
But the weight of the world is     on my shoulders
A Asus2 C
  I'm   innocent
                        Cadd2 A
But the battles started are   far from over

Intro:

Verse:
C                      Cadd2     A
We're not the ones who leave the homeless in the streets at
                                                          night
C                         Cadd2   A
We're not the ones who've keept minorities and women down
C                 Cadd2    A
Still we grow and then the problems they become our own
C                   Cadd2    A
We cary on without even realizing why

Chorus:

A Asus2 C
  We're innocent
        C                   Cadd2 A
But the weight of the world is    on our shoulders
A Asus2 C
  We're innocent
        C               Cadd2  A
But the battles left us are    far from over

Intro: X2

Chorus: X2

Intro:

Verse:
N.C.
We're not the ones whose pollution blackened our skies and
                                        ruined our streams
We're not the ones who made the nuclear bombs that threaten
                                                      our lives
We're not the ones who let the children starve in faraway lands
We're not the ones who made the streets unsave to walk at night
C                  Cadd2     A
And if we try and not become so overwhelmed
C                         Cadd2     A
And if we make some contribution to the plight we see
C                          Cadd2   A
Still our descendants will inherit our mistakes of today
C                       Cadd2   A
They'll suffer just the same as we and never wonder why
Вверх

Original Pranckster

Intro/interlude
E|----------------------|
B|----------------------|
G|----------------------|
D|----------------------|
A|-0---0----3----3----0-|
E|----------------------|

E|---------------------------------|
B|---------------------------------|
G|---------------------------------|
D|---------------------------------|
A|-0--0----3----3----7---7---6---5-|
E|---------------------------------|

E|------------------------------|
B|------------------------------|
G|------------------------------|
D|------------------------------|
A|-0---0---3---3----0---------4-|
E|------------------------------|

E|-----------------------------------------------------|
B|-----------------------------------------------------|
G|-----------------------------------------------------|
D|-----------------------------------------------------|
A|-0----0---3---3-----7---7---6---6---5----3----5----3-|
E|-----------------------------------------------------|

Main Riff
E|----------------------------------------------------|
B|----------------------------------------------------|
G|----------------------------------------------------|
D|----------------------------------------------------|
A|-0---0---3---3----7---7---6---6---5---5---3---5---3-|
E|----------------------------------------------------|

Dividing Part            m=palm muted
E|-------------------------------------------------------------|
B|-------------------------------------------------------------|
G|-------------------------------------------------------------|
D|-5---5---5---5---5---5--5---5--2---2---2---2---2---2---2---2-|
A|-5---5---5---5---5---5--5---5--2---2---2---2---2---2---2---2-|
E|-3---3---3---3---3---3--3---3--0---0---0---0---0---0---0---0-|

Pre chorus
E|-------------------------------------------|
B|-------------------------------------------|
G|-2---5---5---9---8---7---777-----5---7---5-|
D|-2---5---5---9---8---7---777-----5---7---5-|
A|-0---3---3---7---6---5---555-----3---5---3-|
E|-------------------------------------------|

Main chorus		x3
E|-----------------------------------------|
B|-----------------------------------------|
G|-5---2--------7--7--7---------12--12--12-|
D|-5---2--------7--7--7---------12--12--12-|
A|-3---0--------5--5--5---------10--10--10-|
E|-----------------------------------------|

E|-----------------------------------------------|
B|-----------------------------------------------|
G|-5---2---5---2---7--7--7--7----5--5--5--5----2-|
D|-5---2---5---2---7--7--7--7----5--5--5--5----2-|
A|-3---0---3---0---5--5--5--5----3--3--3--3----0-|
E|-----------------------------------------------|

Ending
E|-------------------------------------------------------------|
B|-------------------------------------------------------------|
G|-5--2--5--2--7--7--7--7--5--2-5--2--7--7--7--7--5--5--5-5--2-|
D|-5--2--5--2--7--7--7--7--5--2-5--2--7--7--7--7--5--5--5-5--2-|
A|-3--0--3--0--5--5--5--5--3--0-3--0--5--5--5--5--3--3--3-3--0-|
E|-------------------------------------------------------------|

Song order

Intro
Main riff x8
Dividing part
Main riff x4
Dividing part
Pre chorus x3
Dividing part
Main chorus + then
Main Riff x8
Dividing part
Main Riff x4
Dividing part
Pre chorus x3
Dividing part
Main chorus + then
Interlude
Main riff (palm muted) x4
Main Riff x4
Dividing part
Pre chorus x3
Dividing part
Main chorus + then
Ending
Вверх

Original Pranckster (2 вариант)

     F
E|-------------------------------------------------------------|
B|-------------------------------------------------------------|
G|-------------------------------------------------------------|
D|-------------------7--------------------------7--------------|
A|-------------------------------------5-------------5-5-3-5-3-|
E|-5-5-8-5-5-5-5-8-5---5-8-5-5-5-8-5-5---5-5-8-5--5-8----------|
Вверх

Pretty Fly

  Проигрыш:

G|---4--4-----2---4--4--9--7--|
D|---4--4--4--2---4--4--9--7--|
A|---2--2--4--0---2--2--7--5--|
E|---------2------------------|

  Версия : Play  Hm

You know it's kind of hard just to get along today
Our subject isn't cool but he fakes it anyway
He may not have a clue and he may not have style
But everything he lacks well he makes up in denial

  Припев:  X3
G|---4--4--9-10-9-10--4--4--9-10-9-10-7--7--2--7--9--9--10--9--|
D|---4--4--9-10-9-10--4--4--9-10-9-10-7--7--2--7--9--9--10--9--|
A|---2--2--7-8--7-8---2--2--7-8--7-8--5--5--0--5--7--7--8---7--|
E|-------------------------------------------------------------|
So don't debate, a player straight
You know he really doesn't get it anyway

He's gonna play the field, and keep it real
For you no way, for you no way

So if you don't rate, just overcompensate
At least you'll know you can always go on Ricki Lake

e|---------------------------------|
B|---------------------------------|
G|---10--10--5--10--12--12--7--12--|
D|---10--10--5--10--12--12--7--12--|
A|---8---8---3--8---10--10--5--10--|
E|---------------------------------|
The world needs wannabe's.
Hey, hey! Do that brand new thing.

  Версия :
Now he's getting a tattoo he's gettin' ink done
He asked for a '13', but they drew a '31'
Friends say he's trying too hard and he's not quite hip
But in his own mind he's the dopest trip

  Припев:

  Outro:
G|---14---12-10-9-7-5-7-4---|
D|---14---12-10-9-7-5-7-4---|
A|---12---10-8--7-5-3-7-2---|
E|--------------------------|
Вверх

Self Esteem

1|--------------------------|
2|--------------------------|
3|---------7-7--------------|  x2
4|--4-4-4--5-5--7-7-7-------|
5|--2-2-2-------5-5-7--7-7--|
6|---------------------5-5--|


1|------------------------------|
2|------------------------------|
3|------------------------------|
4|------------------------------|
5|-5-5-5-5-5-5-5-5-5-5-5-7-7-7-7|
6|-3-3-3-3-3-3-3-3-3-3-3-5-5-5-5|
     * * * * * * * * * *

Басс: Играется 6 раз

1|--------------------------------------|
2|--------------------------------------|
3|-2-2-2-2-2---------5-5-5-5-5----------|
4|----------3-3-3-3-3---------5-5-5-5-5-|

Вступает гитара:

1|-----------|
2|-----------|
3|-9-9-9-9---|
4|-7-7-7-7---|
5|-----------|
6|-----------|


1|-------------------------------------------|
2|-------------------------------------------|
3|------------------------7-7-7-7-7----------|  x4
4|------------------------5-5-5-5-7----------|
5|-79-9-9-9----5-5-5-5-5-----------7-7-7-7-7|
6|-57-7-7-7----3-3-3-3-3---------- 5-5-5-5-5|
   * * * * *    * * * * * * * * * *

1|--------------------------|
2|--------------------------|
3|---------7-7--------------|  x4
4|--4-4-4--5-5--7-7-7-------|
5|--2-2-2-------5-5-7--7-7--|
6|---------------------5-5--|

Басс: Играется 2 разa

1|--------------------------------------|
2|--------------------------------------|
3|-2-2-2-2-2---------5-5-5-5-5----------|
4|----------3-3-3-3-3---------5-5-5-5-5-|


1|-------------------------------------------|
2|-------------------------------------------|
3|------------------------7-7-7-7-7----------|  x4
4|------------------------5-5-5-5-7----------|
5|-79-9-9-9----5-5-5-5-5-----------7-7-7-7-7|
6|-57-7-7-7----3-3-3-3-3---------- 5-5-5-5-5|


1|--------------------------|
2|--------------------------|
3|---------7-7--------------|  x4
4|--4-4-4--5-5--7-7-7-------|
5|--2-2-2-------5-5-7--7-7--|
6|---------------------5-5--|


1|-------------------------|
2|-------------------------|
3|-------------------------|  x6
4|-9-9-9-9-5-5-------7-7-7-|
5|-7-7-7-7-3-3-5-5-5-5-5-5-|
6|-------------3-3-3-------|


1|-------------------------------------------------|
2|-------------------------------------------------|
3|-------------------------------------------------|
4|--------9-9-9-5-5-7-7-7--------------------------|
5|--------7-7-7-3-3-5-5-5-7-7-5-5-5-5-5-5-5-5-5-5-5|
6|------------------------5-5-3-3-3-3-3-3-3-3-3-3-3|
                              * * * * * * * * * * *

  Басс: Играется 4 разa

1|--------------------------------------|
2|--------------------------------------|
3|-2-2-2-2-2---------5-5-5-5-5----------|
4|----------3-3-3-3-3---------5-5-5-5-5-|

1|-------------------------------------------|
2|-------------------------------------------|
3|------------------------7-7-7-7-7----------|  x4
4|------------------------5-5-5-5-7----------|
5|-79-9-9-9----5-5-5-5-5-----------7-7-7-7-7|
6|-57-7-7-7----3-3-3-3-3---------- 5-5-5-5-5|
   * * * * *    * * * * * * * * * *

1|--------------------------|
2|--------------------------|
3|---------7-7--------------|  x4
4|--4-4-4--5-5--7-7-7-------|
5|--2-2-2-------5-5-7--7-7--|
6|---------------------5-5--|

1|-------------------------|
2|-------------------------|
3|-------------------------|  x6
4|-9-9-9-9-5-5-------7-7-7-|
5|-7-7-7-7-3-3-5-5-5-5-5-5-|
6|-------------3-3-3-------|

1|-------------------------------------------------|
2|-------------------------------------------------|
3|-------------------------------------------------|
4|--------9-9-9-5-5-7-7-7--------------------------|
5|--------7-7-7-3-3-5-5-5-7-7-5-5-5-5-5-5-5-5-5-5-5|
6|------------------------5-5-3-3-3-3-3-3-3-3-3-3-3|
                              * * * * * * * * * * *
Вверх

Session

bass
E|-----------------------------------------------|
B|-----------------------------------------------|
G|-----------------------------------------------|
D|--------------3--33--3-------------------------|
A|--5--55--5--------------3--33--3---------------|
E|--------------------------------------3--33--3-|
vesre :
bass
E|--------------------------------------------------------|
B|--------------------------------------------------------|
G|--------------------------------------------------------| (1)
D|------------------3--3--------3-------------------------|
A|--5--5--------5------------------3--3--------3----------|
E|---------------------------------------------------3--3-|

E|-------------------------------------------------|
B|-------------------------------------------------|
G|-------------------------------------------------|
D|-----------------3-3-3-3-3-33-33-----------------|  |
A|-5-5-5-5-5-55-55-----------------3-3-3-3-3-33-33-|  |
E|-------------------------------------------------|  |
                                                      |  (2)
E|-----------------|                                  |
B|-----------------|                                  |
G|-----------------|                                  |
D|-----------------|
A|-----------------|
E|-3-3-3-3-3-33-33-|

chorus:    (3)

E|-----------------------|
B|-----------------------|
G|-----------------------|
D|----------------3----4-|   (повторить 3 раза)
A|--0--00--00------------|
E|-----------------------|

E|-------------------------|
B|-------------------------|
G|-------------------------|
D|-------------------------|
A|--3--33--33--------------|
E|---------------3--33--33-|

маленький проигрыш:

E|-------------|
B|-------------|
G|-------------| (повторить 4 раза)    (4)
D|-------------|
A|--5----53--4-|
E|-------------|

проигрыш (aaaaAAAA!!!...)    (5)

E|-------------------------------------------|
B|-------------------------------------------|
G|-------------------------------------------|
D|------------------------3--33--33----------|(повторить 3 раза)
A|--5--55--55----3----3---------------3----3-|
E|-------------------------------------------|

E|--------------|
B|--------------|
G|--------------|
D|--------------|
A|--1----3----5-|
E|--------------|

VERSE 1:
(1)
I don?t know when it got this way
I don?t know how long she?s gonna stay
(1)
Every week it?s the same in her room That?s why I came
(2)
Here I go, I go again Our rendezvous never seem to end
(2)
I know where I?ll be, I?ll make this confession
Back in her bed for another goddamn session

CHORUS:
(3)
Session!  I?ll never learn. Session! God knows I try.
Session! Keep coming back for session And I don?t know why
(3)
Session! I?ll never learn. Session! I?ll never see.
Session! Just tell me why these sessions got a hold on me

маленький проигрыш:
(4)

VERSE 2:
(1)
Some might say it?s a fling For all
I know it don?t mean a thing
(1)
Either way I can?t complain Ain?t no strings Guess
I got it made
(2)
Here I go, I go again Our rendezvous never seem to end
(2)
I know where I?ll be I?ll make this confession
Back in her bed for another goddamn session

CHORUS:
(3)
Session!  I?ll never learn. Session! God knows I try.
Session! Keep coming back for session And I don?t know why
(3)
Session! I?ll never learn. Session! I?ll never see.
Session! Just tell me why these sessions got a hold on me

маленький проигрыш:
(4)

проигрыш (aaaaAAAA!!!...)
(5) (Декстер там орёт что-то...)

FINAL:

(2)
Here I go, I go again Our rendezvous never seem to end
(2)
I know where I?ll be, I?ll make this confession
Back in her bed for another goddamn session

CHORUS:
(3)
Session!  I?ll never learn. Session! God knows I try.
Session! Keep coming back for session And I don?t know why
(3)
Session! I?ll never learn. Session! I?ll never see.
Session! Just tell me why these sessions got a hold on me

маленький проигрыш:
(4)
Вверх

She's Got Issues

  Проигрыш: Н

  Версия :
Em               Hm                D                   A   Em
I'm seeing this girl and she just might be out of her mind
Well she's got baggage and it's all the emotional kind
She talks about closure and that validation bit
I don't mean to be insensitive, but I really hate that shit

  Припев:
G|-9-9-9-9-8/9-9-9\4-4-4-4-3/4-4-4/7-7-7-7-7-------------------|
D|-9-9-9-9-8/9-9-9\4-4-4-4-3/4-4-4/7-7-7-7-7-7--7-7--7-7-7-7-7-|
A|-7-7-7-7-6/7-7-7\2-2-2-2-1/2-2-2/5-5-5-5-5-7--7-7--7-7-7-7-7-|
E|-------------------------------------------5--5-5--5-5-5-5-5-|

And I say
Yeah yeah!Yeah yeah!
Oh man she's got issues
And I'm gonna pay
Yeah yeah!Yeah yeah!
She thinks she's the victim
Yeah

  Версия :
Now I know she'll feel abandoned
If I don't stay over late
And I know she's afraid to commit
But it's only our second date

  Припев:
And I say
Yeah yeah!Yeah yeah!
Oh man she's got issues
And I'm gonna pay
Yeah yeah!Yeah yeah!
She thinks she's the victim
But she takes it all out on me

  Bridge:
G|--5-5--55-5-5-5---------------------------9-9-9-99-9-9-9\-|
D|--5-5--55-5-5-5--5-5-5-55-5-5-5-5/7-7-7-7-9-9-9-99-9-9-9\-|
A|--3-3--33-3-3-3--5-5-5-55-5-5-5-5/7-7-7-7-7-7-7-77-7-7-7\-|
E|-----------------3-3-3-33-3-3-3-3/5-5-5-5-----------------

I don't know why you're messed up
I don't know why your whole life is a chore
Just do me a favor
      Hm
And check your baggage at the door

  Версия :
Now she talks about her ex nonstop, but I don't mind
But when she calls out his name in bed
That's where I draw the line
You told me a hundred times how your father left and he's gone
But I wish you wouldn't call me daddy
When we're gettin' it on

  Припев:
Oh man she's got issues
And I'm gonna pay
She's playing the victim
And taking it all out on me
My god she's got issues
And I'm gonna pay

  Bridge: - 2 (раза)

If you think I'm controlling
Then why do you follow me around
If you're not co-dependent
Then why do you let others drag you down

I don't know why you're messed up
I don't know why your whole life is a chore
Just do me a favor
And check your baggage at the door
Вверх

She's Got Issues (2 вариант)

Intro: D A C G

Verse 1:
   D             A            C                G
I?m seeing this girl and she just might be out of her mind
Well she?s got baggage and it?s all the emotional kind
She talks about closure and that validation bit
I don?t mean to be insensitive, but I really hate that shit

Chorus 1:
  D            A
Yeaaaaah, yeeaaaaaaah!
  C            G
Oh man she?s got issues and I?m gonna pay
Yeaaaaah, yeeaaaaaaaah!
She thinks she?s the victim, yeah

Verse 2:
   D                A
Now I know she?ll feel abandoned
   C                G
If I don?t stay over late
And I know she?s afraid to commit
But it?s only our second date

Chorus 1:

Chorus 2:
    A                 G
I don?t know why you?re messed up
    C                 D
I don?t know why your whole life is a chore
Just do me a favor
And check your baggage at the door

Verse 3:
      D       A           C            G
Now she talks about her ex nonstop, but I don?t mind
But when she calls out his name in bed that?s where
I draw the line
You told me a hundred times how your father left and he?s gone
But I wish you wouldn?t call me daddy When we?re gettin? it on

Chorus 3:
   D             A
Yeeaaaaaaah, yeeaaaaaaah!
   C             G
Oh man she?s got issues and I?m gonna pay
Yeeaaaaaaah, yeeaaaaaaah!
She?s playing the victim and taking it all out on me
Yeeaaaaaaah, yeeaaaaaaah!
My god she?s got issues and I?m (gonna pay)x6

Chorus 4:
    A             G
If you think I?m controlling
    C             D
Then why do you follow me around
If you?re not co-dependent
Then why do you let others drag you down
    A             G
I don?t know why you?re messed up
    C             D
I don?t know why your whole life is a chore
Just do me a favor
And check your baggage at the door
Вверх

Smash

Version

   Fm Cm# Am# Cm
1:-1--4---6---3--
2:-1--4---6---3--
3:-1--6---6---5--
4:-3--6---8---5--
5:-3--4---8---3--
6:-1--4---6---3--

\\/////////
     Palm Muting

Chorus

  Gm# D# Cm# Cm#
1:-4--6--4---4--
2:-4--6--4---4--
3:-4--8--6---6--
4:-6--8--6---6--
5:-6--6--4---4--
6:-4--6--4---4--


Interlude

   E# D# Cm# D# Cm
1:-8--6--4---6--8--
2:-8--6--4---6--8--
3:-10-8--6---8--8-- x4
4:-10-8--6---8--10-
5:-8--6--4---6--10-
6:-8--6--4---6--8--

Head over heels I fell here before
Now I don?t wanna do it no more
I?m lying right here with blood on my face
Feeling so bad, so bad I can taste
I?m just like no one
I don?t believe in guns
Don?t give me shit ?cause I?m not gonna fight
I just wanna be who I wanna be
I guess that?s hard for others to see

CHORUS

I?m not a trendy asshole
Do what I want
Do what I feel like
I?m not a trendy asshole
Don?t give a fuck
If it?s good enough for you
Cause I am alive

Smash is the way you feel all alone
Lying and desperate and on your own
Smash is the way you deal with your life
Life is a gas, it?s not pain and strife
Head over heels I?ve been here before
Now I don?t wanna do it no more
I wanna be who I wanna be
I guess it?s hard for others to see

CHORUS

Head over heels I?ve been here before
Now I don?t wanna do it no more
I wanna be who I wanna be
I guess it?s hard for others to see

CHORUS
Вверх

So Alone

Verse:  X4

e|-----------------------------|
B|-----------------------------|
G|-4-4---x-7-7-----------------|
D|-4-4---x-7-7---x-7-7---x-9-9-|
A|-2-2---x-5-5---x-7-7---x-9-9-|
E|---------------x-5-5---x-7-7-|
Look at the crowd and tell me whether
All are surrounded
But none are together
If you're awake, look all around
At all of the people
Still you're so alone

Chorus:
e|---------------------|
B|---------------------|
G|---------------------|
D|--7----9-----7-----4-|
A|--7----9-----7-----4-|
E|--5----7-----5-----2-|

So Alone...

Bridge:
e|----------------------------|
B|----------------------------|
G|-4-4----x-7-7---------------|
D|-4-4----x-7-7---x-7-7---x-9-|
A|-2-2----x-5-5---x-7-7---x-9-|
E|----------------x-5-5---x-7-|

e|----------------------------------------|
B|----------------------------------------|
G|----------------------------------------|
D|-7--------------------------------------|
A|-7--------------------------------------|
E|-5-5-5-5---5-5-5---5-5-5--5-5-5---5-5-5-|

Verse:
If I could, I'd make a suggestion
Without sounding preachy
Or begging the question
Melt with your minds
Melt with each other
Don't be surrounded
Don't be so alone

Chorus:

Outro:
e|---|
B|---|
G|---|
D|-7-|
A|-7-|
E|-5-|
Вверх

Something To Believe In

Intro:

F(VIII) F(I) G(III) G#(IV)
C(III) D#(VI) A#(VI) F(VIII)

Verse:
e|-----------------------------------|
B|-----------------------------------|
G|----------8-8--3-3-3-3---------(5)-|
D|-6-6-6-6--8-8--3-3-3-3--3-3----(5)-|
A|-6-6-6-6--6-6--1-1-1-1--3-3----(3)-|
E|-4-4-4-4----------------1-1--------|

I believe that reality's gone
Disillusion's real
I believe that morality's gone
And there's nothing to feel
If you take the sacred things
The things that we hold dear
Empty promise is all you'll find
So give me something
Something to believe in

Chorus:
e|----------------|----------|
B|----------------|----------|
G|---10---8--13-8-|-----TREM-|
D|-3-10-6-8--13-8-|-3---3----|
A|-3-8--6-6--11-6-|-3---3----|
E|-1----4---------|-1---1----|
Something to believe in

Verse:
I believe in a changing of the guard
Put our feet on the ground
See it happen in your own background
Everything breaks down
Do you accept what you are told
Without even thinking
Throw it all and make your own
And give me something
Something to believe in

Chorus:
Something to believe in


N.C.
Where they lead
You will follow
Well I guess that's just the way it goes

Verse:
And if you look away
You'll be doing what they say
And if you look alive
You'll be singled out and tried
If you take home anything
Let it be your will to think
The more cynical you become
The better off you'll be

Come Out And Play


Intro:
e|-5-5-5-|Harmonics
B|-5-5-5-|
G|-5-5-5-|
D|-------|

You gotta keep 'em separated

e|-----------------------------|
B|-----------------------------|
G|-4-4-4---7---------------(4)-|
D|-4-4-4---7---4---7--(4)--(4)-|
A|-2-2-2->-5---4---7--(4)--(2)-|
E|-------------2->-5--(2)------|

Guitar2:
e|--------------------|
B|--------------------|
G|-11-11-11->-14--9-9-|  X4
D|--------------------|
A|--------------------|
E|--------------------|

После Guitar2 идёт это:
e|-------------------------|
B|-------------------------|
G|-------------------------|
D|-----1-2-4-2-1-----------| X4
A|-2-3-----------3-2-2-3-2-|
E|-------------------------|

Verse:
e|-----------------------------------|
B|-----------------------------------|
G|-4-4-4------------4-4-4---7--------|
D|-4-4-4-4--4---7---4-4-4---7--4---7-|
A|-2-2-2-4--4---7---2-2-2->-5--4---7-|
E|-------2--2->-5--------------2->-5-|

Like the latest fashion
Like a spreading disease
The kids are strappin' on their way to the classroom
Getting weapons with the greatest of ease
The gangs stake their own campus locale
And if they catch you slippin' then it's all over pal
If one guys colors and the others don't mix
They're gonna bash it up

Chorus
e|-----------------------------|
B|-----------------------------|
G|-9-9--12-12--11-11-11--------|
D|-9-9--12-12--11-11-11-9-9-9--|
A|-7-7--10-10--9--9--9--9-9-9--|
E|----------------------7-7-7--|

Hey - man you talkin' back to me?
Take him out
You gotta keep 'em separated
Hey - man you disrespecting me?
Take him out
You gotta keep 'em separated
Hey they don't pay no mind
If you're under 18 you won't be doing any time
Hey come out and play

Bridge:
e|-------------------------|
B|-------------------------|
G|-------------------------|
D|-----1-2-4-2-1-----------| X4
A|-2-3-----------3-2-2-3-2-|
E|-------------------------|

Verse:
By the time you hear the siren
It's already too late
One goes to the morgue and the other to jail
One guy's wasted and the other's a waste
It goes down the same as the thousand before
No one's getting smarter
No one's learning the score
Your never ending spree of death and violence and hate
Is gonna tie your own rope

Chorus:

Bridge:
Вверх

Staring At The Sun

  Проигрыш:  !palm-muted!
G|-------------------------------------|
D|---7-7-7-5-7-7-7-5-7-7-7-5-7-7-7-5---|
A|---5-5-5-3-5-5-5-3-5-5-5-3-5-5-5-3---|
E|-------------------------------------|

Версия  !palm-muted!  *=play 4X   #=play 4X without mute

E|----------X3-----------------|-----------------------|
B|-----------------------------|--------------#-----#--|
G|----*-----*-----------*------|--*-----*----3-----5---|
D|---7----10------*----5-----6-|10----10-----3-----5---|
A|---5-----8-----5-----3-----4-|-8-----8-----1-----3---|
E|---------------3-------------|-----------------------|

Maybe life is like a ride on a freeway
Dodging bullets while you're trying to find your way
Everyone's around, but no one does a damn thing
It brings me down, but I won't let them

Версия 2 + Припев: 2 (РАЗА)

E|-------------X3--------------|-----------------------|
B|-----------------------------|--#-----#-----#-----#--|
G|----*-----*-----------*------|-7----10----12----14---|
D|---7----10------*----5-----6-|-7----10----12----14---|
A|---5-----8-----5-----3-----4-|-5-----8----10----12---|
E|---------------3-------------|-----------------------|

If I seem bleak
Well you'd be correct
And if I don't speak
It's cause I can't disconnect
But I won't be burned by the reflection
Of the fire in your eyes
As you're staring at the sun

  Припев:

Oh oh woah oh                     \3 times
As you're starin' at the sun      /

As you're starin' at the sun

  Версия 3    %=pause   *=play 4X

E|-------------X3--------------|-----------------------|
B|-----------------------------|--*-----*-----*-----*--|
G|---7-7-7-71010-------5-5-5-6-|10----10-----3-----5---|
D|---7-7-7-71010-5-5---5-5-5-6-|10----10-----3-----5---|
A|---5-5-5-5-8-8-5-5---3-3-3-4-|-8-----8-----1-----3---|
E|---------------3-3-%---------|-----------------------|

When I ran I didn't feel like a runaway
When I escaped I didn't feel like I got away
There's more to living than only surviving
Maybe I'm not there, but I'm still trying

  Версия 4 #   *=play 4X
E|------------X3---------------|-----------------------|
B|-----------------------------|--*-----*-----*-----*--|
G|---7-7-7-------------5-5-5-6-|-7----10----12----14---|
D|---7-7-7-3-3-3-5-5-5-5-5-5-6-|-7----10----12----14---|
A|---5-5-5-3-3-3-5-5-5-3-3-3-4-|-5-----8----10----12---|
E|---------1-1-1-3-3-3---------|-----------------------|

Though you hear me
I don't think that you relate
My will is something
That you can't confiscate
So forgive me, but I won't be frustrated
By destruction in your eyes
As you're staring at the sun


  Припев:2:  2 (раза)  *=play 7X with palm-muting
E|-------------------------------|
B|----*-----*-----*--------------|
G|---7----10----12-----5-5-5-6---|
D|---7----10----12-----5-5-5-6---|
A|---5-----8----10-----3-3-3-4---|
E|-------------------------------|

Oh oh woah oh                   \ - x3
As you're starin' at the sun    /

As you're starin' at the sun

  Версия 3:  \
  Версия 4:   | - 2 (раза)
  Припев:2: /

  Bridge:    %=pause  *=play 4X
E|-------------------------------------------------------------|
B|----------------------------------------*-----*-----*-----*--|
G|---7---------5-7-----5-5-6-7-----5-5-610----10-----3-----5---|
D|---7---------5-7-----5-5-6-7-----5-5-610----10-----3-----5---|
A|---5-%%%%%%%-3-5-%%%-3-3-4-5-%%%-3-3-4-8-----8-----1-----3---|
E|-------------------------------------------------------------|

As you're starin' at the sun.
Вверх

The Child Arent Alright

Intro
Gtr. 1(w/dist.)
E----------------|------------------|----------------|-------------------|
B----------------|------------------|----------------|-------------------|
G-----6---6-----5|---5-5-5-5/6-6----|-----6---6-----5|---5-5-5-5h6-6-----|
D-8-8-8-8-8-8-8-8|-8-8-8-8-8---8-(0)|-4-4-4-4-4-4-4-4|-4-4-4-4-4---4-(0)-|
A----------------|------------------|----------------|-------------------|
E----------------|------------------|----------------|-------------------|

Gtr. 2(w/dist.)
D-8--------------|8------------8---|4---------------|4-----------x-11-11|
A-8--------------|8------------8---|4---------------|4-----------x-11-11|
E-6--------------|6------------6---|2---------------|2-----------x--9--9|

Gtr. 1(w/dist.)						1st time	    2nd time
E----------------|----------------|----------------|------------------|------------------|
B----------------|----------------|----------------|------------------|------------------|
G-----6---6-----5|---5-5-5-5h6-6-6|-6h8-8-8-8----5-|----5-5-5h6-6-----|--5-5-5-5h6-6-6--|
D-6-6-6-6-6-6-6-6|-6-6-6-6-6---6-6|-6---6-6-6----6-|--6-6-6-6---6-(0)-|--6-6-6-6---6-6--|
A----------------|----------------|----------------|------------------|------------------|
E----------------|----------------|----------------|------------------|------------------|

Gtr. 2(w/dist.)
D-11-------------|11----------11-|6---------------|---------------8-8|-6---------6--8-8-|
A-11-------------|11----------11-|6---------------|---------------8-8|-6---------6--8-8-|
E--9-------------|-9-----------9-|4---------------|---------------6-6|-4---------4--6-6-|

Interlude Part
Gtr. 1(w/dist.)
E----------------|------------------|-----------------|------------------------|----------------|
B----------------|------------------|-----------------|------------------------|----------------|
G----------------|------------------|-----------------|------------------------|----------------|
D----------------|------------------|-----------------|------------------------|----------------|
A-1----------1/3-|-3---3/4-4---4---|-----------------|-3--------4-----4-------|----------------|
E----------------|------------------|-2----------2----|------------------------|-4-4-4-4-6-6-6-6|

Gtr. 2(w/dist.)
G----------------|-------------11-11|11-11-11-11-11-11|11-11-11-11-11-11------|-----------------|
D-8--8--8-8-8-8--|-8-8-8-8-8-8-11-11|11-11-11-11-11-11|11-11-11-11-11-11-11-11|11-11-11-11-11-11|
A-8--8--8-8-8-8--|-8-8-8-8-8-8--9--9|-9--9--9--9--9--9|-9--9--9--9--9--9-11-11|11-11-11-11-11-11|
E-6--6--6-6-6-6--|-6-6-6-6-6-6------|-----------------|-------------------9--9|-9--9--9--9--9--9|

Gtr. 1(w/dist.)  <		1st time	   ><		2nd time	      >
D----------------|----------------|----------------|----------------|-----------------|
A-3-3-3-3-4-4-4-4|-4h6-6-6-4-4-4-4|-3-3-3-3-4-4-4-4|-4h6-6-6-4-4-4-4|-3-3-3-3-4-4-4-4|
E----------------|----------------|----------------|----------------|-----------------|

Gtr. 2(w/dist.)	      <		 1st time	     ><		2nd time	    >
G---------------------|-5--5--5-5-5-5|-5-5-5--5-5----|-5--5--5-5-5-5|-5-5-5--5-5----|
D11-11-11-11-11-11-0-0|-6--6--6-6-6-6|-6-6-6--6-6-6/8|-6--6--6-6-6-6|-6-6-6--6-6-6/8|
A11-11-11-11-11-11-0-0|-6--6--6-6-6-6|-6-6-6--6-6-6/8|-6--6--6-6-6-6|-6-6-6--6-6-6/8|
E-9--9--9--9--9--9-0-0|-4--4--4-4-4-4|-4-4-4--4-4-4/6|-4--4--4-4-4-4|-4-4-4--4-4-4/6|

Verses
Gtr. 2(w/dist.)
G---------------|----------------|----------------|----------------|
D-8--8-8-8-8-8-8|-8-8-8-8-8-8-8-|-4--4-4-4-4-4-4-|-4-4-4-4-4-4-4/-|
A-8--8-8-8-8-8-8|-8-8-8-8-8-8-8-|-4--4-4-4-4-4-4-|-4-4-4-4-4-4-4/-|
E-6--6-6-6-6-6-6|-6-6-6-6-6-6-6-|-2--2-2-2-2-2-2-|-2-2-2-2-2-2-2/-|

G-----------------------|-----------------------|-5--------------|-----------------|
D-/11--11-11-11-11-11-11|-11-11-11-11-11-11-11-|-6--6-6-6-6-6-6-|-6-6-6-6-6-6-6/8-|
A-/11--11-11-11-11-11-11|-11-11-11-11-11-11-11-|-6--6-6-6-6-6-6-|-6-6-6-6-6-6-6/8-|
E-/9----9--9--9--9--9--9|--9--9--9--9--9--9--9-|-4--4-4-4-4-4-4-|-4-4-4-4-4-4-4/6-|

Chorus
Gtrs. 1 & 2
G--------------|---------------11-11|-11--11--11-11-11-11|-11-11-11--11-11-11------|
D-8--8--8-8-8-8|-8-8-8-8-8-8-0-11-11|-11--11--11-11-11-11|-11-11-11--11-11-11-11-11|
A-8--8--8-8-8-8|-8-8-8-8-8-8-0--9--9|--9---9---9--9--9--9|--9--9--9---9--9--9-11-11|
E-6--6--6-6-6-6|-6-6-6-6-6-6-0------|--------------------|---------------------9--9|

G|10-10-10-10-10-10|10-10-10-10-10-10-5-5|5-5-5-5-5|5-5-5-5----|
D|11-11-11-11-11-11|11-11-11-11-11-11-6-6|6-6-6-6-6|6-6-6-6-6/8|
A|11-11-11-11-11-11|11-11-11-11-11-11-6-6|6-6-6-6-6|6-6-6-6-6/8|
E|-9--9--9--9--9--9|-9--9--9--9--9--9-4-4|4-4-4-4-4|4-4-4-4-4/6|

Solo
Gtr.1
E|---|--------------------|--------------|--------|------------|
B|---|--------------------|--------------|--------|------------|
G|---|--------------------|--------------|--------|------------|
D|---|--------------------|--------------|--------|------------|
A|-8-|-1~~~~~~~~~~---1/3--|-3~~~~---3/4--|-4---4/6|--6--(6)/8-8|
E|---|--------------------|--------------|--------|------------|

all bends are full
E|-4---6---|--9------11----|-13------16-------|----------------|
B|-7b--9b--|-12b-----14b---|-16b----------16b-|--(16)~~~14---16|
G|---------|---------------|------------------|----------------|

gtr.2 plays bars 2-8 at beginning of solo

E|-------13----13---13-----13---13--|-13-----13---13---------------------|---------------------|
B|-16b---16b---16---16b----16---16--|-16b----16---16-16b---(16)--14------|-14-16-14----149----|
G|----------------------------------|--------------------------------15--|----------15------11b|

E|--------------------|-9-9----------|-------------------------|
B|----------------9-9-|-----9--------|-------------------14-14-|
G|-(11)-(11)~~~~~-----|-------10-11/-|13--13--13~~~~13/--------|

E|---------------------------------|---------------------------|
B|-16b------16--16--16--(16)--14---|16b----(16)~~~~~~~~~~(16)--|
G|---------------------------------|---------------------------|

Outro Chorus
Gtr.2 plays interlude part
E|-----------------------|		       |--------------6----|
B|-11--9--------11--9----|		       |-11--9-------------|
G|-----------------------|play this twice  |-------------------|
D|--8--6---------8--6----|and  then this   |--8--6-------8-----|
A|-----------------------|once   	       |-------------------|
E|-----------------------|		       |-------------------|

then repeat this to the end
E|--------------|
B|--11--9--11--9|slide down on the last note of the song
G|--------------|
Вверх

The End Of The Line

  Проигрыш:

G|----------------------------------------|
D|-4-444-4---R------------4-444-4---R-----|
A|-4-444-4---R------------4-444-4---R-----|
E|-2-222-2---R------------2-222-2---R-----|

G|------------------------9-9---9---9-9-9-6-6---6---6-6-6-|
D|-4-444-4---R------------9-9---9---9-9-9-6-6---6---6-6-6-|
A|-4-444-4---R------------7-7---7---7-7-7-4-4---4---4-4-4-|
E|-2-222-2---R--------------------------------------------|

G|-6-6---6---6-6-6-|
D|-6-6---6---6-6-6-|
A|-4-4---4---4-4-4-|
E|-----------------|

  Версия :
F#                         Dm
When the siren's flash is gone
           A       Н    F#
And we're left to carry on
Dm       Em
All the memories are too few
F#                        Dm
When the pastor's music plays
          A      Н     E
And that casket rolls away
                      C#
I could live again if you
Just stay alive for me

  Break1:   C#    F#

  Припев:
F#                                  A
Please stay now, you left me here alone -
Em                   Н
it's the end of the line
F#                                A
Please stay I can't make it on my own -
Em                   C#
it's the end of the line
Make it on my own
It's the end of the line

  Версия :
Now that you are dead and gone
And I'm left to carry on
I could never smile cause you
Won't stay alive for me

  Припев:

  Break2: F#   A  Em   Н   \
          F#   A  Em   C#  / - 2 (раза)

Finally,
Your final resting day
Is without me
I weep
And think of brighter days
What about me?

You can't take back, the one mistake
That still lives on after life it takes
In that one day, that changed our lives
And bitter memories are left behind

  Припев:
Вверх

The Kids Arent Allright

Am F C G
When we were young the future was so bright
The old neighborhood was so alive
And every kid on the whole damn street
Was gonna make it big and not be beat

Now the neighborhood?s cracked and torn
The kids are grown up but their lives are worn
How can one little street
Swallow so many lives

Chances thrown
Nothing?s free
Longing for what used to be
Still it?s hard
Hard to see
Fragile lives, shattered dreams

Jamie had a chance, well she really did
Instead she dropped out and had a couple of kids
Mark still lives at home cause he?s got no job
He just plays guitar and smokes a lot of pot

Jay committed suicide
Brandon OD?d and died
What the hell is going on
The cruelest dream, reality
Вверх

The Kids Arent Allright (2 вариант)

  Проигрыш:

e|---------------1---1---1-1-1-1---------------2---2---2-2-2-2-|
B|-----2---2---2-2---2---2-2-2-2---------------2---2---2-2-2-2-|
G|-3-3-3---3---3-3---3---3-3-3-3-----3---3---3-3---3---3-3-3-3-|
D|-3-3-3---3---3-3---3---3-3-3-3-4-4-4---4---4-4---4---4-4-4-4-|
A|-1-1-1-1-1-1-1-1-1-1-1-1-1-1-1-4-4-4---4---4-4---4---4-4-4-4-|
E|-------------------------------2-2-2-2-2-2-2-2-2-2-2-2-2-2-2-|

e|---------------4---4---4-4-4-4-----4---4---4-4---4---4-4-4-4-|
B|-----6---6---6-6---6---6-6-6-6-4-4-4---4---4-4---4---4-4-4-4-|
G|-6-6-6---6---6-6---6---6-6-6-6-5-5-5---5---5-5---5---5-5-5-5-|
D|-6-6-6---6---6-6---6---6-6-6-6-6-6-6-6-6-6-6-6---6---6-6-6-6-|
A|-4-4-4-4-4-4-4-4-4-4-4-4-4-4-4-------------------6---6-6-6-6-|
E|-----------------------------------------------4-4-4-4-4-4-4-|

  Версия :
 Bb
When we were young the future was so bright
 F#
The old neigHborhood was so alive
 C#
And every kid on the whole damn street
 G#
Was gonna make it big and not be beat

Now the neigHborhood's cracked and torn
The kids are grown up but their lives are worn
How can one little street
Swallow so many lives

  Припев:
           Bb
Chances thrown
           F#
Nothing's free
         C#               G#
Longing for what used to be
Still it's hard
Hard to see
Fragile lives, shattered dreams

  Solo:
e|-------------------------------------------------------------|
B|-------------------------19-21-------18-18-16p14p12/14-16-14-|
G|-------------13-15-17-18-------18-17-------------------------|
D|-------------------------------------------------------------|
A|-1-3/4-4-6/8-------------------------------------------------|

e|------------------------|
B|--------------12/14-16--|
G|----16-14-12------------|
D|------------------------|
A|------------------------|

  Версия :
Jamie had a chance, well she really did
Instead she dropped out and had a couple of kids
Mark still lives at home cause he's got no job
He just plays guitar and smokes a lot of pot

Jay committed suicide
Brandon OD'd and died
What the hell is going on
The cruelest dream, reality

  Припев:

  Solo:

  Interlude:
e|-----------------------------|
B|-9-11--9-11------------------|
G|-----------------------------|

  Припев:
Вверх

Vultures

 Riff A

E||------------------------|-------------------------|
B||------------------------|-------------------------|
G||------------------------|-------------------------|
D||-------2----------2-----|-----2-------------------|
A||--0-------0--3-------3--|--2-----2----------2-----|
E||------------------------|-----------0----0-----3--|


 Riff B

---------------------------|-------------------------|
---------------------------|-------------------------|
--7----7--7--10----10--10--|--9--9--9----------------|
--7----7--7--10----10--10--|--9--9--9--7----7--7--7--|
--5----5--5--8-----8---8---|--7--7--7--7----7--7--7--|
---------------------------|-----------5----5--5--5--|



---------------------------|-------------------------|
---------------------------|-------------------------|
--7----7--7--10----10--10--|--9--9--9----------------|
--7----7--7--10----10--10--|--9--9--9--7----7--7--7--|
--5----5--5--8-----8---8---|--7--7--7--7----7--7--7--|
---------------------------|-----------5----5--5--5--|



---------------------------|-------------------------|
---------------------------|-------------------------|
--7----7--7--10----10--10--|--9--9--9----------------|
--7----7--7--10----10--10--|--9--9--9--7----7--7--7--|
--5----5--5--8-----8---8---|--7--7--7--7----7--7--7--|
---------------------------|-----------5----5--5--5--|



--------------------------|--------------------------|
--------------------------|--------------------------|
--9--9--9--9--9--9--9--9--|--9--9--9--9--9--9--9--9--|
--9--9--9--9--9--9--9--9--|--9--9--9--9--9--9--9--9--|
--7--7--7--7--7--7--7--7--|--7--7--7--7--7--7--7--7--|
--------------------------|--0--0--0--0--0--0--0--0--| <-- this 0's
                                                           are optional.

 Riff C

------------------------|------------------------|------------------------|
------------------------|------------------------|------------------------|
--2--2----2--5--5----5--|------------------------|--2--2----2--5--5----5--|
--2--2----2--5--5----5--|--2--2----2----2--2--2--|--2--2----2--5--5----5--|
--0--0----0--3--3----3--|--2--2----2----2--2--2--|--0--0----0--3--3----3--|
------------------------|--0--0----0----0--0--3--|------------------------|



------------------------|------------------------|------------------------|
------------------------|------------------------|------------------------|
------------------------|--2--2----2--5--5----5--|------------------------|
--2--2----2----2--2--2--|--2--2----2--5--5----5--|--2--2----2----2--2--2--|
--2--2----2----2--2--2--|--0--0----0--3--3----3--|--2--2----2----2--2--2--|
--0--0----0----0--0--3--|------------------------|--0--0----0----0--0--3--|



--------------------------|--------------------------|
--------------------------|--------------------------|
--7--7--7--7--7--7--7--7--|--9--9--9--9--9--9--9--9--|
--7--7--7--7--7--7--7--7--|--9--9--9--9--9--9--9--9--|
--5--5--5--5--5--5--5--5--|--7--7--7--7--7--7--7--7--|
--------------------------|--------------------------|


 Solo (while Riff A plays)

---------------------|-----------------------|---------------------|
---------------------|-----------------------|---------------------|
--2------5--------5--|--4h-5p-4--------------|--2------5--------5--|
---------------------|-----------5----2------|---------------------|
---------------------|-----------------------|---------------------|
---------------------|-----------------------|---------------------|



-------------------------|---------------------|-----------------------|
-------------------------|---------------------|-----------------------|
--/7p-5--5--4----5h-4-0--|--2------5--------5--|--4h-5p-4--------------|
-------------------------|---------------------|-----------5----2------|
-------------------------|---------------------|-----------------------|
-------------------------|---------------------|-----------------------|



---------------------|-------------------------|
---------------------|------------5---3--------|
--2------5--------5--|--/7p-5--4---------5--4--|
---------------------|-------------------------|
---------------------|-------------------------|
---------------------|-------------------------|


 Ending

--------------------------|
--------------------------|
--2-----------------------|
--2-----------------------|
--0-----------------------|
--------------------------|


 Song structure:

Riff A 12 times (1st verse)
Riff B 1 time   (pre-chorus)
Riff C 1 time   (chorus)
Riff A 6 times  (2nd verse)
Riff B 1 time   (pre-chorus)
Riff C 2 times  (chorus)
Riff A 4 times  (solo)
Riff B 1 time   (pre-chorus)
Riff C 2 times  (chorus)
Ending
Вверх

Walla Walla

  Проигрыш:
G|------------------------------------------------------|
D|--3--3---3--3--3--2--0--------------------------------|
A|--------------------------------3--3---3--3--3--2--0--|
E|------------------------------------------------------|

G|---------------------------------------------|
D|----------------------------------------0--2-|
A|----------------0--2--3--3---3--3--3---------|
E|---3---3--3--3-------------------------------|

G|--------------------------------------------|
D|-3--3--3/5--3--2--0-------------------------|
B|-----------------------3--3--3--3--3--2--0--|
E|--------------------------------------------|

G|-----------------------------5--5--5|
D|------------------------5--5--5-----|
B|----------------0--2--3--3--3-------|
E|--3--3---3--3--3--------------------|

*= Play 10 times
%=Play 4 times, and release inbetween each
  time you strike the strings with the pick
/=Slide up

  Версия : - x4
E|-------------------------------|------------------------|
B|--------*----------------------|------*-----------------|
G|-*-------5-----*------%--------|-*-----3---*----%-------|
D|--3------5------5------10------|--3----3----3----10-----|
A|--3------3------5------10------|--3----5----3----10-----|
E|--1-------------3------8-------|--1---------5----8------

Goodbye my friend, you've messed up again
You're going to prison, you're off to the pen
You've gotten off easy so many times
But I guess no one told you how to get a life

The judge wasn't lenient like he was before
You got three to five and a kick out the door
The public defender really did try
Too little, too late, you didn't get a life

  Припев:
@=Play 9 times &=Play 12 times!=Play 12 times $=play 7 times
E|-------------------------------|-----------------------------|
B|------@-----------&------------|---!-------------------------|
G|--5----7--/--9--/--10----------|----5----*----$------$-------|
D|--5----7--/--9--/--10----------|----5-----5----10--/--13-----|
A|--3----5--/--7--/--8-----------|----3-----5----10--/--13-----|
E|-------------------------------|----------3----8---/--11-----|

Hey, in Walla
I'll see you in Walla Walla
Slap on the wrist? Well, not this time
Hey, in Walla
I'll see you in Walla Walla
Folsom prison is the destination
Hey, in Walla
I'll see you in Walla Walla
Slap on the wrist? Well, not this time
In the scheme of life, we're all just brothers
Rehabilitate with all the others
Well, I'll see ya

  Play Проигрыш:

  Pre-Припев:2:  - 2 (раза)
<  =Play 4 times
E|-----------------------|
B|------<----------------|
G|-<-----5---<----%------|
D|--3----5----5----10----|
A|--3----3----5----10----|
E|--1---------3----8-----|

  Pre Outro Припев: mix-2X
E|-----------------------|
B|------*----------------|
G|-*-----5---*----%------|
D|--3----5----5----10----|
A|--3----3----5----10----|

E|--1---------3----8-----|

  Версия : - x4
E|-------------------------------|-----------------------|
B|--------*----------------------|------*----------------|
G|-*-------5-----*------%--------|-*-----3---*----%------|
D|--3------5------5------10------|--3----3----3----10----|
A|--3------3------5------10------|--3----5----3----10----|
E|--1-------------3------8-------|--1---------5----8-----|
That car looked so tempting, so easy to drive
Just like that apartment that you burglarized
You started to run, but didn't get far
Cause under your arm was a VCR


  Припев:
E|-------------------------------|----------------------------|
B|------@-----------&------------|---!------------------------|
G|--5----7--/--9--/--10----------|----5----*----$------$------|
D|--5----7--/--9--/--10----------|----5-----5----10--/--13----|
A|--3----5--/--7--/--8-----------|----3-----5----10--/--13----|
E|-------------------------------|----------3----8---/--11----|

  Версия :
Ho ho, not this time my friend
You'll be in lockdown by ten
I'm afraid you can't talk your way out of this one, son
Now four walls are your 24-hour-a-day, constant companions.

  Припев:

Have a nice life!
Вверх

Want You Bad

Проигрыш:
G|-9-------------------------|
D|-9-9-9-9--11-11-7-7-9-9-9--|
A|-7-9-9-9--11-11-7-7-9-9-9--|
E|---7-7-7--9--9--5-7-7-7-7--|

Версия :
Em(VII)                    Н(VII)
If you could only read my mind
           Em(VII)           Н(VII)          C#(IX)  Am(V)
You would know the things between us, ain't right
I know your arms are open wide
But you're a little on the strange side, I cant lie

Pre-Припев:
Em   Н      C#
Your one advice
           Am
Is you're too nice
       G#
Come around now
 Н        Am
Can't you see

Припев:
	Em Н    C#      Am
	I want you all tatooed
	G# Н        Am
	I want you bad
	Complete me, mistreat me
	I want you to be bad, bad, bad, bad, bad

Версия :
If you could only read my mind
You would know that I feel waited, so long
Someone almost just like you
But with attitude, I've waited, so come on

Pre-Припев:
Get out at close time
Pull out those highlighhts
Come around now can you see

Припев:

Solo:
G|-7-7-777----------------------------|
D|---------9-9-999-5-5-555-7-7-777----|
A|------------------------------------|
E|------------------------------------|

Interlude:
e|----------------------|
B|---------7:-9:-8:-9:--|
G|-9:------8:-7:-9:-8:--|
D|-9:------9:-8:-7:-7:--|
A|-7:-------------------|
E|----------------------|  : - let rin

Dont get me wrong
I know your only being good
But if thats whats wrong
I guess I just misunderstood

Припев:

Million Miles Away
Проигрыш:
B|----------------------------------------------9---9-9-9--|
G|----------------------------------------7-7-7-9---9-9-9--|
D|-------------------7-7-7----------------7-7-7-7:--7-7-7--|
A|-9-9-9-7-7-7-9-9-9-------9-9-9-7Н9--5:--5-5-5------------|
E|---------------------------------------------------------|

Версия :
  F#         Am             Em
There was a time looking through myself
Wanted to pretend if I escaped
I could feel myself I don't think you can
Been far and wide, but that hole inside
Never really leaves I went away
But I really lost left behind was me
Install in me clear me on my way

Припев:
F#
Ohh oh oh, ohh oh oh
   Am      Em
A Million Miles Away
Ohh oh oh, ohh oh oh
A Million Miles Away
	N.C.
	I can't stay,
	I can't stay
F#
Ohh oh oh, ohh oh oh
   Am      Em
A Million Miles Away

Версия :
Each passing day, every passing face

Seems like such a gloom, I long to be
Home silently lying next to her
Just to get back by her side is all,
All I need to be
I went away what I really lost
Left behind was me
I need to be getting on my way

Solo:
e|----------------------------------------------------------11b|
B|-13^-14\12-10-12--14^-14\12-10-11Н12-10--11~b-12-12-10Н12----|
G|-14^-15\13-11-10--14^-15\13-11-10----12----------------------|
D|-------------------------------------------------------------|

e|---------------------11b-11b-11b-11b-11b-11Н12^13------------|
B|-11~b-12-12-12-10Н12------------------------------12^13\10---|
G|-------------------------------------------------------------|
D|-------------------------------------------------------------|

Припев:

Outro: F#m
Вверх

What Happened To You?

Key
---
* = play 4x
b = bend up to the pitch indicated
r = release bend back to the original pitch

intro

|---------------------------------------|
|---------------------------------------|
|-------10*------10*-----10*-----10-9-8-|
|-8-10--10*--10*-10*--8*-10*-10*-10-9-8-|
|-8-10---8*--10*--8*--8*--8*-10*--8-7-6-|
|-6--8--------8*------6*------8*--------|

verse

|---------------|
|---------------|
|-7*--------10*-|
|-7*-8*-10*-10*-|
|-5*-8*-10*--8*-|
|----6*--8*-----|

chorus

|---------------|
|---------------|
|-7*----10*-----|
|-7*-8*-10*-10*-|
|-5*-8*--8*-10*-|
|----6*------8*-|

solo - over verse chords

|-------------------------------------|
|-------------------------------------|
|-----------5--7--5--7b9r7--5---5--7--|
|------5--7-------------------7-------|
|-5--8--------------------------------|
|------------------------------------


Intro:
Bb            C                 F   Bb  F  C
 What in the world happened to you?

F  Bb  F E Eb

Verse 1:
   Dm               F          C
Before you started toking you used to have a brain
     Dm            F            C
But now you don't get even the simplest of things
   Dm            F          C
I draw a little picture or even use my hands
   Dm*    F*               C
I try to explain, but you just don't understand

* - приглушить аккорд

Chorus:
 Dm    F               C
(Hey, hey) Man you're really losing it
 Dm    F               C
(Hey, hey) And you've really done alot of junk now
 Dm    F               C
(Hey, hey) But you keep on abusing it
 Bb            C                 F   Bb  F  C
  What in the world happened to you?

F  Bb  F E Eb

Verse 2:
It's bad enough you do it, to do it to yourself
But taking someone with you well you know that's something else
I say `I'm not that kind of person, I'm not that kind of man
I try to explain, but you just don't understand

Chorus:

(Hey, hey) Man you're really losing it ...

Solo:
e|-------------------------------------|
B|-------------------------------------|
G|-----------5--7--5--7b9r7--5---5--7--|
D|------5--7-------------------7-------|
A|-5--8--------------------------------|
E|-------------------------------------|

e|---------------------------------|
B|--------------------------8------|
G|-----------5--7--5--7b9r7---7--5-|
D|------5--7-----------------------|
A|-5--8----------------------------|
E|---------------------------------|

e|-------------------------------------------------------10-----|
B|-------------------------------------------------10-13----13--|
G|--------------------10--12--10--12b14r12--10--12--------------|
D|-------------10-12--------------------------------------------|
A|-------10-12--------------------------------------------------|
E|-10-13--------------------------------------------------------|

e|-10b11r10-13-10-13b15r13--15-13-15b17--15b17--15-13----------13-|
B|----------------------------------------------------15-13-15----|
G|----------------------------------------------------------------|
D|----------------------------------------------------------------|
A|----------------------------------------------------------------|
E|----------------------------------------------------------------|

Chorus:
(Hey, hey) Man you're really losing it ...

Verse4:
I might be sympathetic, or cut a little slack
I thought that you were willing to give a little back
But you do it in the morning, you do it in the night
You lie to refrain from just faceing your life

Verse5:
So I'll see you there tomorrow, you'll be gaking up again
I'll see you see you in a coffin by the time your wad is spent
I think of all the times that I tried to lend a hand
I try to explain but you just don't understand

Chorus:
(Hey, hey) Man you're really losing it ...
Bb            C
 What in the world happened to
Bb            C
 What in the world happened to
Bb            C                 F   Bb F F EbF
 What in the world happened to you?
Вверх

Why Don't You Get A Job?

  Версия 1: (No guitar this Версия !!)
My friend's got a girlfriend
Man he hates that bitch
He tells me every day
He says "Man I really gotta lose my chick
In the worst kind of way"

  Версия 2:
F
She sits on her ass
Bb
He works his hands to the bone
F                       C
To give her money every payday
F                                 Bb
But she wants more dinero just to stay at home
F                   C       F
Well my friend, you gotta say

  Припев:
F                            Bb
I won't pay, I won't pay ya, No Way-ay-ay-ay
F                C             F

Na na, why don't you get a job?
F                          Bb
Say no way, say no way-ah, no way-ay-ay-ay
F                C             F
Na na, why don't you get a job?

  Версия 3:
F                              Bb
I guess all his money, well it isn't enough
F                              C
To keep her bill collectors at bay
F                              Bb
I guess all his money, well it isn't enough
F                     C              F
Cause that girl's got expensive taste

  Припев:

  Break:
Bb
Well I guess it ain't easy
                 F
Doing nothing at alllllllll  ohhhh yeahhhh
Bb
But hey man free rides just don't
       G            C
Come along every day

(Let me tell you about my other friend now)

  Версия 4:
F
My friend's got a boyfriend
        Bb
Man she hates that dick
F                     C
She tells me every day
F                            Bb
He wants more dinero just to stay at home
F                   C        F
Well my friend, you gotta say

  Припев: - 2 (раза)

F                                Bb
I won't give you no money, I'll always pay
F                C             F
Na na, why don't you get a job?
F                          Bb
Say no way, say no way-ah, no way-ay-ay-ay

F                C               F
Na na, why don't you get a job?
Вверх
English songs 109

ABBA
AC-DC
Adams Bryan
Adriano Celentano
Aerosmith
A-Ha
Animals
Antonio Banderos
Apocalyptica
Armstrong Louis
Billy's Band
Bjork
Blink 182
Blondie
Blur
Bob Dylan
Boney M
Bon Jovi
Bowie David
Brainstorm
Braxton Toni
Butch
Celine Dion
Chris De Burgh
Chris Isaak
Chuck Berry
Clapton Eric
Cohen Leonard
Cranberries
Deep Purple
Depeche Mode
Dire Straits
Donovan Jason
Eagles
Electric Light Orchestra
Elton John
Elvis Presley
Era
Europe
Evanescence
Garbage
Gary Moore
Glen Wiston
Gorillaz
Green Day
Guano Apes
Guns N Roses
Hendrix Jimi
Iggy Pop
Iron Maiden
Joe Dassin
Kansas
King Crimson
Kiss
Led Zeppelin
Leonard Cohen
Limp Bizkit
Linkin Park
Louis Amstrong
Madonna
Marilyn Manson
Marley Bob
Metallica
Moby
Morricone Ennio
Muse
Nazareth
Nelly Furtado
Nick Cave
Nirvana
No Doubt
Oasis
Offspring
Ottawan
Outkast
Ozzy Osbourne
Pain
Para Bellum
Pink Floyd
Placebo
P.O.D.
Queen
RadioHead
Rainbow
Rammstein
Rea Chris
Red Hot Chili Peppers
Ritchie Blackmore
Rolling Stones
Roxette
Rufus Wainwright
Santana
Sarah Brightman
Scorpions
Sex Pistols
Simon & Garfunkel
Shocking Blue
Soul Asylumx
Status Quo
Sting
System of a down
Sum 41
The Beatles
The Doors
Tito & Tarantula
U2
UB 40
Uriah Heep
Van Halen

Українські пісні 109

Boom Box
Escape
Flit
Kapela Drewutnia
Lama
LЮK
Mad Heads (XL)
Motor' rolla
NEON
Ot Vinta
The Вйо
Абздольц
Аероплан
Акорд
Ані Лорак
Бандурна розмова
Білик Ірина
Борщ
Брати Гадюкіни
Вася Club
Вій
Воплі Відоплясова
Гайдамаки
Гончар Олесь
Гринжоли
Гроно
Гуляйгород
Дарка і Славко
Дивні
Друга Ріка
Другий подих
Дударик
Експампей
Євтушенко Андрій
Жарівка (Дяк Олесь)
Журбовіз
Зібров Павло
Зінкевич Василь
Злотник Олександр
Івасюк Володимир
Калєкція
Карна
Карпа Ірена
Клямка
Козловський Віталій
Кому вниз
Крихітка Цахес
Курінь
Лесик-Band
Лорд Юрія
Львівські музики
Мандри
Менестрелі
Мері
Мертвий Півень
Міпеніум
Монте Крісто
Морозов Віктор
Нахтіґаль
Не журись!
Неборак Віктор
НеДІля
НЕМО
Нічлава блюз
Океан Ельзи
ПереBANDя
Перкалаба
Петрович
Піккардійська Терція
Піпа Олександр
Плач Єремїі
Пономарьов Олександр
Пророк
Росава
Ротару Софія
Руслана
Рутенія
С.К.А.Й.
САД
Самі свої
Серцевий Напад
Скрябін
Смерічка
Сокира Перука
Соколи
Таліта Кум
Тартак
Тінь сонця
Ткач Михайло
ТНМК
Тостер
Тріо Мареничів
Фарбований лис
Фестиваль Снів
Хвилю тримай
Цісик Квітка
Черемош
Черемшина
Четвертий кут
Чорний вересень
Чорні черешні
Шевченко Тарас
Щастя
Юркеш
Юрченко Юрко
Юрчишин Ярослав
Явір
Яка існуЄ
Яремчук Назарій

   
 sait@i.ua



Рейтинг@Mail.ru