accordS-land.ru Аккорды и табулатуры к гитаре.
Главная | Песенник | Аккорды | Учебник
Руссике песни 180
5nizza
7Б
9-й Район
Animal ДжаZ
Billy's Band
Butch
Para Bellum
TequilaJazzz
Worms
Zdob Si Zdub
Автоматические удовлетворители
Агата Кристи
Агузарова Жанна
Агутин Леонид
Адо
Аквариум
Алиса
Алсу
Амирамов Е.
Антонов Ю.
Арефьева Ольга
Ария
АукцЫон
Барыкин
Башаков Михаил
Башлачев Александр
БекХан
Бернес М.
Би - 2
Бони неМ
Борзов Найк
Боярский Михаил
Браво
Братья Грим
Ва-Банкъ
Вертинский Александр
Визбор Юрий
Високосный год
Воскресенье
Восьмая Марта
Высоцкий В.С.
Високосный год
Газманов О.
Галич Александр
Герман А.
Городницкий Александр
Глызин А.
Градский Александр
Гражданская Оборона
Гребещенков
Данко
ДДТ
Дидюля
Диоды
Дискотека Авария
Дягилева Янка
Ёлка
Жуки
Заблудовский Андрей
Запрещенные Барабанщики
Звери
Земляне
Земфира
Зинчук Виктор
Зоопарк
Иван Кайф
Иванов А.
Иваси
ИЗ КИНО И МУЛЬТФИЛЬМОВ
Империя
Калинов мост
Кашин Павел
Кельми К.
КИНО
Кипелов
Конец Фильма
Контингент
Корни
Король и Шут
Коррозия металла
Крематорий
Крупнов Анатолий
Кузьмин Владимир
Куликов Е.
Кукрыниксы
Курехин Сергей
Лаэртский Александр
Ласковый май
Ленинград
Леонидов Максим
Лесоповал
Лещенко Л.
Линда
Лицей
Лоза Юрий
Любэ
Люмен
Ляпис Трубецкой
Мальчишник
Манго-манго
Мара
Маркин В.
Маршал Александр
Маша и медведи
Машина времени
Мечтать
Мистер Кредо
Митяев Олег
Многоточье
Монгол Шуудан
Моральный Кодекс
Мультfильмы
Мумий Тролль
Настя
Науменко Майк
Наутилус Помпилиус
Непара
Неприкасаемые
Несчастный случай
Никоваев И.
Никольский Константин
Ногу свело
Ноль
Носков Николай
Ночные Снайперы
Окуджава Булат
Оркрист
Осин Е.
Оскар
Отиева И.
Паперный Т.А.М.
Парк Горького (Gorky Park)
Пикник
Пилот
Пламя
Полковник и однополчане
Пугачева А.
ПЭХ
Приключения Электроников
Просто прикольные песни
Рада и Терновник
Римский-Корсаков
Розенбаум Александр
Рок-Острова
Рондо
Сансара
Саруханов
Сегодня Ночью
Секрет
Сектор газа
Сенчина Л.
СерьГа
Смысловые Галлюцинации
Сплин
Солодуха А.
Старые блатные песни
Сукачев Гарик
Сурганова и Оркестр
Сюткин Валерий
Тальков Игорь
Танцы минус
Тараканы
Тату
Технология
УмаТурман
Умка и Броневичок
Ундервудъ
Фабрика звезд
Х.З. (Хуй Забей)
Центр
ЧайФ
Черный кофе
Черный Лукич
Чиж и Ко
Чистяков Федор
Шанхай
Щербаков Михаил
Ю-Питер

Классика 22

Албениз Исаак
Албениз Матео
Бах Иоган Себостьян
Бетховен Людвиг ван
Бизе Жорж
Брамс Иоганнес
Вивальди Антонио
Гендель Георг Фридрих
Гершвин Джордж
Григ Эдвард
Дебюсси Клод
Камиль Сен-Санс
Мендельсон
Моцарт Вольфгант Амадей
Мусоргский Модест Пертрович
Норис Крис
Огинский Михал Клеофас
Паганини Никколо
Рахманинов Сергей Васильевич
Римский-Корсаков
Чайковский Пётр Ильич
Шуберт Франц
 

 

Pink Floyd

A great day for freedom
A new machine part one
A new machine part two
Another Brick In The Wall Part 1
Another Brick In The Wall Part 2
Another Brick In The Wall Part 3
Any Colour You Like
A pillow of winds
Arnold Layne
A Saucerful of Secrets (Celestial Voices)
Astronomy Domine
Astronomy Domine (2 вариант)
Atom Heart Mother
Atom Heart Mother (2 вариант)
Biding my time
Brain Damage
Brain Damage (2 вариант)
Breathe In The Air
Bring The Boys Back Home
Burning bridges
Careful With That Axe Eugene
Childhood's end
Cirrus minor
Comfortably Numb
Coming Back To Life
Coming Back To Life (2 вариант)
Corporal clegg
Crying song
Dogs
Dogs (2 вариант)
Dogs of war
Don't leave me now
Dramatic Theme
Echoes
Echoes (2 вариант)
Echoes (3 вариант)
Eclipse
Eclipse (2 вариант)
Eclipse (3 вариант)
Empty Spaces
Fat Old Sun
Fat Old Sun (2 вариант)
FEARLESS
FLAMING
FREE FOUR
GET YOUR FILTHY HANDS OFF MY DESERT
GOODBYE BLUE SKY
GOODBYE CRUEL WORLD
GRANTCHESTER MEADOWS
GREEN IS THE COLOUR
HAVE A CIGAR
Hey you
HIGH HOPES
IBIZA BAR
If
INTERSTELLAR OVERDRIVE
IN THE FLESH?
Is There Anybody
IS THERE ANYBODY OUT THERE?
JUGBAND BLUES
JULIA DREAM
KEEP TALKING
LEARNING TO FLY
LET THERE BE MORE LIGHT
LOST FOR WORDS
Lucifer sam
Marooned
MATILDA MOTHER
Money
Mother
Nobody home
Not now john
OBSCURED BY CLOUDS
ONE OF MY TURNS
ONE OF THE FEW
One slip
ON THE TURNING AWAY
OUTSIDE THE WALL
Paintbox
PARANOID EYES
PIGS ON THE WING (PART ONE)
PIGS ON THE WING (PART TWO)
PIGS (THREE DIFFERENT ONES)
POLES APART
REMEMBER A DAY
Run like hell
San tropez
Scarecrow
See emily play
SEE-SAW
SET THE CONTROLS FOR THE HEART OF THE SUN
SHINE ON YOU CRAZY DIAMOND PART 1
SHINE ON YOU CRAZY DIAMOND PART 2
SHINE ON YOU CRAZY DIAMOND PART 3
SHINE ON YOU CRAZY DIAMOND PART 4
SHINE ON YOU CRAZY DIAMOND PART 5
SIGNS OF LIFE
SORROW
Stay
Stay (2 вариант)
STOP
SUMMER '68
TERMINAL FROST
The final cut
The fletcher memorial home
The gnome
The gold it's in the...
The great gig in the sky
The gunner's dream
The happiest days of our lives
The hero's return
The narrow way (part 3)
The nile song
The post war dream
THE SHOW MUST GO ON
THE THIN ICE
THE TRIAL
TIME
US AND THEM
VERA
WAITING FOR THE WORMS
WEARING THE INSIDE OUT
WHEN YOU'RE IN
WISH YOU WERE HERE
Young lust
YOUR POSSIBLE PASTS
Вверх

A great day for freedom

VERSE:
Cm                Cm(add b5)        Cm               Cm (add b5)
On the day the wall came down, they threw the locks on to the ground
Fm/Ab                                     Gsus4              G
And with glasses high we raised a cry for freedom had arrived

And on the day the wall came down
The ship of fools had finally run aground.
Promises lit up the night like paper doves in flight.

CHORUS:
    F        G/F      F                       G/F  F        F/C  C
I dreamed you had left my side. No warmth not even pride remained--
    F/C           F           G/F    F                        G/F     F
             And even though you needed me, it was clear that I could not
     F/C  C         C   G/C   G/B
do a thing for you.

VERSE:
Now life devalues day by day
As friends and neighbours turn away.
And there's a change that even with regret can not be undone.

Now frontiers shift like desert sands,
as nations wash their bloodied hands
Of loyalty, of history, in shades of grey.

CHORUS:
I woke to the sound of drums.
The music played, the morning sun streamed in.
I turned and I looked at you,
and all but the bitter residue slipped away,
slipped away.

OUTRO SOLO
Вверх

A new machine part one

Cm9
I have always been here
I have always looked out from behind the eyes
It feels like more than a lifetime
Feels like more than a lifetime

Sometimes I get tired of the waiting
Sometimes I get tired of being in here
Is this the way it has always been?
Could it ever have been different?

Do you ever get tired of the waiting?
Do you ever get tired of being in there?
Don't worry, nobody lives forever,
Nobody lives forever
Вверх

A new machine part two

Cm9
I will always be in here
I will always look out from behind these eyes
It's only a lifetime
It's only a lifetime
It's only a lifetime
Вверх

Another Brick In The Wall Part 1

VERSE:
E|----------------------------5------5--5----x----5--5----5--5-|
B|----------------------------5p6----6--6----x----6--6----6--6-|
G|----------------------------5-7----7--7----x----7--7----7--7-|
D|-0--2--3--2---0--2--3--2----5-7----7--7----x----7--7----7--7-|
A|----------------------------5------5--5----x----5--5----5--5-|
E|----------------------------5------5--5----x----5--5----5--5-|

                                               repeat 2x i think
E|--5------5--5----x----5--5----5--5-------------------------|
B|--5p6----6--6----x----6--6----6--6-------------------------|
G|--5-7----7--7----x----7--7----7--7-------------------------|
D|--5-7----7--7----x----7--7----7--7----0--2--3--2----0--2h3-|
A|--5------5--5----x----5--5----5--5-------------------------|
E|--5------5--5----x----5--5----5--5-------------------------|

E|-5------5--5-|
B|-5p6----6--6-|
G|-5-7----7--7-|
D|-5-7----7--7-|
A|-5------5--5-|
E|-5------5--5-|

E|--x----5----5--------5------5--5----x----5----5-|
B|--x----6----6--------5p6----6--6----x----6----6-|
G|--x----7----7--------5-7----7--7----x----7----7-|
D|--x----7----7--------5-7----7--7----x----7----7-|
A|--x----5----5--------5------5--5----x----5----5-|
E|--x----5----5--------5------5--5----x----5----5-|

PRE-CHORUS:
E|-3------x--3--x--3----3--3--3--3--3----------3------x--3--x-|
B|-3------x--3--x--3----3--3--3--3--3----------3------x--3--x-|
G|-4------x--4--x--4----4--4--4--4--4----------4------x--4--x-|
D|-5------x--5--x--5----5--5--5--5--5----------5------x--5--x-|
A|-5------x--5--x--5----5--5--5--5--5----------5------x--5--x-|
E|-3------x--3--x--3----3--3--3--3--3----------3------x--3--x-|

E|-3----3--3--3--3--3-----------5------5--5------10----9----10-|
B|-3----3--3--3--3--3-----------5p6----6--6------10----9----10-|
G|-4----4--4--4--4--4-----------5-7----7--7--------------------|
D|-5----5--5--5--5--5-----------5-7----7--7--------------------|
A|-5----5--5--5--5--5-----------5------5--5--------------------|
E|-3----3--3--3--3--3-----------5------5--5--------------------|

                                               CHORUS:
                                                              F
E|----10----9--9----7--7--7----5-----------------------------1-|
B|----10----9--9----8--8--8----6-----------------------------1-|
G|-----------------------------------------------------------2-|
D|-----------------------------------------------------------3-|
A|-----------------------------------------------------------3-|
E|-----------------------------------------------------------1-|

                        C      C      C      C
E|--1------1------1------3------3------3------3----5------5--5-|
B|--1------1------1------5------5------5------5----5p6----6--6-|
G|--2------2------2------5------5------5------5----5-7----7--7-|
D|--3------3------3------5------5------5------5----5-7----7--7-|
A|--3------3------3------3------3------3------3----5------5--5-|
E|--1------1------1------3------3------3------3----5------5--5-|

                                                               F
E|----x----5----5----------5------5--5----x----5----5--------1-|
B|----x----6----6----------5p6----6--6----x----6----6--------1-|
G|----x----7----7----------5-7----7--7----x----7----7--------2-|
D|----x----7----7----------5-7----7--7----x----7----7--------3-|
A|----x----5----5----------5------5--5----x----5----5--------3-|
E|----x----5----5----------5------5--5----x----5----5--------1-|

                     C     C     C      C
E|--1-----1-----1----3-----3-----3------3----------5------5--5-|
B|--1-----1-----1----5-----5-----5------5----------5p6----6--6-|
G|--2-----2-----2----5-----5-----5------5----------5-7----7--7-|
D|--3-----3-----3----5-----5-----5------5----------5-7----7--7-|
A|--3-----3-----3----3-----3-----3------3----------5------5--5-|
E|--1-----1-----1----3-----3-----3------3----------5------5--5-|

                                       repeat whole thing again
                                       before solo :
E|-x----5--5----------5------5--5----x----5----5---------------|
B|-x----6--6----------5p6----6--6----x----6----6-----13p10-----|
G|-x----7--7----------5-7----7--7----x----7----7------------12-|
D|-x----7--7----------5-7----7--7----x----7----7---------------|
A|-x----5--5----------5------5--5----x----5----5---------------|
E|-x----5--5----------5------5--5----x----5----5---------------|

E|------------------------------10-------------------------------------|
B|--10--------------------------10--10----10------------13b15----r--13-|
G|------12b14----13--13b15------10--10----10---------------------------|
D|---------------------------------------------------------------------|
A|---------------------------------------------------------------------|
E|---------------------------------------------------------------------|

E|-----------------------------------------------------------------|
B|----13------12p10------------------------------------------------|
G|---------------------12----12b14----------10\9----------9--------|
D|--------------------------------------------------12-------10/12-|
A|-----------------------------------------------------------------|
E|-----------------------------------------------------------------|

E|---------------------------------------------------------------------|
B|------------10------10--------------10----10----------10----12----10-|
G|--12-----12p10------10--------------10----10----------10----12----10-|
D|------x-----------------12--12------------------12-------------------|
A|---------------------------------------------------------------------|
E|---------------------------------------------------------------------|

E|-------------------------13b15------13----13-------------------r-|
B|----------------------x-----------------------------13b15--------|
G|-------------------x---------------------------------------------|
D|----------------x------------------------------------------------|
A|-----------------------------------------------------------------|
E|-----------------------------------------------------------------|

E|-------------------------------------------------------------------10-|
B|------13b15------------13--------------------------------------10-----|
G|-------------------------------------------------------12-------------|
D|----------------------------------------------------------------------|
A|----------------------------------------------------------------------|
E|----------------------------------------------------------------------|

E|-----------------------------------------------------------x----------|
B|--13p10----------------------------------------------------x----------|
G|---------12----12b14----10----12p10--------10b12----------------12p10-|
D|-------------------------------------12-----------12----x-------12p10-|
A|----------------------------------------------------------------------|
E|----------------------------------------------------------------------|

E|------------------------------------------------------------------|
B|------------------------------------------------------------------|
G|------------------------------------------------------------------|
D|------------------------------------------------------------------|
A|----12p10----12p/10----8--------10p8----------------------------8-|
E|--------------------------------------10p8------10----10--10------|

E|---------------------------------------------------------------------|
B|----------------------------------5h6p5------------------------------|
G|--------------------------5--7-----------7----7p5-----5b7----------7-|
D|----------------------/7---------------------------7-----------------|
A|---------------------------------------------------------------------|
E|--10p8----10---------------------------------------------------------|

E|------------------------------------------------------------------|
B|----------6------b2------------13b15------------------------13b15-|
G|--x--7p5----------------------------------------------------------|
D|------------------------------------------------------------------|
A|------------------------------------------------------------------|
E|------------------------------------------------------------------|

E|----r---------------------------------15b17----------13p10-|
B|-------------13b15------------13---------------------------|
G|-----------------------------------------------------------|
D|-----------------------------------------------------------|
A|-----------------------------------------------------------|
E|-----------------------------------------------------------|

E|---------------13----12----15b17----r--b2--r--b2--r--------15b17-|
B|----/----15------------------------------------------------------|
G|-----------------------------------------------------------------|
D|-----------------------------------------------------------------|
A|-----------------------------------------------------------------|
E|-----------------------------------------------------------------|

E|----------18b20------18b20--------------------20b22--------------20p-|
B|----15---------------------------------------------------------------|
G|---------------------------------------------------------------------|
D|---------------------------------------------------------------------|
A|---------------------------------------------------------------------|
E|---------------------------------------------------------------------|

E|--17----20p17------------------------------------------------|
B|-------------------------------------------------------------|
G|---------------------10--------------10--------10----b-------|
D|----------------------------------------------------------12-|
A|-------------------------------------------------------------|
E|-------------------------------------------------------------|

E|-----------------------------------------------------------------------|
B|---------------------10----10--x--x------------------------------------|
G|----------x----------10----10--x--x--------------x----------------10/h-|
D|----------x----12----------------------12--------x----10----10----12/h-|
A|-----------------------------------------------------------------------|
E|-----------------------------------------------------------------------|

E|-----------------------------------------------------------------|
B|--------13------12--------12----------\--10----------------------|
G|--12----12------12--------12----------\--10--------------x-------|
D|--14----14-----------------------------------------------x----12-|
A|-----------------------------------------------------------------|
E|-----------------------------------------------------------------|

E|-------------------------------------------------------------------|
B|--10--10--x--x------------------x------x--x------------------------|
G|--10--10--x--x------------------x------x--x------------------------|
D|--------------------12---------------------------------------------|
A|-----------------------------------------------10----8p10--10----x-|
E|-------------------------------------------------------------------|

E|----------|
B|----------|
G|----------|
D|----------|
A|----8-----|
E|-------10-|
Вверх

Another Brick In The Wall Part 2

Words:

Dm(v)
We  don`t   need   no   education,

Dm(v)
We  don`t  need no thought control,

Dm(v)
No dark sarcasm in the classroom.

Dm(v)                          G
Teacher leave them kids alone.

G
Hey, Teacher!  Leave them kids alone.

F                        C                       Dm(v)
All in all it`s just an - other brick in the wall.


F                         C                       Dm(v)
All in all it`s just an - other brick in the wall.

Play 2 times



Fill #1:

Dm(x)     C(vii) Dm(x)        Dm(v)       Am       G     F
  /       /      /   //       /   /       / / /    /     /

Fill #2:

Dm(v)     Am       G    F
/   /     / / /    /    /

Solo:

The guitar solo is played over the same bass line as the verse,
but the keyboards hold down some different chords which are
fairly subtle but really add to the feel of the piece.

NB: This solo by David Gilmour is quite modular in its structure
so I haven`t really arranged it in bars, rather it`s just the
tab of the phrases played.

|-------------------------10-------------------------------|
|-13-p-10----10--------10----13b(15)--------------10-10-10-|
|---------12----12b(14)---------------------------10-10-10-|
|----------------------------------------------------------|
|----------------------------------------------------------|
|----------------------------------------------------------|

|--------------------------------------------|
|-13--b(15)-b(17)-rb(13)-------13-p-10----10-|
|--------------------------------------12----|
|--------------------------------------------|
|--------------------------------------------|
|--------------------------------------------|

|---------------------------|
|---------------------------|
|-10--9 ---9---------12-----|
|--------12---10-/-12----12-|
|---------------------------|
|---------------------------|

|-------------------------------------------------|
|--10----------10--10------10--10------10--12--10-|
|--10----------10--10------10--10------10--12--10-|
|-----12--12-----------12----------12-------------|
|-------------------------------------------------|
|-------------------------------------------------|

|-------13b(15)-13-13----------------------------------|
|-----x------------------13b(15)b(17)b(18)-rb(15)b(17)-|
|---x--------------------------------------------------|
|-x----------------------------------------------------|
|------------------------------------------------------|
|------------------------------------------------------|
                                                       cont..
|-------10--------------------------------------------------|
|----10----13p10--------------------------------------------|
|-12-------------12--b(14)rb(12)-p-10---12-p-10-------10----|
|-----------------------------------------------12-------12-|
|-----------------------------------------------------------|
|-----------------------------------------------------------|

|-------------------------------------------------------|
|-------------------------------------------------------|
|--12--10-----------------------------------------------|
|--12--10-----------------------------------------------|
|----------12--10---10--8--------------------8----------|
|--------------------------10p8-----10--10-----10p8--10-|

|------------------------------------------------------|
|-----------------5h6p5--------------------------6b(8)-|
|---------5--7---------7---7-p-5------5--5--7p5--------|
|----/7--------------------------7---------------------|
|------------------------------------------------------|
|------------------------------------------------------|

|-------------------------------------15b(17)-13----|
|--13b(15)---13b(15)b(17)rb(13)------------------15-|
|---------------------------------------------------|
|---------------------------------------------------|
|---------------------------------------------------|
|---------------------------------------------------|

|-----13-----15b(17)rb(15)b(17)rb(15)b(17)rb(15)----15b(17)--
|-/15----15-------------------------------------15---------15
|------------------------------------------------------------
|------------------------------------------------------------
|------------------------------------------------------------
|------------------------------------------------------------

|--18b(20)--(20)---20b(22)---20-p-17---20-p-17-|
|----------------------------------------------|
|----------------------------------------------|
|----------------------------------------------|
|----------------------------------------------|
|----------------------------------------------|

|--------------------------------------------------------|
|-------------------------------------------12--12---10--|
|-10--10--10----------------------12--10----12--12---10--|
|-------------12------------------12--10------------(10)-|
|----------------------10-10-10--------------------------|
|--------------------------------------------------------|

|------------------------------------------------------|
|--x--x--10--------------------------------------------|
|--x--x--10---x--x-------------------------------------|
|-------------------12---------------------------------|
|---------------------------------10---8---10---8------|
|---------------------------------------------------10-|

Keyboard:

NB: the chords are held down - the beats shown are just to
establish timing.


 | Dm /  /  /  | /  /  /  C |   x8

 | G  /  /  /  | /  /  /  / | Dm /  /  /  | /  /  /  /| x2

 | C  /  /  /  | /  /  /  / |

 | Bb /  /  /  | /  /  /  / |

 | C  /  /  /  | /  /  /  / |

 | no chord    ||end of solo
Вверх

Another Brick In The Wall Part 3

 Dm                               Dm7
 I don`t need no arms around me
 Dm                                Dm7
 I don`t need no drugs to calm me
 Dm
 I have seen the writing on the wall
 Dm                             G
 Don`t think I need anything at all
                                   Dm
 No don`t think I need anything at all
 F                 C                      Dm
 All in all it was all just bricks in the wall
 F                   C                      Dm
 All in all you were all just bricks in the wall
Вверх

Any Colour You Like mp3

  0:00
G|-------------5h7-|--------------------|-------7-|
D|-----------------|-------5--------5h7-|---------|
A|-5---------------|--------------------|-5-------|
E|-----------------|-3------------------|---------|

G|-------------------|-------7--------5h7-|--------------------|
D|------5------------|--------------------|-------5--------5h7-|
A|-----------------2-|-5------------------|--------------------|
E|-3------------3----|--------------------|-3------------------|

G|-------7--------7----|---------------------|-------7-|
D|-------------------7-|-------5-----------5-|---------|
A|-5-------------------|---------------------|-5-------|
E|---------------------|-3-----------3--3----|---------|

G|-5h7-|--------------------------|-------7-----------7-|
D|-----|-------5------------------|---------------------|
A|-----|----------------------2h3-|-5--------------5----|
E|-----|-3-----------3--3--3------|---------------------|

G|----------------------------|--------7-----------7-|---------|
D|-------5-----5--------------|----------------------|-------5-|
A|----------------5--------2--|--5-----------5-------|---------|
E|-3--------------------3-----|----------------------|-3-------|

G|---------|-------7-----------7--|----------------------------|
D|-5-----7-|----------------------|--------5-----5-------------|
A|---------|-5-----------5--------|-----------------------2--3-|
E|---------|----------------------|--3--------------3----------|

G|-------7-------7-|----------------------|-------7--------5h7-|
D|-----------------|-------5-----5h7p5h7--|--------------------|
A|-5----------5----|----------------------|--5-----------------|
E|-----------------|-3--------------------|--------------------|

G|----------------------------|--------7------------|----------|
D|-------5--------------------|---------------------|--------5-|
A|-------------5--------2--3--|--5------------------|----------|
E|-3--------------3-----------|---------------------|--3-------|

G|------------|-------7--------7----|--------------------------|
D|--------5/7-|-------------------7-|-------5--------------5/7-|
A|----5-------|-5-------------------|-------------------5------|
E|-3----------|---------------------|-3-----------3------------|

  1:19
G|-------7----|-------------------------|--------7-------------|
D|------------|--------5--------5h7-----|--------------------6-|
A|-5----------|-------------------------|--5-------------------|
E|------------|--3----------------------|----------------------|

G|--------------------|-------7-----|---------------------|----|
D|-5-----5--------5h7-|-------------|--------5-----(5)h7--|----|
A|--------------------|-5-----------|---------------------|--5-|
E|--------------------|-------------|--3------------------|----|

G|-7-|-------------------------|--------7-----------|----------|
D|---|--------5--------5h7-----|--------------------|--------5-|
A|---|-------------------------|--5-----------------|----------|
E|---|--3----------------------|--------------------|--3-------|

                                           1:58
G|-------7-----------|---------------------|--------7--------7-|
D|-------------------|--------5-----5h6h7--|--------------7----|
A|-5-----------------|---------------------|--5----------------|
E|-------------------|--3------------------|-------------------|

G|------------------|-------7-----5h7-|------------------------|
D|-------5-------/12|-----------------|--------5----------5--7-|
A|------------------|-5---------------|------------------------|
E|-3----------------|-----------------|--3-----------3---------|

G|-------7-------------7----|-----------------------|--------7-|
D|------------------------7-|-------5---------------|----------|
A|-5-----------3/5----------|----------------2--3---|--5-------|
E|--------------------------|-3-----------3---------|----------|

G|-------------7-|-----------------------|--------7--------5h7-|
D|-7--------7----|-------5-----------5/7-|---------------------|
A|----5----------|-----------------------|--5------------------|
E|---------------|-3-----------3--3------|---------------------|

G|---------------------|-------7--------5h7-|--------------/12-|
D|-------5--------5--7-|--------------------|-------5----------|
A|---------------------|-5------------------|------------------|
E|-3-------------------|--------------------|-3----------------|

G|-12-----10p9-|-------7--------5h7--|-------------------------|
D|-------------|---------------------|--------5----------------|
A|-------------|-5-------------------|--------------------2--3-|
E|-------------|---------------------|--3--------------3-------|

G|-------7------(5)h7-----(5)h7-|--------------------|-------7-|
D|------------------------------|-------5------------|---------|
A|-5----------------------------|---------------3--4-|-5-------|
E|------------------------------|-3----------3-------|---------|

G|-5h7-|--------------------|-------7--------------7-|---------|
D|-----|-------5--------5h7-|------------------------|-5-------|
A|-----|--------------------|-5--------------5-------|-------5-|
E|-----|-3------------------|------------------------|---------|

              3:00
G|-------------|-------7---------7-|-----------------------|---|
D|-------------|-------------------|-------5-----------5/7-|---|
A|-----2-----3-|-5---------5--5----|-----------------------|-5-|
E|-3-----------|-------------------|-3-----------3--3------|---|

G|-7--------5h7-|---------------------|-------3-----------3-|
D|--------------|-------5-----------5-|---------------------|
A|--------------|---------------------|-1-----------1--1----|
E|--------------|-3-----------3--3----|---------------------|

G|-------------14--14-|-------8-----------8--8-|---------------|
D|--------------------|------------------------|---------------|
A|-0------------------|-6-----------6----------|-8-----------3-|
E|--------------------|------------------------|---------------|

          Segue into "Brain Damage"
G|---------|-----------------|
D|---------|-----------------|
A|---4-----|--5--------------|
E|---------|-----------------|
Вверх

A pillow of winds mp3

E(addF#)  F#m/E  Emaj7

F#m/E                                      B(addE) Emaj7
A cloud of eiderdown draws around me softening the sound.
      Bm/E
Sleepy time when I lie with my love by my side, and she's breathing low.
          E(addF#)
And the candle dies.
E(addF#)
When night comes down, you lock the door.

The book falls to the floor.
As darkness falls and waves roll by, the seasons change.
The wind is warm.
Now wakes the owl. Now sleeps the swan.
Behold a dream, the dream is gone.
Green fields, a cold rain is falling in a golden dawn.

F#m/E                                                    B(addE)    Emaj7
And deep beneath the ground the early morning sounds and I______ go down.
        Bm/E
Sleeping time when I lie with my love by my side and she's breathing low.

And I rise like a bird in the haze when the first rays touch the sky.
        E(addF#)           F#m/E  Emaj7  Bm/E
And the night winds die.
Вверх

Arnold Layne

           Bb              Fm6  G      F#
Arnold Layne    had a strange   hobby
F7                    Bb          Ab      Eb     F
   collecting clothes moon shine washing line
       Eb  Db        Bb
they suit him fine
                        Fm6   G        F#
on the wall   hung a tall    mirror
F7                  Bb           Ab   Eb       F
   distorted view   see through  baby blue
   Eb
he dug it
Ab  Eb     Bb    Db   Ab      Eb
Oh  Arnold Layne it?s not the same
Db    Ab     Eb     F             Ab       Ab7
takes two to know   two to know   two to know
                  Eb  Ab  F  Bb
why can?t you see
(Bb)                          (sus4)  Bb
Arnold Layne   Arnold Layne   Arnold Layne Arnold Layne
Bb                           Fm6     G       F#
  now he?s caught a nasty sort    of person
F7                      Bb            Ab      Eb      F
   they gave him time   doors clang   chain   gang
   Eb    Db       Bb     Ab         F       Bb
he hates it       Arnold Layne dont do it again
Вверх

A Saucerful of Secrets (Celestial Voices)

Bm  A  E  F#  D  G  E  A  F#

Bm  G  F#  Em  D  F#

Bm  A  E  F#  D  G  E  A  F#

Bm  G  F#  E  D  F#

Bm  A  E  F#  D  G  E  A  F#

Bm  G  F#  Em  D  F#

B  A  E  F#  D  G  E  A  F#

Bm  G  F#  Em  D  F#

B
Вверх

Astronomy Domine

E5
Lime and limpid green, a second scene,
                              Eb5
a fight between the blue you once knew.
G5
Floating down, the sound resounds around
                     A5/A7
the icy waters underground.
E6                F E6                    Eb5    G5
Jupiter and Saturn, Oberon, Miranda and Titania, Neptune, Titan,
                G#5
Stars can frighten.

Соло:

A  Ab  G  F# F  E  Eb D
A  Ab  G  F# F  E  Eb D
D5 Eb5 E5 A5
E  Eb  G  A  E  Eb G  A
E  F   E  Eb G  A  Eb G A
E  Eb  G  A  E  Eb G
A  Ab  G  F# F  E  Eb D
A  Ab  G  F# F  E  Eb D
D5 Eb5 E5 A5

E7
Blinding signs flap,

Flicker, flicker, flicker blam.
Eb
Pow, pow.
G5                               G#5
Stairway Scare Dan Dare who?s there?

A  Ab  G  F#

D               F                  D             F
Lime and limpid green, the sounds around the icy waters under,
D               Dm                 D
Lime and limpid green, the sounds around the
     Dm          Dsus4
icy waters underground.
Вверх

Astronomy Domine (2 вариант)

INTRO:
Vamp till drums
    E                E           E Eb/E  Eb/E
E--------------------7-----------7-6--6---------------------------
B--------------------9-----------9-8--8---------------------------
G------------------:-9-----------9-8--8--------------------------:
D--------------------9-----------9-8--8---------------------------
A--------------------7-----------7-6--6---------------------------
E--0-0-0-0-0-0-0-0---0-----5b7r0-0-0--0---------------------------
   crescendo         Hit hard, then strum last chord a bit softer

VERSE:

E (play as standard E)
Lime and limpid green a second scene the fight between the blue you
Eb (play as A barre on 6)
once knew.

(All other chords play as A and E form barres)
G                                                            A
Floating down the sound resounds around the icey waters underground
E                                             Eb
Jupiter and Saturn, Oberon, Miranda, and Titania
G                               G#
Neptune, Titan, stars can frighten

-12-12-12-11-11-11-10-10-10-9-9-9-8-8-8-7-7-7-6-6-6-5-5-5-----------------
-10-10-10--9--9--9--8--8--8-7-7-7-6-6-6-5-5-5-4-4-4-3-3-3-----------------
--------------------------------------------------------------------------
--------------------------------------------------------------------------
--------------------------------------------------------------------------
--------------------------------------------------------------------------

-10-10-----9-9---8-8---7-7---6-6---5-5---4-4---3-3------------------------
-10----10--9---9-8---8-7---7-6---6-5---5-4---4-3---3----------------------
-11-------10-----9-----8-----7-----6-----5-----4--------------------------
--------------------------------------------------------------------------
--------------------------------------------------------------------------
--------------------------------------------------------------------------

-2--------2--------3--------3------3-\----0-------------------------------
-3--3---3---3---3--4--4---4---4----4-\----0-------------------------------
-2----2-------2----3----3-------3--3-\----1-------------------------------
-0-----------------1---------------1-\----2-------------------------------
------------------------------------------2-------------------------------
------------------------------------------0-------------------------------

(play following chords as E form barres falling from fret 12)
E     Eb    D     C#    C     B     Bb    A
Aaah  Aaah  Aaah  Aaah  Aaah  Aaah  Aaah  Aaah
(and again as A form barres falling from 12)
A     G#    G     F#    F     E     Eb    D
Aaah  Aaah  Aaah  Aaah  Aaah  Aaah  Aaah  Aaah

D  Eb  E

SOLO:(with slight distortion, heavy delay)

   E
E--12-12-12-12-12-12-12-12-12-12-12-12-12-12-12-12-
B--------------------------------------------------
G--------------------------------------------------
D--------------------------------------------------
A--------------------------------------------------
E--------------------------------------------------

    Eb
E--11-11-11-11-11-11-11-11-11-11-11-11-11-11-11-11-
B--------------------------------------------------
G--------------------------------------------------
D--------------------------------------------------
A--------------------------------------------------
E--------------------------------------------------

   G                                   A
E--3-3sl10-10-10sl3-3-3sl10-10-10sl5--5-----------------
B---------------------------------------5---------------
G-----------------------------------------7b8-----------
D---------------------------------------------7~~~~~----
A-------------------------------------------------------
E-------------------------------------------------------

Follow same progression as verses.
Repeat chord sequence twice and go into second verse.

Second verse :
(Same progression)
Blinding signs flap
Flicker flicker flicker flam
Pow  Wow
Stairway scare Dan
Dare who's there

Aaah Aaah Aaah Aaah Aaah Aaah Aaah Aaah
Aaah Aaah Aaah Aaah Aaah Aaah Aaah Aaah

(ritard)
E
Lime and limpid green the sound resounds the icey waters under
E
Lime and limpid green the sound resounds the icey waters underground.
Вверх

Atom Heart Mother

Father`s Shout

G|--------------------------|-----------------------|----------------|
D|--------------------------|-----------------------|----------------|
A|--------------------------|-----3--1-----------3--|----------------|
E|--0-----0-----3-----3-----|--1--------3--0--0-----|--0-----0-----3-|

G|-----|-----------------------|--------------------------|----------|
D|-----|-----------------------|--------------------------|----------|
A|-----|-----3--1-----------3--|--------------------------|--------2-|
E|--3--|--1--------3--0--0-----|--0-----0-----3-----3-----|--5--5----|

------|-----------------------|--------------------------|----------|
------|-----------------------|--------------------------|----------|
2--2--|-----------------------|--------------------------|----------|
------|--0-----0-----3-----3--|--1-----1-----1-----1-----|--1-----1-|

                               Sounds, motorcycle

G|--------------|-----------||-----------------------------||----|
D|--------------|-----------||-----------------------------||----|
A|--------------|-----------||-----------------------------||----|
E|--1-----1-----|--0--------||-----------------------------||--0-|

------------------|-----------------------|----------------------|
------------------|-----------------------|----------------------|
------------------|-----3--1-----------3--|----------------------|
0-----3-----3-----|--1--------3--0--0-----|--0-----0-----3-----3-|

---------------------|--------------------------|----------------|
---------------------|--------------------------|----------------|
---3--1-----------3--|--------------------------|--------2--2--2-|
1--------3--0--0-----|--0-----0-----3-----3-----|--5--5----------|

---------------------|--------------------------|----------------|
---------------------|--------------------------|----------------|
---------------------|--------------------------|----------------|
0-----0-----3-----3--|--1-----1-----1-----1-----|--1-----1-----1-|

                   Breast Milky (2:52)

---|-----------||----------------16--12------16--12------|-----|
---|-----------||--14-----14-------------14----------14--|--14-|
---|-----------||----------------------------------------|-----|
1--|--0--------||----------------------------------------|-----|

-------16--12------16--12------|------------16--12------16--12-----|
14-------------14----------14--|--14----------------14----------14-|
-------------------------------|-----------------------------------|
-------------------------------|-----------------------------------|

G|------------------------------------|-----------------------------|
D|------------14--10------14--10------|------------12--9------12--9-|
A|--12----------------12----------12--|--10---------------10--------|
E|------------------------------------|-----------------------------|

----|------------------------------------|--------------------------|
----|------------16--12------16--12------|------------13--9------13-|
10--|--14----------------14----------14--|--11---------------11-----|
----|------------------------------------|--------------------------|

-------|------------------------------------|----------------|-----|
9------|------------15--12------15--12------|----------------|--12-|
---11--|--13----------------13----------13--|--11-----11-----|-----|
-------|------------------------------------|----------------|-----|

G|--------------------|-------------------------------|-----|
D|--12-----14-----14--|--14--------14--14--14-----14--|-----|
A|--------------------|-------------------------------|--12-|
E|--------------------|-------------------------------|-----|

G|-------------------------------|---------------|-------------------|
D|-------------------------------|---------------|-------------------|
A|--10--------10--10--10-----10--|--14-----------|--11--------11--11-|
E|-------------------------------|---------------|-------------------|

-----------|---------------|----------------|---------------------|
-----------|---------------|----------------|---------------------|
11-----11--|--13-----------|----------------|--12--12--14--14--14-|
-----------|---------------|--11-----11-----|---------------------|

guitar comes in

----------------------|---------------------|--------------------|
----------14--14--14--|---------------------|--------------------|
----------------------|--12-----12--12--12--|--10-----10--10--10-|
12--------------------|---------------------|--------------------|

--------------------------|---------------------|--------------------|
-------16--12-------------|---------------------|--------------------|
14-------------14--8--10--|--11-----11--11--11--|--13-----13--13--13-|
--------------------------|---------------------|--------------------|

----|----------------------------|---------------------|-------------|
----|----------------------------|---------------------|-------------|
13--|----------------------------|--12-----12--12--12--|--14--14--14-|
----|--11-----11--11-----11--11--|---------------------|-------------|

----||--------------------------|---------------------|------------|
----||------14----------14--14--|---------------------|------------|
14--||--------------------------|--12-----12--12--12--|--10-----10-|
----||--12------12--12----------|---------------------|------------|

--------|---------------------|-----------------|--------------------|
--------|---------------------|------13--9------|--------------------|
10--10--|--14-----14--14--14--|--11---------11--|--13-----13--13--13-|
--------|---------------------|-----------------|--------------------|

G|----------------------------|------------------------------||-----|
D|----------------------------|------------------------------||-----|
A|----------------------------|--12-----12-----14-----14-----||-----|
E|--11-----11--11-----11--11--|------------------------------||--12-|

G|--------------|----------------|-----------------|----------------|
D|--------------|----------------|-----------------|----------------|
A|--------------|--12--------12--|--10-----10--10--|--14-----14--14-|
E|--12--12--12--|----------------|-----------------|----------------|

----|------------------------|-----------------------------|-----|
----|------------------------|-----------------------------|-----|
14--|--11-----11--11-----11--|--13--13-----13--13--13--13--|-----|
----|------------------------|-----------------------------|--11-|

-------------------|------------------------------|
-------------------|------------------------------|
-------------------|--12-----12-----14-----14--14-|
11--11-----11--11--|------------------------------|

Mother Fore (5:23)      4x                                   18x

G||----------------------||--------------||---9---------------||----|
D||*--------------------*||--------------||*-----------------*||----|
A||*--7-----------------*||--------------||*--------------7--*||--0-|
E||----------------------||--------------||---------0---------||----|

G|-----------|-----------------|-----------|-----------|-------------|
D|-----------|-----------------|-----------|-----------|-------------|
A|--0--0--0--|--0-----0--0--0--|--7-----7--|--7-----7--|--0-----0--0-|
E|-----------|-----------------|-----0-----|-----0-----|-------------|

                  12x

---||-------------||-----------------|-----------------|----------|
---||*-----------*||-----------------|-----------------|----------|
0--||*--7-----7--*||--0-----0--0--0--|--0-----0--0--0--|--7-----7-|
---||------0------||-----------------|-----------------|-----0----|

                                                            18x

---------|-----------------|-----------------||-------------||----|
---------|-----------------|-----------------||*-----------*||----|
7-----7--|--0-----0--0--0--|--0-----0--0--0--||*--7-----7--*||--0-|
---0-----|-----------------|-----------------||------0------||----|

---------|-----------------|--------------------------|-------------|
---------|-----------------|--------------------------|-------------|
0--0--0--|--0-----0--0--0--|--7-----7-----7--7--7--7--|--0-----0--0-|
---------|-----------------|-----0--------------------|-------------|

---|-----------------|--------------------------|----------------|
---|-----------------|--------------------------|----------------|
0--|--0-----0--0--0--|--7-----7-----7--7--7--7--|--0-----0--0--0-|
---|-----------------|-----0--------------------|----------------|

---------------|--9--------9--------9--------9-------|
---------------|-------------------------------------|
0-----0--0--0--|--------7--------7--------7--------7-|
---------------|-----0--------0--------0--------0----|

Funky Dung (10:12)

------------|--------------|----------12-----12--12--12--12--10-----|
14----------|--14----------|--14---------------------------------12-|
------------|--------------|------10--------------------------------|
----14--12--|------14--12--|----------------------------------------|

                                             6x

G||-----------12-----12--12--12--12--10-------||----------12--------|
D||*-------------------------------------12--*||-----------------12-|
A||*--10--10---------------------------------*||--10--10------------|
E||-------------------------------------------||--------------------|

10------12------|----------12-----12--10----------||-----------12-|
----12------12--|-------------------------12--12--||*-------------|
----------------|--10--10-------------------------||*--10--10-----|
----------------|---------------------------------||--------------|

                         14x

12--12--12--12--10-------||----------12------10------10------10h12-|
--------------------12--*||--------------12------12------12--------|
------------------------*||--10--10--------------------------------|
-------------------------||----------------------------------------|

G|----------12-----12--12--12--12--10------|----------12-----12--12-|
D|-------------------------------------12--|------------------------|
A|--10--10---------------------------------|--10--10----------------|
E|-----------------------------------------|------------------------|

--------||-----------12-----12--12--12--12--10-------||----------12-|
12--12--||*-------------------------------------12--*||-------------|
--------||*--10--10---------------------------------*||--10--10-----|
--------||-------------------------------------------||-------------|

G|------10------10------10h12--|----------12---------12--||----------|
D|--12------12------12---------|-----------------10------||*---------|
A|-----------------------------|--10--10-----------------||*--10--10-|
E|-----------------------------|-------------------------||----------|

                                8x

12-----12--12--12--12--10-------||----------12---------10------10-|
---------------------------12--*||-----------------12------12-----|
-------------------------------*||--10--10------------------------|
--------------------------------||--------------------------------|

----10h12--|---------12-----|------12-----12--12--12--12--10-----|
12---------|----------------|---------------------------------12-|
-----------|--10------------|--10--------------------------------|
-----------|----------------|------------------------------------|

                                 4x

G||-----------12-----12--10-------||----------12-----10h12------|-----|
D||*-------------------------12--*||------------------------12--|-----|
A||*--10--10---------------------*||--10--10--------------------|--10-|
E||-------------------------------||----------------------------|-----|

----12------10------10h12--|----------12-----12--12--12--12--10-----|
--------12------12---------|-------------------------------------12-|
10-------------------------|--10--10--------------------------------|
---------------------------|----------------------------------------|

G|----------12------10------10------10h12--|----------12-----12--10-|
D|--------------12------12------12---------|------------------------|
A|--10--10---------------------------------|--10--10----------------|
E|-----------------------------------------|------------------------|

----12--10------|----------12---------10------10------10h12-|
12----------12--|-----------------12------12------12--------|
----------------|--10--10-----------------------------------|
----------------|-------------------------------------------|

singing starts

--------12-----12--12----------|----------12-----12--10------12-|
-----------------------12--12--|-------------------------12-----|
10--10-------------------------|--12--12------------------------|
-------------------------------|--------------------------------|

--------12-----12--12--12--12--10------||-----------12-----12--10-|
-----------------------------------12--||*------------------------|
10--10---------------------------------||*--10--10----------------|
---------------------------------------||-------------------------|

     6x

-----||----------12------10------10------10h12--|----------12-----12-|
12--*||--------------12------12------12---------|--------------------|
----*||--10--10---------------------------------|--10--10------------|
-----||-----------------------------------------|--------------------|

                                             3x

10----------||-----------12-----12--10-------||----------12-----12-|
----12--12--||*-------------------------12--*||--------------------|
------------||*--10--10---------------------*||--10--10------------|
------------||-------------------------------||--------------------|

12--10----------|----------12------10------10------10h12--||------|
--------12--12--|--------------12------12------12---------||*-----|
----------------|--10--10---------------------------------||*--10-|
----------------|-----------------------------------------||------|

                                    5x

----12-----12--12--12--12--10-------||----------12--------|-------|
-------------------------------12--*||--------------------|-------|
10---------------------------------*||--10--10------------|--8--8-|
------------------------------------||--------------------|-------|

                                         8x

10--------|--------10--------||----------||----------------------|
----------|------------------||*--------*||----------------------|
----------|--8--8------------||*--7-----*||----------------------|
----------|------------------||----------||--0-----0-----3-----3-|

G|-----------------------|-----------------------|-------------------|
D|-----------------------|-----------------------|-------------------|
A|-----3--1-----------3--|-----------------------|-----3--1----------|
E|--1--------3--0--0-----|--0-----0-----3-----3--|--1--------3--0--0-|

---|--------------------------|-----------------|----------------|
---|--------------------------|-----------------|----------------|
3--|--------------------------|--------2--2--2--|----------------|
---|--0-----0-----3-----3-----|--5--5-----------|--0-----0-----3-|

---|--------------------------|--------------------------|----|
---|--------------------------|--------------------------|----|
---|--------------------------|--------------------------|----|
3--|--1-----1-----1-----1-----|--1-----1-----1-----1-----|--0-|

       Mind Your Throats Please (15:28)

G|---|
D|---|
A|---|
E|---|

Remergence (19:13)

G|--------------------------|-----------------------|----------------|
D|--------------------------|-----------------------|----------------|
A|--------------------------|-----3--1-----------3--|----------------|
E|--0-----0-----3-----3-----|--1--------3--0--0-----|--0-----0-----3-|

G|-----|-----------------------|--------------------------|----------|
D|-----|-----------------------|--------------------------|----------|
A|-----|-----3--1-----------3--|--------------------------|--------2-|
E|--3--|--1--------3--0--0-----|--0-----0-----3-----3-----|--5--5----|

------|-----------------------|--------------------------|----------|
------|-----------------------|--------------------------|----------|
2--2--|-----------------------|--------------------------|----------|
------|--0-----0-----3-----3--|--1-----1-----1-----1-----|--1-----1-|

G|--------------|--------------||----------------16--12------16--12-|
D|--------------|--------------||--14-----14-------------14---------|
A|--------------|--------------||-----------------------------------|
E|--1-----1-----|--0-----------||-----------------------------------|

----|----------------16--12------16--12------|------------16--12-----|
14--|--14-----14-------------14----------14--|--14----------------14-|
----|----------------------------------------|-----------------------|
----|----------------------------------------|-----------------------|

16--12------|------------------------------------|------------------|
--------14--|------------14--10------14--10------|------------12--9-|
------------|--12----------------12----------12--|--10--------------|
------------|------------------------------------|------------------|

---------------|------------------------------------|---------------|
----12--9------|------------16--12------16--12------|------------13-|
10---------10--|--14----------------14----------14--|--11-----------|
---------------|------------------------------------|---------------|

------------------|------------------------------------|------------|
9------13--9------|------------15--12------15--12------|------------|
---11---------11--|--13----------------13----------13--|--11-----11-|
------------------|------------------------------------|------------|

G|--|---------------------------|-------------------------------||--|
D|--|--12-----12-----14-----14--|--14--------14--14--14-----14--||*-|
A|--|---------------------------|-------------------------------||*-|
E|--|---------------------------|-------------------------------||--|

(with slight variations)

------------------------|---------------------|--------------------|
----14----------14--14--|---------------------|--------------------|
------------------------|--12-----12--12--12--|--10-----10--10--10-|
12------12--12----------|---------------------|--------------------|

G|---------------------|-----------------|---------------------|-----|
D|---------------------|------13--9------|---------------------|-----|
A|--14-----14--14--14--|--11---------11--|--13-----13--13--13--|-----|
E|---------------------|-----------------|---------------------|--11-|

                                                      4x

G|---------------------|-------------------------------||----------|
D|---------------------|------------------------------*||----------|
A|---------------------|--12-----12-----14-----14-----*||----------|
E|--11--11-----11--11--|-------------------------------||--0-----0-|

------------|-----------------------|-----------------------|-------|
------------|-----------------------|-----------------------|-------|
------------|-----3--1-----------3--|-----------------------|-----3-|
3-----3-----|--1--------3--0--0-----|--0-----0-----3-----3--|--1----|

---------------|--------------------------|-----------------|----|
---------------|--------------------------|-----------------|----|
1-----------3--|--------------------------|--------2--2--2--|----|
---3--0--0-----|--0-----0-----3-----3-----|--5--5-----------|--0-|

---------------|--------------------------|----------------------|
---------------|--------------------------|----------------------|
---------------|--------------------------|----------------------|
0-----3-----3--|--1-----1-----1-----1-----|--1-----1-----1-----1-|

G|--------------------------|-----------------------|----------------|
D|--------------------------|-----------------------|----------------|
A|--------------------------|-----3--1-----------3--|----------------|
E|--0-----0-----3-----3-----|--1--------3--0--0-----|--0-----0-----3-|

G|-----|-----------------------|--------------------------|----------|
D|-----|-----------------------|--------------------------|----------|
A|-----|-----3--1-----------3--|--------------------------|--------2-|
E|--3--|--1--------3--0--0-----|--0-----0-----3-----3-----|--5--5----|

------|-----------------------|--------------------------|----------|
------|-----------------------|--------------------------|----------|
2--2--|-----------------------|--------------------------|----------|
------|--0-----0-----3-----3--|--1-----1-----1-----1-----|--1-----1-|

                                    (23:42)-end

G|--------------|--|----|
D|--------------|--|----|
A|--------------|--|--7-|
E|--1-----1-----|--|----|
Вверх

Atom Heart Mother (2 вариант)

Em (with something like [Em, G, Bm, D, Em](?) sometimes)

Em, G, F, C;  Em, G, F, C  (main theme)
Em, G, A, B;  Em, G, F, F
(chromatic between E and C with horses and motorcycle effects)
Em, G, F, C;  Em, G, F, C  (main theme)
Em, G, A, B;  Em, G, F, F


b. Breast Milky
----------------
Em
(Em, Am, G, Bm;  Abm, Bb, Eb, [Am, B]) x2: organ & Viola
(Em, Am, G, Bm;  Abm, Bb, Eb, [Am, B]) x3: slide guitar solos
[*]

*: Dave Ward put a Bdim in place of G in those themes, I
   definitly not   agree as organ arpegians are pretty clear,
   but I'm nobody's boss...

c. Mother Fore
---------------
(Em, Em, Em, Am) x4: Inst

(Em, Em, Em, [Am, Asus4]) x16 enter falsetto "ooh" vocals
(Am (D/A), Am7 (D/A)) x2
Em, Em, Em, Am, Em, Em, Em, Em
(Am (D/A), Am7 (D/A)) x2

(Em, Em, Em, [Am, Asus4]) x10
(Am (D/A), Am7 (D/A)) x2
Em, Em, Em, Am, Em, Em, Em, Em
(Am (D/A), Am7 (D/A)) x2

(Em, Em, Em, Am) x18: enters second choir
(Am (D/A), Am7 (D/A)) x2 enter full drums
Em, Em, Em, Am, Em, Em, Em, Em
(Am (D/A), Am7 (D/A)) x2
Em, Em, Em, Am, Em, Em, Em, Em
(Am (D/A), Am7 (D/A)) x2
Em, Em, Em, Am, Em, Em, Em, Em
(Am (D/A), Am7 (D/A)) x2
(Em, Em, Em, Am) x3
Em, Em, Em, Em

F#m

d. Funky Dung
--------------
(Gm, C)  x 4      (funky section, a la Any Colour You Like)
(Gm, C)  x 16     guitar solo
(Gm, C)  x 8      keyboard solo
(Gm, C)  x 10     choir reenters (emphasis only on beat 2)

G, G, F, F, C, C, B7, B7
Em, G, F, C;  Em, G, F, C  (main theme)
Em, G, A, B;  Em, G, F, F

e. Mind Your Throats Please
----------------------------
hypnotic organ
siren sound-alike orchestra
Spoken words: "Here is a loud announcement"
KaBoom
phone

f. Remergence
--------------
previous parts mixed, please don't ask me.

Spoken words: "Silence in the studio!"
Em, G, F, C;  Em, G, F, C  (main theme)
Em, G, A, B;  Em, G, F, F
Em
(Em, Am, G, Bm;  Abm, Bb, Eb, [Am, B]) x2 organ & viola
(Em, Am, G, Bm;  Abm, Bb, Eb, [Am, B]) x3 slide guitar solos

Em, G, F, C;  Em, G, F, C  (main theme With vocals)
Em, G, A, B;  Em, G, [F#, G, Em, Bb;  B, B/F#, B, B/F#]:
fast changes
22

Em, G, F, C;  Em, G, F, C  (main theme)
Em, G, A, B;  Em, G, F, F
F (ad lib coda)
Вверх

Biding my time

e--8----8---8-----8s13-13-12-12-11-11-10-10s\--
B--9-------------------------------------------
G--10------------------------------------------  REPEAT
D--10------------------------------------------
A----------------------------------------------
E----------------------------------------------

e--------------------------------------------
B-----------8--9-8---------------------------
G--------------8-7----7-8--7-8--7-8--7-8-----
D----------9*--9-8----6-7--6-7--6-7--6-7-----
A--8-9-10*------------7-8--7-8--7-8--7-8-----
E--------------------------------------------
         *Let ring


LYRICS:

Wasting my time, resting my mind
And I'll never pine
For the sad days and the bad days
When we was workin' from nine to five
And if you don't mind
I'll spend my time
Here by the fire side
In the warm light of her eyes
And if you don't mind
I'll spend my time
Here by the fire side
In the warm light of her eyes
Вверх

Brain Damage mp3

D
E|-2--------------2------|
B|-3------3--------------|<-- unless otherwise stated, use this
G|-2----------2----------|	pattern for all D chords.
D|-0---0---------------0-|
A|-----------------------|
E|-----------------------|

G7/D
E|-1--------------1------|
B|-0------0--------------|
G|-0---------0-----------|
D|-----0---------------0-|
A|-----------------------|
E|-----------------------|

E/D
E|-4-----------4----|
B|-5-----5----------|
G|-4--------4-------|
D|-0--0-----------0-|
A|------------------|
E|------------------|

   A7
E|-3-------------|
B|-2--------2----|
G|-2--2--2-----2-|
D|-2-------------|
A|-0-------------|
E|---------------|

Dsus2
E|--------0-------|
B|--3--------3----|
G|-----2--------2-|
D|----------------|
A|----------------|
E|----------------|

D(8times)

D	   D		     G7/D(2 times)
The lunatic is on the grass
D	   D		     G7/D(2 times)
The lunatic is on the grass

D	    D
Remembering games, and,

daisy chains and laughs	Got to keep the   loonies on the path
E|-4-------4----4-------4----3---------------3-----------------|
B|-5---5--------5---5--------2-------2---2---2------------2----|
G|-4-----4------4-----4------2---2-2---2-----2------2----------|
D|---0-------0----0-------0--2---------------2-----------------|
A|-----------------------------0-----------------0-----0-----0-|
E|-------------------------------------------------------------|

				 The lunatic  is in th hall
E|-2-------2--0-----0---------2-------2---2-------2---1-----1--|
B|-3---3-3-------3------3-----3---3-------3---3-------0--0-----|
G|-2-----2------------2-----2-2-----2-----2-----2-----0----0---|
D|-0-0------0---0--0------0-----0-------0---0-------0---0----0-|
A|-------------------------------------------------------------|
E|-------------------------------------------------------------|

	     The lunatics  are in my   hall
E|-1-------1---2-------2---2-------2---1-------1---1-------1---|
B|-0---0-------3---3-------3---3-------0---0-------0---0-------|
G|-0-----0-----2-----2-----2-----2-----0-----0-----0-----0-----|
D|---0-------0---0-------0---0-------0---0-------0---0-------0-|
A|-------------------------------------------------------------|
E|-------------------------------------------------------------|

The paper holds  their folded  faces to the floor		 And
E|-2-------2----2-------2----4----------4-----4-----------4----|
B|-3---3--------3---3--------5-----5----------5-----5----------|
G|-2-----2------2-----2------4--------4----4--4--------4-------|
D|---0-------0----0-------0--0--0----------0--0--0-----------0-|
A|-------------------------------------------------------------|
E|-------------------------------------------------------------|


every day, the  paper boy brings more
E|-3-----------3-------3---2-------2---0-------0-----2-----2-0-|
B|-2-------2---2---2---2---3---3-----------3-----3---1---1-----|
G|-2---2---2---2---2---2---2-----------------2-------2-2-------|
D|-2-----------2-----------0-0---0---0---0---0-------0---------|
A|---0---0---0---0---0---0-------------------------0-----------|
E|-------------------------------------------------------------|

		 Chorus;
		 G			    A
		 And if the dam breaks open many years too soon
E|-----0---0---------------------------------------------------|
B|-1-----0----------------0-----------0--------------2---------|
G|--------------------0---0---0---------0------------2-------2-|
D|---4------------------------------0-----------2----2---0>2---|
A|--------------------------------2----------0--0--------------|
E|-----------0-2---3------------3---------3--------------------|

	     C				      G
	 And if there is no room upon the hill
E|-------------------0-------------------------------------|
B|-------2-------1-----3-1>3-----------------------------0-|
G|-----2---2-------0-----------------0---0---------------0-|
D|---2--------------------------2----2---2--2--------0-----|
A|-0---------0-3--------------3---3--3---3--3--------------|
E|-----------------------------------------------3---------|

					    A7
	And if your head explodes with dark forebodings too
E|---------------------------------------------------------|
B|-0-------0-----0------------------0--------------0-------|
G|----0----0--0--0--------------0------0-------0>2---0-0>2-|
D|---------0---------------0-----------------2-------------|
A|-------------------------------------------0-------------|
E|-------3------------3-------------------3----------------|

	     I`ll see you in the dark side of the moon
E|---------------------------------0-0-------------------------|
B|-------2-------------1-----------1-1-----------------0-------|
G|---2-----2-------0--------0------0-0-------------------0-----|
D|-----2---------------------------2-2-------------------------|
A|-0-----------3----------------3----3-----------------------0-|
E|---------------------------------------------3-----3-----3---|

Ah----------		   Ah
E|----------------------------------------|
B|-----3----------3---------------2---2---|
G|---2---2---0----4-------0-----2---2---0-|
D|---------4-2--------5-------------------|
A|-2---------2----------------0-----------|
E|-----------0----------------------------|

The      lunatic is in my head
E|-2-------2---2---------2-----1-------1---1-------1---|
B|-3---3-------3-----3---------0---0-------0---0-------|
G|-2-----2-----2-------2-------0-----0-----0-----0-----|
D|---0-------0-----0--------0----0-------0---0-------0-|
A|-----------------------------------------------------|
E|-----------------------------------------------------|

The   lunatic is in my head
E|-2-------2----2-------2----1-------1---1-------1---|
B|-3---3--------3---3--------0---0-------0---0-------|
G|-2-----2------2-----2------0-----0-----0-----0-----|
D|---0-------0----0-------0----0-------0---0-------0-|
A|---------------------------------------------------|
E|---------------------------------------------------|

You raise the blade,		   You make the change
E|-2---------2-----2-------2---4------------4----4-------4----|
B|-3----3----------3---3-------5------5----------5---5--------|
G|-2-------2-------2-----2-----4---------4-------4-----4------|
D|-0--0---------0----0-------0-0---0-----------0-0-0--------0-|
A|------------------------------------------------------------|
E|------------------------------------------------------------|

  You re-arrange me till I`m sane
E|-3-------------3------------------2-------2----0-----0-------|
B|-2-------2-----2------------2-----3---3--------3-3-----------|
G|-2---2-2-------2------2---2-------2-----2------2--------2--2-|
D|-2-------------2------------------0-0-------0--0---0----0--0-|
A|---0--------0-------0----------0-----------------------------|
E|-------------------------------------------------------------|

    You lock the door	  And	throw away the key        There`s
E|-2-----------2---2-----------2----4---------4--4---------4---|
B|-3-----3---------3-----3----------5----5-------5-----5-------|
G|-2--------2------2--------2-------4-------4----4-------4-----|
D|-0--0----------0-0--0-----------0-0--0---------0--0--------0-|
A|-------------------------------------------------------------|
E|-------------------------------------------------------------|

someone in my head, but is`s not me
E|-3-3----------3----------------2--2--------0--------0-------|
B|-2-------2----2----------2-----3--3--3--------3--------3----|
G|-2-----2------2----2--2--------2--2-----2--------2--------2-|
D|-2------------2-------2--------0--0-----0-------------------|
A|-0---0-----0--0--0----0-----0-----------0-------------------|
E|------------------------------------------------------------|

E|-2-----2--0---------2---------------|
B|-1-----------1----------1-----------|
G|-2--2------------2------------------|
D|-0----------------------------------|
A|------------------------------------|
E|----------------------------0--2--3-|

repeat chorus

outro: use chords at top.

D	D	G7/D	G7/D	D	D	G7/D	G7/D	D	D
E/D	E/D	A7	A7	D	Dsus2	D	D	E/D	E/D
A7	A7	D	Dsus2
Вверх

Brain Damage (2 вариант) mp3

 Intro

 G ||-----|-----|-----|--------|--------|------------|--------|------------|
 A ||-----|-----|-----|----7---|--------|---------7--|--------|---------7--|
 D ||--5--|-----|-----|--------|---5----|--5--5------|---5----|--5--5------|
 E ||-----|-----|-----|--------|--------|------------|--------|------------|



 Verse

       (The Lunatic is on the grass...)
 |--------|-------------|----------|----------------|----------|-----------7--|
 |--------|----------7--|--5---5---|--5---------0h2-|--0----0--|--0--0--------|
 |---5----|--5--5-------|----------|----------2-----|----------|--------------|
 |--------|-------------|----------|-------3--------|----------|--------------|


 |----------|-------------|-----------|--------------|-----------|------------|
 |--5----5--|--5----------|-----------|--------------|-----------|---------7--|
 |----------|----------2--|--5-----5--|--5---5----5--|--5-----5--|--5--5------|
 |----------|-------3-----|-----------|--------------|-----------|------------|


   (Got to keep the loonies on the path...)
 |-----2---|-----------|----------|---------2--|
 |---------|-----------|--0-------|--0--0------|
 |--0------|--0-----4--|----------|------------|
 |---------|-----------|----------|------------|





 Verse again with some variations
 Then the following:

                                             (And if the dam...)
 |--------------|--7---|--7------------4--|----------|---------|---------|
 |-----------7--|------|--------4---7-----|o------5--|------5--|------7--|
 |--5---5-------|------|-----5------------|o---------|---------|---------|
 |--------------|------|------------------|--3-------|--3------|--5------|

 |-----------------|----------|------------------|-----------|-----------------------|
 |------7--7----7--|----------|------------------|--5---5-5--|--5----------2-2-3-3--o|
 |-----------------|--3----3--|--3--3---3--3--5--|-----------|----------------------o|
 |--5--------------|----------|------------------|-----------|-----3----3------------|



 Repeat the above two lines with some variation to the "And if your heaed explodes" lyrics

 Roger then goes to another variation on the verse which
 is mainly octaves and fifths in A and D

 Repeat the chorus part again twice to the "And if the cloud bursts" lyrics
 Here is the ending part which segues into Eclipse:


 "I`ll see you on the..."   "Ah"
 |-----------|------------|-----|-------|-------|--------------|
 |-----------|------------|--5--|-------|--2----|--------------|
 |--3---3----|--3----3h5--|-----|--2----|-------|--0--0--2--4--|
 |-----------|------------|-----|-------|-------|--------------|


 |----------|----------|----------|---------------------|---------|----------|
 |----------|----------|-------5--|----------------0h2--|---------|----------|
 |--5----5--|--5--5----|----------|-----5-------2-------|--5---5--|--5--5----|
 |----------|----------|--3-------|--3-------3----------|---------|----------|


 |---------|-------|------|------|------|---------|------2--|--------------|
 |------5--|-------|--0---|--0---|--2---|--2--2---|---------|--------------|
 |---------|-------|------|------|------|---------|-0-------|--0--0--2--4--|
 |--3------|--3----|------|------|------|---------|---------|--------------|


 |------|--------|------|---------|------|---------2--|-------2--|
 |------|--------|------|---------|--2---|--2--2------|----------|
 |--5---|--5-----|--5---|--5--5---|------|------------|--0-------|
 |------|-----5--|------|---------|------|------------|----------|


 |--------------|-----------|--------7--|
 |--------------|-----------|-----------|  To Eclipse
 |--0--0--2--4--|--5----5---|--5--------|
 |--------------|-----------|-----------|
Вверх

Breathe In The Air mp3

    q   E  s e e q     h       q   e e
 G :----9--------9---|----------------|
 D :------------------|----------------|
 A :7--------7-7------|0-------4---5-6-|
 E :-------7----------|----------------|

     q   q   q   q     h       q e   s s
  G :----9-------9---|-----------------|
  D :-----------------|--------------7h9|
  A :7-------7--------|0-------0-0------|
  E :-----------------|-----------------|

    q   Q     e s E    q   q+s  se e e
 G :----9-------7h9--|----2-----------|
 D :------------------|----------------|
 A :7---------7-------|0--------x4-5-6-|
 E :------------------|----------------|

     q   E  s e e q    q   q+s  se e e
  G :----9--------9---|----2-----------|
  D :-----------------|----------------|
  A :7--------7-7-----|0--------x4-5-6-|
  E :-------7---------|----------------|

    q   q   q   e e   q   q    e e e  e
 G :----9---9---7-9--|----2-------------|
 D :-----------------|-------------7/-9-|
 A :7----------------|0--------0-0------|
 E :-----------------|------------------|
               e
    q   q   s sr s E   q   q   e e e  e
 G :----9----------9--|----2------------|
 D :--------9---------|------------7---|
 A :7---------7--7----|0-------0-0----5-|
 E :------------------|-----------------|

    q   q   e e q     q   E  s e e e e
 G :----9-------9---|-----------------|
 D :-----------------|----7--------7---|
 A :7-------7-7------|0--------0-0---5-|
 E :-----------------|-------0---------|
                                  s s
    q   q   e e e s s  q   q   s srsrE
 G :----9---------7h9-|-----------------|
 D :------------9-----|----7---7-5------|
 A :7-------7-7-------|0-----------7-5--|
 E :------------------|-----------------|

             s
    Q+s    ssre e e  Q    s  s s  s s e e
 G :----------------|-----2-h4-2-h4-2-----|
 D :------------5---|-----------------4---|
 A :3------x3-3---3-|2------------------2-|
 E :----------------|---------------------|
              s
    Q+s    s srq   e  Q     e q   q
 G :-----------------|----------------|
 D :3--------3-3---3-|5-----5---------|
 A :-------3---------|--------5---6---|
 E :-----------------|----------------|

    q   E  s e e e s s  Q+s    s s e e e
 G :----9--------9-7h9-|-----------------|
 D :-------------------|7------7---------|
 A :7--------7-7-------|---------0-4-5-6-|
 E :-------7-----------|-----------------|

    q   q    e e e s s  Q+s    s E  s e  e
 G :----9--------9-7h9-|--------------------|
 D :-------------------|7------7--------7h9-|
 A :7--------7-7-------|---------0--0-7-----|
 E :-------------------|--------------------|

                                     e
    h       q+s  E   h       q   s s r
 G :--------9-------|-----------------|
 D :----------------|7----------------|
 A :7------------7--|--------0---4-5--|
 E :----------------|-----------------|

     		               	      e
     q   q   q   q     h       q   s s r
  G :----9-------9---|-----------------|
  D :-----------------|7-----------7-5--|
  A :7-------7--------|--------0--------|
  E :-----------------|-----------------|


              s                  s
    Q+s    s sre q     Q+s    s srQ
 G :------------------|-----------------|
 D :-------------5---|-----------------|
 A :3--------3-3------|2--------2-2-----|
 E :-------3----------|-------2---------|

              s
     Q+s    ssrQ      Q     e q   q
  G :----------------|----------------|
  D :----------------|----------------|
  A :----------------|--------5---6---|
  E :1------x1-1-----|3-----3---------|


    q   q    e s s  e s s  Q+s    s e e e e
 G :----9------7h9----7h9-|-----------------|
 D :---------9------9-----|7------7---------|
 A :7---------------------|---------0-4-5-6-|
 E :----------------------|-----------------|


    q   q   e e e s s  h       s s e e e
 G :----9-------9-7h9-|------------------|
 D :------------------|7-----------------|
 A :7-------7-7-------|--------0-4-5-5-6-|
 E :------------------|------------------|

    q   E  s e e q     h       e e e e
 G :----9--------9---|----------------|
 D :------------------|7---------------|
 A :7--------7-7------|--------0-4-5-6-|
 E :-------7----------|----------------|

                s s                s s
    q   E  s s srsrE    q   q   s srsre
 G :----9----9-7-------|----------------|
 D :-------------9-----|----7---7-5-----|
 A :7------7-------7--|0-----------7-5-|
 E :-------------------|----------------|

              s                  s     e
    Q+s    s srE  E    Q+s    s sre s sr
 G :------------------|-----------------|
 D :--------------5--|-----------------|
 A :3--------3-3------|2--------2-2-2-2-|
 E :-------3----------|-------2---------|

              s
    Q+s    s srQ      Q     e q   q
 G :-----------------|----------------|
 D :-----------------|5-----5-0---1---|
 A :-----------------|----------------|
 E :1------x-1-1-----|----------------|

    w
 G :--------------------------------|
 D :2-------------------------------|
 A :--------------------------------|
 E :--------------------------------|


 Lyrics
 ------

 Breathe, breathe in the air
 Don`t be afraid to care
 Leave but don`t leave me
 Look around and chose your own ground
 For long you live and high you fly
 And smiles you`ll give and tears you`ll cry
 And all you touch and all you see
 Is all your life will ever be

 Run, run rabbit run
 Dig that hole, forget the sun,
 And when at last the work is done
 Don`t sit down it`s time to start another one
 For long you live and high you fly
 But only if you ride the tide
 And balanced on the biggest wave
 You race toward an early grave.


 Key
 ---

 w = whole note
 h = half note
 q = quarter note
 e = eighth note
 s = sixteenth note
 r = rest (length indicated above r)

 Capitals indicate 1.5 * value of note (you figure it out!)

 h = hammer-on

 Thats about it...
Вверх

Bring The Boys Back Home mp3

 C         D         G
 Bring the boys back home
 C         D         G
 Bring the boys back home
 C               D                 G   D   C
 Don`t leave the children on their own
 Csus      D7        Em
 Bring the boys back home
Вверх

Burning bridges

G  F  D  Bb  F  C  G

G                       F
Bridges burning gladly, merging with the shadows,
D
Flickering between the lines.
Bb                      F
Stolen moments floating softly on the air,
C                         G
Born on wings of fire and climbing higher.
Ebmaj7                                             Dbmaj7
Ancient bonds are breaking, moving on and changing sides.
Ebmaj7                                      Dbmaj7
Dreaming of a new day, cast aside the other way.
Ab                                             G
Magic visions stirring, kindled by and burning flames rise in her eyes.
   Ebmaj7                                           Dbmaj7
The door that stands ajar, the walls that once were high.
 Ebmaj7                                     Dbmaj7
Beyond the gilded cage, beyond the reach of ties.
   Ab
The moment is at hand.
                      G
She breaks the golden band.

Ebmaj7  Dbmaj7  Ab  G
Вверх

Careful With That Axe Eugene

 main theme

 |--------------------------------------|

 |--11-----------11-----------11--------|

 |--------------------------------------|

 |---------9------------9------------9--|



 variation #1

 |-----------------------------------------------------|

 |--11-----------11---------------11--------11---------|

 |----------------------------------------------11-----|

 |---------9------------9-------------9-------------9--|



 variation #2

 |-------------------------------------------------------|

 |--11-----------11------------11-------------11---------|

 |-------------------11---------------------------11-----|

 |---------9-------------9------------9---------------9--|



 variation #3

 |------------------------------|

 |--11-----------9h11--9h11-----|

 |------------------------------|

 |---------9-----------------9--|





 The bass on this song follows the main theme all along, with

 many variations.  The ones listed here are the most common.

 Waters also does a little improv. at the end.  The scale he

 uses is C#.
Вверх

Childhood's end

Intro (Fade In)
 Em     Am        Em        Am
e------------------------------------------------------------------
B------------------------------------------------------------------
G--------------------2-------2p0----------------------2-------2p0--
D-----2-----2p0------2-------2p0------2-----2p0-------2-------2p0--
A-----2--------------0----------------2---------------0-------0----
E--0-----0------3h5-----3h5--------0-----0-------3h5-----3h5-------

 Am     G   D Em         G    D       Am      Em
e------------------------------------------------------------------
B---------------------------------------3---3-3--------------------
G-----2------2p0------------------------2---2-2-----2--2-----------
D-----2------2p0---5-0-2------2-2--5--5-0---0-0-----2--2--2---2-2--
A--0---------------5-0-2------2-2--5--5-------------0--0--2---2-2--
E--------3h5-------3---0------0-0--3--3-------------------0---0-0--

Verses:
 Em     Am      Em         Am
e------------------------------------------------------------------
B------------------------------------------------------------------
G--------------------2-------2p0----------------------2-------2p0--
D-----2-----2p0------2-------2p0------2-----2p0-------2-------2p0--
A-----2--------------0----------------2---------------0-------0----
E--0-----0------3h5-----3h5--------0-----0-------3h5-----3h5-------

 Em     Am      Am        G   D Em
e------------------------------------------------------------------
B------------------------------------------------------------------
G--------------------2-------2p0------2-------2p0------------------
D-----2-----2p0------2-------2p0------2-------2p0---5-0-2------2-2-
A-----2--------------0-------------0----------0-----5-0-2------2-2-
E--0-----0------3h5-----3h5--------------3h5--------3---0------0-0-

   G  D       Am    Em
e----------------------------------
B-------3---3-3--------------------
G-------2---2-2-----2--2-----------
D--5--5-0---0-0-----2--2--2---2-2--
A--5--5-------------0--0--2---2-2--
E--3--3-------------------0---0-0--


   Em
You shout in your sleep.
             Am
Perhaps the price is just too steep.
          Em                      Am
Is your conscience at rest if once put to the test?
      Em                              Am
You awake with a start to just the beating of your heart.
                                      G     D        Em    G  D  Am  Em
Just one man beneath the sky, just two ears, just two eyes.

       Em                                   Am
You set sail across the sea of long past thoughts and memories.
            Em                            Am
Childhood's end, your fantasies merge with harsh realities.
        Em                                   Am
And then as the sail is hoist, you find your eyes are growing moist.
                                          G         D     Am     G  D Am Em
All the fears never voiced say you have to make your final choice.


SOLO:

    full     full              full      sl        rev.full   vib.
E 12-15^---15--------------------------------------------------------
B ------------15^--15-15-15-15---------------------------------------
G ------------------------------14-14^--------12-14-(^)14-12-14------
D ----------------------------------------/14--------------------12^^
A -------------------------------------------------------------------
E -------------------------------------------------------------------

 full         vib.        full                      full
E --------------------------------------------12---------
B 13^--------------------------------------12*----12-15^-
G ------14^12-----------12-14^-14-12---------------------
D ------------14^^^--14--------------14------------------
A -------------------------------------------------------
E -------------------------------------------------------
                                            * let ring

 full+1/2                       full
E --------------------15---------17^--17-15-17-15---
B 17^---15-17-----15^*---15----17----------------17-
G --------------------------------------------------
D --------------------------------------------------
A --------------------------------------------------
E --------------------------------------------------
                    *hold bend and let ring

 full  full               sl       full               full
E 17^---17^-17-15-17---15-12\------------15-12---------------
B -------------------------------15-15^----------15-15-15----
G --------(0)*-------------------------------------------14^-
D -----------------------------------------------------------
A -----------------------------------------------------------
E -----------------------------------------------------------
            * open G accidentally hit when releasing bend


 full      full
E 17^--17-----------------------------------------
B ----------17^--15-17----------------------------
G ----------------------------------14^-14-12-----
D -------------------------------------------14---
A ------------------------------------------------
E ------------------------------------------------

       Em                           Am
Who are you and who am I to say we know the reason why?
         Em                            Am
Some are born; some men die beneath one infinite sky.
            Em
There'll be war, there'll be peace.
          Am
But everything one day will cease.
                                    G         D         Em
All the iron turned to rust; all the proud men turned to dust.
          Am
And so all things time will mend.
G       D         Em
So this song will end.

G  D  Am  Em  G  D  Am  Em
Вверх

Cirrus minor

Em         Eb+  G/D         C#m7            C7
In a churchyard by a river, lazing in the haze of midday,
Cm7                 B7          Em
Laughing in the grasses and the graze.
Em           Eb+ G/D              C#m7           C7
Yellow bird, you are not alone in singing and in flying on,
  Cm7             B7           Em
In laughing and in leaving.

Em         Eb+ G/D           C#m7          C7
Willow weeping in the water, waving to the river daughters,
Cm7               B7           Em
Swaying in the ripples and the reeds.
Em        Eb+  G/D           C#m7         C7
On a trip to__ Cirrus Minor, saw a crater in the sun
 Cm7               B7                  Em
A thousand miles of moonlight later.

Em  Bm  D  A  G  D  B
Вверх

Comfortably Numb mp3

Bm				 A
Hello, Is there any body in there?
		    G       D/F#  Em        Bm
Just nod if you can hear me,      is there anyone at home?
A
Come on, now, I hear your feeling  down,
      G	   	   D/F#   Em		Bm
well, I can ease  your  pain,   get you on your feet again.
			A		    G          D/F#   Em
relax, I need soem information, first,  just the basic facts,
	 Bm
Can you show me where it hurts
D			    A
There is no pain you are receding,
D				 A        G/B
A distant ships smoke, on the horizon,
C				G
You are only coming through in waves,
C						G
Your lips move, but I can`t hear what your saying,
     D			     A
When I was a child, I had a fever,
  D				A       G/B
my hands felt just like, two ballons,
C				    G
Now I`ve got that feeling once again,
G				  C
I can`t explain, you would not understand,
			G
This is not how I am,

A		G/B  C	  G	    D
I have become, comforatbly numb.

solo 1

E|---14vvvvvv-----12-14>15>14---------------------------------------------|
B|------------------------------15>17vvvvvvvvvv>15--15-14-----------------|
G|---------------------------------------------------------14-------------|
D|-------------------------------------------------------------1412vvvvvv-|
A|------------------------------------------------------------------------|
E|------------------------------------------------------------------------|

E|--14>12--14>(15)>14--------------------------------------------------------|
B|-----------------------15>17---------15--14--------------------------------|
G|---------------------------------------------14------------------/12vvvvvv-|
D|-------------------------------------------------1412--11--9--7------------|
A|---------------------------------------------------------------------------|
E|---------------------------------------------------------------------------|

E|-----------------------------------------------------------|
B|-----------------------------------------------------------|
G|---11--------------119---97vvvvv----9>7------7---9---11>12-|
D|----------14--12----------------------------9--------------|
A|-----------------------------------------------------------|
E|-----------------------------------------------------------|

E|---15-14-12---------------------------------------------|
B|------------15-12---------------------------------------|
G|------------------12------------------------------------|
D|---------------------12vvvvvvvv--109vvvvvvv---1097vvvvv-|
A|--------------------------------------------------------|
E|--------------------------------------------------------|

E|-------------------------------------------------------|
B|-------------------------------------------------------|
G|-11>(12)vvvvvvvv--9>(11)===(11)==>9>7------------------|
D|---------------------------------------7/97vvvvvvvvvvv-|
A|-------------------------------------------------------|
E|-------------------------------------------------------|

Bm			A			  G   D/F#  Em
O.K., just a little pin prick, there`ll be no more (scream),
	   Bm
But you may feel a little sick.  Can you stand up?
		   A
I do believe it`s working, good.
	  G  		D/F#  Em
That`ll keep you going throught the show,
Bm
C`mon it`s time to go
D			     A
There is no pain you are receding,
D				A       G/B
A distant ships smoke on the horizon,
C				 G
You are only coming through in waves,
    C					      G
Your lips move, but I can`t hear what your saying,
    D				   A
When I was a child, I caught a fleeting glimpse,
D			 A     G/B
Out of the corner of my eye,
C			       G
I turned to look, but it was gone,
			   C
I can not put my finger on it now,
			    G
The child is grown, the dream is gone,
A		G/B  C		G		  D
and I___________________, have become comfortably numb.

solo

E|-------------------------------------------------------------|
B|-------------------------------------------------------------|
G|--7--9--9>(11)vvvvvv--9>(11)>9>7---7--9--9--7-------7vvvvvvv-|
D|---------------------------------9-------------9--9----------|
A|-------------------------------------------------------------|
E|-------------------------------------------------------------|

E|-------------------------------------------10----------------------------------|
B|--------10------10--12--12>(15)>12>10--12--------------------------------------|
G|---/11------11---------------------------------------7--9--9>(10)>9>7----------|
D|-----------------------------------------------------------------------9vvvvvv-|
A|-------------------------------------------------------------------------------|
E|-------------------------------------------------------------------------------|

E|------------------------------------------------------------------------|
B|----10>7-------7--------------------------------------------------------|
G|-----------9-------9---7-------------------------------7----------------|
D|--------------------------9vvvvvvvvvv--------7---7--9-----9>7---9vvvvvv-|
A|-----------------------------------------/9-----------------------------|
E|------------------------------------------------------------------------|

E|--9--9>(10)----7-------7-------------------------|
B|-------------------10-----10>(12)vvv----10>7-----|
G|-----------------------------------------------9-|
D|-------------------------------------------------|
A|-------------------------------------------------|
E|-------------------------------------------------|

E|-------7-----------------------------------------------------|
B|--7--7---10>7------------------------------------------------|
G|--------------9>(11)>9>7---9-7-------------------------------|
D|-------------------------9-----9-7---------------------------|
A|-----------------------------------9-8-7-5---5vvvvvvvvvvvvvv-|
E|-------------------------------------------7-----------------|

E|--------------------------7-----------------------------------------------|
B|------------------------7---10>7------------------------------------------|
G|--7-7-7vvvvvvv---9>(11)----------9>(11)>9>7---9-7-------------------------|
D|--------------------------------------------9-----9>7---------------------|
A|------------------------------------------------------97-5-7>5---5--7-7/9-|
E|----------------------------------------------------------------7---------|

E|----------------------------7----------------------------7-----------------|
B|--------------------------7---10--------7--------------7---10>7------------|
G|-------------7---7-9>(11)--------9>(11)---7--9--9>(11)----------9>(11)>9>7-|
D|--7-7-7--9>7---9-----------------------------------------------------------|
A|---------------------------------------------------------------------------|
E|---------------------------------------------------------------------------|

E|-----------------------------------------------------------------------------|
B|---------------------------7--------------7-7-7------------------7-7-7-------|
G|----9-7--------------------7--------------7-7-7------------------7-7-7-------|
D|--9-----9-7----------------7--9vvvvvvv----7-7-7--"9"vvvvvvvvvv---7-7-7--9vvv-|
A|------------9-8-7-5---5>0----------------------------------------------------|
E|--------------------7--------------------------------------------------------|

E|---------------------------------------------7-----------------------|
B|--7---------------------------------------------10>7--10>(12)====>10-|
G|--7----9>(11)>9>7-----7--9--9>(11)vvvvvvvv---------------------------|
D|-----7-------------9-------------------------------------------------|
A|---------------------------------------------------------------------|
E|---------------------------------------------------------------------|

E|----------7-----------------------------------------------------|
B|--------7---10>7------------------------------------------------|
G|-9>(11)----------9>(11)>9>7-9>7---7---------------------------7-|
D|--------------------------------9---9>7-9>7---7------------9--7-|
A|--------------------------------------------9---9-8-7-----------|
E|------------------------------------------------------10-7------|

E|---------------------------------------------------------------------|
B|----------7-----7>(8)>7--------------------------7-----------------7-|
G|--------7-7-----7>(8)>7-----------------7>9>7----7-----------------7-|
D|--9-7-9---7-----7>(8)>7-7vvvvvv-7>9------------9---9>7-----7-9>7>9---|
A|--------------------------------------------------------9------------|
E|---------------------------------------------------------------------|

E|------------------------------------7-----17-17-17>(19)vvv--17-19-21-21>(22)vv-|
B|--------7---7---7--7------7---7--7--7------------------------------------------|
G|--9>7---7---7---7--7----7-7---7--7--7------------------------------------------|
D|------9-----7-----------------------7------------------------------------------|
A|-------------------------------------------------------------------------------|
E|-------------------------------------------------------------------------------|

E|--21>(22)vvv-21-21>(22)>21--21>(22)-21>(22)-21>(22)>21--19>21>19-19-19-|
B|-----------------------------------------------------------------------|
G|-----------------------------------------------------------------------|
D|-----------------------------------------------------------------------|
A|-----------------------------------------------------------------------|
E|-----------------------------------------------------------------------|

E|------------------------------------------------------------------------------|
B|--17-17-17--17>(19)>17>15----17-17-17vvvvvv---15--17-17>(18)>17>15vvv---------|
G|--------------------------16-----------------------------------------16-16-16-|
D|------------------------------------------------------------------------------|
A|------------------------------------------------------------------------------|
E|------------------------------------------------------------------------------|

E|----------------------------10---------10----12-12>(13)-10-12-------12-|
B|--------------------10>(12)----10>(12)----10------------------12-12----|
G|--14-16vvv-------------------------------------------------------------|
D|-----------14-12-------------------------------------------------------|
A|-----------------14----------------------------------------------------|
E|-----------------------------------------------------------------------|

E|---------------------------------------------------------|
B|-12>(15)>12--12-10-------------------------------------7-|
G|-------------------9>(11)>9>0--9>7---7-9>7-------------7-|
D|-----------------------------------9-------9-7-----------|
A|-----------------------------------------------9-8-7-5---|
E|---------------------------------------------------------|

E|---------------------------7-7-7-7-7-7-7-7-7-7-7-7-|
B|-7-7-7-7-7----7---7---7-7--7-7-7-7-7-7-7-7-7-7-7-7-|
G|-7-7-7-7-7----7---7---7-7--------------------------|
D|------------9---9---9------------------------------|
A|---------------------------------------------------|
E|---------------------------------------------------|

E|-7----------------------------------------------|
B|----10------------------------------------------|
G|--------9>(11)-9--7-----------------------------|
D|--------------------9-9-9-7----7-7>9-9>7-9vvvvv-|
A|------------------------------------------------|
E|------------------------------------------------|

** NOTE**

When changing from an A to a G/B to a C in the chorus, do it
like this;

   A      G/B   C
E|-0-------3----0-|
B|-2-------3----1-|
G|-2-------0----0-|
D|-2-------0----2-|
A|-0-------2----3-|
Вверх

Coming Back To Life

 BASS:
             2m35s
 G:--------------------------------------------|
 D:--------------------------------------------|
 A:----------3-3-3-3-3-3-3-3-3-3-3-3-3-3-3-3---|
 E:------------------------------------------3-|

 ....shining sun


 (a)
 ||-----------------------------------------------------------------
 ||---------------------------5-------------------------------------
 ||-3-3-3-3-3-3-3-3-3-3-3-3/7---73---------------------------------
 ||---------------------------------1-1-1-1-1-1-1-1-1-1-1-1-1-1-1-1-
                                                  ^---------^
    Lost in thought               And lost in time       (1st time only)
    Outside the rain              Fell dark and slow

 -----------------|             |-----------------|      |-----------------||
 -----------------|             |-----------------|      |-----------------||
 -0-0-0-0-0-0-0-0-|             |-----------------|      |-----------------||
 -----------------|^^^^^^^^^^^^^|-3-3-3-3-3-3-3-3-|^^^^^^|-1-1-1-1-1-1-1-1-||
                                                          ^repeat this X2 ^
  while the seeds of life and the seeds of change were     planted
  while I pondered on        this dangerous & irresistible pastime     X2

                                         ^^^^^ - this is continuous!
 (b)
 ---------------------------------------------------------------------------
 ---------------------------------------------------------------------------
 -0-0-0-0-0-0-0-0-----------------0-0-0-0-0-0-0-0-1-1-1-1-1-1-1-1-0-0-0-0-0-
 -----------------1-1-1-1-1-1-1-1-------------------------------------------

 I took...        through our...  I knew the...   begun...        And I...

 ---------------------------------------|
 ---------------------------------------|
 -0-0-0-----------------3-3-3-3-3-3-3-3-|
 -------3-3-3-3-3-3-3-3-----------------|

        into the...     sun...

 Guitar Solo : Repeat (a) twice
 Repeat (b)

 There is a small bass riff done to lead onto the outro solo which I can`t
 make out.

 Outro Solo :

 First time:
 ---------------------------------------------------------------------------
 -------------------------5b6r5p3 5b6r5p3-----------------------------------
 -3-3-3-3-3-3-3-3-3-3-3-3---------------------------------------------------
 -----------------------------------------1-1-1-1-1-1-1-1-1-1-1-1-1-1-1-----
                          ^done v quickly^

 ---------------------------------------------------------------------------
 ---------------------------------------------------------------------------
 -0-0-0-0-0-0-0-0-----------------------------------------------------------
 -----------------3-3-3-3-3-3-3-3-1-1-1-1-1-1-1-1-1-1-1-1-1-1-1-1-----------


 Second time:  repeat (a)

 Do (b)

 keep playing last position on (b) until the end of the song.



 BASS:
             2m35s
 G:--------------------------------------------|
 D:--------------------------------------------|
 A:----------3-3-3-3-3-3-3-3-3-3-3-3-3-3-3-3---|
 E:------------------------------------------3-|

 ....shining sun


 (a)
 ||-----------------------------------------------------------------
 ||---------------------------5-------------------------------------
 ||-3-3-3-3-3-3-3-3-3-3-3-3/7---73---------------------------------
 ||---------------------------------1-1-1-1-1-1-1-1-1-1-1-1-1-1-1-1-
                                                  ^---------^
    Lost in thought               And lost in time       (1st time only)
    Outside the rain              Fell dark and slow

 -----------------|             |-----------------|      |-----------------||
 -----------------|             |-----------------|      |-----------------||
 -0-0-0-0-0-0-0-0-|             |-----------------|      |-----------------||
 -----------------|^^^^^^^^^^^^^|-3-3-3-3-3-3-3-3-|^^^^^^|-1-1-1-1-1-1-1-1-||
                                                          ^repeat this X2 ^
  while the seeds of life and the seeds of change were     planted
  while I pondered on        this dangerous & irresistible pastime     X2
Вверх

Coming Back To Life (2 вариант)

e---------------------------------------------------------------
B-------------------------------------------5-------------------
G---------------------------------7---b(9)-----(9)b(10)r(9)r7---
D-----------------------5---5-----------------------------------
A---------------------------------------------------------------
E---------------------------------------------------------------

      Fmaj7
e---------------------------------------------------------------
B---------------------------------------------------------------
G-----------5-7-7b(9)----r7-----------------5--7--7b(9)r7p5-----
D---------5------------------5---5~------7-------------------7--
A---------------------------------------------------------------
E---------------------------------------------------------------

        G        Am
e----------------------------------------------------------------
B----------------------------------------------------------------
G---5---------7p5------7--7b(9)---------------7---5\4--5/7~------
D----------------------------------------------------------------
A----------------------------------------------------------------
E----------------------------------------------------------------

   G      F
e-----------------------------------------------------------------------
B-----------------------------------------------------------------------
G------------------5--4---------5-----4---------------------------------
D-------------------------7--------7-----5/7---5------------------------
A---------------------------------------------------6p5p3-----5-----3~--
E----------------------------------------------------------5-----5------

        Fsus2    C
e----------------------------------------12--------------
B-----------------------------15---b(17)--------(17)r15--
G---------------------12--12-----------------------------
D--------------------------------------------------------
A--------------------------------------------------------
E--------------------------------------------------------

      Fmaj7
e-------------------------------------------------------------------------
B------13-15-15b(17)~---r15------------------------13-----15b(17)13-15----
G---12-----------------------12--12~-------12/14-------14--------------14-
D-------------------------------------------------------------------------
A-------------------------------------------------------------------------
E-------------------------------------------------------------------------

         Am
e---------------------------------------5-------------------------
B--13-15--15b(17)r15p13---------------5----8----------------------
G-----------------------14----------x--------7b(9)~-------7--5\4--
D-----------------------------------------------------------------
A-----------------------------------------------------------------
E-----------------------------------------------------------------

    G      F
e-------------------------------------------------------------------------
B-------------------------------------------------------------------------
G---5/7~----------5-4---5---4-------------------------5-----5-7b(9)r7p5---
D---------------------7---7-----5--7----------------5---7---------------7-
A-------------------------------------6p5p3---3-5/7-----------------------
E-------------------------------------------5-----------------------------

       Am7
e------------------------------------------------------------
B-----------------------15b(17)~---------------------13-15---
G---------------------------------------------12/14----------
D------------------------------------------------------------
A------------------------------------------------------------
E------------------------------------------------------------

   F      Am7
e---------------------------------------------------------------
B--15-b(17)r15p13-15~-----------------------------------------8-
G-------------------------------5-7--7b(9)~------------7b(9)----
D---------------------------7-----------------------------------
A---------------------------------------------------------------
E---------------------------------------------------------------

   Bb       Am7
e-----------------------------------------------------------
B--8--6--8p6p5-h6--6-5h6p5----5-----------------------------
G---------------------------7----7b(9)------r7p5---5-7-7----
D------------------------------------------------7----------
A-----------------------------------------------------------
E-----------------------------------------------------------

   Gsus4                C
e----------------------------------------------------------
B----------------------------------------------------------
G-------b(9)r7p5-7---p5p4----h5----------------------------
D----------------------------------------------------------
A----------------------------------------------------------
E----------------------------------------------------------


VERSE:
C                                    Fmaj7
Where were you when I was burned and broken,
         Am               G              F
While the days slipped by, from my window watching?
   C                                        Fmaj7
And Where were you when I was hurt and I was helpless?
          Am                     Gadd9             F
Beause the things you say and the things you do surround me.
              Am7                 F
While you were hanging yourself on someone else's words,
Am                           Bb
Dying to believe in what you heard,
Am7           Gsus4             G       Csus2
I was staring straight into the shining sun.

Csus2               Fsus2     F
Lost in thought and lost in time,
         Am                    G5                   F
While the seeds of life and the seeds of change were planted.
  Csus2         C             Fsus2
Outside the rain fell dark and slow,
       Am               G                          Fsus2
While I pondered on this dangerous but irresistible pastime.
        Am                        Fsus2
I took a heavenly ride through our silence.
          Am              Bbsus2
I knew the moment had arrived
   Am                   Gsus4             Csus2
For killing the past and coming back to life.

GUITAR SOLO:
e:------------------------------------------------------------------------
B:-----------8---------------------------8--10--10b13==r10--8--10---------
G:-----7b9===---b9r7--5-----5--7b9===-7---------------------------9p7--5--
D:--5--------------------7------------------------------------------------
A:------------------------------------------------------------------------
E:------------------------------------------------------------------------

--------------------------------------------------------------------------
--------------------10--8-------------------------------------------------
-----5--h7-----7b9---------9--9s7--5--7b8r------------5--7-----5--7b9-----
--7-----------------------------------------7--5--h7--------7-------------
--------------------------------------------------------------------------
--------------------------------------------------------------------------

----------------------------------------------------3/8--10--10b12--15---
------------------8--5---------------------------------------------------
--7p5-----5--7b9--------7b8--5-----7=--5--7b--/0-------------------------
-------7------------------------7----------------------------------------
-------------------------------------------------------------------------
-------------------------------------------------------------------------

   s.r.
--b12rrrr10--8------8--/17--17--15--15--13--13--12h13p12------------------
----------------10----------------------------------------13------11/15---
--------------------------------------------------------------12----------
--------------------------------------------------------------------------
--------------------------------------------------------------------------
--------------------------------------------------------------------------

--12\8----/20--20--20--19h20--20--19--19--17--17--19--15--17--12--15--10--
--------------------------------------------------------------------------
--------------------------------------------------------------------------
--------------------------------------------------------------------------
--------------------------------------------------------------------------
--------------------------------------------------------------------------

--12b--8----------8------10b12r10--8--10------8--8s0----------------------
----------10--10-----10-------------------10------------------------------
--------------------------------------------------------------------------
--------------------------------------------------------------------------
--------------------------------------------------------------------------
--------------------------------------------------------------------------

SECOND VERSE :
-------------8/10--8--------------------13p10------10-------------------
----xxx-x----8/10--10--------------------------13------13b15r13---------
----xxx-x---------------------------------------------------------------
----xxx-x---------------------------------------------------------------
------------------------------------------------------------------------
------------------------------------------------------------------------
...silence               ...had begun

----11p9p8--h9 9--9\2----------------
-------------------------------------
-------------------------------------
-------------------------------------
-------------------------------------
-------------------------------------
...shining  sun

        Am                        Fsus2
I took a heavenly ride through our silence.
          Am               Bbsus2
I knew the waiting had begun.
Am                       G                Csus2
And headed straight... Into the shining sun.

OUTRO SOLO:
-----------------8--10--10/12===12\0-------------------------------------
-------8--8--10----------------------------------------------------------
--0/7-----------------------------------0--0--7b9r8b10r7b9r7p5h7p5--/9---
-------------------------------------------------------------------------
-------------------------------------------------------------------------
-------------------------------------------------------------------------
                                              ^ hmmmm - a bit tricky! :)
                                              - there's probably a better
                                              way of writing this!

------------------------12--12--12==--12------12------12==--12--------
------8-----------------13--13--13==--13--13--13--13--13==--13--------
--10-----9\5-----5/9----12--12--12==--12--12--12--12--12==--12--------
--------------7-------------------------------------------------------
----------------------------------------------------------------------
----------------------------------------------------------------------
  release immdly  ^   ^------- repeat this section 3 times ------^

--/15--15------15------15--/17--17--15===--12--15--17b20===---\15h17------
---13--13--13--13--13--13-------------------------------------------------
--------------------------------------------------------------------------
--------------------------------------------------------------------------
--------------------------------------------------------------------------
--------------------------------------------------------------------------

--b20==r17--15h17p15p12--15--12b13--10--10\8--8\7--7\5--5------7--8/10----
-----------------------------------------------------------10-------------
--------------------------------------------------------------------------
--------------------------------------------------------------------------
--------------------------------------------------------------------------
--------------------------------------------------------------------------

--8--7--8--7------7/8---------------------7--8----------------------------
--------------10-------8--8--8-----8--10--------0--0/8--------------------
--------------------------------9-----------------------9--7--7/9--5-5----
--------------------------------------------------------------------------
--------------------------------------------------------------------------
--------------------------------------------------------------------------

--------------------------------------------------------------------------
--------------------------------------------------------------------------
------5-5---0-5-5---0-5-5---0-5-5--7/9--5--5--5--4--5--4------------------
--7-7-----7-------7-------7-------------------------------7--5--5/7--5----
--------------------------------------------------------------------------
--------------------------------------------------------------------------

                                           s.r.
-------------------------------------------------------------------------
-------------------------------------------------------------------------
------------------------------9--9--9--9b10rrrr5--7p5--12\9--9--7/9\7p5\-
-------------------------------------------------------------------------
--7\5--3-----------3/5--p3-----------------------------------------------
----------5--3--5--------------------------------------------------------

-----------------------------------------8/10--8----------------5---------
------------------------------------xxx--8/10--8-----5/8---5/8-----8--5h8-
--5---------------------------------xxx-----------------------------------
-----7------------------------------xxx-----------------------------------
--------7\5--3--5--5--5--3--3=====----------------------------------------
----------------5--5--5--3--3=====----------------------------------------

--------------------------------------------------------------------------
-----5---------------------------5--6--8--(3)/5----------------0----------
--7-----5------------------5--5------------------5--0--5======\0----------
----------------------5h7------------------------------5======\0----------
-------------------------------------------------------3======\-----------
--------------------------------------------------------------------------
                                ^ v.rapid slide from 3rd fret


BASS:
           2m35s
G:--------------------------------------------
D:--------------------------------------------
A:----------3-3-3-3-3-3-3-3-3-3-3-3-3-3-3-3---
E:------------------------------------------3-

....shining sun


(a)
-----------------------------------------------------------------
---------------------------5-------------------------------------
-3-3-3-3-3-3-3-3-3-3-3-3/7---7\3---------------------------------
---------------------------------1-1-1-1-1-1-1-1-1-1-1-1-1-1-1-1-
                                                ^---------^
  Lost in thought               And lost in time       (1st time only)
  Outside the rain              Fell dark and slow

-----------------             -----------------      -----------------
-----------------             -----------------      -----------------
-0-0-0-0-0-0-0-0-             -----------------      -----------------
-----------------^^^^^^^^^^^^^-3-3-3-3-3-3-3-3-^^^^^^-1-1-1-1-1-1-1-1-
                                                        ^repeat this X2 ^
while the seeds of life and the seeds of change were     planted
while I pondered on        this dangerous & irresistible pastime     X2

                                       ^^^^^ - this is continuous!
(b)
---------------------------------------------------------------------------
---------------------------------------------------------------------------
-0-0-0-0-0-0-0-0-----------------0-0-0-0-0-0-0-0-1-1-1-1-1-1-1-1-0-0-0-0-0-
-----------------1-1-1-1-1-1-1-1-------------------------------------------

I took...        through our...  I knew the...   begun...        And I...

---------------------------------------
---------------------------------------
-0-0-0-----------------3-3-3-3-3-3-3-3-
-------3-3-3-3-3-3-3-3-----------------

      into the...     sun...

Guitar Solo : Repeat (a) twice
Repeat (b)

There is a small bass riff done to lead onto the outro solo which I can't
make out.

Outro Solo :

First time:
---------------------------------------------------------------------------
-------------------------5b6r5p3 5b6r5p3-----------------------------------
-3-3-3-3-3-3-3-3-3-3-3-3---------------------------------------------------
-----------------------------------------1-1-1-1-1-1-1-1-1-1-1-1-1-1-1-----
                        ^done v quickly^

---------------------------------------------------------------------------
---------------------------------------------------------------------------
-0-0-0-0-0-0-0-0-----------------------------------------------------------
-----------------3-3-3-3-3-3-3-3-1-1-1-1-1-1-1-1-1-1-1-1-1-1-1-1-----------
Вверх

Corporal clegg mp3

Riff 1:
~~~~~~~
-------------------------0----------------
-------------------------8----------------
-------------------------7----------------
-------------------------6----------------
-----2--3--2-------------7----------------
--0-----------3---0------0----------------

              Bend (1/4)

A        C    D              A
Corporal Clegg had a wooden leg.
  N.C.          E7+9
He won it in the war in nineteen forty-four.
A        C    D              A
Corporal Clegg had a medal, too,
  N.C.            E7+9
In orange, red and blue. He found it in the zoo.

Riff 2:
  Bm                       F#
-----------------------------------------------------
-----------------------------------------------------
-----------------------------------------------------
-----4--3--------------------------------------------
--2--------2--------2--------------------------------
--------------3--5-----0---2-2--2-2--2-2-------------

              Bend (1/4)

Bm                                 F#
Dear, oh dear, oh, are they really sad for me?
Bm                                   F#            D
Dear, oh, dear, oh, will they really laugh at me?
D                                   G
Missus Clegg, you must be proud of him.
D                              G
Missus Clegg, another drop of gin?

A  Ab  G  D  A7  D  G  D  A7  D

A        C     D                 A
Corporal Clegg, umbrella in the rain.
    N.C.           E7+9
He's never been the same. No one is to blame.
A        C     D                        A
Corporal Clegg, received his medal in a dream
        N.C.         E7+9
>From Her Majesty, the Queen. His boots were very clean.
D                                   G
Missus Clegg, you must be proud of him.
D                              D
Missus Clegg, another drop of gin?

A  Ab  G

D               A7
Corporal Clegg.
D
Corporal Clegg.
Вверх

Crying song

  D          D(-5)
We smiled and smiled
  D          D(-5)
We smiled and smiled
D                       G      Em  D
Laughter echoes in your eyes
  D           D(-5)
We climbed and climbed
  D           D(-5)
We climbed and climbed
D                        G      Em  D
Foot falls softly in the pines

BRIEF SOLO:
e---------------------------------------------
B---------------------------------------------
G---------------------------------------------
D-------------------------------------------0-
A---0---4---0---5---0---6---0---7---0---7-----
E---------------------------------------------

  D       D(-5)
We cry and cry
  D       D(-5)
We cry and cry
D                   G      Em  D
Sadness passes in a while
  D        D(-5)
We roll and roll
  D        D(-5)
We roll and roll
D                     G     Em  D
Help me roll away the stone
Вверх

Dogs mp3

Dm9  Bb  Am9(sus4)  Bb7

    Dm9
You gotta be crazy, you gotta have a real need

      Bb
Gotta sleep on your toes and when you?re on the street

                                                           Am9(sus4)
You gotta be able to pick out the easy meat with your eyes closed

Then moving in silently downwind and out of sight

Bb7
You gotta strike when the moment is right without thinking

     Dm9
And after a while you can work on points of style

         Bb
Like the club tie and the firm handshake

A certain look in the eye and an easy smile

    Am9(sus4)
You have to be trusted by the people that you lie to

        Bb7
So that when they turn their backs on you

You?ll get the chance to put the knife in

Dm9  Bb  Am9(sus4)  Bb7
[Guitar solo]

       Dm9
You?ve gotta keep one eye looking over your shoulder

              Bb
You know it?s gonna get harder, harder and harder as you get older

    Am9(sus4)
And in the end you?ll pack up and fly down south, hide your head in the sand

Bb7                                                 Dm9
Just another sad old man, all alone and dying of cancer


Bb  Am9(sus4)  Bb7  Dm

C  Dm  C  Dm  Bb  F  Eb  F  Eb  Dm  Dm9  C7  Dm  A  F  Em
[Half tempo]

Dm  C  Dm  C ...   Bb  C  Bb  C  Bb  C  Bb  C
[Guitar solo ad lib]

Dm  C  Dm  C  Dm  C  Bb  C  Bb  C  Dm  A  F  Em


Dm       C               Dm  C  Dm          C                    Dm   C  Dm  C
And when you lose control       you?ll reap the harvest you have sown

Dm     C              Dm  C  Dm                                  Bb    A
And as the fear grows        the bad blood slows and turns to stone

Dm           C                       Dm          C                 Dm  C  Dm
And it?s too late to lose the weight you used to need to throw around

C         Bb   C            Bb  C          Dm   A
So have a good drown as you go down all alone

        F    A      Dm
Dragged down by the stone


Bb7
[Tempo I]

Dm9
Gotta admit that I?m a little bit confused

Bb
Sometimes it seems to me as if I?m just being used

Am9(sus4)
Gotta stay awake, gotta try and shake off this creeping malaise

   Bb7
If I don?t stand my own ground how can I find my way out of the maze

Dm9
Deaf, dumb and blind you just keep on pretending

     Bb
That everyone?s expendable and noone has a real friend

       Am9(sus4)
And it seems to you the thing to do would be to isolate the winner

    Bb7
And everything?s done under the sun

And you believe at heart everyone?s a killer

Dm  C  Dm  C  Dm  C  Dm  Bb  F  E  F  E  Dm
[Half tempo]

        F         C             Dm
Who was born in a house full of pain

C       F              C           Dm
Who was trained not to spit in the fan

C       F            C         Dm7
Who was told what to do by the man

C       F         C             Dm
Who was broken by trained personnel

C       F           C          Dm7
Who was fitted with collar and chain

C       F       C            Dm
Who was given a pat on back

C       F         C            Dm
Who was breaking away from the pack

C       F            C     Dm
Who was only a stranger at home

C       F      C           Dm
Who was ground down in the end

C       F     C           Dm
Who was found dead on the phone

C       F       C           Bb       A
Who was dragged down by the stone

                F    A7     Dm9
Who was dragged down by the stone
Вверх

Dogs (2 вариант) mp3

INTRO:(fade in)
   Dm9
d|-2--2--2---2-|-2---2---2---2-|-2---2---2---2-|-2---2---2---2-|
A|-3--3--3---3-|-3---3---3---3-|-3---3---3---3-|-3---3---3---3-|
F|-0--0--0---0-|-0---0---0---0-|-0---0---0---0-|-0---0---0---0-|
C|-2--2--2---2-|-2---2---2---2-|-2---2---2---2-|-2---2---2---2-|
G|-2--2--2---2-|-2---2---2---2-|-2---2---2---2-|-2---2---2---2-|
D|-0--0--0---0-|-0---0---0---0-|-0---0---0---0-|-0---0---0---0-|

d|-2--2--2---2-|-2---2---2---2-|-2---2---2---2-|-2---2---2---2-|
A|-3--3--3---3-|-3---3---3---3-|-3---3---3---3-|-3---3---3---3-|
F|-0--0--0---0-|-0---0---0---0-|-0---0---0---0-|-0---0---0---0-|
C|-2--2--2---2-|-2---2---2---2-|-2---2---2---2-|-2---2---2---2-|
G|-2--2--2---2-|-2---2---2---2-|-2---2---2---2-|-2---2---2---2-|
D|-0--0--0---0-|-0---0---0---0-|-0---0---0---0-|-0---0---0---0-|

   Bbadd4
d|--0---0---0---0--|--0---0---0---0--|--0---0---0---0--|--0---0---0---0--|
A|--1---1---1---1--|--1---1---1---1--|--1---1---1---1--|--1---1---1---1--|
F|--0---0---0---0--|--0---0---0---0--|--0---0---0---0--|--0---0---0---0--|
C|--3---3---3---3--|--3---3---3---3--|--3---3---3---3--|--3---3---3---3--|
G|--3---3---3---3--|--3---3---3---3--|--3---3---3---3--|--3---3---3---3--|
D|-----------------|-----------------|-----------------|-----------------|

   E7sus4
d|--0---0---0---0--|--0---0---0---0--|--0---0---0---0--|--0---0---0---2--|
A|--2---2---2---2--|--2---2---2---2--|--2---2---2---2--|--2---2---2---2--|
F|--4---4---4---4--|--4---4---4---4--|--4---4---4---4--|--4---4---4---4--|
C|--4---4---4---4--|--4---4---4---4--|--4---4---4---4--|--4---4---4---4--|
G|-----------------|-----------------|-----------------|-----------------|
D|-----------------|-----------------|-----------------|-----------------|

    Ebmaj7sus4
d-|--0---0---0---0--|--0---0---0---0--|--0---0---0---0--|--0---0---0---1--||
A-|--1---1---1---1--|--1---1---1---1--|--1---1---1---1--|--1---1---1---1--||
F-|--3---3---3---3--|--3---3---3---3--|--3---3---3---3--|--3---3---3---3-o||
C-|--3---3---3---3--|--3---3---3---3--|--3---3---3---3--|--3---3---3---3-o||
G-|-----------------|-----------------|-----------------|-----------------||
D-|-----------------|-----------------|-----------------|-----------------||

VERSE:
    Dm9
You gotta be crazy, you gotta have a real need
      Badd4
Gotta sleep on your toes and when you`re on the street
                                                           E7sus4
You gotta be able to pick out the easy meat with your eyes closed

Then moving in silently downwind and out of sight
Bbmaj7sus4
You gotta strike when the moment is right without thinking
     Dm9
And after a while you can work on points of style
         Badd4
Like the club tie and the firm handshake

A certain look in the eye and an easy smile
    E7sus4
You have to be trusted by the people that you lie to
        Ebmaj7sus4
So that when they turn their backs on you

You`ll get the chance to put the knife in

Dm9  Badd4  E7sus4  Ebmaj7sus4

SOLO 1:
             Dm9
e-|--------|-12----------------13------12---|-12p10--10---------------|
B-|--------|--------------------------------|----------------------12--|
G-|----9---|--------------------------------|-------------------10-----|
D-|--------|--------------------------------|--------------------------|
A-|--------|--------------------------------|--------------------------|
E-|--------|--------------------------------|--------------------------|

e-|------------------------------------------|-----------------------------|
B-|--13--13---12---10---12-------------------|-----------------------------|
G-|-----------------------------10---9-------|---------9-10p9----9---------|
D-|--------------------------------------12--|-----12---------12---12p10p8-|
A-|------------------------------------------|-----------------------------|
E-|------------------------------------------|-----------------------------|

    Bb(addEb)
e-|---------------------------------|--------------------------------------|
B-|-----------------------6--6b(8)--|-----6----6-----------------------11--|
G-|--------5--7---------------------|-------------------------------10-----|
D-|---------------8--8--------------|----------------------------12--------|
A-|---------------------------------|--------------------------------------|
E-|---------------------------------|--------------------------------------|

e-|-13--13-12----10--10--------13---|-----12---10---------------------------|
B-|---------------------------------|------------------13-----10------------|
G-|---------------------------------|-------------------------------12b(14)-|
D-|---------------------------------|---------------------------------------|
A-|---------------------------------|---------------------------------------|
E-|---------------------------------|---------------------------------------|

    E7sus4
e-|-------------------------------|----------------------------------------|
B-|-------------------------------|----------------------------------------|
G-|------12--10--9------10p9------|----------------------------------------|
D-|---------------------------12--|/14-------12--11-----12--/--14----------|
A-|-------------------------------|------------------------------------12--|
E-|-------------------------------|----------------------------------------|

e-|----------------------------------------|
B-|----------------------------------------|
G-|----------------------------------------|
D-|-----------------11---11--12---12--14---|
A-|--12-----12--14-------------------------|
E-|----------------------------------------|

e-|---------------------------------------------------------------|
B-|---------------------------------------------------------------|
G-|-9--10p9--10--12---12-12b(14)---14-14b(16)---14-14b(16)--(17)--|
D-|---------------------------------------------------------------|
A-|---------------------------------------------------------------|
E-|---------------------------------------------------------------|

    Emaj7sus4
e-|-----------------|------------------------|-13--13--12---11--10----------|
B-|-----------------|------------------------|----------------------13---12-|
G-|-------15----13--|-12----10--10--10---10--|------------------------------|
D-|-----------------|------------------------|------------------------------|
A-|-----------------|------------------------|------------------------------|
E-|-----------------|------------------------|------------------------------|

                                      Dm9
e-|---------------------------------|-----------------------------|
B-|--11--10-------------------------|-----------------------------|
G-|-----------13--12--10---10b(12)--|------------------------r10--|
D-|---------------------------------|-----------------------------|
A-|---------------------------------|-----------------------------|
E-|---------------------------------|-----------------------------|

e-|-------------------------||
B-|-------------------------||
G-|-b(12)-----r109---------||
D-|-------------------------||
A-|-------------------------||
E-|-------------------------||

VERSE:
       Dm9
You`ve gotta keep one eye looking over your shoulder
              Badd4
You know it`s gonna get harder, harder and harder as you get older
    E7sus4
And in the end you`ll pack up and fly down south, hide your head in the
sand
Ebmaj7sus4                                          Dm9
Just another sad old man, all alone and dying of cancer

Badd4  E7sus4  Ebmaj7sus4  Dm


C  Dm  C  Dm  Bb  F  Eb  F  Eb  Dm  Dm9  C7  Dm  A  F  Em

Start of Solo #2:(Double Tracked - both guitar parts)
                  C
e-|--12b(13)---|--12----------------|----------12-12b(13)--15-12b(13)--12---|
B-|--13b(15)---|--13----------------|----------13-13b(15)--17-13b(15)--13---|
G-|------------|--------------------|---------------------------------------|
D-|------------|--------------------|---------------------------------------|
A-|------------|--------------------|---------------------------------------|
E-|------------|--------------------|---------------------------------------|

    Dm                                             C
e-|-12b(13)---------|------------12b(13)--------|--12----------------|
B-|-13b(15)---------|------------13b(15)--------|--13----------------|
G-|-----------------|---------------------------|--------------------|
D-|-----------------|---------------------------|--------------------|
A-|-----------------|---------------------------|--------------------|
E-|-----------------|---------------------------|--------------------|

                                            Dm
e-|----------12-12b(13)--15-12b(13)--12---|-12b(13)------------|
B-|----------13-13b(15)--17-13b(15)--13---|-13b(15)------------|
G-|---------------------------------------|--------------------|
D-|---------------------------------------|--------------------|
A-|---------------------------------------|--------------------|
E-|---------------------------------------|--------------------|

                  C                   Bb
e-|--12b(13)------12---------10p8--|--10------------|
B-|--13b(15)------13---------11p10-|--11------------|
G-|--------------------------------|----------------|
D-|--------------------------------|----------------|
A-|--------------------------------|----------------|
E-|--------------------------------|----------------|

e-|-10b(12)------12b(13)---(12)r10p8--|--10------------|
B-|-11b(13)------13b(15)---(13)r11p10-|--11------------|
G-|-----------------------------------|----------------|
D-|-----------------------------------|----------------|
A-|-----------------------------------|----------------|
E-|-----------------------------------|----------------|

                                                F
e-|-10b(12)-------12b(13)---13b(15)----------|-----15b(17)--------17b(18)r17-|
B-|-11b(13)-------13b(15)---15b(17)------13--|--13-16b(18)--------18b(20)r18-|
G-|--------------------------------------14--|--14---------------------------|
D-|------------------------------------------|-------------------------------|
A-|------------------------------------------|-------------------------------|
E-|------------------------------------------|-------------------------------|

       Eb                     F
e-|-13b(15)r13-------------|------------15b(17)------------17b(18)r17----|
B-|-15b(16)r15-11----------|--13-----13-16b(18)------------18b(20)r18----|
G-|------------12----------|--14-----14----------------------------------|
D-|------------------------|---------------------------------------------|
A-|------------------------|---------------------------------------------|
E-|------------------------|---------------------------------------------|

    Eb
e-|-13b(15)r13---------etc..----||
B-|-15b(16)r15-11------etc..----||
G-|--------------------etc..----||
D-|--------------------etc..----||
A-|--------------------etc..----||
E-|--------------------etc..----||

INTERLUDE:
Fig A
|------x-2------2-2-2-----x-2--x--2-2-----x-2-----2-2------x-2-----2-2----|
|------x-3--x---3-3-3-----x-3--x--3-3-----x-3--x--3-3------x-3--x--3-3----|
|------x-0--x-----0-------x-0--x----0-----x-0--x----0------x-0--x--0------|
|------x-2--x-------------x-2--x----------x-2--x-----------x-2--x---------|
|------x-2----------------x-2-------------x-2--------------x-2--x---------|
|----0------------------0---------------0----------------0----------------|

                                                            End Figure A
|----x-2------2-2-2-----x-2----2-2-----x-2----2-2------x-2----2-2-------|
|----x-3--x---3-3-3-----x-3-x--3-3-----x-3-x--3-3------x-3-x--3-3-------|
|----x-0--x-----0-------x-0-x----0-----x-0-x----0------x-0-x--0---------|
|----x-2--x-------------x-2-x----------x-2-x-----------x-2-x------------|
|----x-2----------------x-2------------x-2-------------x-2-x------------|
|--0------------------0--------------0---------------0------------------|
                               PM   PM
|--0-x--2------0-x--3----0--0------------------------------------------|
|--1-x--3---x--1-x--3----0--0------------------------------------------|
|--0-x--0---x--0-x--0----5--4---4-------------4--------4---------------|
|--3-x--2---x--3-x--2----5--4---4-----------4---4----4---4-------------|
|--3-x--2------3-x--2-----------2---------2--------------------0-------|
|---------------------------------2-0--------------3-----------------0-|

Start of Solo #3
  ~~~~~~~~~~~~~~~~~~~~     ~~~~                          ~~~
~~~~~
|-12----------------------19-----20b--20-20-20----19p18h19------14pb--(14)-|
|------------------------x------------------------------------x------------|
|-----------------------x------------------------------------x-------------|
|----------------------x---------------------------------------------------|
|--------------------------------------------------------------------------|
|--------------------------------------------------------------------------|

|-------------------------------|
|-12pb1/2----9---7-6------------|
|-12pb1/2----9---7-6------------|
|-------------------------------|
|-------------------------------|
|-------------------------------|


VERSE:
w/rhtm fig A
Dm       C               Dm  C  Dm          C                    Dm   C
Dm  C
And when you lose control       you`ll reap the harvest you have sown
Dm     C              Dm  C  Dm                                  Bb    A
And as the fear grows        the bad blood slows and turns to stone
Dm           C                       Dm          C                 Dm
C  Dm
And it`s too late to lose the weight you used to need to throw around
C         Bb   C            Bb  C          Dm   A
So have a good drown as you go down all alone
        F    A      Dm
Dragged down by the stone

Bb7
[Tempo I]

Dm9
Gotta admit that I`m a little bit confused
Badd4
Sometimes it seems to me as if I`m just being used
E7sus4
Gotta stay awake, gotta try and shake off this creeping malaise
   Ebmaj7sus4
If I don`t stand my own ground how can I find my way out of the maze
Dm9
Deaf, dumb and blind you just keep on pretending
     Badd4
That everyone`s expendable and noone has a real friend
       E7sus4
And it seems to you the thing to do would be to isolate the winner
    Ebmaj7sus4
And everything`s done under the sun

And you believe at heart everyone`s a killer

Dm  C  Dm  C  Dm  C  Dm  Bb  F  E  F  E  Dm
[Half tempo]

        F         C             Dm
Who was born in a house full of pain
C       F              C           Dm
Who was trained not to spit in the fan
C       F            C         Dm7
Who was told what to do by the man
C       F         C             Dm
Who was broken by trained personnel
C       F           C          Dm7
Who was fitted with collar and chain
C       F       C            Dm
Who was given a pat on back
C       F         C            Dm
Who was breaking away from the pack
C       F            C     Dm
Who was only a stranger at home
C       F      C           Dm
Who was ground down in the end
C       F     C           Dm
Who was found dead on the phone
C       F       C           Bb       A
Who was dragged down by the stone
                F    A7     Dm9
Who was dragged down by the stone Figure A
Вверх

Dogs of war

Cm
Dogs of war, and men of hate,
With no cause, we don't disciminate,
Discovery, is to be disowned,
Our currency, is flesh and bone,
Ebm
Hell opened up, and put on sale,
Gather 'round and haggle,
Cm
For hard cash we lie, and decieve,
But even our masters dont know the webs we weave,

Ab
One world, it's a battleground,
Fm
One world, and we will smash it down,
Cm
One world, one world

Cm
Invisable transfers, long distance calls,
Hollow laughter, in marble halls,
Steps have been taken, a silent uproar,
Has unleashed the dogs of war,
Ebm
You can't stop what has begun,
Signed, sealed, they deliver olivion,
Cm
We all have a dark side, to say the least,
And dealing in death is the nature of the beast

Ab
One world, it's a battleground,
Fm
One world, and we will smash it down,
Cm
One world, one world,


SOLO:
e--------------------------------------------------------
B--------------------------------------------------------
G---10h12===(12)p10p8-------------------------8------8---
D----------------------10vvvvv--10vvvvvv-10\-----10------
A--------------------------------------------------------
E--------------------------------------------------------

e-------------------------------------------------
B---/13--13vvvvvv--13vvvv--13vvv--13p11h13b(16)---
G-------------------------------------------------
D-------------------------------------------------
A-------------------------------------------------
E-------------------------------------------------

e------------------------------
B------------------------------
G---3--------------------------
D------5-------------1-----1---
A---------3--3--3p1-----3------
E------------------------------

e------------------------------------------------11-------------------------
B------11-------11-------11---11--------------------------------------------
G--10b(11)--10b(11)--10b(11)--10p8------10b(11)------10------8h10--10--10p8-
D-----------------------------------10-------------------10-----------------
A---------------------------------------------------------------------------
E---------------------------------------------------------------------------

e----------------------------
B----------------------------
G-------10p0--------------8--
D---10--------10vvvvvvvv-----
A----------------------------
E----------------------------

e-------------------------------------------------------------
B-------7--9--9b(11)--9b(11)--9p7-----7--9--9b(10)r9p7-----7--
G---/8-----------------------------8--------------------8-----
D-------------------------------------------------------------
A-------------------------------------------------------------
E-------------------------------------------------------------

e--------------11--11--------------------------------------------------------
B--/11--14p11----------14p11-------------------------------------------------
G-----------------------------13p11------11--13b(14)r13p11------13--------11-
D----------------------------------13---------------------13------13vvvv-----
A----------------------------------------------------------------------------
E----------------------------------------------------------------------------

e---------------------------11p8--8--11p8--11p8--8---------11--8--8--8--11p8-
B-------------13vvv--13p11--------------------------11--8--------------------
G---13\/---------------------------------------------------------------------
D----------------------------------------------------------------------------
A----------------------------------------------------------------------------
E----------------------------------------------------------------------------

e---11b(13)b(14)--11--8--11--10p8--12--8vvvvvv\-
B-----------------------------------------------
G-----------------------------------------------
D-----------------------------------------------
A-----------------------------------------------
E-----------------------------------------------

e------11--13vvvvvvvvp11--13--13--13--11------11----------11-----------------
B--13-------------------------------------13------13vvvv------13b(16)vvvvvv\-
G----------------------------------------------------------------------------
D----------------------------------------------------------------------------
A----------------------------------------------------------------------------
E----------------------------------------------------------------------------

e---------------------------------------8------------------------------------
B------------------------------------------/13vvvvvvv--10b(11)r10------------
G--------8--10--10p8------8--10--10h12-----------------10b(11)r10------8-----
D---/10---------------10-------------------------------------------10-----10-
A----------------------------------------------------------------------------
E----------------------------------------------------------------------------

REPEAT 2ND VERSE(with diff lyrics)

SAX SOLO

VERSE:
   Cm
e--------------------------------------------------------------------------
B---------------------11---------------------------------------------------
G-----------------10b(11)r10p8-----------------8vvvvvvvvvvvv---------------
D-------------------------------------------------------------10vvvvvvvvv--
A--------------------------------------------------------------------------
E--------------------------------------------------------------------------
   The dogs of war        won't    negotiate.

e------------------------------------------------8-------------------------
B---------------------------------------------8-----/13vvvvvvp11--13b(16)--
G--------------------------------------------------------------------------
D--------------------------------------------------------------------------
A--------------------------------------------------------------------------
E--------------------------------------------------------------------------
   The dogs of war         won't  capitulate.

e-------------------------------------------------------------------
B-------------------------------------------------------------------
G-------------------(11)r10p8---------------------------------------
D-------------------------------------------------------------------
A-------------------------------------------------------------------
E-------------------------------------------------------------------
   They will take,         and you will give.
           Ebm
e-------------------------------------------------------------------------
B----------------------------------------------------------/11\/\/p9p7----
G-------------------------------------------------------------------------
D-------------------------------------------------------------------------
A-------------------------------------------------------------------------
E-------------------------------------------------------------------------
    And you must die,   so   that they may live.      You can

e--------------------------11------------------------------------
B-----------------9b(11)--------7--------------------------------
G------------------------------------8vvvvvvvv-------------------
D----------------------------------------------------------------
A----------------------------------------------------------------
E----------------------------------------------------------------
   knock  at any  door,        but wherever you go

e-----------------------10-----------------
B--------------------9>(10)>9>(10)--7------
G--------------------------------------8\--
D------------------------------------------
A------------------------------------------
E------------------------------------------
   you know they've been there   before.

          Cm
e--------------------------------------------------------------------
B--------------------------------------------------------------------
G--------------------------------------------------------------------
D--10vvvv\---------------------8tr10---------------------------------
A--------------------------------------------------------------------
E--------------------------------------------------------------------
   But winners can  lose,          things can get strained,

e-------------------------------------------------------------------------
B------------------11-----------------------------------------------------
G--------------10b(12)=====r10p8-------------------------10b(12)---10--8\-
D-------------------------------------------------------------------------
A-------------------------------------------------------------------------
E-------------------------------------------------------------------------
  But whatever you change     you know the dogs remain.

   Ab7          Fm   G7sus4
e--------------------------------------------------------------------
B--6--4--------------------------------------------------------------
G--6--5--------------------------------------------------------------
D---------6----------------------------------------------------------
A--------------------------------------------------------------------
E--------------------------------------------------------------------
  One world,  it's a battleground.   One world, we will smash it down.

   Cm
e---------------------------------------------------------------------------
B---------------------------------------------------------------------------
G-----------12>(15)====>12vvvvvv------------10b(12)r(11)r10----------8------
D---------------------------------------------------------------8h10---10vv-
A---------------------------------------------------------------------------
E---------------------------------------------------------------------------
  One world.       One world.

e------------------------------------------------------------
B----------11vvvvvvvvv---11----------------------------------
G------10b(12)vvvvvvvv-------10b(11)r10p8--------------------
D------------------------------------------10-----8tr10------
A------------------------------------------------------------
E------------------------------------------------------------
  One world

e---------------------------------
B----------11-11b(13)vvvvvvvvv\---
G---------------------------------
D---------------------------------
A---------------------------------
E---------------------------------
  One world
Вверх

Don't leave me now mp3

G   G+       Fm7
      Ooooh Babe
                    Dm7-5
Don't leave me now.
                             Bb11
Don't say it's the end of the road

Remember the flowers I sent
      G
I need you Babe
  G+
To put through the shredder

In front of my friends
     Fm
Ooooh Babe
                   Dm7-5
Don't leave me now
                  Bb11
How could you go?
                             G
When you know how I need you.
                       G+
To beat to a pulp on a Saturday night
     Fm
Ooooh Babe
              Fm(maj7)  Dm7-5
Don't leave me now
                         Bb9
How can you treat me this way?

Running away
G
Ooooooh babe
                          Dm  Am  Dm  Am  Dm  Am  Dm  G7  Am
Why are you running away?                              Oooooooh
Вверх

Dramatic Theme

     Intro      Main Riff
 G-----------|-------------------------------------------------------------------
 D-----------|-----17----------15----------17----------15----------17------------
 A-----------|-------------------------------------------------------------------
 E-----15~~--|---------15--15------15--15------15--15------15--15------15-15~~~--

   Variation
 G----------------------------17p16------------------------
 D----17----------19-----------------------17--------------
 A---------------------------------------------------------
 E--------15--15------15--15---------15~~------15--15--15--
Вверх

Echoes

F#m  C#m  F#m  C#m  F#m  C#m

A#m  A  G#sus4  G#  C#m

C#m  F#m  C#m  A#m  A  G#sus4  G#

C#m
Overhead the albatross

      G#m
Hangs motionless upon the air

    F#m
And deep beneath the rolling waves

   G#
In labyrinths of coral caves

    C#
The echo of a distant time

      G#m
Comes willowing across the sand

    F#m                                G#
And everything is green and submarine


    C
And no-one showed us to the land

    G#
And no-one knows the wheres or whys

    F#m
But something stirs and something tries

    G#              A
And starts to climb towards the light


C#m  A  C#m  A  C#m  A  E  B  C


C#m
Strangers passing in the street

   G#m
By chance two separate glances meet

    F#m                        G#
And I am you and what I see is me

    C#m
And do I take you by the hand

    G#m
And lead you through the land

    F#m                           G#
And help me understand the best I can


    C#
And no-one calls us to move on

    G#
And no-one forces down our eyes

    F#m
And no-one speaks and no-one tries

    G#            A
And no-one flies around the sun


C#m  A  C#m  A  C#m  A  E  B  C


Bm  F#m  Bm/D  Esus4  ...

C#m  G#m  E  F#  C#m  G#m  E  F#

C#m                           G#m
Cloudless everyday you fall upon my waking eyes

  F#m                       G#
Inviting and inciting me to rise

    C#m
And through the window in the wall

     G#m
Come streaming in on sunlight wings

  F#m                               G#
A million bright ambassadors of morning


    C#
And no-one sings me lullabies

    G#
And no-one makes me close my eyes

F#m
So I throw the windows wide

    G#          A
And call to you across the sky


C#m  A  C#m  A  C#m  A  E  B  C ...

C#m  G#m  F#m  G# ...
Вверх

Echoes (2 вариант)

  Intro

 G ||------6------|------------6---|-------------------|-----------------|
 A ||----------6--|---------6------|--4---4------------|--4-----4---4h6--|
 D ||--4----------|--4-------------|----------------4--|-----------------|
 E ||-------------|----------------|------------4------|-----------------|


 G ||------6-----------|------6--|-----|-----|-----|-----|------6---------|
 A ||---------------6--|---------|-----|-----|-----|--6--|--4----------6--|
 D ||--4-------4-------|--4------|-----|-----|-----|-----|----------------|
 E ||------------------|---------|--6--|--5--|--4--|-----|----------------|


 G ||------------|-------6-----|-------------|------------------|---------------|
 D ||------------|----------6--|-------------|--4---------------|--4-----4-5-6--|
 A ||--4------4--|--4----------|--4-------4--|---------------4--|---------------|
 E ||------4-----|-------------|-------4-----|--------2--4h5----|---------------|


 G ||-------6--|--------|-------|------|------|-----|
 D ||----------|--------|-------|------|------|--6--|
 A ||--4-------|--4-----|-------|------|------|-----|
 E ||----------|--------|--6----|--5---|--4---|-----|





 Verse

 G ||-------6--------6--|------------------------|-----------|------------------|
 D ||-------------------|--6------------------6--|--4-----4--|--6---------6-----|
 A ||--4--------4-------|------------------6-----|-----------|---------6--------|
 E ||-------------------|-----------4--7---------|-----------|---------------4--|


 G ||---------6---------|----------------|-----------------|--------------------|
 D ||-------------------|------------6---|--4-----------4--|--6---4h6--4h6---6--|
 A ||--4-----------4h6--|---------6------|-----------------|--------------------|
 E ||-------------------|--4-------------|--------2sl5-----|--------------------|


 G ||---------6--------|-----------------------|------------|-------------------|
 D ||---------------4--|--------6-----6--6--6--|--4------4--|--6---6---7---7/0--|
 A ||--4---------------|-----------------------|------------|-------------------|
 E ||------------------|--4--------------------|------------|-------------------|


 G ||------6----------------|------------------------|
 D ||-----------------------|-----7------------------|       x2
 A ||--4------4--4----------|------------------------|
 E ||---------------8--7--6-|-5------5---5--6--7--8--|


 G ||-------------------|----------------------|-----------------|--------------|
 D ||-------------------|--------------------1-|-2--2--2--2--2h4-|--------------|
 A ||-4--4--4--4--------|-----------0--2--4----|-----------------|-2--2-3---3---|
 E ||-------------8-7-6-|-5--5--5--------------|-----------------|--------3---3-|





 Guitar Solo

 G ||----6------6--|-----------------|-----------6----|------------------9-5----|
 D ||--------------|-6----6--------6-|-4-------4---4--|-6----------4-6--------6-|
 A ||-4-----4------|------------6----|-------4--------|-------3-6---------------|
 E ||--------------|---------7-------|----------------|----4--------------------|


 G ||----------6--6-|------------------|-------------------|----------------|
 D ||---------------|-6---6---------6--|-4---------------4-|-6----4h6--4h6--|
 A ||--4----4-------|------------6-----|---------------4---|----------------|
 E ||---------------|---------7--------|------2---2-5------|----------------|


 G ||-----6-----6--|---------------|--------------------|---------------------|
 D ||--------------|--6---6-----6--|--4--------------4--|--6---6----7--7------|
 A ||--4-----4-----|---------------|--------------4-----|------------------0--|
 E ||--------------|---------4-----|--------2--5--------|---------------------|


 G ||------6---------------|------------------------|
 D ||----------------------|-----7------------------|       x2
 A ||--4--------4----------|------------------------|
 E ||--------------8--7--6-|-5------5---5--6--7--8--|


 G ||----6---------------|-----------------|-----7-----------|------------------|
 D ||--------------------|-----7-----------|-----------------|------------------|
 A ||-4-------4----------|---------------4-|-7------7---7--7-|----------3--3--3-|
 E ||------------8--7--6-|-5-------5--7----|-----------------|-7-7---7----------|


 G ||-----6--6--------------|--------------------|-----------------------------|
 D ||-----------------------|--------------------|-----------------------------|
 A ||--4--------4--4--------|--------------------|-4----4-4---4-4---4-4--------|
 E ||-----------------8-7-6-|-5---5--5---5-6-7-8-|-----------------------8-7-6-|


 G ||--------------------------|---------------------------|-----------------|
 D ||--------------------------|---------------------------|-----------------|
 A ||--------------------------|-4---4-4---4-4---4-4-------|--------------0--|
 E ||--5----5-5----5---5-6-7-8-|---------------------8-7-6-|-5--5----5-5-----|


 G ||---------------|-------------------|
 D ||---------------|-------------------|
 A ||---7---7--7--7-|-2---2-2--3--3--2--|
 E ||---------------|-------------------|






 Jam Section

 G ||---------------------||
 D ||---------------------||     Repeat over and over
 A ||---4--4---2-4--4--2--||
 E ||---------------------||


 Here are some variations:

 G ||---------------|-----------|-----------|-------------||
 D ||---------------|-----------|-----------|-------4--4--||   Pompeii Style
 A ||-(4)-2h4-(4)-4-|-2h4-(4)-4-|-2h4-(4)-4-|-2h4---------||
 E ||---------------|-----------|-----------|-------------||

 G ||-------------------------||
 D ||-------------------------||     Done During Guitar Solo
 A ||--4--4---2-2h4--4--4--2--||
 E ||-------------------------||





 Middle Section

 G ||---4---|-------|-----|-----|-----|-----|-----|-----|
 D ||-------|---4---|-----|--2--|-----|--4--|-----|--2--|    Repeat 3 Times
 A ||--(2)--|-------|--5--|-----|--2--|-----|--5--|-----|
 E ||-------|--(2)--|-----|-----|-----|-----|-----|-----|


 G ||-----|-----|-----|-----|-----|-----|-----|-----|-----|-----|-----|-----||
 D ||-----|-----|-----|--2--|-----|--6--|-----|--4--|-----|--6--|-----|--4--||
 A ||--2--|-----|--5--|-----|--4--|-----|--7--|-----|--4--|-----|--7--|-----||
 E ||-----|--2--|-----|-----|-----|-----|-----|-----|-----|-----|-----|-----||
Вверх

Echoes (3 вариант)

  F#mi
        B                                 B
E ---12-(14)--------------------------12-(14)-------------------------
B --------------------------------------------------------------------
G --------------------------------------------------------------------
D --------------------------------------------------------------------
A --------------------------------------------------------------------
E --------------------------------------------------------------------

  C#mi
E -----B--------------------------------B-----------------------------
B ---12-(14)--------------------12----12-(14)-------------------------
G --------------------------------------------------------------------
D --------------------------------------------------------------------
A --------------------------------------------------------------------
E --------------------------------------------------------------------

  F#mi
        B                                 B
E ---12-(14)------------------12--9---12-(14)------------12-----------
B ---------------------------------------------------------------12---
G --------------------------------------------------------------------
D --------------------------------------------------------------------
A --------------------------------------------------------------------
E --------------------------------------------------------------------

  C#mi
E -----B--------------------------------------------------------------
B ---12-(14)---------12---B--R---------B--------------B--R------------
G ----------------------11(13)11--9--11-(13)--------11(13)11--9-------
D ----------------------------------------------------------------9---
A --------------------------------------------------------------------
E --------------------------------------------------------------------

  F#mi
E --------------------------------------------------------------------
B -------------------------------------H----------B------------B------
G ------------------------------9-----9-11------11(13)-9--11-11(13)-9-
D --------------------7--9--11----------------------------------------
A --------------------------------------------------------------------
E --------------------------------------------------------------------

  C#mi
E ---B---------------------------------B------------------------------
B -11-(13)-----------------------9---12-(14)--------------------------
G -----------------------------9--------------------------------------
D --------------------------------------------------------------------
A --------------------------------------------------------------------
E --------------------------------------------------------------------

  Bbmi7                               A
       B                                 B                        B
E --12-(13)--------------------------11-(12)------------------11-(12)-
B --------------------------------------------------------------------
G --------------------------------------------------------------------
D --------------------------------------------------------------------
A --------------------------------------------------------------------
E --------------------------------------------------------------------

  G#sus4                              G#
E --11-------------------------------------------R--------------------
B --------------------------------------------(14)13------------------
G ---------------------------------------------------13---S-----------
D ------------------------------------------------------13\11-10------
A ---------------------------------------------------------------11---
E --------------------------------------------------------------------

  C#mi
E --------------------------------------------------------------------
B --------------------------------------------------------P-----------
G ------------11(13)11-9--11-11(13)~~~~~~~~~---------11--9-8----------
D -11----------------------------------------------------------11-9---
G --------------------------------------------------------------------
E --------------------------------------------------------------------

E -----------------------------------------------------9---------B----
B ------------------------------------------------B------9--12-12(14)-
G --------------------------------------------9-11(13)----------------
D -11-------------------------------------11--------------------------
A --------------------------------------------------------------------
E --------------------------------------------------------------------

  F#mi
E --------------------------P-----------------------------------------
B ------------------------10-9---------S--S-------B------------B------
G -----------------------------11-9--11/13\11---11(13)-9--11-11(13)-9-
D --------------------------------------------------------------------
A --------------------------------------------------------------------
E --------------------------------------------------------------------

  C#mi
E -------------------------B--------------B---------------------------
B --------------B-----12-12(14)------12-12(14)------------------------
G ------------11(13)------------9-------------------------------------
D -11-----------------------------------------------------------------
A --------------------------------------------------------------------
E --------------------------------------------------------------------

  Bbmi7                               A
       B                                 B                        B
E --12-(13)--------------------------11-(12)------------------11-(12)-
B --------------------------------------------------------------------
G --------------------------------------------------------------------
D --------------------------------------------------------------------
A --------------------------------------------------------------------
E --------------------------------------------------------------------

  G#sus4                              G#
E --11-------------------------------------------R--------------------
B --------------------------------------------(14)13------------------
G ---------------------------------------------------13---S-----------
D ------------------------------------------------------13\11-10------
A ---------------------------------------------------------------11---
E --------------------------------------------------------------------

  C#mi
E ----------------------------------
B ----------------------------------
G ----------------------------------
D -11-------------------------------
A ----------------------------------
E ----------------------------------


C#m
Overhead the albatross
      B
Hangs motionless upon the air
    F#m
And deep beneath the rolling waves
   G#
In labyrinths of coral caves
    C#m
The echo of a distant time
      B
Comes willowing across the sand
    F#m                                 G#
And everything is green and submarine
    C#
And no-one showed us to the land
    G#
And no-one knows the wheres or whys
    F#m
But something stirs and something tries
    G#              A
And starts to climb towards the light

C# walkdown to A, C# walkdown to A, C# walkdown to A   E B C

C#m
Strangers passing in the street
   B
By chance two separate glances meet
    F#m                          G#
And I am you and what I see is me
    C#m
And do I take you by the hand
    B
And lead you through the land
    F#m                                 G#
And help me understand the best I can
    C#
And no-one calls us to move on
    G#
And no-one forces down our eyes
    F#m
And no-one speaks and no-one tries
    G#          A
And no-one flies around the sun

C# walkdown to A, C# walkdown to A, C# walkdown to A   E B C

C#m                         B
Cloudless everyday you fall upon my waking eyes
  F#m                      G#
Inviting and inciting me to rise
    C#m
And through the window in the wall
     B
Come streaming in on sunlight wings
  F#m                              G#
A million bright ambassadors of morning
    C#
And no-one sings me lullabies
    G#
And no-one makes me close my eyes
F#m
So I throw the windows wide
    G          A
And call to you across the sky

 C# walkdown to A, C# walkdown to A, C# walkdown to A   E B C

---------------

Chorus Walkdown:

 C#                                       A
e-----------------------------------------------------------------------
B-----------------------------------------------------------------------
G-----------------------------------------------------------------------
D-------------------------------------------------1-2-1-2-4-6-4-6-7-6---
A----------4----------------4-3-2-1-0---0-2-4-2-4---------------------4-
E-------------------------------------4---------------------------------

C#                                       A
e-----------------------------------------------------------------------
B-----------------------------------------------------------------------
G-----------------------------------------------------------------------
D-------------------------------------------------1-2-1-2-------6-7-6---
A----------4----------------4-3-2-1-0---0-2-4-2-4---------------------4-
E-------------------------------------4---------------------------------

C#                                       A                        E
e----------------------------------------------------------------------
B----------------------------------------------------------------------
G----------------------------------------------------------------------
D-------------------------------------------------1-2-1-2-1---------2--
A----------4----------------4-3-2-1-0---0-2-4-2-4-----------4-32-------
E-------------------------------------4--------------------------0-----

B--C--back to verse
Вверх

Eclipse mp3

   D                       D/C                Bb6/9 (add#11)
 								   [ 3 ]*
g---------|--7----------|---------|-----------|-----------|--3--------------|
D---------|----7--------|---------|-----------|-----------|-----3--0-3-0----|
A--5------|-------5--0--|--3------|--3--3--3--|--1--1--1--|---------------1-|
E---------|-------------|---------|-----------|-----------|-----------------|

                         Verses
  A7                     D                       D/C

g--------|--------------|--------|-------------|--------|-----5--------|
D--------|--------------|--------|-------------|--------|--------------|
A-0-----0/12--12--12--125-------|--5---5---5--|--3-----|--3-----3--3--|
E--------|--------------|-----5--|----5---5----|--------|--------------|

  Bb6/9 (add#11)           A7                           D
                                      Long slide down
g--------|------3-------|------------|---------------|-------|-------------|
D--------|----3---3-----|------------|---------------|-------|-------------|
A-1------|----------1---|--0---/12--|-/12--------|--5----|--5---5----5-|
E--------|--------------|------------|---------------|-------|----5---5----|

   D/C                Bb6/9 (add#11)          A7

g-------|----5-------|-------|--------------|------------------|
D-------|--------5---|-------|--------------|------------------|
A--3----|--3-------3-|--1----|--1-1-1-1-1-1-/12-12-12-12-12-12-|
E-------|------------|-------|--------------|------------------|

                         D                      D/C

g---------------------|--------|--7----------|-----------|--5---------|
D---------------------|--------|----7--------|-----------|----5-------|
A--12-12-12-12-12-12--|--5-----|-------5--5--|--3--3--3--|--------3-3-|
E---------------------|--------|-------------|-----------|------------|

   Bb6/9 (add#11)          A7                       D

g-----------|-----------|-----------|------------|---------|-----------|
D-----------|-----------|-----------|------------|---------|-----------|
A--1--1--1--|-1-1----1--|--0----0---|--0--4-/-12-|--5------|--5--5-----|
E-----------|-----------|-----------|------------|---------|-----------|

    D/C                         Bb6/9(add#11)

g-------------|--------------|------------|-------------|
D-------------|--------------|------------|-------------|
A--3----------|--3---3---3---|--1---------|---1-1-1-1-1-|
E----------3--|----3---3-----|------------|-------------|

   A7                           D                        D/C

g--------|-------------------|------------|-----------|--------------|
D--------|-------------------|------------|-----7-----|--------------|
A--0----4/12-12-12-12-12-12--|--5---------|--5-----5--|--3-3-3-3-3---|
E--------|-------------------|---------5--|-----------|--------------|

                 Bb6/9(add#11)           A7

g--------------|----------|------------|---------------|-------------------|
D--------------|----------|------------|---------------|-------------------|
A--3-3--3-3-3--|-1--1--1--|-1--1----1--|-0-0-0-0/12-12-|-12-12-12-12-12-12-|
E--------------|----------|-------1----|---------------|-------------------|

   D                          D/C                     Bb6/9(add#11)

g-------------|------------|-----------|------------|-------------|
D-------------|------------|-----------|------------|-------------|
A--5--5--5----|--5--5---5--|--3--------|--3---3--3--|--1--1--1-1--|
E----------5--|-------5----|---------3-|----3-------|-------------|

               A7                                 D

g-----3-----|-----------|----------------------|-----------|--7----------|
D--3-----3--|-----------|----------------------|-----------|----7--------|
A-----------|--0--0--0--|--12-12-12-12-12-12--|--5--5--5--|-------5--5--|
E-----------|-----------|----------------------|-----------|-------------|

   C/D                      Bb6/9(add#11)          D      fade out

g-------------|-----------|----------|----------|--2-----|-(2)---||
D-------------|-----------|----------|----------|--0-----|-(0)---||
A--3-------3--|--3--3--3--|--1-------|--1-------|--------|-------||
E-------------|-----------|----------|----------|--------|-------||


*  [ 3 ] denotes triplets
Вверх

Eclipse (2 вариант) mp3

 D
All that you touch
 DC
All that you see
 A#
All that you taste
 A
All you feel
 D
All that you love
 DC
All that you hate
 A#
All you distrust
 A
All you save
 D
All that you give
 DC
All that you deal
 A#
All that you buy
 A
beg, borrow or steal
 D
All you create
 DC
All you destroy
 A#
All that you do
 A
All that you say
 D
All that you eat
 DC
everyone you meet
 A#
All that you slight
 A
everyone you fight
 D
All that is now
 DC
All that is gone
 A#
All that`s to come
 A                        D
and everything under the sun is in tune
 DC               A#               D
but the sun is eclipsed by the moon.
Вверх

Eclipse (3 вариант) mp3

INTRO:
 D                       D/C                    Bb6(add#11)
 Guitar 1
------------2----2-----------------0-----2---------------0--------
---------------3--------------3-------3---------------------3-----
--------2----------2-------------------------------------------0--
-----4---------------------4------------------------0-------------
--5---------------------3------------------------3----------------
----------------------------------------------1-------------------

Guitar 2
---------------------------------------------------------0--------
------------15---------------------15---------------15------15----
--------14-----14-------------14------14-----------------------0--
-----16------------16------16------------16------15---------------
--17--------------------15--------------------13------------------
------------------------------------------------------------------

 A7
--------0-------------
-------------2--------
----------------0-----
-----2-------------2--
--0-------------------
----------------------


----------------------
--------14------14----
-------------------0--
-----0-------14-------
-12-------------------
----------------------

VERSES:
 D                      D/C                     Bb6(add#11)
----2-------------2-------2-------0---------------------0----0----
-------3-----------------------------3----------------------------
------------2----------------2----------2----------0-------0---0--
---------------0--------------------------------3-----------------
-0---------------------3---------------------1--------------------
------------------------------------------------------------------


--------------------------------------------------------0---------
-----------15--------------------15----------------15------15-----
-------14-----14------------14------14-------------------------0--
----16------------16-----16------------16-------15----------------
-17-------------------15---------------------13-------------------
------------------------------------------------------------------

 A7
--------------------------
-------------------2----o-
--------2-----------------
-----0---------------2----
--0----------0----------o-
--------------------------

                           Play 3 Times
--------------------------
--------14-------14-----o-
------0------14------0----
--------------------------
--12--------------------o-
--------------------------

 D                      D/C                     Bb6(add#11)
----2-------------2-------2-------0---------------------0----0----
-------3-----------------------------3----------------------------
------------2----------------2----------2----------0-------0---0--
---------------0--------------------------------3-----------------
-0---------------------3---------------------1--------------------
------------------------------------------------------------------


--------------------------------------------------------0---------
-----------15--------------------15----------------0-------15-----
--------------14--------------------14-------------------------0--
------------------------------------------------15----------------
-0--------------------15---------------------13-------------------
------------------------------------------------------------------

 A7
--------------------------
-------------------2----o-
--------2-----------------
-----0---------------2----
--0----------0----------o-
--------------------------

                           Play 3 Times
--------------------------
--------14-------14--14-o-
------0-------------------
--------------------------
--12---------0----------o-
--------------------------

 D                       D/C                    Bb6(add#11)
-------------2---------------------0-------------------
--------3-------3-------------3-------3----------------
-----2-------------2-------2-------------2----------0--
--0----------------------------------------------3-----
------------------------3---------------------1--------
-------------------------------------------------------


-------------------------------------------------------
------------15---------------------15------------15-15-
--------14-----14-------------14------14---------------
-----16-----------16-------16------------16------------
--17--------------------15--------------------13-------
-------------------------------------------------------

                D
--0----0-----------2---
------------------3----
-----0----0------2-----   (spoken)  (There is no dark side of
----------------0------              the moon really... matter
---------------0-------              of fact, it's all dark)
-----------------------


--0---------------14---
-----15--15------15----
----------------14-----
---------------0-------
-----------------------
-----------------------
              w/heartbeat effects

Lyrics:

All that you touch, and all that you see
And all that you taste, all that you feel
And all that you love, and all that you hate
And all you distrust, and all that you save
And all that you give, and all that you deal
And all that you buy, beg borrow or steal
And all you create, and all you destroy
And all that you do, and all that you say
And all that you eat, and everyone you meet
And all that you slight, and everyone you fight
And all that is now, and all that is gone
And all that's come, and everything under the sun is in tune
But the sun is eclipsed by the moon.
Вверх

Empty Spaces mp3

|N.C.
E---------|----------|----------|------B---R---|--------|---------|--------|
B--5------|-7--------|8---------|7----7(8)--7--|5-------|---------|--------|
G---------|----------|----------|--------------|--------|---------|--------|
D---------|----------|----------|--------------|--------|---------|--------|
A---------|----------|----------|--------------|--------|---------|--------|
E---------|----------|----------|--------------|--------|---------|--------|

|
E---------|----------|----------|---------|-----------|---------|----------|
B-5-------|/5--------|7-----5-7-|8--------|7----------|---------|----------|
G---------|----------|----------|---------|---------7-|7-9------|----------|
D---------|----------|----------|---------|-----------|---------|----------|
A---------|----------|----------|---------|-----------|---------|----------|
E---------|----------|----------|---------|-----------|---------|----------|

|                     B5                                        F#5
E---------|----------|19-----19-17-19-----|19--19(20)---19-----|14----17-14|
B---------|----------|-(2 guitars)--------|------B-------------|-----------|
G---------|----------|11------------------|--------------------|-----------|
D---------|----------|-9------------------|--------------------|11---------|
A---------|----------|--------------------|--------------------|-9---------|
E---------|----------|--------------------|--------------------|-----------|

|                    B5                                F#5
E---B------17--17/19|19-------19-18|19--18-19----19--|14----17-14|17(19)--|
B-17(19)------------|--------------|------------------|-----------|--B-----|
G-------------------|-4------------|------------------|-----------|--------|
D-------------------|-4------------|------------------|-4---------|--------|
A-------------------|-2------------|------------------|-4---------|--------|
E-------------------|--------------|------------------|-2---------|--------|

| E5
E----------14(15)|14--------|15--------|17-----17/19|19---19-19-19---------|
B-17---------B---|----------|----------|------------|----------------------|
G--4-------------|-6--------|-7--------|-9----------|11--------------------|
D--2-------------|-4--------|-5--------|-7----------|-9--------------------|
A----------------|----------|----------|------------|----------------------|
E----------------|----------|----------|------------|----------------------|

|
E-------------17/19|---------------|------------|----------------|---------|
B------------------|---------------|------------|----------------|---------|
G-4----2-----------|---------------|------------|----------------|---------|
D-----------4------|3----2---------|------------|----------------|---------|
A-(Bass run)-------|----------3----|2-----------|----------------|---------|
E------------------|---------------|------------|0---------------|2--------|
                                                 What shall   we  use    to

|
E-------------|-------------|--------------|----------|---------|----------|
B-------------|-------------|--------------|----------|---------|----------|
G-------------|-------------|--------------|----------|---------|----------|
D-------------|-------------|--------------|----------|---------|----------|
A-------------|-------------|--------------|----------|---------|----------|
E-3-----------|2------3-2-0-|0-------------|2---------|3--------|2----3-2-0|
  fill    the  empty         spaces  where  waves  of  hunger    roar

|
E-----------------|---------------|----------|----------------|------------|
B-----------------|---------------|----------|----------------|------------|
G-----------------|---------------|----------|----------------|------------|
D-----------------|---------------|----------|----------------|------------|
A-----------------|---------------|----------|----------------|------------|
E-0---------------|2--------------|3---------|2----------3-2-0|0-----------|
  Shall we set out__  across this  sea    of  faces            In search of

|                                    E5            F#5          G5
E-------------|----------|----------|-------------|------------|-----------|
B-------------|----------|----------|-------------|------------|-----------|
G-------------|----------|----------|-9-9-9-------|11-11-11----|12-12-12---|
D-------------|----------|----------|-9-9-9-------|11-11-11----|12-12-12---|
A-------------|----------|----------|-7-7-7-------|-9--9--9----|10-10-10---|
E-2-----------|3---------|2---------|-------------|------------|-----------|
  more    and  more    ap-plause

|F#5       |E5        |F#5      |G5      |F#5           |G5                |
 sim power chords                              Shall we  buy a new guitar?

|F#5        |G5                   |F#5           |G5                       |
    Shall we drive a more powerful car?  Shall we work straight through the

|F#5                     |G5                       |                       |
 night?          Shall we get into fights leave the lights on drop bombs do

|                     |                   |B5                       |
 tours of the East con-tract diseases bury bones break up homes send

|                        |                           |                     |

 flowers by phone take to drink go to shrinks give up meat rarely sleep keep

|                    |                       |                    |
 people as pets train dogs race rats fill the attic with cash bury

|                 |                          |F#5                 |
 treasure store up leisure but never relax at all

|                       |E5             ||
   With our backs to the wall
Вверх

Fat Old Sun

G  G

G                            D
When the fat old sun in the sky is falling
F               C                 G
Summer evening birds are calling
G                 D
Summer's thunder time of
F                   C           G        G
The sound of music in my ears
G              D              F                C
Distant bells, new mown grass smells so sweet
G            D              F               C             G
By the river holding hands, roll me up and lay me down

          C (strum once)
And if you sit, don't make a sound.
Pick your feet up off the ground
And if you hear as the warm night falls
The silver sound from a time so strange
Sing to me, Sing to me

G      D     G (strum once)

G                              D
When that fat old sun in the sky is falling
F               C                 G
Summer evening birds are calling
G                   D
Children's laughter in my ears
F                  C           G
The last sunlight disappears

          C (strum once)
And if you sit, don't make a sound
Pick your feet up off the ground
And if you hear as the warm night falls
The silver sound from a time so strange,
Sing to me, Sing to me

G         D(strum once)

G         (Solo)
When that fat old sun...

G         D        F       C
(strum this dyring the solo)

SOLO:
e----------------------------------------------------------
B----------------------------------------------------------
G----------------------------------------------------------
D----------------------------------7---7h9-----------------
A--------------5--5h7--5---7--7/9-----------8---10--10/12--
E---3----5--7----------------------------------------------

e----------------------------------------------------------
B----------------------------------------------------------
G-------10--10-----10----------10h12--12h14--12h10---------
D---10--10--10h12--10---10h12------------------------------
A----------------------------------------------------------
E----------------------------------------------------------

e----------------------------------------------------------
B----------------------------------------------------------
G----------------------------------------------------------
D---12--10-----------------------------12--12--12h14--12---
A-----------12--10h12--10---12--12/14----------------------
E----------------------------------------------------------

e----------------------------------------------------------
B----------------------------------------------------------
G-------------14--14--14h16--------------------------------
D---14--14/16----------------15-14~--10--10h12--10h12--10--
A----------------------------------------------------------
E----------------------------------------------------------

e----------------------------------------------------------
B----------------------------------------------------------
G----------------------------------------------------------
D---5/7---5------------------------------------------------
A------------7--5---------------------5--5h7--5h7--5-------
E------------------7---5---3--5--5h7-----------------------

e----------------------------------------------------------
B----------------------------------------------------------
G---------------------------------------------10-----10----
D--------7h9--9b(10)b9--7-----7--9---10--(10)-10h12--10h12-
A---7h9--------------------9-------------------------------
E----------------------------------------------------------

e----------------------------------------------------------
B----------------------------------------------------------
G---10--------------10--10---10----------------------------
D---10h12--12b(13)--10--10---10h12--10-----5---------------
A-----------------------------------10h12--5h7--5--X3--5---
E----------------------------------------------------------

e----------------------------------------------------------
B----------------------------------------------------------
G----------------------------------------------------------
D----------------------------------------------------------
A---5\3--3\2--0--0h2--0h2--2b(3)-2--0--2---------5h7-------
E-----------------------------------------1----------------

e----------------------------------------------------------
B----------------------------------------------------------
G---------10-----10---------10--10-----------10------------
D--10-----10h12--10h12b(13)-10--10----10h12------12--------
A--10h12---------------------------------------------------
E----------------------------------------------------------
  overdrive
e----------------------------------------------------------
B----------------------------------------------------------
G--12b(14)==(14)=(14)==(14)b12-----14b(16)====(16)---------
D----------------------------------------------------------
A----------------------------------------------------------
E----------------------------------------------------------

e----------------------------------------------------------
B----------------------------------------------------------
G--14b(16)b14b(16)b14--12b(14)--14b(16)==14---14b(16)=(16)-
D----------------------------------------------------------
A----------------------------------------------------------
E----------------------------------------------------------

e----------------------------------------------------------
B----------------------------------------------------------
G--14b(16)b14b(16)b14--12b(14)--14b(16)==14---14b(16)=(16)-
D----------------------------------------------------------
A----------------------------------------------------------
E----------------------------------------------------------

e----------------------------------------------------------
B----------------------------------------------------------
G---12b(14)==(14)b12--12--12-------------------------------
D------------------------------10h12h14--14--14h12--12-----
A----------------------------------------------------------
E----------------------------------------------------------

e----------------------------------------------------------
B----------------------------------------------------------
G----------------------------------------------------------
D---12h14-12--14--12\10/12\10------------------------------
A------------------------------12h10-------------10--10h12-
E-------------------------------------12--10/12------------

e----------------------------------------------------------
B----------------------------------------------------------
G----------------------------------------------------------
D---------12h14---16-14-12------7~-6--7~-6--7-6-7-6--------
A--12/14---------------------------------------------------
E----------------------------------------------------------

e----------------------------------------------------------
B----------------------------------------------------------
G----------------------------------------------------------
D---3h5--5--3\2------------------------(10)b9--7-----------
A----------------5--3--3h5--3h5--5~---------------12-------
E-----------------------------------------------------12---

e----------------------------------------------------------
B----------------------------------------------------------
G----------------------------------------------------------
D-------------------------------12h14---(15)b14--12--------
A-----------------------12h14------------------------------
E--10h12--10h12--12/14-------------------------------------

e----------------------------------------------------------
B----------------------------------------------------------
G----------------------------------------------------------
D--12h14--14b(15)==(15)--(15)b14--(15)b14--14---12---------
A---------------------------------------------------12-----
E----------------------------------------------------------

e----------------------------------------------------------
B----------------------------------------------------------
G----------------------------------------------------------
D---------10------10h12--12---12\10------------------------
A--10/12------12---------------------12--12--10/12--12-----
E----------------------------------------------------------

e----------------------------------------------------------
B----------------------------------------------------------
G---------------------------------10-----10-----10---------
D---7--5--------------------------10h12--10h12--10---------
A---------7\5-5--5--5h7b(8)-/-12---------------------------
E----------------------------------------------------------
                        slowly fade out...
e----------------------------------------------------------
B--------------------------------------------16h13-16b(18)-
G---10-----10-----10---------------------------------------
D---10h12--10h12--10-----10b(12)====(12)b10----------------
A----------------------------------------------------------
E----------------------------------------------------------

e---X16/18--15---------------------------------------------
B---X16/18--15---------------------------------------------
G-----------------------------------10--10---9--10--9------
D----------------------------10h12--10--10--10---------8---
A---------------------10/12--------------------------------
E-----------------12---------------------------------------
Вверх

Fat Old Sun (2 вариант)

                         "When that fat old sun.."
G|--------|-12-11--------------|-----------------|-------------|
A|--------|--------10---9-/-4--|-5----5-----5--4-|-------------|
D|-10--10-|--------------------|---------5-------|-5------5--7-|
E|--------|--------------------|-----------------|----(5)------|

G|-------------|-----------------|----------|---------7h9p7----|
A|-------------|--------5h7p5----|-5------5-|-5--7-9---------9-|
D|-8------8--8-|-----7---------7-|----(5)---|------------------|
E|----(8)------|-8---------------|----------|------------------|

G|-7---------|-------------------5h7-|-5--(5)------|-----------|
A|-----0-----|--------------5h7------|-------------|-5----5--7-|
D|---------7-|-8--8---8--8-----------|--------3--3-|----5------|
E|-----------|------8----------------|-------------|-----------|

                                   "Distant bells.."
G|------7--7/9--12--12--11------|------------------|-----------|
A|-7h9-----------------------12-|------------------|-/12--0----|
D|------------------------------|-10-------10--105-|---------7-|
E|------------------------------|-----(10)---------|-----------|

G|-----10----------------|-------------------|-----------------|
A|---------10------------|---------------5h7-|-5--5--5--5--7h9-|
D|-8-----------8---8--83-|-3--3--3--5h7------|-----------------|
E|-----------------------|-------------------|-----------------|

G|--7------------------|---------------------|-----------------|
A|------7--------------|---------------------|-------------5h7-|
D|----------5---5---7--|-8--------8--8---8/3-|-3--3---5h7------|
E|---------------------|---------------------|-----------------|

                                 "And if you sit.."
G|----5/12--12--12--12--12-----|--------------|-------5--------|
A|-5-------------------------5-|-5----3-------|--5---(5)-------|
D|-----------------------------|------------3-|-(3)---3------3-|
E|-----------------------------|--------------|----------------|

G|-------|-------------------|------------------|----------5-----|-----------|
A|-------|----------------5--|--5------5--------|-------5--------|-----------|
D|-------|--0------2--3------|---------------3--|--3-------------|---2-------|
E|---2---|-------------------|------------------|----------------|-----------|

G|-----------------------|------------------|--------------------------------|
A|-----------------------|------------------|--------------------------------|
D|---0--/--5--------5----|--------/10-------|---5--------5---5---7---8---7---|
E|-----------------------|------------------|--------------------------------|

                                                              "When that fat.."
G|-----------------------5--5h7--5----|---------------------|----------------|
A|------------------5h7-------------7-|---------------------|-5----5---5--4--|
D|-8---8--8---8--8--------------------|-8---8--8--7--5---5--|----5-----------|
E|------------------------------------|---------------------|----------------|

G|-----------7------------|-----------5--5h7--5-----|--5---5-----------------|
A|--------7-----7---------|------5h7-------------7--|------------------------|
D|--5---------------5--7--|--8----------------------|-------------3---3--5---|
E|------------------------|-------------------------|------------------------|

G|-------------------|-----------------7--9p7-------|------------------------|
A|--5---5-----5---5--|--5-----7--7h9-----------9p7--|--------7---------------|
D|---------5---------|------------------------------|--5---------5--5--5--7--|
E|-------------------|------------------------------|------------------------|
                                                                "And if you.."
G|-----------------|-------------------|----/12---11----|--9-----------------|
A|-----------------|--------------5h7--|-5-----------12-|-----10--12--9------|
D|--8-----8---7--5-|----------5h7------|----------------|----------------5---|
E|------8----------|-8-----8-----------|----------------|--------------------|

G|------------------------|-------------------|------------------------------|
A|------------------------|-------------------|----------------------2---4---|
D|--3-------3--3----3-----|--2--------2--2----|--0-------2---3---5-----------|
E|------------------------|-------------------|------------------------------|

G|-------------------|--------------/5----/5---|----------4--4--4--4---------|
A|--5-----5------5---|-------------------------|-----------------------------|
D|-------------------|---3----3----------------|--2----------------------2---|
E|-------------------|-------------------------|-----------------------------|

G|--------------------------|------------------------------|-----------------|
A|-----------------------2--|-----------------2--3--2------|---5-------------|
D|--0--------0--2--3--5-----|--5--------5--5-----------5---|-----------------|
E|--------------------------|------------------------------|-----------------|

G|------------|-------------/10-10-10-10-10-10-10-|---------/7-7-7-7-7-7-7-7-|
A|------------|-----------------------------------|--------------------------|
D|-5--5--5--7-|-8--8-8-8-8------------------------|-8-8-8--8-----------------|
E|------------|-----------------------------------|--------------------------|

To Guitar Solo.
Вверх

FEARLESS mp3

TUNING: D G D G B D (open G)

RIFF FOUR TIMES   C Bb   G  C Bb

 G                                    C Bb
You say the hill's too steep to climb
 G         C Bb
Climb it!
 G                                C Bb
You say you'd like to see me try
 G       C Bb
Climb it!
 A                                      D
You pick the place and I'll choose the time
          G                    C
And I'll climb that hill in my own way
 G                          C
Just wait a while, for the right day
          G              C
And as I rise above the treeline and the clouds
        D              C                            G
I look down, hear the sound of the things you said today

RIFF 4 TIMES

BRIDGE(slide up and down to these shapes):
Bm Am Bm Am Bm Am Bm Am

G  C Bb   G  C Bb

Fearlessly the idiot faced the crowd
Smiling
Merciless, the magistrate turns round
Frowning
And who's the fool who wears the crown
And go down in your own way
And everyday is the right day
And as you rise above the fearlines in the frown
You look down
Hear the sound of the faces in the crowd

REPEAT RIFF FOREVER


CHORDS:                    RIFF:
  G  A Bb  C  D  Bm  Am
D  0  2  3  5  7   4   2     0  0  0  0  0  0
B  0  2  3  5  7   3   1     0  0  0  0  0  0
G  0  2  3  5  7   4   2     4  5  7  9  11 12
D  0  2  3  5  7   4   2     0  0  0  0  0  0  (slide down to G)
G  0  2  3  5  7   x   x     4  5  7  9  11 12
D  0  2  3  5  7   4   2     0  0  0  0  0  0


NOTE: The chord names are for the chords in regular tuning.  So if you don't
want to change the tuning you can play the song with these chords in
regular tuning, but you won't get to play the riff correctly.
Вверх

FLAMING

E              D
Alone in the clouds all blue
Bm          A          Asus4 A Asus2 A
Lying on an eiderdown.
  E                  A
Yippee! You can't see me
   D F   E
But I can you.

Lazing in the foggy dew
Sitting on a unicorn.
No fair, you can't hear me
But I can you.

Watching buttercups cup the light
Sleeping on a dandelion.
Too much, I won't touch you
But then I might.

Screaming through the starlit sky
Travelling by telephone.
Hey ho, here we go
Ever so high.

Alone in the clouds all blue
Lying on an eiderdown.
Yippee! You can't see me
But I can you.
Вверх

FREE FOUR

   G                         C              D                     G
The memories of a man in his old age are the deeds of a man in his prime.
                           C            D                         G
You shuffle in gloom in the sickroom and talk to yourself till you die.

                     C          D                    G
Life is a short, warm moment and death is a long cold rest.
                                 C
You get your chance to try in the twinkling of an eye:
D                                G
Eighty years, with luck, or even less.

                      C                 D                           G
So all aboard for the American tour, and maybe you'll make it to the top.
                              C
And mind how you go, and I can tell you, 'cause I know.
   D                       G
You may find it hard to get off.

B  Bsus4  B  G  A  B  Bsus4  B  G  A  G

G                    C         D                   G
You are the angel of death and I am the dead man's son.
                                  C
And he was buried like a mole in a fox hole.
   D                        G
And everyone is still on the run.

                        C
And who is the master of fox hounds?
   D                        G
And who says the hunt has begun?
                               C
And who calls the tune in the courtroom?
   D                     G
And who beats the funeral drum?

                             C              D                     G
The memories of a man in his old age are the deeds of a man in his prime.
                           C            D                         G
You shuffle in gloom in the sickroom and talk to yourself till you die.

B  Bsus4  B  G  A  B  Bsus4  B  G  A  G
Вверх

GET YOUR FILTHY HANDS OFF MY DESERT

G  C  D  G

G
Brezhnev took Afghanistan.

C
Begin took Beirut.
D                       G
Galtieri took the Union Jack.
   G
And Maggie, over lunch one day,
      C
Took a cruiser with all hands
 D                              G
Apparently to make him give it back.
    C         G
Mm________.
Вверх

GOODBYE BLUE SKY mp3

TUNING: D A D G B E

---------------------------------------------------
---------------------------------------------------
-------0----------------0----------------0---------
---4-------4---4----4-------4---4----4-------4---4-
-----5-------5--------5-------5--------5-------5---
-0-------0--------0-------0--------0-------0-------

---------------------------------
---------------------------------
------0------------5---5-------4-
---4----4-2--------5---5-------4-
-----5------3p2--0---------------
-0-------------------0---0---0---

---------------------------------------------------------------------
---------------------------------------------------------------------
-4----------5---5-------4--4----------5---5-------4----4------4-5-6--
-4----------5---5-------4--4----------5---5-------4----4------4-5-6--
---------------------------------------------------------------------
---0-0-0--0---0---0---0----0-0-0-0--0---0---0---0----0---0-----------
                                       Repeat x3
------------------------------------------------------------------------
------------------------------------------------------------------------
-----0-------0--------0-------0---.---11---9-------7------6---6h7p6p7---
---4---4---4---4----4---4---4---4-.-------------------------------------
-5-------5--------5-------5---------------------------------------------
------------------------------------0----0---0---0----0-0---0---------0-

-----------------------------------
-----------------------------------
-----0-------0--------0-------0---.
---4---4---4---4----4---4---4---4-.
-2-------2--------2-------2--------
-----------------------------------

--------------------------------------------------------------------
--------------------------------------------------------------------
---5---5---5---5--4------------------5---5---5---5--4---------------
---5---5---5---5--4------------------5---5---5---5--4---------------
--------------------------------------------------------------------
-0---0---0---0----0---0---0---0----0---0---0---0----0---0---0---0---

--------------------------------------------------------------------
--------------------------------------------------------------------
---5---5-------5------4---4-4-4-4------2---2-2-2-2------0---0-0-0-0-
---5---5-------5------4---4-4-4-4------2---2-2-2-2------0---0-0-0-0-
--------------------------------------------------------------------
-0---0---0---0----0---0---0---0----0---0---0---0----0---0---0---0---

--------------------------------------------------------------------
--------------------------------------------------------------------
---------------------------------------0-------0--------0-------0---
-----4---4-4-4-4----2---2-----0------4---4---4---4----4---4---4---4-
-----4---4-4-4-4----2---2---4---4--2-------2--------2-------2-------
-0-0---0---0------0---0---0-----------------------------------------
                                       Repeat x2
------------------------------------------------------------------------
------------------------------------------------------------------------
-------0----------------0---------.---11---9-------7------6---6h7p6p7---
---4-------4---4----4-------4---4-.-------------------------------------
-----5---5---5--------5---5---5-----------------------------------------
-0----------------0-----------------0----0---0---0----0-0---0---------0-

-----------------------------------
-----------------------------------
-----0-------0--------0-------0---.
---4---4---4---4----4---4---4---4-.
-2-------2--------2-------2--------
-----------------------------------

--------------------------------------------------------------------
--------------------------------------------------------------------
---5---5---5---5--4---4--------------5---5---5---5--4---4-----------
---5---5---5---5--4---4--------------5---5---5---5--4---4-----------
--------------------------------------------------------------------
-0---0---0---0----0---0---0---0----0---0---0---0----0---0---0---0---

---------------------------------------------------
---------------------------------------------------
---5---5-------5------4---4-4-4-4----------4-5-6---
---------------------------------------------------
---------------------------------------------------
-0---0---0---0----0---0---0---0----0---0---0---0---

----------------------------------
----------------------------------
-----0-------0--------0-------0---
---4---4---4---4----4---4---4---4-
-5-------5--------5-------5-------
----------------------------------

--------------------------------------------------------------------
--------------------------------------------------------------------
--------------------------------------------------------------------
---4---4---4---4----4---4---4---4----4---4---4---4---4----4---4---4-
-5---5---5---5----5---5---5---5----5---5---5---5----5---5---5---5---
--------------------------------------------------------------------

-------------------------------------------------------------------------
---------------1----------------1----------------1-----------------------
---------------0----------------0----------------0-----------------------
---0---0---0---0----0---0---0---0----0---0---0---0----0---0--------------
-3----------------------------------------------------------3p2p0--------
------------------------------------------------------------------3(b)-0-

   Repeat to fade
------------------------------------
------------------------------------
.-------0----------------0---------.
.---4-------4---4----4-------4---4-.
------5---5---5--------5---5---5----
--0----------------0----------------

(lyrics)

Oooooooooooh
Oooooooooooh
Oooooooooooh
Did did did did you see the frightened ones?
Did did did did you hear the falling bombs
Did did did did you ever wonder why we had to run for shelter
When the promise of a brave new world unfurled beneath the clear blue
sky?

Oooooooooooh
Oooooooooooh
Did did did did you see the frightened ones?
Did did did did you hear the falling bombs?
The flames are all long gone but the pain lingers on
Goodbye blue sky
Goodbye blue sky
Goodbye, goodbye
Вверх

GOODBYE CRUEL WORLD mp3

D
Goodbye cruel world
   G
I'm leaving you today
   D        A        D
Goodbye, Goodbye, Goodbye
D
Goodbye all you people
       G
There's nothing you can say
          D         A
To make me change my mind
D
Goodbye.
Вверх

GRANTCHESTER MEADOWS

VERSE 1:
  E                      A/E                    E
e-------------------------------------------------------------------
B-------------------------------------------------------------------
G---------4----6----7------6----4----2----6------6----4----4--------
D---------6----7----9------7----6----4----7------7----6----6--------
A-------------------------------------------------------------------
E-------------------------------------------------------------------

--------------------------------------------------------------------
--5^7^5---4^5^4-----------------------------------------------------
------------------6^8^6---4^6^4---------4-------4---6-------7-------
----------------------------------------6-------6---7-------9-------
--------------------------------------------------------------------
--------------------------------------------------------------------
                                         I   -   cy  wind    of

A/E                                E
--------------------------------------------------------------------
--------------------------------------------------------------------
--6-------4-------2-------6---------6---4-----------4-------2---4---
--7-------6-------4-------7---------7---6-----------6-------4---6---
--------------------------------------------------------------------
--------------------------------------------------------------------
  night   be      gone,   this       is  not         your    do- main

--------------------------------------------------------------------
----------4^5^4-----------------------------------------------------
-(4)--------------6^8^6---4^6^4-----4---4-------6-----------7-------
-(6)--------------------------------6---6-------7-----------9-------
--------------------------------------------------------------------
--------------------------------------------------------------------
                                     In  the     sky         a

A/E                                E
--------------------------------------------------------------------
--------------------------------------------------------------------
--6-------4-------2-------6---6----(6)--4---------------------------
--7-------6-------4-------7---7----(7)--6---------------------------
--------------------------------------------------------------------
--------------------------------------------------------------------
  bird    was     heard   to  cry________

                                   A
--------------------------------------------------------------------
--5^7^5---4^5^4---------------------5-------5---7-----------8-------
------------------6^8^6---4^6^4-----6-------6---7-----------9-------
--------------------------------------------------------------------
--------------------------------------------------------------------
3--------------------------------------------------------------------
                                     Mist -  y   morn    -   ing

D/A
--------------------------------------------------------------------
--10------12--10----------8---------8---7-----------7-------5---7---
--11------12--11----------9---------9---7-----------7-------6---7---
--------------------------------------------------------------------
--------------------------------------------------------------------
--------------------------------------------------------------------
  whis -  per-ings        and        gen-tle         stir - ring sounds

                                   E
----------5^7^5-----------------------------------------------------
------------------9^10^9--7^9^7-------------------------------------
-(7)--------------------------------------------4---6-------7-------
-(7)--------------------------------------------6---7-------9-------
--------------------------------------------------------------------
--------------------------------------------------------------------
                                                 be- lied    a

A/E                                E
--------------------------------------------------------------------
--------------------------------------------------------------------
--6-------4-------2-------6---------6-------4---4-----------2---4---
--7-------6-------4-------7---------7-------6---6-----------4---6---
--------------------------------------------------------------------
--------------------------------------------------------------------
  death - ly      si  -   lence      that    lay all         a - round

                                  Chorus:
                                   A
--------------------------------------------------------------------
----------4^5^4-----------------------------5---5---5---5---5---5---
-(4)--------------6^8^6---4^6^4-------------6-------6---------------
-(6)----------------------------------------------------------------
--------------------------------------------------------------------
--------------------------------------------------------------------
                                             Hear the lark and hark-en
G                F#m               E
--------------------------------------------------------------------
--3-3-3-------3---2---2---2-----------------------------------------
--4---------------2-----------2---------------------4-----------4---
----------------------------------------------------6-------7---6---
--------------------------------------------------------------------
--------------------------------------------------------------------
 to the bark-ing  of  the dog-fox                    gone    to  ground

                                   A
--------------------------------------------------------------------
--------------------------------------------5---5---5---5---5---5---
-(4)----------------------------------------6-------6---------------
-(6)----------------------------------------------------------------
--------------------------------------------------------------------
--------------------------------------------------------------------
                                             See the splashing of the

G                F#m               E
--------------------------------------------------------------------
--3---3-3---------2---2---2-----------------------------------------
--4---------------2-------------2---4---4---------------------------
------------------------------------6-------------------------------
--------------------------------------------------------------------
--------------------------------------------------------------------
  kingfisher      flashing to   the  wa- ter

                                   A
--------------------------------------------------------------------
------------------------------------5---5-------5---5-------5-------
--------------------------4---4-----6---------------6---------------
--------------------------------------------------------------------
--------------------------------------------------------------------
--------------------------------------------------------------------
                          And a      riv-er      of  green   is
G                F#m               E
--------------------------------------------------------------------
--3---3-------3---2-----2-2-----------------------------------------
--4---------------2-----------2-----4-------------------------------
------------------------------------6-------------------------------
--------------------------------------------------------------------
--------------------------------------------------------------------
  sliding     un- seen  beneath the  trees

                                   A
--------------------------------------------------------------------
------------------------------------5---5---5---5---5---5---5---5---
------------------------------------6---------------6---------------
--------------------------------------------------------------------
--------------------------------------------------------------------
--------------------------------------------------------------------
                                     Laughing as it  passes through the

G                F#m               E
--------------------------------------------------------------------
--3---3---3-3-----2---2---2-----------------------------------------
--4---------------2-----------2-----4-------------------------------
------------------------------------6-------------------------------
--------------------------------------------------------------------
--------------------------------------------------------------------
  end-less summer mak-ing for the    sea


Meanwhile a second guitar is playing this:
E and A/E              A and D/A
-------------------  -------------------
-------------------  -------------------
-------------------  ----2---2---2---2--
----2---2---2---2--  -------------------
-------------------  --0---0---0---0----
--0---0---0---0----  -------------------

G                      F#m
-------------------  -------------------
-------------------  -------------------
----0---0---0---0--  -------------------
-------------------  ----4---4---4---4--
-------------------  -------------------
--3---3---3---3----  --2---2---2---2----


Verse 1:
 Icy wind of night be gone, this is not your domain
 In the sky a bird was heard to cry
 Misty morning whisperings and gentle stirring sounds
 Belied a deathly silence that lay all around

Chorus:
 Hear the lark and harken to the barking of the dog-fox gone to ground
 See the splashing of the kingfisher flashing to the water
 And a river of green is sliding unseen beneath the trees
 Laughing as it passes through the endless summer making for the sea.

Verse 2:
 In the lazy water meadow I lay me down
 All around me golden sun-flakes settle on the ground
 Basking in the sunshine of a bygone afternoon
 Bringing sounds of yesterday into this city room

Chorus

Solo/Instrumental

Repeat Verse 2

Chorus
Вверх

GREEN IS THE COLOUR

INTRO:
G  C  G  C  G  Bm  C  Em   D

G                        C
Heavy hung the canopy of blue
G                        C
Shade my eyes and I can see you
G               Bm       C                Em           D
White is the light that shines through the dress that you wore

G                        C
She lay in the shadow of the wave
G                        C
Hazy were the visions of her playing
G               Bm       C                 Em          D
Sunlight on her eyes but moonshine made her blind every time

G                        C
Green is the colour of her kind
G                        C
Quickness of the eye deceives the mind
G           Bm               C               Em     D
Many is the bond between the hopeful and the dying


G  C  G  C  G  C  D   ( repeat until end )
Вверх

HAVE A CIGAR mp3

 gtr 1 (w/phaser)
                 Rhy. Fig. 1                        end Rhy. Fig. 1
----------------------------------------------------------------
----------------------------------------------------------------
----X\X\X\X\X\--------------------------------------------------
----X\X\X\X\X\-----2--------2--------2-----2--------2-----------
----X\X\X\X\X\-----2--------2--------2-----2--------2-----------
----X\X\X\X\X\--0-----0--3B-------------------3--0-----3~~~~~~~-

Rhy. Fig. 2                          end Rhy. Fig. 2 w/Rhy. Fig. 1
---------------------------------------------------------------------
---------------------------------------------------------------------
---------------------------------------------------------------------
----2--------2--------2-----2--------2----X\X\X\X\-------------------
----2--------2--------2-----2--------2----X\X\X\X\-------------------
-0-----0--3B-------------------3--0-------X\X\X\X\-------------------

 gtr 2
---------------------------------------------------------------------
---------------------------------------------------------------------
---------------------------------------------------------------------
---------------------------------------------------------------------
-----------------------------------------/7-----5--------------------
---------------------------------------------------7--6--5--3~~~~~~~-

gtr 1
---------------------------------------------------------------------
---------------------------------------------------------------------
---------------------------------------------------------------------
------------------------2--------2--------2-----0--------------------
------------------------2--------2-----------------2--1--0-----------
---------------------0-----0--3B----------------------------3~~~~~~~-

                                    w/bar
---------------------------------------------------------------------
---------------------------------------------------------------------
-----------------2B-(4)------------~~~~~~~~~~~~\---------------------
---------------------------------------------------------------------
---------------------------------------------------------------------
---------------------------------------------------------------------

w/Rhy. Fig 1                                  Rhy. Fig. 3-------------]
---------------------------------------------------------------------
---------------------------------------------------------------------
---------------------------------------------------------------------
------------------------------------------------2--------2-----------
------------------------------------------------2--------2-----------
---------------------------------------------0-----0--3B-------------

------------------------------------------------------------------
------------------------------------------------------------------
------------------------------------------------------------------
------------------------------------------------------------------
-7-----------9-----------10---------------------------------------
----------------------------------8-------------------------------

Rhy. Fig. 4
------------------------------------------------------------------
--------------------------------------------------5---------------
--------------------------------------------------5---------------
-2-----------4-----------5------------------------5-----------4---
----------------------------------3---------------3-----------2---
------------------------------------------------------------------

 gtr 1
------------------------------------------------------------------
-----5-----------5---5-------5-------^------------5---------------
-----5-----------5---5-------5----4--/5-----------5-------5-------
-4---5-----------5---5-------5----4--/5-------5---5-------5-------
-2---3-----------3---3------------2--/3-----------3-------3-------
------------------------------------------------------------------

 gtr 2
----------------------------------------------------------------------
----------------------------------------------------------12-12-12-12-
----------------------------------------------------------12-12-12-12-
----------------------------------2-----------------------------------
-------------10----------9---\----------------------------------------
-8--------------------------------------------------------------------

gtr 1            end Rhy. Fig. 4 w/Rhy. Fig 1
----------------------------------------------------------------------
----------------------------------------------------------------------
----------------------------------------------------------------------
-------------5-----------4--------------------------------------------
-3--------------------------------------------------------------------
----------------------------------------------------------------------

 gtr 2                            w/Rhy. Fig. 3
------------------------------------------------------------------
-12--\------------------------------------------------------------
-12--\------------------------------------------------------------
------------------------------------------------------------------
------------------------------------------------------------------
------------------------------------------------------------------

 gtr 2
------------------------------------------------------------------
------------------------------------------------------------------
------------------------------------------------------------------
------------------------------------------------------------------
-7-----------9-----------10---------------------------------------
----------------------------------8-------------------------------
gtr 1
Rhy. Fig. 5
------------------------------------------------------------------
--------------------------------------------------5-----------5---
--------------------------------------------------5-----------5---
-2-----------4-----------5------------------------5-----------5---
----------------------------------3---------------3---------------
------------------------------------------------------------------

------------------------------------------------------------------
------------------------------------------------------------------
------------(9)B(12)-----R-------(9)------------------------------
------------------------------------------------------------------
------------------------------------------------------------------
------------------------------------------------------------------

------------------------------------------------------------------
-----------------5---5-------5----5---------------5---------------
-----------------5---5-------5----5-----------5---5---------------
-----------------5---5-------5----5-----------5---5---------------
---------3---3--------------------3-------3-------3---------------
------------------------------------------------------------------
         PM--]

------------------------------------------------------------------
------------------------------------------------------------------
------------------------------------------------------------------
-0----------------------------------------------------------------
----------------------------------10----------9-----------7-------
------------------------------------------------------------------

------------------------------------------------------------------
---------------------7--------------------------------------------
---------------------7--------------------------------------------
---------------------7------------5-----------4-------------------
-5--------------------------------------------------------7-------
------------------------------------------------------------------

----------------------------------------------------------------------
----------------------------------------------------------------------
----------------------------------------------------------------------
----------------------------------------------------------------------
----------------------------------------7~~~~~~~~~~~~~~~~~~~~~--------
-----10--------9-------8---9---10--11---------------------------------

                       end Rhy. Fig. 5 w/Rhy. Fig. 1
----------------------------------------------------------------------
----------------------------------------------------------------------
----------------------------------------------------------------------
----------------------------------------------------------------------
-----5---------4-------3---4---5---6----------------------------------
----------------------------------------------------------------------

 gtr 2                      w/bar w/Rhy. Fig. 2
------------------------------------------------------------------
------------------------------------------------------------------
---------------------19B(21)~~~~~~~~~~~~~~~~~~~~~~~~~~~~~~~~~~\---
------------------------------------------------------------------
------------------------------------------------------------------
------------------------------------------------------------------

                                   w/Rhy. Fig. 1 (2x)
------------------------------------------------------------------
------------------------------------------------------------------
                                    Come in here,   dear    boy,

                                                     w/bar
------------------------------------------------------------------
------------------------------------------------------------------
-----------------------------------------------2B(4)~~~~~~~~~~~~~~
------------------------------------------------------------------
------------------------------------------------------------------
------------------------------------------------------------------
 have a  ci - gar,  you're gon-na  go      far.

 gtr 2
------------------------------------------------------------------
------------------------------------------------------------------
~~~~~~~~~~~~~~~~~~~~~\--------------------------------------------
------------------------------------------------------------------
------------------------------------------------------------------
------------------------------------------------------------------
gtr 1
------------------------------------------------------------------
------------------------------------------------------------------
------------------------------------------------------------------
--------------------------------------2-----------2-----------2---
--------------------------------------2-----------2-----------2---
----------------------------------0-------0---3B------------------
                  You're gon - na  fly high,                 you're
 gtr 1
Rhy. Fig. 6                                         end Rhy. Fig. 6
------------------------------------------------------------------
-----------------1--------------------------------3---------------
-------------0--------------------------------0-------0-----------
---------2-----------0-------0------------4---------------4-------
-3-----------------------2--------5-------------------------------
------------------------------------------------------------------
 never gonna die, you're gon - na make it if you try, they're gonna
 gtr 2
w/Rhy. Fig. 1 (4x)
------------------------------------------------------------------
-------------15---------------------------------------------------
-------(14)B(15)--------R--------(14)-----------------------------
------------------------------------------------------------------
------------------------------------------------------------------
------------------------------------------------------------------
 love    you.


------------------------------------------------------------------
------------------------------------------------------------------
                                                         Well, I've


-------------------------------------------------------------^----
----------------------------------------------------------12-/14--
----------------------------------------------------------12-/14--
------------------------------------------------------------------
------------------------------------------------------------------
------------------------------------------------------------------
 always had a deep respect, and I  mean that most   sin  -  cere -

   w/bar
------------------------------------------------------------------
-12~~~~~~~~~~~~~~-------------------------------------------------
-12~~~~~~~~~~~~~~----------------------------------2B(4)----------
------------------------------------------------------------------
------------------------------------------------------------------
------------------------------------------------------------------
 ly.                                                            The

w/Rhy. Fig. 3                     w/Rhy. Fig. 6
------------------------------------------------------------------
------------------------------------------------------------------
---R(2)-----------------------------------------------------------
------------------------------------------------------------------
------------------------------------------------------------------
------------------------------------------------------------------
 band is just  fantastic, that is  really  what I  think.      Oh,

                                  w/Rhy. Fig. 1 (2x)
----------------------------------------------------------------------
------------------------------------------------------15B(17)-15B(17)~
----------------------------------------------------------------------
----------------------------------------------------------------------
----------------------------------------------------------------------
----------------------------------------------------------------------
 by   the way,      which one's    Pink?


------------------------------------------------------------------
~~~~~~~~~~~~~~~~~~~R(15)------------------------------------------
------------------------------------------------------------------
------------------------------------------------------------------
------------------------------------------------------------------
------------------------------------------------------------------


 gtr 1                        Rhy. Fig. 7
-----------------------------0-------X---0-----------0---------------
-----------------------------1-------X---3-----------0---------------
-----------------------------0-------X---0-----------0---------------
-----------------------------2-------X---4-----------2---------------
-----------------------------3-------X---5-----------2---------------
-----------------------------------------------------0---------------
                   And if we   tell you the name of the game,


-0---------------------0--0-------0---0-------2---2---2---2-------2---
-1---------------------1--1-------1---1-------3---3---3---3-------3---
-0---------------------0--0-------0---0-------2---2---2---2-------2---
-2---------------------2--2-------2---2-------0---0---0---0-------0---
-3---------------------3--3-------3---3-------------------------------
----------------------------------------------------------------------
 boy,                              we  call it "riding the gra  -  vy


------------------------------------------------------------------
-0----------------------------------------------------------------
-0----------------------------------------------------------------
-0----------------------------------------------------------------
-2----------------------------------------------------5---5-------
-3--------------------------------------------3--/7---------------
 train."


------------------------------------------------------------------
-------------------------X----------------------------X---5\------
-------------------------X---5----5-----------5-------X---5\------
----5--------------------X---5----5-----------5-------X---5\------
(5)H7--------------------X--------5H7-----7-----------------------
------------------------------------------------------------------


                                                    end Rhy. Fig. 7
----------------------------------3---2-----------2---1-----------
-0--------------------------------3---2-----------2---1-----------
-0---------------0----------------4---3-----------3---2-----------
-0---------------0----------------5---4-----------4---3---X-X-X\--
-2---------------2----------------5---4-----------4---3---X-X-X\--
-3-------3-------3----------------3---2-----------2---1---X-X-X\--


 w/Rhy. Fig. 1 (4x)
------------------------------------------------------------------
------------------------------------------------------------------


 gtr 2
---------------------------------------------------------------------
-------------------------------X15B(17)R(15)P12-15B(17)~~~~~---------
---------------------------------------------------------------------
---------------------------------------------------------------------
---------------------------------------------------------------------
---------------------------------------------------------------------
                                                                 We're__


----------------------------------------------------------------------
----------------------------------------------------------------------
------------------------------------------------------(2)B(4)R(2)P0---
----------------------------------------------------------------------
----------------------------------------------------------------------
----------------------------------------------------------------------
_____ just       knocked out.                                       We


----------------------------------------------------------------------
----------------------------------------------------------------------
---------------------------------------2B(4)R(2)B(4)R(2)P0-2B(4)------
----------------------------------------------------------------------
----------------------------------------------------------------------
----------------------------------------------------------------------
 heard about the  sell - out.                                    You've

w/Rhy. Fig. 3                     w/Ryh. Fig. 6
------------------------------------------------------------------
------------------------------------------------------------------
 gotta get an album out, you       owe it to the people.      We're

                                  w/Rhy. Fig. 1 (4x)
----------------------------------------------------------------------
--------------------------------------------15------------------------
---------------------------------------(14)B(16)-----------R(14)------
----------------------------------------------------------------------
----------------------------------------------------------------------
----------------------------------------------------------------------
 so  happy, we can hard - ly       count.


------------------------------------------------------------------
------------------------------------------------------------------



------------------------------------------------------------------
------------------------------------------------------------------
                                   Ev'rybody else is just green_____


------------------------^--^--------------------------------------
--------------------(12)/14\12------------------------------------
--------------------(12)/14\12------------------------------------
------------------------------------------------------------------
------------------------------------------------------------------
------------------------------------------------------------------
_________________.            Have_____ you seen the chart?

                                  w/Rhy. Fig.3
------------------------------------------------------------------
------------------------------------------------------------------
                     It's    a     helluva     start,  it could be

w/Rhy. Fig. 6
------------------------------------------------------------------
------------------------------------------------------------------
 made into a  monster,      if we  all     pull  together  as  a

w/Rhy. Fig. 1 (2x)
----------------------------------------------------------------------
----------------------------------------------------------------------
------------------------------------------------------(2)B(4)R(2)P0---
----------------------------------------------------------------------
----------------------------------------------------------------------
----------------------------------------------------------------------
 team.


------------------------------------------------------------------
------------------------------------------------------------------
                                                       And  if  we

w/Rhy. Fig. 7
----------------------------------------------------------------------
----------------------------------------------------------------------
 tell you the name   of the game,          boy,

                                          gtr 1 begins slight ad lib
----------------------------------------------------------------------
----------------------------------------------------------------------
     we  call it "riding the gra  -  vy    train."


------------------------------------------------------------------
------------------------------------------------------------------



------------------------------------------------------------------
------------------------------------------------------------------


SOLO:
                                   w/Rhy. Fig. 1 (7 1/2x)
------------------------------------------------------------------
---------------------15B(17)----------------------~~~~~~~~~~~~~~~~
------------------------------------------------------------------
------------------------------------------------------------------
------------------------------------------------------------------
------------------------------------------------------------------

----------------------------------------------------------------------
-----15B(17)---15----12-----------------------------------------------
-----------------------(14)B(16)-----(12)B(14)R(12)~~~~~~~~~~~~~~~~~~~
----------------------------------------------------------------------
----------------------------------------------------------------------
----------------------------------------------------------------------

------------------------12H15P12--15~~~~~~-------17B(19)---(19)---
---15B(17)~~~~~~~-------------------------------------------------
------------------------------------------------------------------
------------------------------------------------------------------
------------------------------------------------------------------
------------------------------------------------------------------

-(19)------15B(17)-R(15)-15--14---14--------------------------------
-------------------------------------15~~15~~12-15-----15B(17)-R(15)
--------------------------------------------------------------------
--------------------------------------------------------------------
--------------------------------------------------------------------
--------------------------------------------------------------------

------------------------------------------------------------------
P12-------------------------------------------------14-14--14-14--
-------(14)B(15)R(14)----14--12B---------12---------14-14--14-14--
------------------------------------14----------------------------
------------------------------------------------------------------
------------------------------------------------------------------

----------------------------------------------------------------
-14--12------------------------------12--12--12---12---12-------
-14--12------------------------------12--12--12---12---12-------
---------X-14--------^--------^----------------12---12--(12)H14~
---------X------14P12\10-12-12/14-------------------------------
----------------------------------------------------------------

---------------12----12------------12-------------12-12-------12------
-----0----12-12---12-12----15B(17)---15B(17)R(15)------15B(16)--------
-------------------------------------------------------15B(16)--------
~~~~~-----------------------------------------------------------------
----------------------------------------------------------------------
----------------------------------------------------------------------

----------12-15-15-------15B(17)---R-(15)-----14--14--------------
---15B(17)------------12----------------------------15----15~~~~~~
------------------------------------------------------------------
------------------------------------------------------------------
------------------------------------------------------------------
------------------------------------------------------------------

w/Rhy. Fig. 4
-----19B(21)------R-(19)-19--18---17--16--------------------------
-----19B(20)------R-(19)----------------17-17~~~~~17B(19)~~~~~~~~~
------------------------------------------------------------------
------------------------------------------------------------------
------------------------------------------------------------------
------------------------------------------------------------------

-------------12-12----------------------------------------------------
---------------------15-----------------------------------------------
-----14B(16)-----------(14)B(16)R(14)-----14--12----------------------
------------------------------------------------------14-------^------
-------------------------------------------------------------14\12-10-
----------------------------------------------------------------------

                                  w/Rhy. Fig. 1
------------------------------------------------------------------
-----------------12--X-12--X-12---X-12--X-12--X-12--X-12X-X-12--X-
-----------------12--X-12--X-12---X-12--X-12--X-12--X-12X-X-12--X-
----^-------------------------------------------------------------
(12)/14~~~~~~~~~~-------------------------------------------------
------------------------------------------------------------------

                                      w/Rhy. Fig. 3
------------------------------------------------------------12--------
-12--X-12--X-12X-X-12X-X-12/14-14-----14\12-12--X-12--X-12----12--X---
-12--X-12--X-12X-X-12X-X-12/14-14-----14\12-12--X-12--X-12----12--X---
----------------------------------------------------------------------
----------------------------------------------------------------------
----------------------------------------------------------------------

w/Rhy. Fig. 5
----------12------------------------------------------------------12--
--------12---15-------------------------------12--------15B(17)-------
-14B(16)-------(14)B(16)R(14)--14-12B---------12----------------------
--------------------------------------14------------------------------
----------------------------------------------------------------------
----------------------------------------------------------------------

---------------------------12-----15P-14--15---------14---(14)B(15)---
(15)B(17)~~~~~~~~---15B(17)-------------------------------------------
----------------------------------------------------------------------
----------------------------------------------------------------------
----------------------------------------------------------------------
----------------------------------------------------------------------

-R(14)---------------12--------------------------------------------
---------------------------15----15B(17)--15-----------------------
----------------------------------------------14B(16)--14--12~~~~~~
-------------------------------------------------------------------
-------------------------------------------------------------------
-------------------------------------------------------------------

-----------------------------------------------------------------------
-----------------------------------------------------------------------
~~~~~~~~~~~~~~~~~~~~~~~~~~~~14B(16)---R(14)B(16)---R(14)B(16)R(14)P12--
-----------------------------------------------------------------------
-----------------------------------------------------------------------
-----------------------------------------------------------------------

w/Rhy. Fig. 1 (3x)
------------------------------------------------------------------
------------------------------------------12------X---12--X-12X---
-14--12-----------------------------------12------X---12--X-12X---
---------14~~~~~~~~~~~~~~~~~~~~~~~~~~~~~~~------------------------
------------------------------------------------------------------
------------------------------------------------------------------

----------------------------------12------------------------------
-14----12B----------------------------15--------------------------
-14----12B---------------14B(16)----------14B(16)--14-----14--12--
-14----12B--------------------------------------------------------
------------------------------------------------------------------
------------------------------------------------------------------

-----------------------------12------------------------17B(19)--R(17)-
--------------------------12-------15B(17)~~~~~~~~~~15----------------
---------12--------14B(16)--------------------------------------------
-X-14~~~~-------------------------------------------------------------
----------------------------------------------------------------------
----------------------------------------------------------------------

w/Rhy. Fig. 3
B(19)---R(17)-B(19)---R(17)-17B(19)---R(17)-B(19)--R(18)-(18)--R(17)-
---------------------------------------------------------------------
---------------------------------------------------------------------
---------------------------------------------------------------------
---------------------------------------------------------------------
---------------------------------------------------------------------

w/Rhy. Fig. 4
-15---------------------------------------------------------------
---17---17~~~~~~~~~~~~17B(20)~~~~~~~~~~~~~~~~~17B(20)~~~~~~~~~~~~~
------------------------------------------------------------------
------------------------------------------------------------------
------------------------------------------------------------------
------------------------------------------------------------------

----------------------------------------------------------------------
R(17)-17B(20)---(20)-(20)----R(17)-17B(20)~~~~~~-17B(20)--(20)--(20)--
----------------------------------------------------------------------
----------------------------------------------------------------------
----------------------------------------------------------------------
----------------------------------------------------------------------

                                  w/Rhy. Fig. 1
------------------------------------------------12----------------
-(20)R(17)(15)H17~~~~~~~--^-------------------X-12--X-12--X-12----
------------------------14\12-14B(16)--R-(14)-X-----X-12--X-12--12
------------------------------------------------------------------
------------------------------------------------------------------
------------------------------------------------------------------

                                      w/Rhy. Fig. 3
-------12----------12---------^---------^-----------------------------
-12----12X-X-12X-X-12-12----12/14-----14\12-12----12--X-12X-X-12------
-12--12--X-X-12X-X----12-12-12/14-----14\12-12----12--X-12X-X-12--12--
----------------------------------------------------------------------
----------------------------------------------------------------------
----------------------------------------------------------------------

w/Rhy. Fig. 5
---------------------------------------------------------------------
-------------12-----17P12-15P12--------------------------------------
-14B(16)----------------------------14B(16)-----14-----12B(14)-------
---------------------------------------------------------------------
---------------------------------------------------------------------
---------------------------------------------------------------------

------------------------------------------------------------------
------------------------------------------------------------------
-12~~~~~~~~~~~~~~~~~~11-------------------------------------11----
---------------------------12-----12~~~~~~~~~~~~~~~~~~10----------
------------------------------------------------------------------
------------------------------------------------------------------

                                  fade
------------------------------------------------------------------
------------------------------------------------------------------
-11B(12)R(11)------------------------^----------------------------
--------------10~~~~~~~~~~~------(10)/12~~~~~~~~~~~~~~~~~~X-------
------------------------------------------------------------------
------------------------------------------------------------------

                                fade to right channel
--------------------------------------------------------------------
-15B(17)-R-(15)-----------------------------------------------------
------------------14B(16)---(16)R(14)P12--14B(16)--(16)R(14)P12-----
----------------------------------------------------------------14~~
--------------------------------------------------------------------
--------------------------------------------------------------------

w/Rhy. Fig. 1 (2x)
------------------------------------------------------15P12-15----
----------------------15B(17)-------------------------------------
------------------------------------------------------------------
~~~~~~~~~~~~~~~~~~~~~~--------------------------------------------
------------------------------------------------------------------
------------------------------------------------------------------

-15B(17)--R--(15)----------------------15---15---15---15---15B(17)---
---------------------------------------------------------------------
---------------------------------------------------------------------
---------------------------------------------------------------------
---------------------------------------------------------------------
---------------------------------------------------------------------

 gtr 2
    radio sound effects approx. 16 sec.
--15-----------------------------------
---------------------------------------
---------------------------------------
---------------------------------------
---------------------------------------
---------------------------------------

gtr 1
---------------------------------------
---------------------------------------
---------------------------------------
---------------------------------------
---------------------------------------
-0-------------------------------------
Вверх

Hey you mp3

CAPO 3

INTRO:
e--------0-----0----------0-----0----------2-----2----------2-----2-----
B--4----------------4----------------2-------3--------2-------3---------
G------6---6-----6------6---6-----6------4-----4---4------4-----4---4---
D----6-------6--------6-------6--------4----------------4---------------
A-----------------------------------------------------------------------
E-----------------------------------------------------------------------

      ____________________
            1.
-------0-----0----------0-----0----------2-----2-----------2-----2-0----
-4----------------4-------6--------2-------3---------2-------3----------
-----6---6-----6------6-----6---6------4-----4---4-------4-----4-------*
---6-------6--------6----------------4-----------------4---------------*
------------------------------------------------------------------------
------------------------------------------------------------------------

________________
2.
--------2------
--2-------3----
------4--------
----4----------
---------------
---------------
     Hey

VERSE:
(Rhythm figure 1)
--------0-----0----------0-----0----------0-----0---
--4----------------4----------------4-------4-----0-
------6---6-----6------6---6-----6------6-----------
----6-------6--------6-------6--------6-------6-----
----------------------------------------------------
----------------------------------------------------
  you,             Out there in the cold, getting lonely getting cold, Can

--------4-------4--------4-----4----------0-----0----------0-----0---
--4---4-----4------4---4---4-----0--4----------------4---------------
----------4---4--------------4----------6---6-----6------6---6-----6-
----6----------------6----------------6-------6--------6-------6-----
---------------------------------------------------------------------
---------------------------------------------------------------------
 you feel me                    Hey  you,               Standing in the
         aisles with itchy

--------0-----0----------4-----4----------4-----4----------2-----2---
--4-------------0--4---4---4-----4--4---4---4-----4--2-------4-------
------6---6------------------4----------------4----------4-----4---4-
----6-------6--------6----------------6----------------4-------------
---------------------------------------------------------------------
---------------------------------------------------------------------
feet and fasing smiles can you feel me?                Hey, you     don't

      (end Rhy. fig 1)
--------2-----2----4-----------0--------0-----0----------0-----0---
--2-------4-----0--5---5-4--------2---2---2-----2--2---2---2-----0-
------2-----4------4-4-------4------2-------2--------2-------2-----
----4----------------------4---------------------------------------
-------------------------------------------------------------------
-------------------------------------------------------------------
help them to bury the light.

--------4-----4----------2-----2----------0-----0----------0-----0---
--4---4---4-----4--2---2---2-----0--4----------------4---------------
------------4----------------2----------6---6-----6------6---6-----6-
----6----------------4----------------6-------6--------6-------6-----
---------------------------------------------------------------------
---------------------------------------------------------------------
 Don't give in             without a fight.

---------2-----2----------2---
--2--------3--------2-------3-
-------4-----4---4------4-----
-----4----------------4-------
------------------------------
------------------------------

VERSE 2:(Gtr. 1 - Rhy. fig 1,
 Gtr. 2 - acoustic no capo strums chords high to low)

   Em9
Hey, you
Out there on you own, sitting naked by the phone,
     Bm
would you touch me?
   Em9
Hey, you,
with you ear against the wall, waiting for someone to call out,
     Bm              Dsus2
would you touch me?
Hey, you,
   G    D    C
Would you help me to carry the sto - o - one?
Bm                      C        Em
Open your heart, I'm coming home.

SOLO:(Gtr. 2 electric plays Rhy. fig. 2 - 8 X)
  (Rhythm fig 2)                                           (end Rhy. fig 2)
e------------------------------------------------------------------------
B------------------------------------------------------------------------
G------------------------------------------------------------------------
D------------------------------------------------------------------------
A------------------------------------------------------------------------
E--10\--0--2-2>(3)-2vvvvvv----0--2-2>(3)-2vvvvvv----0-0-2-2>(3)-2vvvvvvv-

(Gtr. 3 electric)
-----------------------------------------------------------------------------
-3>(5)=======(5)vvvvvvvvvvvvv(5)=====>3--3>(5)==(5)vvvvvvvvvvvvvvv(5)====>3--
-----------------------------------------------------------------------------
-----------------------------------------------------------------------------
-----------------------------------------------------------------------------
-----------------------------------------------------------------------------

-----------------------------------------------------------------------------
-3>(5)vvvvvvvvvvvvvvvvvvvv>(4)>(5)>===(4)>(5)>===(4)>(5)------3>(5)vvvvvvvv--
-----------------------------------------------------------------------------
-----------------------------------------------------------------------------
-----------------------------------------------------------------------------
-----------------------------------------------------------------------------

-----------------------------------------------------------------------------
--3/7vvvvvvvvvv--5-7-7>(8)>7vvvvvvvvv---5-7-7>(8)>7vvvvvvvv---5-7-7>(8)>7vvvv
-----------------------------------------------------------------------------
-----------------------------------------------------------------------------
-----------------------------------------------------------------------------
-----------------------------------------------------------------------------

---------------5--7-5-7--7>(8)vvvvvvvvvv(8)==>7>(8)--7>(8)vvvvvvvv-7---
--5vvvvvv-7-8----------------------------------------------------------
-----------------------------------------------------------------------
-----------------------------------------------------------------------
-----------------------------------------------------------------------
-----------------------------------------------------------------------

--7>(8)vvvvvvv(8)===>7--7>(8)vvvvvvvvv----------12-----------------------
----------------------------------------15>(17)-----15>(17)vvvvvvv>(16)--
-------------------------------------------------------------------------
-------------------------------------------------------------------------
-------------------------------------------------------------------------
-------------------------------------------------------------------------

------------12---15-----------12--15-------------------------
---15>(17)-----------15>(17)----------15>(17)vvvvvvvvvvvvvv--
-------------------------------------------------------------
-------------------------------------------------------------
-------------------------------------------------------------
-------------------------------------------------------------

----------------------------------12------------------------------------
--15>(17)======>15>12----------12-----15>(17)=====>(16)>(17)=======>15--
-----------------------14>(16)------------------------------------------
------------------------------------------------------------------------
------------------------------------------------------------------------
------------------------------------------------------------------------

----------14-15/17-17/19--17--19--19>(20)========(20)>19---19>(20)-17>19--
--15>(17)-----------------------------------------------------------------
--------------------------------------------------------------------------
--------------------------------------------------------------------------
--------------------------------------------------------------------------
--------------------------------------------------------------------------
        v-- slow dive w/ bar
--19>17--20--19>(20)==>19--19>(20)==========(20)==>19>17--19--------------
--------------------------------------------------------------------------
--------------------------------------------------------------------------
--------------------------------------------------------------------------
--------------------------------------------------------------------------
--------------------------------------------------------------------------

BRIDGE:
C           D     G  D  C
But it was only  fantasy
  D       G   D   C
The wall was too high as you can see.
  D               G   D     C
No matter how he tried, he could not break free,
   D        Emadd9
and the worms ate into his brain.

Play This 4 Times:
       ____________________
      1.-3.
e--------0-----0----------0-----0----------2-----2----------2-----2-----
B--4----------------4----------------2-------3--------2-------3-----0---
G------6---6-----6------6---6-----6------4-----4---4------4-----4------*
D----6-------6--------6-------6--------4----------------4--------------*
A-----------------------------------------------------------------------
E-----------------------------------------------------------------------
  __________________________________________
  4.
e------2-----2--------2--------2-----2----
B---2-----------3-----------2-----------3-
G---------4--------4-----4--------4-------
D------4-----------------------4----------
A-----------------------------------------
E-----------------------------------------

VERSE:(with Rhy. fig. 1)
Em add9
Hey, you
out there on the road,
Em add 9
always doing what your told,
   Bm
can you help me?
Em add 9
Hey you,
out beyond the wall,
Em add 9
breaking bottles in the hall,
   Bm
can you help me?

ELECTRIC:
e-------------------------------------------------------------------
B-------------------------------------------------------------------
G----4------5---6---7-----------------------------------------------
D----4------5---6---7-----------------------------------------7\----
A----2------3---4---5-----------------------------------------5\----
E-------------------------------------------------------------------
     Hey you!  Don't tell me there's no hope at

e---------------------------------------------------------------
B---------------------------------------------------------------
G---------7----5----------5-----5--5----5\4----4----------------
D----5----7----5----------5-----5--5----5\4----4----------------
A----5----5----3----------3-----3--3----3\2----2----------------
E----3----------------------------------------------------------
   all______________.                       To - gether we stand,

e--------------------------------------------------
B--------------------------------------------------
G----2---------------------------------------------
D----2-----------------------2---------------------
A----0-----------------------2---------------------
E-------------------10\------0---------------------
    divided we fall.

   [segue to Is There Anybody Out There?]
Вверх

HIGH HOPES

This is the intro and should be repeated 4 times.
E------15--------15--------18--------18--------11--------11--------------
B------13--------13--------16--------16---------9---------9--------------
G------------------------------------------------------------------------
D------------------------------------------------------------------------
A------------------------------------------------------------------------
E------------------------------------------------------------------------


Cm            Cm7           Ab                              Cm
Beyond the horizon of the place we lived when we were young
              Cm7                 Ab
In a world of magnets and miracles
Cm                      Cm7              Ab
Our thoughts strayed constantly and without boundary
Cm                   Cm7                 Ab
The ringing of the division bell had begun

              Bb            G7
Along the long road and on down the causeway
Ab             Bb            G7
Do they still meet there by the cut.


(same chord sequence for other verses)

There was a ragged band who followed in our footsteps
Running before times took our dreams away
Leaving the myriad small creatures trying to tieus to the ground
To a life consumed by slow decay

Ab              Cm    Gm Ab
The grass was greener
Bb                 Cm  Eb Fm
The light was brighter
Ab              Cm   Gm  Ab
When friends surrounded
Bb               Cm   Eb Fm
The nights of wonder


Looking beyond the embers of bridges glowing behind us
To a glimpse of how green it was on the other side
Steps taken forwards but sleepwalking back again
Dragged by the force of some sleeping tide

at a higher altitude with flag unfurled
We reached the dizzy heights of that dreamed of world


Marching drums bit
(Nylon Strung guitar)

E----------------------------------------------------------------------------
B----------------------------------------------------------------------------
G----------------------------------------------------------------------------
D---2----2/4-4---4/5-5--5/-9--9--7--------7-9-10-7-9-5-7-7h9p7-5h7p5-3h5p3---
A----------------------------------------------------------------------------
E----------------------------------------------------------------------------

E----------------------------------------------------------------------------
B----------------------------------------------------------------------------
G----------------------------------------------------------------------------
D--2----2/4-4---4-5-5--5/-9--9--9--5--7------------7--10--9/-12----10p9--7---
A----------------------------------------------------------------------------
E----------------------------------------------------------------------------

E----------------------------------------------------------------------------
B----------------------------------------------------------------------------
G----------------------------------------------------------------------------
D--2---2/4-4---4/5-5---5/-9--9--7---------------7-10-9--5--9--7---5--7--7/9--
A----------------------------------------------------------------------------
E----------------------------------------------------------------------------

E----------------------------------------------------------------------------
B----------------------------------------------------------------------------
G----------------------------------------------------------------------------
D--2--2/4-4---4-5-5---5/-9--9--9--5--7----------7\5--3--2--3-----2-----------
A-------------------------------------------------------------5-----3--------
E---------------------------------------------------------------------5---3--

Then this intro comes in again.(x4)

E------15--------15--------18--------18--------11--------11--------------
B------13--------13--------16--------16---------9---------9--------------
G------------------------------------------------------------------------
D------------------------------------------------------------------------
A------------------------------------------------------------------------
E------------------------------------------------------------------------


Encumbered forever by desire and ambition
Theres a hunger still unsatisfied
Our weary eyes still stray to the horizon
Though down this road I've been so many times


(same sequence as in first chorus )
The grass was greener
The light was brighter
The taste was sweeter
The nights of wonder
With friends surrounded
The dawn mist glowing
The water flowing
The endless river

Forever and ever...
Вверх

IBIZA BAR

INTRO:

 E D E D E D A C G Bb F A

E                       D
I'm so afraid of the mistakes that I've made
E                          D
I shake every time that I awake
E                         D
I feel like a card board cut-out man
     A          C           G        Bb
so build me a time where charters ryme
           F            A
and the story line is kind

E                             D
I've aged and aged since the first page
E                           D
I read every line that you wrote
E
take me down take me down
             D
from the shelf above your head
      A          C          G        Bb
and build me a time where charters ryme
           F           A
and the story line is kind

SOLO

E                             D
Ive lived in the left on the shelf like the rest
    E                              D
and the epilogue reads like a sad song
E                              D
please pick up your camera and use me again
      A          C             G         Bb
and build me a time when the charters ryme
         F             A
and the story line is kind

        E D E D E D A C G Bb F A
Вверх

If

-------0---------------0-----------------------------
-----0---0-----------0---0-------------0-------------
---1-------1---1---1-------1---1-----2---2-----------
-2-----------2---2-----------2-----1-------1---1---1-
---------------------------------2-----------2---2---
-----------------------------------------------------

-------------------0---------------0---------------2-
---0-------------0---0-----------0---0-----------3---
-2---2---------1-------1---1---1-------1---1---2-----
-------1---1-2-----------2---2-----------2---0-------
---------2-------------------------------------------
-----------------------------------------------------


---------------2---------------0---------------0-----
-3-----------3---3-----------0---0-----------0---0---
---2---2---2-------2---2---1-------1---1---1-------1-
-----0---0-----------0---2-----------2---2-----------
-----------------------------------------------------
-----------------------------------------------------


-----------2---------------2---------------0---------
---------3---3-----------3---3-----------0---0-------
---1---2-------2---2---2-------2---2---1-------1---1-
-2---0-----------0---0-----------0---2-----------2---
-----------------------------------------------------
-----------------------------------------------------

-----------------------------------------------------
-------2----------------2---------------0------------
-----4---4------------3---3-----------2---2----------
---3-------3---3----4-------4---4---1-------1---1----
-4-----------4--------------------2-----------2------
------------------2-----------2----------------------


repeat
do.

If I were a swan, I'd be gone...
If I were a train, I'd be late... and
If I were a good man,
I'd talk with you more often than I do.

If I were asleep, I could dream...
If I were afraid, I could hide... and
If I go insane,
Please don't put your wires in my brain.

-------------------------------------------------------------------------
-5////////9----9\\\\7-----------------5////////9----9\\\\7---------------
-------------------------------------------------------------------------
-------------------------------------------------------------------------
-------------------------------------------------------------------------
-------------------------------------------------------------------------
                1/2
-------------------------------------------------------------------------
--5////////9----9b\\\\\7--------------5////////9----9\\\\7/////12\\\9\\\7
-------------------------------------------------------------------------
-------------------------------------------------------------------------
-------------------------------------------------------------------------
-------------------------------------------------------------------------

-------------------------------------------------------------------------
-5////////9--------------------------------------------------------------
-------------------------------------------------------------------------
-------------------------------------------------------------------------
-------------------------------------------------------------------------
-------------------------------------------------------------------------

If I were a moon, I'd be cool...
If I were a good man,
I'd understand the spaces between friends.

If I were alone, I would cry...
If I were with you, I'd be home, and dry, and
If I go insane,
Will you still let me join in with the game.

-------------------------------------------------------------------------
-5///////9----9\\\\7---5////7----5////////9------------------------------
-------------------------------------------------------------------------
-------------------------------------------------------------------------
-------------------------------------------------------------------------
-------------------------------------------------------------------------

-------------------------------------------------------------------------
-5///////9----9\\\\7---5////7--5///////9----9\\\\7---5////7--------------
-------------------------------------------------------------------------
-------------------------------------------------------------------------
-------------------------------------------------------------------------
-------------------------------------------------------------------------

-------------------------------------------------------------------------
-5///////9-8/9//////14\\\\\12--------5////////9----9\\\\7--7\\\\5--------
-------------------------------------------------------------------------
-------------------------------------------------------------------------
-------------------------------------------------------------------------
-------------------------------------------------------------------------

Repeat first verse, end on E chord.
Вверх

INTERSTELLAR OVERDRIVE

e------------------------------------------------------------------0-----------
b--------------------------------------------------------------------0---------
g------------------------------------------------------------------------------
d------------------2-2----9-9-8-9-8--7-7-6-7-6-5-5-5-5-5-5---------------------
a-------------------------7-7-6-7-6--5-5-4-5-4-3-3-3-3-3-3-7-7-7-2-------------
E-12 slide to 0-0-0-0-0-0----------------------------------5-5-5-0-------------
                   ^
      bass enters on right side here

e-----------------------------------------------0-----12-12-11-12-11---
b-------------------------------------------------0---12-12-11-12-11---
g---------------------------------------------------0-12-12-11-12-11---
d------9-9-8-9-8--7-7-6-7-6-5-5-5-5-5-5---------------14-14-13-14-13---
a------7-7-6-7-6--5-5-4-5-4-3-3-3-3-3-3-7-7-7-2-------14-14-13-14-13---
E---------------------------------------5-5-5-0-------12-12-11-12-11---
                                                ^
              I always like doing harmonics on 12 instead of 0, but Barrett..

e--10-10-9--10-9--8--8--8----s-u-12------12-12-11-12-11
b--10-10-9--10-9--8--8--8--s-l-p-12------12-12-11-12-11
g--10-10-9--10-9--9--9--9--l-i---13------12-12-11-12-11
d--12-12-11-12-11-10-10-10-o-d---14------14-14-13-14-13
a--12-12-11-12-11-10-10-10-w-e-t-14------14-14-13-14-13
E--10-10-9--10-9--8--8--8------o-12------12-12-11-12-11
                         ^
Barrett decides this task (of chords)is too hard and get out before fucking
                                 up
e--10-10-9--10-9--8--8--8----s-u-12---
b--10-10-9--10-9--8--8--8--s-l-p-12---
g--10-10-9--10-9--9--9--9--l-i---13---
d--12-12-11-12-11-10-10-10-o-d---14---
a--12-12-11-12-11-10-10-10-w-e-t-14---
E--10-10-9--10-9--8--8--8------o-12---
                          ^
  Do this while strumming and make so final chord comes when bass reaches E.

Bass line is just the bottom notes of the power chords that are used in the
beginning.
Вверх

IN THE FLESH? mp3

INTRO:
e---------------------------------------------------------------0-----
B--------------------------------------------------8----\--3----0-----
G--------------------------------------------------7----\--2----------
D---------------------------------------------------------------------
A-----------------------------0-------2---3vvvvv----------------------
E---0--------2vvvvv---3vvvvv------------------------------------------

---------0------------0-----------------------------------------------
------------3------------3--------------------------------------------
-2>(4)-0------2>(4)-0------2>(4)--2-0---------------------------------
--------------------------------------2-0-----------------------------
------------------------------------------2-1-0---------2vvvvvvv------
------------------------------------------------3>(4)p0---------------

-2vvvvv---4vvvvv---5vvvvv---4vvvvv--2vvvvv---4vvvvv---5vvvvv---7vvvvv-
-3vvvvv---5vvvvv---6vvvvv---5vvvvv--3vvvvv---5vvvvv---6vvvvv---8vvvvv-
-2vvvvv---4vvvvv---5vvvvv---4vvvvv--2vvvvv---4vvvvv---5vvvvv---7vvvvv-
-0vvvvv---0vvvvv---0vvvvv---0vvvvv--0vvvvv---0vvvvv---0vvvvv---0vvvvv-
----------------------------------------------------------------------
----------------------------------------------------------------------

%
------------------------------------------------------
------------------------------------------------------
-(2)-------------------------x------------------------
-(2)-------------------------x-x----------------------
--0---2>(4)-2vvvvv--0--------x-x--4>(5)-4vvvvv-2vvvvv-
-----------------------2>(4)---x----------------------

------------------------------------------------------
------------------------------------------------------
------------------------------------------------------
--2---------------------------------------------------
--0---2>(4)-2vvvvv--0--------x-x--4>(5)-4vvvvv-2vvvvv-
-----------------------2>(4)-x-x----------------------

------------------------------------------------------
------------------------------------------------------
--2--------------------------x------------------------
--2--------------------------x------------------------
--0---2>(4)-2vvvvv--0--1--2v---x--4>(5)-4vvvvv-2---3--
------------------------------------------------------

                              %
------------------------------
------------------------------
--------x---------------------
--------x---------------------
--4vvvv---5>(7)-5vvvvv-4------
-------------------------12\--

VERSE:
----------------------------------------------2-----------------2-------
----------2-----------------2--------------3-----3-----------3-----3----
-------2-----2-----------2-----2--------2-----------2-----2-----------2-
----2-----------2-----2-----------2--0-----------------0----------------
-0-----------------0----------------------------------------------------
------------------------------------------------------------------------

----------------------------------------------2-----------------2-------
----------2-----------------2--------------3-----3-----------3-----3----
-------2-----2-----------2-----2--------2-----------2-----2-----------2-
----2-----------2-----2-----------2--0-----------------0----------------
-0-----------------0----------------------------------------------------
------------------------------------------------------------------------

------------------------------------------------------------------------
----------2-----------------2-----------------3-----------------3-------
-------2-----2-----------2-----2-----------4-----4-----------4-----4----
----2-----------2-----2-----------2-----4-----------4-----4-----------4-
-0-----------------0-----------------2-----------------2----------------
------------------------------------------------------------------------

----------------------------------------------0-----------------0-------
----------5-----------------5--------------------0-----------------0----
-------6-----6-----------6-----6-----------1--------1--------1--------1-
----6-----------6-----6-----------6-----2-----------------2-------------
-4-----------------4----------------------------------------------------
-------------------------------------0-----------------0----------------

Repeat that over the verse two more times, except on the third time,
replace the last three measures with:

------------------------------------------------------
----------5-------------------------------------------
-------6----------------------------------------------
----6---------------2---------------------------------
-4------------------2---------------------------------
--------------12\---0---------------------------------

then repeat the measures between the percent signs in the intro, and end
with:

--------------------/-------
--------------------/-------
--------------------2----2--
--2---2-2-2-2-2-2---2----2--
--2---2-2-2-2-2-2---0----0--
--0---0-0-0-0-0-0-----------
Вверх

Is There Anybody

Learnin играть 8 раз;

E|-------------|------0--------|------0--------|------0--------|
B|-------------|----1---1------|----1---1------|----1---1------|
G|----2-------2|--2-------2---2|--2-------2---2|--2-------2---2|
D|-------------|2-----------2--|3-----------3--|4-----------4--|
A|0-------0----|---------------|---------------|---------------|
E|-------------|---------------|---------------|---------------|

E|------0--------|------0------0|------0------0|--------0------|
B|----1---1------|----1------1--|----1------1--|------1--------|
G|--2-------2---2|--2------2----|--2------2----|----2-------2--|
D|3-----------3--|2------0------|--------------|--2-------2---2|
A|---------------|--------------|3------2------|0--------------|
E|---------------|--------------|--------------|---------------|

E|-------------|------0-------|---------------|------0---------|
B|----1--------|----1---1-----|-----1---------|----1---1-------|
G|--2---2------|--2-------2---|---2---2---2---|--2-------2---2-|
D|2-------2---2|2-----------2-|-2-------2---2-|2-----------2---|
A|-------------|--------------|---------------|----------------|
E|-------------|--------------|---------------|----------------|

E|------0--------|------0--------|------0-------|-------------0|
B|----1---1------|----1---1------|----1---1-----|----1------1--|
G|--2-------2---2|--2-------2---2|--2-------2--2|--2------2----|
D|3-----------3--|4-----------4--|3----------3--|3----2-0------|
A|---------------|---------------|--------------|--------------|
E|---------------|---------------|--------------|--------------|

E|------0--------|--------0------|-------------|--------0------|
B|----1---1------|------1--------|------1------|------1---1----|
G|--2-------2----|----2-------2--|----2---2----|----2-------2--|
D|0--------------|--2-------2---2|--2-------2-2|--2-----------2|
A|------------3-2|0--------------|0------------|0--------------|
E|---------------|---------------|-------------|---------------|

E|--------0-|--------0-------|----------------|--------0-------|
B|------1---|------1---1-----|------1-3-1-----|------1---1---0-|
G|----2-----|----0-------0---|----0-------2-0-|----2-------2---|
D|--2-------|2-2-----------2-|--0-------------|--2-------------|
A|0---------|3---------------|2---------------|0---------------|
E|----------|----------------|----------------|----------------|

E|-------------|--------0------|---------------|--------0------|
B|5-0-3-0-1-0-3|------1---1----|------1-3-1----|------1---1---0|
G|-------------|----0-------0--|----0-------2-0|----2-------2--|
D|-------------|--2-----------2|--0------------|--2------------|
A|-------------|3--------------|2--------------|0--------------|
E|-------------|---------------|---------------|---------------|

E|8---0-7---|------0---------|------0---------|------0---------|
B|----------|----1---1-------|----1---1-------|----1---1-------|
G|----------|--2-------2---2-|--2-------2---2-|--2-------2---2-|
D|----------|2-----------2---|3-----------3---|4-----------4---|
A|----------|----------------|----------------|----------------|
E|----------|----------------|----------------|----------------|

                   grad. decrease tempo
E|------0---------|------0-------0|------0-------0|--------5-7-|
B|----1---1-------|----1-------1--|----1-------1--|----1/5-----|
G|--2-------2---2-|--2-------2----|--2-------2----|--2---------|
D|3-----------3---|2-------0------|---------------|-2----------|
A|----------------|---------------|3-------2------|0-----------|
E|----------------|---------------|---------------|------------|

           rasgueado
E|8---10---12-|
B|---------10-|
G|----------9-|
D|---------10-|
A|------------|
E|------------|
Вверх

IS THERE ANYBODY OUT THERE? mp3

   No Chord
e------------
B------------
G------2-----  (x8)
D------------
A---0--------
E------------

    Am         Am/F  Am/F#            Am/F
e---------0---------------0----------------0----------------0----------
B-------1---1------------1---1-----------1---1------------1---1--------
G-----2------2---2-----2-------2---2----2------2---2-----2-------2---2-
D---2----------2-----3-----------3----4----------4-----3-----------3---
A----------------------------------------------------------------------
E----------------------------------------------------------------------

   Am      Am/D      Am/C    Am/B      Am
e--------0--------0--------0-------0----------0------------------------
B------1--------1--------1-------1----------1---1----------------1-----
G----2--------2--------2-------2----------2-------2------------2---2---
D--2--------0---------------------------2-----------2----2---2-------2-
A--------------------3-------2--------0----------------0---0-----------
E----------------------------------------------------------------------


e-----------0------------------------
B---------1---1----------------1-----
G-------2-------2------------2---2---
D-----2-----------2----2---2---------
A---0----------------0---0-----------
E------------------------------------

        Am/F          Am/F#             Am/F
e---------0----------------0----------------0----------------0---------
B-------1---1------------1---1------------1---1------------1---1-------
G-----2------2---2-----2-------2---2----2------2---2-----2-------2---2-
D---2----------2-----3-----------3----4----------4-----3-----------3---
A----------------------------------------------------------------------
E----------------------------------------------------------------------

   F        Am/D                  N.C.  Am
e-----------------0--------0------------------0-------
B------1--------1--------1---1--------------1---1-----
G----2--------2--------2-------2----------2-------2---
D--3------2-0--------0------------------2-----------2-
A--------------------------------3-2--0---------------
E-----------------------------------------------------

e----------------------------0---------------------0--
B-------------1------------1---1----------------1-----
G-----------2---2--------2-------2------------2-------
D-----2---2-------2----2-----------2----2---2---------
A---0---0------------0----------------0---0-----------
E-----------------------------------------------------

   C                  G/B               Am
e----------0-------------------0--------------0------------------------
B--------1---1-------------1-3---3-1--------0---0--------5--3-1-1-0-0--
G------0-------0---------0----------------2-------2/--/5--4-----------0
D----2-----------2-----0----------------2------------------------------
A--3-----------------2----------------0--------------------------------
E----------------------------------------------------------------------

   C                G/B   Am                N.C.
e----------0-------------------0--------------0------------8------7----
B--------1---1-------------1-3---3-1--------0---0----------------------
G------0-------0---------0----------------2-------2------9------7------
D----2-----------2-----0----------------2------------------------------
A--3-----------------2----------------0--------------------------------
E----------------------------------------------------------------------

   Am                 Am/F          Am/F#            Am/F
e---------0---------------0-----------------0---------------0----------
B-------1---1------------1---1------------1---1-----------1---1--------
G-----2------2---2-----2-------2---2-----2------2---2----2-------2---2-
D---2----------2-----3-----------3-----4----------4----3-----------3---
A----------------------------------------------------------------------
E----------------------------------------------------------------------

   Am       Am/D      Am/C     Am/B     Am         u.
e--------0--------0--------0-------0-------------------5-7-8------12---
B------1--------1--------1-------1----------1----1/5--------------10---
G----2--------2--------2-------2----------2-----------------------9----
D--2--------0---------------------------2-------------------------10---
A--------------------3-------2--------0---------------------------0----
E----------------------------------------------------------------------
Вверх

JUGBAND BLUES mp3

    C                                         Am
It's awfully considerate of you to think of me here
       C                     Am                               C
And I'm almost obliged to you for making it clear that I'm not here
     Am                        C
And I never knew the moon could be so big
     Am                        C
And I never knew the moon could be so blue
       Am                                  C
And I'm grateful that you threw away my old shoes
   F               G                  A
And brought me here instead dressed in red
       Bm        F#m          Bm           F#m
And I'm wondering who could be writing this song

G       D           A         D
I don't care if the sun don't shine
   G       D       A          D
And I don't care if nothing is mine
   Fm                  A
And I don't care if I'm nervous with you
Fm                       A
I'll do my loving in the Winter


Jugband and Mason's kazoo:    G   D   A   D   (X4)

G                 D
La, La, La, La    La, La, La, La
A                 D                   ---->   (x4)
La, La, La, La    La, La, La, La

N.C.
La, La, La, La...  (Glissando from D to Fdim: 1 2 1 x x x)


Jugband:  E   (strange noises, trumpet, basso tuba, Syd)


Coda:   Am   C

       Am        Am
And the sea isn't green
   C          Am
And I love the queen
          C          Am
And what exactly is a dream?
          C          A
And what exactly is a joke?
Вверх

JULIA DREAM

    Am                              C        Em       Am
E---------0-----------0-------------------------------------0--------
B-------1---1-------1---1-----------------1--------0------1---1------
G-----2-------2---2-------2-------------0--------1------2-------2----
D-------------------------------------2--------2---------------------
A---0-----------0-------------------3-----------------0-----------0--
E--------------------------------------------0-----------------------
   Sunlight bright upon my pillow, Lighter  than an  eiderdown

    Am               Dm             C        Em       Am
E---------0----------------1--------------------------------0--------
B-------1---1------------3---3------------1--------0------1---1------
G-----2-------2--------2-------2--------0--------1------2-------2----
D--------------------0----------------2--------2---------------------
A---0-------------------------------3-----------------0-----------0--
E--------------------------------------------0-----------------------
    Will she let the weeping willow wind his branches round?

    Am               Dm               C        Em       Am
E---------0----------------1----------------------------------0-------
B-------1---1------------3---3--------------1-------0-------1---1-----
G-----2-------2--------2-------2----------0-------1-------2-------2---
D--------------------0------------------2-------2---------------------
A---0---------------------------------3-----------------0-----------0-
E---------------------------------------------0-----------------------
    Julia dream,     dreamboat queen, queen of all my dreams

Every night I turn the light out
Waiting for the velvet bride
Will the scaly armadillo
Find me where I'm hiding
Julia dream, dreamboat queen, queen of all my dreams

INTERLUDE:

G D F A7
G A7 D D

Will the misty master break me?
Will the key unlock my mind?
Will the following footsteps catch me?
Am I really dying?
Julia dream, dreamboat queen, queen of all my dreams
Вверх

KEEP TALKING

INTRO:
(Cmaj7, Bm7)  x4

(Em7)  x11 bars

spoken:  "For millions of years mankind liked just like the animals.
         Then something happened that unleashed the power of our imagination.
         We learned to talk."

VERSE:
Em7   There's a silence surrounding me
Em    I can't seem to think straight
D/E   I sit in the corner
C/E   No one can bother me

Em    I think I should speak now        (Why won't you talk to me)
Em    I can't seem to speak now         (You never talk to me)
Am    My words won't come out right     (What are you thinking)
Em    I feel like I'm drowning          (What are you feeling)

Em    I'm feeling weak now              (Why won't you talk to me)
Em    But I can't show my weakness      (You never talk to me)
D/E   I sometimes wonder                (What are you thinking)
C7    Where do we go from here          (What are you feeling)

BRIDGE:
(Em)
(Cmaj7)         "It doesn't have to be like this.  All we need to do
(Bm7)            is make sure we keep talking.

GUITAR SOLO:
(Em, Em, D/E, C/E)
(Em, Em, Am7, Em)

SYNTH SOLO:
(Em, Em, D/E, C/E)
(Em, Em, Am, Em)

VERSE:
Em    (Why won't you talk to me)        I feel like I'm drowning
Em    (You never talk to me)            You know I can't breathe now
D/E   (What are you thinking)           We're going nowhere
C/E   (What are you feeling)            We're going nowhere
Em    Why won't you talk to me             [solo through voicebox]
Em    You never talk to me
D/E   What are you thinking
C/E   Where do we go from here

(Em, Cmaj7)     "It doesn't have to be like this."
(Bm7, Cmaj7, Bm7)
(Cmaj7, Cmaj7)  "All we need to do
                is make sure we keep talking."
(Em)
Вверх

LEARNING TO FLY mp3

rhythm figure: verse
   v-- with bar
-----------/9\\7----0----2--2--
---3-------/10\8----0----3--3--
---0-------/9\\7----0----2--2--
---0----------------0----------
--------------------2----------
---3---------------------------

play fig 5 times. Lyrics start on third time.


chorus fig.
---------------------------------------------------
---5-----5-----5-----------------------------------
---5-----5-----5---------------------------5----7--
---5-----5-----5---------7----5----3----3--5----7--
---3-----3-----3----2----7----5----3----3--3----5--
-------------------------5----3----1----1----------


1st solo
--------------------------------15>14VVVVVV-------------------------------
--18>(20)vvvvvvvv\-----------------------------15>12--15>(17)vvvv--15>12--
----------------------14>(16)---------------------------------------------
--------------------------------------------------------------------------
--------------------------------------------------------------------------
--------------------------------------------------------------------------

----------------------------------------------------
---(15)>14>12\/-14>12-------------------------------
------------------------11>(12)===>11--9--9\7-------
-----------------------------------------------5\---
----------------------------------------------------
----------------------------------------------------



fills during the second verse;


...tips of my wings       Unheeded ...
------------------------------------------------------------------------------
----------------------------15------------------------------------------------
-------------------14>(16)-------(16)>14>12--14--12\11>12---------------------
------------------------------------------------------------14vvvvvv----------
------------------------------------------------------------------------------
------------------------------------------------------------------------------


... of everything  No navigator...  ... find my way home....
-----------------14---14---15vvvvv-------------------------------15vvvvvvv--
----------------------------------------------------------------------------
-----------------14---14---16vvvvv--------------------------16--------------
----------------------------------------------------------------------------
----------------------------------------------------------------------------
----------------------------------------------------------------------------



... to stone
-----------------------------------------------
-----------------------------------------------
--------------(15)>14>12--12--14-12vvvvvvvvv---
-----------------------------------------------
-----------------------------------------------
-----------------------------------------------

C     (B)  A5     G5    F5
   ... learning to fly
----------------------------------------------------------
-----------------------------------8----------------------
----------------------------7>(9)------(9)>7--5>7--5------
----------------------------------------------------------
----------------------------------------------------------
----------------------------------------------------------


with chorus figure;

... determined to try...
-----------------------------------8---------/8vvvvvvv----
----5>(6)>5---------------------------10>8----------------
---------------------------------------------/9vvvvvvv----
----------------------------------------------------------
----------------------------------------------------------
----------------------------------------------------------


... circling skies...    ...earthbound misfit....
            v----v- w/ bar
------------------8----------------------------------------------------------
-----------------------------------------------------------------------------
---------------------7>(9)>7-5vvvvvv------------(9)>7>5--7vvvv\/\/\/-\5\4\2--
-----------------------------------------------------------------------------
-----------------------------------------------------------------------------
-----------------------------------------------------------------------------


---------------------------------------------------5----------
---/12>(13)vvvvvvvv------------------------------5---8--------
--------------------------7>(9)--7>9--7\5--7>(9)-------7>(9)--
--------------------------------------------------------------
--------------------------------------------------------------
--------------------------------------------------------------


----------------------------------------14VVVVVVVV----
------------------------------------------------------
----7>(9)>7>5---5-7>(9)vvvvvv\---12/14----------------
--------------7---------------------------------------
------------------------------------------------------
------------------------------------------------------



C     (B)        A     G     F5
 There's no sensation to compare with this, suspended animation...


chorus figure over;

...bliss
------------------------------
--------------------8-8-8-8---
---------5--7>(9)-------------
------------------------------
------------------------------
------------------------------


solo 2

------15\\-------15--------15--------15--------------------15-\--
--18>(20)\---18>(20)---18>(20)---18>(20)---18>(20)\----18>(20)\--
-------------------------------------------18>(19)\--------------
-----------------------------------------------------------------
-----------------------------------------------------------------
-----------------------------------------------------------------


-0---0-0--0-------------------0---0------------------------
-3/5-5-5--5--3----------------0---0------------------------
-----------------4--0--2>(3)----------4\2----------0-------
----------------------------------------------2>0-----2>0--
-----------------------------------------------------------
-----------------------------------------------------------


-------------------------------------------------
-------------------------------------------------
--12>(14)>12---14>(16)====>14>12vvvvv-------12---
----------------------------------------14-------
-------------------------------------------------
-------------------------------------------------


---------------------------------------------------------
------15----15----15------------15----15---15------------
--14>(16)--(16)-->14--12----14>(16)--(16)->14--12--------
----------------------------------------------------14---
---------------------------------------------------------
---------------------------------------------------------


---------------------------------------------------3vvvv-------5-------------
---15--15------15------------------------------/5----------5------5vvvvvv----
---12--12--14>(16)--------------------------0--------------------------------
---------------------16----12---12vvvvvv-------------------------------------
-----------------------------------------------------------------------------
-----------------------------------------------------------------------------


--------------------------------------------------------------------
--------------------------------------------------------------------
-------------------------------------------7------------------------
-----9\7--5------5--7>(8)--7--5-------7/9-----8\7>5------5vvvvvvv---
-------------7--------------------7-------------------7-------------
--------------------------------------------------------------------


--0----0--0--0--0-----------------------------------------------------
--3/5--5--5--3--0-----------------------------------------------------
--------------------2>(3)>2>0------2>(3)>2>0------0-2>(3)>2>0---------
-------------------------------2--------------2----------------2---0--
----------------------------------------------------------------------
----------------------------------------------------------------------

----------------------------------------------------
-----------------------15---------------------------
--(15)>14>12--14>(16)-------12>14---12vvvvvvvvvv----
----------------------------------------------------
----------------------------------------------------
----------------------------------------------------
Вверх

LET THERE BE MORE LIGHT mp3

INTRO:                                        Play 2X
-----------------------------------------------------
-----------------------------------------------------
----------------------------------------------------'
------5---3---5---3---3h5-------5---3---5---3---3h5-'
-----------------------------------------------------
--3-----3---3---3---3--------3----3---3---3---3------

-----------------------------------------------------
-----------------------------------------------------
----------------------------------------------------'
-----5---3---2---3---3h5-------5---3---2---3---3h5--'
-----------------------------------------------------
--3----3---3---3---3-------3-----3---3---3---3-------

If the G notes (6th string 3 fret) are too hard to play
Hit it once to start the riff Im not sure if this note is
bass or guitar.
                                                        Play this
before
Verse (Riff 1)                                            going into
chorus
------------------------------------------------------------------------
------------------------------------------------------------------------
-0--0--0h1p0--------0--0--0h1p0--------0--0--0h1p0----'----0---0---0---0
--------------0--3---------------0--3-----------------'--3---4---4---4--
------------------------------------------------------------------------
------------------------------------------------------------------------

w/riff 1
Far, far, far, far away, way
People heard him say, say
"I will find a way, way
There will come a day, day
Something will be done"

Cm                              Fm
Then at last the mighty ship descending on a point of flame
    Cm               Dm            A       Ab
Made contact with the human race at Mildenhall

w/riff 1
Now, now, now is the time, time
Time to be, be, be aware

Cm                               Fm
Carter's father saw it there and knew the Rhull revealed to him
   Cm             Dm           A  Ab
The living soul of Hereward the Wake

w/riff 1
Oh my, something in my eye, eye
Something in the sky, sky
Waiting there for me

   Cm
The outer lock rolled slowly back
   Fm
The servicemen were heard to sigh
   Cm                Dm            A                 Ab
For there revealed in flowing robes was Lucy in the sky

w/riff 1
Oh, oh, did you ever?
No, no, never will they
I'll say!

Cm
Summoning his cosmic powers
   Fm
And glowing slightly from his toes
   Cm         Dm      A    Ab
His psychic emanations flowed.

Cm       Fm       Dm       A        Ab
Вверх

LOST FOR WORDS

INTRO:
   C
  guitar one(capo 5)    F                   Fsus2
e---------------------------------------------------
B----------------------1-------1--1--1--1--1--------
G-----------------0----0-------0--0--0--0--0--0--0--
D-----------------0----0h2-----2--2--------0--0--0--
A------------0h2------------------------------------
E---------3-----------------------------------------
 guitar two (Rhythm figure 1)
e----------------------1----------------------------
B-----------------1----1-------1--1--1--1--1--1--1--
G-----------------0----0h2-----2--2--2--2--0--0--0--
D------------0h2------------------------------------
A---------3-----------------------------------------
E---------------------------------------------------

    C        F    Fsus2
e---------------------------------------------------------------
B---------------------------------1--------1--1--1--1--1--------
G---0-------0--0--0----------0----0--------0--0--0--0--0--0--0--
D---0----0--0--0--------0----0----0h2------2--2--------0--0--0--
A---0h2-----2-----------0h2-------------------------------------
E--------------------3------------------------------------------

e---------------------------------1-----------------------------
B----------------------------1----1--------1--1--1--1--1--1--1--
G---0------------------------0----0h2------2--2--2--2--0--0--0--
D---0h2-----------------0h2-------------------------------------
A--------------------3------------------------------------------
E---------------------------------------------------------------

    C        F   Fsus2
e----------------------------------------------------------------
B---------------------------------1------------------1-----------
G---0-------0--0--0----------0----0------0--0--0--0--0--0--0--0--
D---0----0--0--0--------0----0----0h2----2--2--2--2-----0--0--0--
A---0h2-----2-----------0h2--------------------------------3-----
E--------------------3-------------------------------------------

e---------------------------------1------------------------------
B----------------------------1----1---------1--1-----1-----------
G---0------------------------0----0h2-------2--2-----0-----------
D---0h2-----------------0h2--------------------------------------
A--------------------3-------------------------------------------
E----------------------------------------------------------------

   Am         ^    G                     C
e-------------0---------0----------2----------2--2-----------
B-------------0---0-----0----------3----------3--3--------0--
G---0---------0---0-----0-------2--2----------2--2--------0--
D---2---------2---2-----2-------0--0----------0--------0-----
A---2-----2-------2-----2-------0--0--0h2--0-----------------
E---------0-----------------------------------------3--------
         ^
e---------------------------------------------------------0--
B---1---------------------------------0h1--0--0--0-----1--1--
G---2---------------------------------0----0--0--0-----0-----
D---2---------------------------0-----0h2--0-----------------
A---0-----------------------------------------------3--------
E------------------------------------------------------------

    F             C
e----------0-----------------
B----------1-----------------
G----------0--0----------0---
D---2------2--2----------0---
A---3------3--3--2--0h2------
E---0---------0--3-----------
      (end Rhythm figure 1)
e----------------------------
B---1------------------------
G---2--------------------0---
D---3---------------0h2------
A---3------------3-----------
E----------------------------

GUITAR 3:(with Rhythm figure 1)
   F                    Fsus2     C
e------------------------------------------------------------
B---------8--------------------------------------------------
G----7/9-----9/7--5--7p5---------5----7b(9)------------------
D-------------------------7p5--------------------------------
A------------------------------------------------------------
E------------------------------------------------------------

    F     Fsus2     C
e-------------------------------------------------------8p7--
B----------1--1-------1------1-----------------------8-------
G-----0h2--2--2p0-----0------0------------------7/9----------
D-----3------------3-----0h2------0h2------------------------
A-----------------------------------3------------------------
E------------------------------------------------------------

    F                        Fsus2    Am
e----------------------------------------------------------------
B---8/10----8----------------------------------------------------
G--------------9/7---5---7p5---------5---7b(9)---5----------x----
D-----------------------------7p5--------------------------------
A----------------------------------------------------------------
E----------------------------------------------------------------

   G    C   F/C        C
e-------------------------------------------------------------------
B-------------------------------------------------------------------
G---4b(5 )r4--------------------------------------------------------
D-------------5---5--------5-----5/7---5---5------------------------
A--------------------5/7----------------------7/5---3---5p3------3--
E------------------------------------------------------------5------

VERSE:(with Rhythm figure 1)

C      F           Fsus2      C
I was spending my time in the doldrums,
 F        Fsus2     C
I was caught in a cauldron of hate.
      F       Fsus2     Am
I felt persecuted and paralysed,
       G     F     Fsus2      Fmaj7
I thought that everything else would just wait.

While you are wasting your time on your enemies,
Engulfed by a fever of spite,
Beyond your tunnel vision reality fades
Like shadows into the night.

To martyr yourself to caution
Is not going to help at all.
Because there'll be no safety in numbers
When the Right One walks out of the door.


INTERLUDE:(electric guitar with distortion)

 D Fsus2 Bb Am

 Bbsus2 Bb Dsus2 (gtrs 1 & 2 start strumming chords)

 D  F D

VERSE:
       C          G
Can you see your days blighted by darkness?
     C         G
Is it true you beat your fists on the floor?
C             Em
Stuck in a world of isolation
  D/F#       C     Csus2
While the ivy grows over the door.

So I open my door to my enemies,
And I ask could we wipe the slate clean.
But they tell me to go fuck myself.
You know you just can't win.


OUTRO SOLO:
    C        G
e-------------------------------------------------------
B-------------------------------------------------------
G------5-----5-------5-------5--------------------------
D------5h7---5-------5-------5--------------------------
A-----------------------5h7-------5h7--5---------5------
E-----------------------------------------5/7--------3--

    C         G
e-------------------------------------------------------------------
B------------------------------------------------8--7---------------
G---2/4---------------7--7---7h9---7----------7---------9--7--7--9--
D--------5-----7/9----------------------7/9-------------------------
A-------------------------------------------------------------------
E-------------------------------------------------------------------

                Em       D
e--------------------------------------------------------------------------
B--------------------------------------------------------------------------
G--------------------------------------------------------------------------
D---9/7---5h7---7h9-5----7p5----4--4--5---5/7----5--4--2-------------------
A------------------------------------------------------------5--3--3--2----
E------------------------------------------------------------------------3-

   Em                G
e----3/5----5-----------------------------------------
B----3/5----5----3/5----3----3/5----3----3/5---5------
G----------------2/4----2----2/4----2----2/4---4------
D-----------------------------------------------------
A-----------------------------------------------------
E-----------------------------------------------------

    C      G
e---------------10--10-------------------------------12--12b--12b--
B--------10/12-----------10p8----------8---------------------------
G---7/9-------------------9p7---9--7-------------------------------
D------------------------------------------------------------------
A------------------------------------------------------------------
E------------------------------------------------------------------

    C         Em
e---12b(13)-12-----------------------------------------------------
B---------------13--13-------------10/12--12\10--10----8--7b(8)r7--
G-------------------------12--12-----------------------------------
D------------------------------------------------------------------
A------------------------------------------------------------------
E------------------------------------------------------------------

   D/F#        C
e---------------------------------------------------------------
B---------------------------------------------------------------
G---7---7---------9(10)r9p7------7h9-p7---7---------------------
D------------7h9-------------9--------------9\5p5--5--7p5-------
A----------------------------------------------------------7p5--
E---------------------------------------------------------------

            G
e------------------------------------------------------------------------
B---------------------------------------------------------------------8--
G--------------------------------7--------------------------7-----7/9----
D---5---5--5--5-------5---5--7/9---9\7p5---7p5------5---7/9--------------
A----------------5h7---------------------7-----7p5-----------------------
E------------------------------------------------------------------------

    C       G
e----------------------------------------------------------------
B-----10p8----12b(13)-(13)r12----12b(13)-12b(13)r12p10--10-8-8\7-
G----------------------------------------------------------------
D----------------------------------------------------------------
A----------------------------------------------------------------
E----------------------------------------------------------------

    C       Em          D/F#
e------------------------------------------------------------------------
B------------------------------------------------------------------------
G---9-------7----------------------------7----------------------7--------
D-------------9\7p5-------5--5---7p5-7/9---9\7--5---5h7--7--7/9-7--5--4--
A--------------------7---------------------------------------------------
E------------------------------------------------------------------------

          (fade into church bells)
e-------------------------------------------------------------
B-------------------------------------------------------------
G-------------------------------------------------------------
D---4b(5)-r4--------------------------------------------------
A--------------7--5-h7p5--------------------------------------
E------------------------5h7--5--3----------------------------
Вверх

Lucifer sam

e---------------------------------------
B---------------------------------------
G---------------------------------------
D---------------------------------------
A------------4------3-----2-----0-------
E--0----0-2----2-2----2-2---2-2---------

e-----------------------------------------
B-----------------------------------------
G-----------------------------------------
D--------2------1-----0-------------------
A--0-1-2---2-2----2-2---2-2--4b-----------
E-----------------------------------------



F#m               G
Lucifer Sam, siam cat.
B
Always sitting by your side
                 E
Always by your side.
C                                G    D
That cat's something I can't explain.

Jennifer Gentle, you're a witch.
You're the left side
He's the right side.
Oh, no!
That cat's something I can't explain.

Lucifer go to sea.
Be a hip cat, be a ship's cat.
Somewhere, anywhere.
That cat's something I can't explain.

At night prowling sifting sand.
Hiding around on the ground.
He'll be found when you're around.
That cat's something I can't explain.
Вверх

Marooned

Guitar setting:   (distorted and with echo)

    Bm(add9)
                                                            steady slide
E ---17-s-19-----------------------------------------------17--s-(14)-
B --------------------------------------------------------------------
G --------------------------------------------------------------------
D --------------------------------------------------------------------
A --------------------------------------------------------------------
E --------------------------------------------------------------------

     Gmaj       Em7
E -----------------------------------------------------------B--------
B -17-s-19------------------------------------------15-----17-(19)----
G ------------------------------------------------16------------------
D --------------------------------------------------------------------
A --------------------------------------------------------------------
E --------------------------------------------------------------------

                                                                      Bm?
E --R-----------------------------------------------------------------
B --(17)-p15h17---------------------------------------17---15-s-14----
G --------------------------------------------------------------------
D --------------------------------------------------------------------
A --------------------------------------------------------------------
E --------------------------------------------------------------------

E --------------------------------------------------(24)--------------
B --------------------------------------------------N.H---------------
G --------------------------------------------------------------------
D --------------------------------------------------------------------
A --------------------------------------------------------------------
E --------------------------------------------------------------------

The transition between harmonics is like a steady gliss, Gilmour uses a whammy
pedal to depress the octave back to normal. You cannot do this with a normal
pedal.
       Em7
E --(12)----------17s19-17s19---19---22p19---22s24---s---22---26-22s24
B --N.H----------------------------------------steady slide-----------
G --------------------------------------------------------------------
D --------------------------------------------------------------------
A --------------------------------------------------------------------
E --------------------------------------------------------------------

                 Bm
E ------------21-(22)-21--(22)--21------------------------------------
B -------19---B---R-----B-------------22p19-----------17p15----17p15--
G -----x-----------------------------------21h23p-21--------16--------
D ----x---------------------------------------------------------------
A --rake--------------------------------------------------------------
E --------------------------------------------------------------------

         Gmaj      Em7
E --------B------------17--B------------B-----------------------------
B -----17-(19)-----------17(18)-------17-(19)----s---7s5--------------
G -16-----------------------------------------------------------------
D ------------------------------------------steady slide--------------
A --------------------------------------------------------------------
E --------------------------------------------------------------------

E ------------------------------------B-----R-------------------------
B ----------------------12----15p12--15(17)-15------15------15s17-----
G --------------------------------------------------------------------
D --------------------------------------------------------------------
A --------------------------------------------------------------------
E --------------------------------------------------------------------

    This bit may be more complex!
     Bm(add9)
E ------------------------------------B-----B-----R-------------B------
B --------19-------------------------17(19)-17(19)17p15--17---17(19)p15
G --19-19----------------------------------------------16--16----------
D ---------------------------------------------------------------------
A ---------------------------------------------------------------------
E ---------------------------------------------------------------------

                   Gmaj
E -17s19---19------19-19------19-19--19-19--21(22)--21p19-21(22)------
B -------------------------------------------B--------------B---------
G --------------------------------------------------------------------
D --------------------------------------------------------------------
A --------------------------------------------------------------------
E --------------------------------------------------------------------

                 Em7
E -21p19h21---21(22)--21p19-------------------------------------------
B --------------B-----------24--s-36-------36-36----36s34--s31--------
G -----------------------------^--------------------------------------
D -------------------------steady slide-----------steady slide---------
A --------------------------------------------------------------------
E --------------------------------------------------------------------

                     Bm
E --------------------------------------------------------------17h19-
B --31--31------------------------------------------------------------
G ---------31s30----s--28--s-23---------------------------------------
D ------------------steady slide--------------------------------------
A --------------------------------------------------------------------
E --------------------------------------------------------------------

    Gmaj
E --19---------17h19-------19---------17----B-------------------------
B ---------------------------------------17(19)-17h19-------15--------
G -------------------------------------------------------------16-----
D --------------------------------------------------------------------
A --------------------------------------------------------------------
E --------------------------------------------------------------------

   Em7                                    <--  back and forward with slide
E ------------------------------17-------19-21-22-21-24-22-24-25--26--
B --17s---15-------------17h19---------x------------------------------
G -----------16--------------------- -x--------------------------------
D ----------------------------------x-rake----------------------------
A --------------------------------------------------------------------
E --------------------------------------------------------------------

 ---------------using slide ---------------------------------------->
  Bm
E --26-26--26-----27-26-24---26---------29-s-26---29--29s31---s--19---
B --------------------------------------------------------------------
G --------------------------------------------------------------------
D --------------------------------------------------------------------
A --------------------------------------------------------------------
E --------------------------------------------------------------------

E ------B---14----B------------------------12---B---------------------
B ----15(17)---15(17)15-12-----15-15----------15(17)--s--(10)---------
G -------------------------14-----------------------------------------
D --------------------------------------------------------------------
A --------------------------------------------------------------------
E --------------------------------------------------------------------

     Bm(add9)
E ---------7-----10--7--B-----7---------------------------------------
B ---5-s-7-----7-10----10(12)---7h10----------------------------------
G ------------------------------------9h11--------------9-------------
D --------------------------------------------------------------------
A --------------------------------------------------------------------
E --------------------------------------------------------------------

       steady  slide
E --------------------------------------B------------------B---R---B--
B ------------------------------------17(19)-------------17(19)17(19)-
G ----2---s------4----------------------------------------------------
D ----2---s------4----------------------------------------------------
A --------------------------------------------------------------------
E --Drums Enter Here--------------------------------------------------

                             Gmaj
E --------------------------------------------------------------------
B -----------------------17s19--------------------17-------17---19----
G --16-----16h18h19p18-----------------16---18h19----18---------------
D --------------------------------------------------------------------
A --------------------------------------------------------------------
E --------------------------------------------------------------------

          Em7
E ------------------------------------------B-------------------------
B --------17--19--------17--19--------17--19(20)p17-s--12-----19-19-20
G --19h21---------19h21--------19h21----------------------------------
D --------------------------------------------------------------------
A --------------------------------------------------------------------
E --------------------------------------------------------------------

                  steady slide             Bm
E --------------------------------------------------------------------
B --19p17---19---19--s----31---32s30---31----31------36-36-36---------
G ----------------------------------------33--------------------------
D --------------------------------------------------------------------
A --------------------------------------------------------------------
E --------------------------------------------------------------------

          steady slide
E --------------------------------------------------------------------
B 36s34-34-34--------------------- ----24-------s----------26---------
G -----------35s33-33-33s31s30-30-26----------------------------------
D --------------------------------------------------------------------
A --------------------------------------------------------------------
E --------------------------------------------------------------------
Вверх

MATILDA MOTHER

B  A/B  Gmaj7/D  F#(addB)

     Bsus4 Asus2    G6        F#7sus4
There was a king who ruled the land.

   Bsus4  Asus4 G6    F#7sus4
His Majesty was in command.

    Bsus4  Asus2    G6      F#7sus4 Bsus4  Asus2  G6     F#7sus4
With silver eyes the scarlet eagle showered silver on the people.

G   D   A       G    D  E
Oh____, mother, tell me more.

N.C.
Why'd you have to leave me there,

                         B
Hanging in my infant air, waiting?

N.C.
You only have to read the lines of scribbly black and ev'rything shines.


Bsus4     Asus2       G6     F#7sus4
Across the stream with wooden shoes,

Bsus4    Asus2    G6       F#7sus4
Bells to tell the king the news,

 Bsus4    Asus2 G6     F#7sus4  Bsus4  Asus2  G6   F#7sus4
A thousand misty riders climb up higher once upon a time.

G     D       A
Wondering and dreaming.

   G          D         E
The words have different meanings.

A    G    E       F#
Yes, they did.


  Bsus4   Asus4      G6      F#7sus4
Of all the time spent in that room,

   Bsus4        Asus2     G6     F#7sus4
The doll's house darkness, old perfume,

   Bsus4 Asus2   G6      F#7sus4 Bsus4     Asus2         G6  F#7sus4
And fairy stories held me high on clouds of sunlight floating by.

G   D   A       G    D  E
Oh____, mother, tell me more.

A    G  E
Tell me more.
Вверх

Money mp3

MAIN RIFF:
e-----------------------------------------
B-----------------------------------------
G--------4--------------------------------
D-----------4-----------------------------
A---2----------2---------------2--0--5b---
E---------------------2---5b--------------

VERSE:
Bm7
Money, get away.
Get a good job with more pay and you're okay.
Money, it's a gas.
Grab that cash with both hands and make a stash.

   F#m7
e------------------------------------------------------
B------------------------------------------------------
G------------------------------------------------------
D----4----4----4----------------------------4----3b----
A-------------------4------------------4---------------
E------------------------2------5b---------------------
    New  car,  cav - i - ar,    four  star  day - dream,

   Em                                 Bm7
e------------------------------------------------------------------------
B------------------------------------------------------------------------
G-----------------------------------------4------------------------------
D----2----------------------------------------4--------------------------
A--------------------0----2--0--5-----2-----------2-------------2----5b--
E---------0----3b--------------------------------------2---5b------------
   think I'll be me a foot - ball____________team.


Bm7
Money, get back.
I'm all right Jack keep your hands off of my stack.
Money, it's a hit.
Don't give me that do goody good bullshit.

          F#m7                                 Em
I'm in the high-fidelity first class travelling set
                        Bm7
And I think I need a Lear jet.

SAX SOLO

GUITAR SOLO

VERSE:
Bm7
Money, it's a crime.
Share it fairly but don't take a slice of my pie.
Money, so they say
Is the root of all evil today.

F#m7                                  Em
But if you ask for a raise it's no surprise that they're
            Bm
giving none away.
Вверх

Mother

G                                       C       D G
Mother do you think they'll drop the bomb?
G                                        C      D G
Mother do you think they'll like this song?
C                                               G
Mother  do you think they'll try to break my balls?

D         C                                   G
Ohhhh..   Ahhhh.. Mother should I build the wall?

G                               C               D G
Mother should I run for president?
G                                   C           D G
Mother should I trust the government?
C                                         G
Mother will they put me in the firing line?
D         C                                         G
Ohhhh...  Ahhhhh.. Mother is it just a waste of time?

G                         C
Hush now baby don't you cry.
F                             C
Mama's gonna make all of your nightmares come true
F                           C
Mama's gonna put all of her fears into you,
F                                 C
Mama's gonna keep you right here, under her wing,
F                              C
She won't let you fly, but she might let you sing,
F                       C        G
Mama's gonna keep baby cozy and warm.

D         C
Ohhhh...  Babe,
D         C
Ohhhh...  Babe,
D            C                                       G
Ohh... Babe, of course mama's gonna help build the wall.


SOLO:
-----------------------------------------------------------------------------
------13>(14)----13>(14)>13>12-----------------------------------------------
--12-----------------------------14>13>14------------------------------------
--------------------------------------------------5------5--4----------------
--------------------------------------------2/7-------7--------5---3>2--3vvv-
-----------------------------------------------------------------------------

-------------------------------------------------------12>(14)==>12>10----
-------10>(12)=======>10--8--10>(13)---8------------x---------------------
--2/7--------------------------------------9>8>9--x-----------------------
--------------------------------------------------------------------------
--------------------------------------------------------------------------
--------------------------------------------------------------------------

---------10>(12)==>10>8--8>7--8>7----------------------------------
-----x-----------------------------8-------------------------------
--x------------------------------------7---6---4-------------------
---------------------------------------------------5vvvvv\---------
-------------------------------------------------------------------
-------------------------------------------------------------------


G                                    C                    G
Mother do you think she's good enough..                 for me?
G                                    C                    G
Mother do you think she's dangerous..                   to me?
C                                       G
Mother will she tear your little boy apart?
D         C
Oohhhh..   Aaahhh...
G                             C
Mother will she break my heart?

G                          C
Hush now baby don't you cry.
F                                  C
Mama's gonna cheak out all of your girlfriends for you,
F                    C
Mama won't let anyone dirty get through,
F                    C
Mama's gonn wait up, untill you get in,
F                         C
Mama will always find out just where you've been,
F                       C                G
Mama's gonna keep baby, healthy and clean.
D            C
Ooohhhh...  Baby,
D            C
Ooohhhh...  Baby,
D       C       G
Ooohhhh baby, you'll always be baby to me.

G                           C
Mother did it need to be so high?
Вверх

Nobody home mp3

Am   C+   C   D7   F   Fm

          C
I've got a little black book with  my poems in
          E
I've got a bag with a toothbrush and a comb in
    F                                        C
When I'm a good dog they sometimes throw me a bone in
F      C
I got elastic bands keeping my shoes on
        E             E7
Got these swollen hand blues.
   F                                        C
Got thirteen channels of shit on the T.V. to choose from
C
I've got electric light
C7
And I've got second sight
         F      Fm             C      E7   D7/F#   G
I've got amazing powers of observation
G                 E7/G#
And that is how I know
Am                         C+   C6
When I try to get through
                        C/G   D
On the telephone to you
Fm6               C       F
They'll be nobody home
              C
I've got the obligatory Hendrix perm
         E                        E7+
And the inevitable pinhole burns
F                                           C
All down in the front of my favourite satin shirt
F        C
I've got nicotine stains on my fingers
          E
I've got a silver spoon on a chain
          F                                  C
I've got a grand piano to prop up my mortal remains
C
I've got wild staring eyes
C7                                 F
I've got a strong urge to fly
   Fm                  C       E    Am    D7   G     E7
But I've got nowhere to fly to
Am         C                           D7
Ooooh Babe when I pick up the phone
Fm6                  C       F   C
There's still nobody home
F          C
I've got a pair of Gohills boots
           E       E7
And I've got fading roots
Вверх

Not now john

G                   D                         Em
Fuck all that we've got to get on with these
G                      D          Em
Gotta compete with the wily Japanese.
       G                   D
There's too many home fires burning
              Em
And not enough trees,
  G
So fuck all that
     D                           Em
We've got to get on with these.


Can't stop       Lose job    Mind gone   Silicon
What bomb        Get away    Pay day     Make hay
Break down       Need fix    Big six
                                                       G      D  Em
Clickity click   Hold on     Oh no       Brrrrrrrrrring bingo!


C/E               Em              D/E                            Em
Make 'em laugh.   Make 'em cry.   Make 'em dance in the aisles.
C/E               Em              D/E           Em
Make 'em pay.     Make 'em stay.  Make'em feel ok.

G
Not nah John
     D                      Em           G
We've got to get on with the film show.
         D                       Em
Hollywood waits at the end of the rainbow.
G                    D
Who cares what it's about
              Em
As long as the kids go.
G
Not now John
D                      Asus
Got to get on with the show.

G                  D                         Em
Hang on John we've got to get on with this.
 G
I don't know what it is
      D                  Em
But it fits on here like.....
G                      D
Come at the end of the shift,
                Em
We'll go and get pissed.
   G
But now now John
    D
I've got to get on with this.

C/E
Hold on John
               Em
I think there's something good on.
 D/E                     Em
I used to read books but.....
  C/E
It could be the news,
       Em
Or some other abuse,
     D/E               Em
Or it could be reusable shows.

G                   D                        Em
Fuck all that we've got to get on with these
G                         D        Em
Got to compete with the wily Japanese.
G                 D               Em
No need to worry about the Vietnamese.
G                         D            Em
Got to bring the Russian bear to his knees.
     G                     D
Well, maybe not the Russian bear,
         Em
Maybe the Swedes.
  G
We showed Argentina
   D                    Em
Now let's go and show these.
G
Make us feel tough
   D                  Em
And wouldn't Maggie be pleased?
G                              D  Em
Nah nah nah nah nah nah nah!
Вверх

OBSCURED BY CLOUDS

Fade in synth drone on A

E---------------------------------------------------------------------
B---------------------------------------------------------------------
G---------------------------------------------------------------------
D-7-------------------------------------------------------------------
A-0-------------------------------------------------------------------
E---------------------------------------------------------------------

E---------------------------------------------------------------------
B---------------------------------------------------------------------
G---------------------------------------------------------------------
D-7-------------------------------------------------------------------
A-0-------------------------------------------------------------------
E---------------------------------------------------------------------

E---------------------------------------------------------------------
B---------------------------------------------------------------------
G-7--/9---------------------------------------------------------------
D-Slide guitar-----------------------10--/12--------------------9\--5-
A---------------------------------------------------------------------
E---------------------------------------------------------------------

E---------------------------------------------------------------------
B---------------------------------------------------------------------
G---------------------------------------------------------------------
D-5--/7---------------------------------------------------------------
A---------------------------------------------------------------------
E---------------------------------------------------------------------

E---------------------------------------------------------------------
B---------------------------------------------------------------------
G-7--/9---------------------------------------------------------------
D------------------------------------10--/12--------------------9\--5-
A---------------------------------------------------------------------
E---------------------------------------------------------------------

E---------------------------------------------------------------------
B---------------------------------------------------------------------
G---------------------------------------------------------------------
D-5--/7---------------------5--2--0-----------------------------------
A------------------------------------0--------------------------------
E---------------------------------------------------------------------

E---------------------------------------------------------------------
B----------------------------8--/10--10----------8--8--8--------------
G----------7--/9--9-----------------------------------------7/-----/9-
D---------------------------------------------------------------------
A---------------------------------------------------------------------
E---------------------------------------------------------------------




E---------------------------------------------------------------------
B---------------------------------------------------------------------
G---------------------------------------------------------------------
D------------5/--/7------------------------7--5--2--0-----------------
A------------------------------------------------------0--------------
E---------------------------------------------------------------------

E---------------------------------------------------------------------
B---------------------------------------------------------------------
G--------------------------------------------2/-------/14--14---------
D---------------------------------------------------------------------
A---------------------------------------------------------------------
E---------------------------------------------------------------------

E---------------------------------------------------------------------
B---------------------------------------------------------------------
G-------17----12--12/14----------------------2/-------/14-------------
D---------------------------------------------------------------------
A---------------------------------------------------------------------
E---------------------------------------------------------------------

E---------------------------------------------------------------------
B---------------------------------------------------------------------
G-------17----12--12/14----------------------------12/14--14--14------
D---------------------------------------------------------------------
A---------------------------------------------------------------------
E---------------------------------------------------------------------

E---------------------------------------------------------------------
B---------------------------------------------------------------------
G-------------12/14--14--14------------------------12/14--14--14------
D---------------------------------------------------------------------
A---------------------------------------------------------------------
E---------------------------------------------------------------------

E---------------------------------------------------------------------
B---------------------------------------------------------------------
G-------------12/14--14--14------------------------12/14--14--14------
D---------------------------------------------------------------------
A--------------------------------------------------------fade out...--
E---------------------------------------------------------------------
Вверх

ONE OF MY TURNS mp3

C              Em
Day after day, love turns grey
        F                   C
Like the skin of a dying man
C                            Em
And night after night, we pretend it's all right
   Dm
But I have grown older and
Dm
You have grown colder and
Dm                   G7
Nothing is very much fun anymore.
   C     Em   F                      C
And I can feel one of my turns coming on.
C Fmaj7 Em    Dm
I       feel, cold as a razor blade
Dm
Tight as a tourniquet
Dm               G7
Dry as a funeral drum

Eb           Bb            Eb              Bb
Run to the bedroom, in the suitcase on the left
      C7      Dm Bb E7  Dm     Am  Dm    Am
You'll find my favourite axe
Bb
Don't look so frightened
       Eb                   Bb
This is just a passing phase
      Dm
One of my bad days
Bb        Eb              Bb
Would you like to watch T.V.?
   Eb                    Bb
Or get between the sheets?
        Dm
Or contemplate the silent freeway?
Dm
Would you like something to eat?
         Eb
Would you like to learn to fly?  Would you?
         Dm
Would you like to see me try?

D       G   C   Eb   Bb   Eb   Bb   Dm     Eb   Bb   Eb   Bb   Dm

Am7  Dm7  C           Eb
           Would you like to call the cops?
Eb
Do you think it's time I stopped?
Gm(9)
Why are you running away?
Вверх

ONE OF THE FEW

synth drone D

INTRO:(w/clock and cars)
--------------------------------------------------------------------
--------------------------------------------------------------------
--------------------------------------------------------------------
------------------0----------------0--------------------------------
--------------------------------------------------------------------
--------------------------------------------------------------------

--------------------------------------------------------------------
---11--11-----------10--10-------\---8---8---\-6-\--3-----3---------
--------------------------------------------------------------------
-0----------------0---0------------0---0------------0---------------
--------------------------------------------------------------------
--------------------------------------------------------------------

--------------------------------------------------------------------
---13--13-----------11--11-----------8---8---\-6-\--3-----3---------
--------------------------------------------------------------------
-0---0------------0---0------------0---0-----0------0---------------
--------------------------------------------------------------------
--------------------------------------------------------------------

VERSE:
--------------------------------------------------------------------
---11--11-----------10--10-----------8---8-----6-\--3-----3---------
--------------------------------------------------------------------
-0---0------------0---0------------0---0------------0---------------
--------------------------------------------------------------------
--------------------------------------------------------------------


--------------------------------------------------------------------
---13--13-----------11--11-----------8---8-----6-\--3-----3-----3---
--------------------------------------------------------------------
-0----------------0---0------------0---0-----0------0---------------
--------------------------------------------------------------------
--------------------------------------------------------------------


fade in schoolyard sounds
--------------------------------------------------------------------
---11--11-----------10--10-----------8---8-----6-\--3-----3-5---6---
--------------------------------------------------------------------
-0---0------------0---0------------0---0------------0---------------
--------------------------------------------------------------------
--------------------------------------------------------------------


--------------------------------------------------------------------
---13--13-----------11--11-----------8---8-----6-\--3---------------
--------------------------------------------------------------------
-0---0------------0---0------------0---0-----0------0---------------
--------------------------------------------------------------------
--------------------------------------------------------------------

-------------------------------------------
-------------------------------------------
-------------------------------------------
-------------------------------------------
-------------------------------------------
-------------------------------------------

When you're one of the few
To land on your feet
What do you do to make ends meet? "Teach" (w/echo repeats)

Make 'em mad
Make 'em sad
Make 'em add two and two

Or make 'em me
Or make 'em you
Make 'em do what you want them to [Laugh]

Make them laugh
Make 'em cry
Make 'em lay down and die
Вверх

One slip mp3

Eb                            Gm(add4)
A restless eye across a weary room
Eb                                       Fsus4
A glazed look and I was on the road to ruin
   C                                              Eb6  Eb
The music played and played as we whirled without end
F                       Ab(add9)
No hint, no word her honour to defend

Eb                                Gm(add4)
I will, I will she sighed to my request
                Eb                                             Fsus4 F Fsus4
And then she tossed her mane while my resolve was put to the test
    C                                       Eb
Then drowned in desire, our souls on fire, I lead the way to the funeral pyre
       F
And without a thought of the consequence, I gave into my decadence

C(add9)                          Ebmaj7/Bb
One slip, and down the hole we fall
  Bb(add9)                  Gm(add9)
It seems to take no time at all
 C(add9)                            Ebmaj7/Bb
A momentary lapse of reason, that binds a life for life
   Bb(add9)                               Gm(add9)
A small regret, you won't forget, there'll be no sleep in here tonight.

Eb  Gm/D  Gm  Eb  Gm/D  Gm

Eb                                       Gm(add4)
Was it love, or was it the idea of being in love?
             Eb                                              Fsus4  F  Fsus4
Or was it the hand of fate, that seemed to fit just like a glove?
   C                                         Eb
The moment slipped by and soon the seeds were sown
   F
The year grew late and neither one wanted to remain alone
C(add9)                          Ebmaj7/Bb
One slip, and down the hole we fall.
  Bb(add9)                  Gm(add9)
It seems to take no time at all
 C(add9)                            Ebmaj7/Bb
A momentary lapse of reason, that binds life to a life
   Bb(add9)                                   Gm(add9)
The one regret you will never forget, there'll be no sleep in here tonight

Eb  Gm/D  Gm  Eb  Gm/D  Gm
Вверх

ON THE TURNING AWAY mp3

                     G
It's a sin that some how
         C             Em         D     G5   G                C
Light is changing to shadow, and casting its shroud over all we have known.
Em              C           G       Em            G        C
Unaware how the ranks have grown, driven on by a heart of stone,
G                        C    Em          D      G5    G        Em      D
we could find that we're all alone in the dream of the proud  on the wings of
G                  C            Em                  D        G
the night   As the day time is stirring, where the speachless unite in a
C              Em                    C         G       Em                G
silent accord, using words you will find as strange, mesmerized as they light
  C         G                    C    Em       D       G
the flame, Feel the new wind of change on the wings of the night


BRIDGE:(distorted electric)

E5   D   Cadd9   C5    D5    Em     D    A5  (B note on fifth string)

(A note on fifth string) C5 C#5/D5/A5\  A5   Am   C  C#5/D5/A\  E5

/ = Slide up to next chord   \ = slide down to next chord


VERSE:
 Em       D     G5              C            Em
No more turning away,  from the weak and the weary,

           D         G5           C
  No more turning away from the coldeness inside.
e----------------------------------------------------------------
B---------------------------------1------------------------------
G----------------------0----------0----------------10b(11)r10--5-
D----------------------0----------2------------------------------
A----------------------X----------3------------------------------
E----------------------3-----------------------------------------

  Em                     C          G5         Em               G          C
  Just a world that we all must share It's not enough just to stand and stare
e----------------------------------------------------------------------------
B----------------------------------------------------------------------------
G--------------------------0------0------------------------------------------
D--5---------------------5-2------0------------------------------------------
A----7---------------------3------X------------------------------------------
E----0----------------------------3------------------------------------------

 G           Em                  C            D      G
Is it only a dream that there'll be no more turning away

SOLO:
      G
e--------------------
B--------------------
G--------------------
D--------------------
A--------------------
E---0-2b(3)--2vvvvv--

     E5                                     C
e-----------------------------------------12-------------------
B---15b(17)vvvvvvv---15p12-(13)r15vvvvvv-------12vvvvvvvvvv----
G--------------------------------------------------------------
D--------------------------------------------------------------
A--------------------------------------------------------------
E--------------------------------------------------------------

e--------------------------------------------------------------------------
B--------------------------------------12-----15-----15>(17)>15-vvvvvvvvv--
G--------0-2-2>(3)>2>0-----------------------------------------------------
D-----\2----------------2-vvvvvvvv-----------------------------------------
A--------------------------------------------------------------------------
E--------------------------------------------------------------------------

                                              D          G
e-------------------------------------------------------------------------
B-------15b(17)===========>15--15-15vvvvvvvv--12---------15-vvvvvvvvvv----
G---------------------------------------------------14--------------------
D-------------------------------------------------------------------------
A-------------------------------------------------------------------------
E-------------------------------------------------------------------------

                                 E5
e----------------------------------------------
B----------------------------------------------
G---2b(4)r2vvvvp0----0-------------------------
D------------------2----2-(0)--2vvvvvvvvv------
A----------------------------------------------
E----------------------------------------------

                                                 B
e----------------------------------------------------------------------------
B----------------------------------------------------------------------------
G----------12-------14-------------12--------14>(16)vvvvv------------12------
D-----/14-------14--------14vvvvv-------14------------------------14------14v
A----------------------------------------------------------------------------
E----------------------------------------------------------------------------

                                                    D         G
e--------------------------------------------------------------------
B---------------------------------------------------3----------------
G-----------------------------------------------2---2----------------
D------9\7--5vvvvv--5>7---5vvvvvv---5\4----2>0--0---0----------------
A-------------------------------------------------------2--0---------
E--------------------------------------------------------------3-----

                                E                 C       E5
e-----3/5---3---3--0--2----0-------------------------------------------------
B-----3/5---3---3--0--2----0-------------------------------------------------
G----------------------------------------------------------------------------
D----------------------------------------------------------------------------
A----------------------------------------0--2-2<(3)=====>2--2--3>2>0--0------
E-----------------------------0----0---3-----------------------------3---0vvv

     D                   E5                                  D         G
e----------------------------------------------------------------------------
B--15>(17)-------------15>12-15vvvvvvvvvv---15-------------------------------
G-------------------------------------------------12---11----11------12vvvvvv
D-------------------------------------------------12---12----12--12--12vvvvvv
A----------------------------------------------------------------------------
E----------------------------------------------------------------------------

                                              E5
e----------------------------------------------------------------------------
B-------15>12----------------------------------------------------------------
G---------------12----12---12>11--11----/7----7vvvvvv--9===>(11)>9>7-9vvvvv--
D----------------------------------------------------------------------------
A----------------------------------------------------------------------------
E----------------------------------------------------------------------------

         C                  E5                                      D
e----------------------------------------------------------------------------
B-----"7"---8---8>(10)vvvvvvv>8>7--------7--->8------------------------------
G----------------------------------9-"9"---------6>(7)vvvvvvv-----2>(4)>2vvv-
D----------------------------------------------------------------------------
A----------------------------------------------------------------------------
E----------------------------------------------------------------------------

    E5                     D       G
e---------------------------------------3--3---3---3---3---3---3-------
B-----------------------------------0---3--3---3---3---3---3---3-------
G-------------0-------2>(4)---------0----------------------------------
D-----2p0--2-----2-----------0------0----------------------------------
A-----------------------------------2----------------------------------
E-----------------------------------3----------------------------------

                                     E5                              C
e---------15vvvvv---12---------------12-14-15>(17)--17>(19)====>17>15--17vvvv
B---15>17---------------15>(17)vvv-------------------------------------------
G----------------------------------------------------------------------------
D----------------------------------------------------------------------------
A----------------------------------------------------------------------------
E----------------------------------------------------------------------------

                   E5                              D           E5
e--15---17---17>(19)===>17--15>12-15>0vvvvvvvv-------------------------------
B-----------------------------------------------15>(17)vvvvvvvvv-15>12--15vvv
G----------------------------------------------------------------------------
D----------------------------------------------------------------------------
A----------------------------------------------------------------------------
E----------------------------------------------------------------------------

                 D                G
e----------------------------------------------------------------------------
B--15>12--12\--------------------------------------15/17\15--15/17--0-8-0-3-0
G--------------14>(16)===>14-14>12>14>12vvvvvvvvv----------------------------
D----------------------------------------------------------------------------
A----------------------------------------------------------------------------
E----------------------------------------------------------------------------

                               E5
e---------------------------------------------------------
B---------------------------------------------------------
G-------3--------------------2>(4)>2>0--------------------
D-----------2>0----------2-----------------2vvvvvvvv------
A-----------------2>0-------------------------------------
E---------------------------------------------------------

        C                     E5
e-------------------------------------------------------------------------
B----10vvvvvvvvvvvv----10/12--12vvvvvvvvvvv---10>(12)====>10>8--10vvvv----
G-------------------------------------------------------------------------
D-------------------------------------------------------------------------
A-------------------------------------------------------------------------
E-------------------------------------------------------------------------

  D              E5                                          D       G
e-----------10--------------------------------------------------------------
B---8---10------10>(12)vvvvvvvvv--10>(12)==>10>8---10>8\7-\/-\/-\/--8-8vvvvv
G---------------------------------------------------------------------------
D---------------------------------------------------------------------------
A---------------------------------------------------------------------------
E---------------------------------------------------------------------------

                                                                E5
e-------15>12------14>12--------15>12-------14>12------15>(17)vvvvv--
B----0---------12----------12-----------12---------12----------------
G--------------------------------------------------------------------
D--------------------------------------------------------------------
A--------------------------------------------------------------------
E--------------------------------------------------------------------

                                             C                   E5
e---15>14--14>(15)>14--------------------------------------------------------
B----------------------15------------12------15vvvvv---12>15>12--------------
G----------------------------14vvv-------14----------------------14>12vvvvv--
D----------------------------------------------------------------------------
A----------------------------------------------------------------------------
E----------------------------------------------------------------------------

                                     D
e--------------------------------------------
B--------------------------------------------
G--------2vvvvvvv----------------------------
D-------------------0>2>0--------------------
A--------------------------------0-----------
E---------------------------3---------0\-----
Вверх

OUTSIDE THE WALL mp3

C             F  C
All alone, or in twos
C                   F    C
The ones who really love you
G                  G7        C     F  C
Walk up and down outside the wall
C         F  C
Some hand in hand
                F        C
Some gathered together in bands
   G
The bleeding hearts and artists
          C     F  C
Make their stand
                          F     C
And when they've given you their all
                Am          F            C
Some stagger and fall, after all it's not easy
G7
Banging your heart against some mad buggers
C
Wall
Вверх

Paintbox

Emadd9
Last night I had too much to drink
G
Sitting in a club with so many fools
C
Playing to rules
F                                          Am
Trying to impress but feeling rather empty
F             C
I had another drink
Drink - a - drink - a - drink - a - drink

Emadd9
What a way to spend that evening
G
They all turn up with their friends
C
Playing the game
F                                  Am
But in the scene I should have been
F    C
Far away
Away - away - away - away - away

B   B flat     A    A flat   G         G flat  F     E
Getting up, I feel as if I'm remembering this scene before
C                     F
I open the door to an empty room
D               D sus4  D
Then I forget


Emadd9
The telephone rings and someone speaks
G
She would very much like to go
C
Out to a show
F                                            Am
So what can I do - I can't think what to say
F                   C
She sees through anyway
Away - away - away - away - away


Emadd9
Out of the front door I go
G
Traffic's moving rather slow
C
Arriving late,
F                                 Am
There she waits looking very angry,
F                   C
As cross as she can be

Be - a - be - a - be - a - be - a - be

B   B flat     A    A flat   G         G flat  F     E
Getting up, I feel as if I'm remembering this scene before

C                     F
I open the door to an empty room
D               D sus4  D
Then I forget
Вверх

PARANOID EYES

G                   C                          G
Button your lip and don't let the shield slip.
                         C            G
Take a fresh grip on your bullet proof mask.
C                                                      G          D  C
And if they try to break down your disguise with their questions
       G     D     C        G/B  Am  D  Am
You can hide, hide, hide,
               G
Behind paranoid eyes.

       G                          C                   G
You put on our brave face and slip over the road for a jar,
                       C                    G
Fixing your grin as you casually lean on the bar.
C
Laughing too loud at the rest of the world
        G    D      C
With the boys in the crowd.
   G     D     C      Am  D  Am
You hide, hide, hide,
                G
Behind petrified eyes.

C  G  C  G  C  G  Em  D  Am  G

     G                          C                 G
You believed in their stories of fame, fortune and glory.
                             C                   G
Now you're lost in a haze of alchohol soft middle age.
   C                                         G       D  C
The pie in the sky turned out to be miles too high.
       G     D     C       Am  D  Am
And you hide, hide, hide,

Behind brown and mild eyes.
Вверх

PIGS ON THE WING (PART ONE)

INTRO:

G  C  G  C

G             C         Csus4      C
If you didn't care
                G      Gsus4      G
what happened to me
            C          Csus4      C
And I didn't care
    G       Gsus4     G             A               G(frm2) A G(frm2)
For you.                    We would zig-zag our way
           A7                     G              C
Through the boredom and pain.      Occasionally   glancing
D              G      Am             F                 Am         F
up through the rain       Wondering       which of the buggers to blame
C    Am7/B   Am         D        Dsus4   D               G
                   And watching         for pigs on the wing.


CHORDS USED:

G       320033
Gsus4   X30033
G(frm2) XX000X
C X32010
Csus4 XX3010
A X02220
Am X02210
A7 X02223
D XX0232
Dsus4 XX0233
F 133211
Am7/B X22010
Вверх

PIGS ON THE WING (PART TWO)

INTRO:

G  C  G  C

G               C         Csus4      C
You know that I care
               G      Gsus4      G
what happens to you
                   C          Csus4      C
And I know that you care
      G       Gsus4      G             A               G(frm2) A G(frm2)
for me too.                        So I don't feel alone
      A7                          G                   C
or the weight of the stone.        Now that I've found somewhere
D               G      Am               F           Am          F
safe to bury my bone       And any fool knows     a dog needs a home
C    Am7/B   Am         D        Dsus4   D                G
                     A shelter          from pigs on the wing.


CHORDS USED:

G       320033
Gsus4   X30033
G(frm2) XX000X
C X32010
Csus4 XX3010
A X02220
Am X02210
A7 X02223
D XX0232
Dsus4 XX0233
F 133211
Am7/B X22010
Вверх

PIGS (THREE DIFFERENT ONES)

Em  C  Em  C  .....

INTRO:
---0-2-3-2-0-2-3---0-2-3-2-0-2-3---0-2-3-2-0-2-3---0-2-3-2-0-2-3------
-0---------------0---------------1---------------1--------------------
---------------------------------------------------------------------'
---------------------------------------------------------------------'
----------------------------------------------------------------------
----------------------------------------------------------------------

-17b---------------------------------------------------17b------------
------------19----0-0--0--0----0-0--0--0----0-0--0--0------0-0--0--0--
------------------0-0--0--0----0-0--0--0----0-0--0--0------0-0--0--0--
------------------9-9--9--9----5-5--5--5----5-5--5--5------5-5--5--5--
------------------7-7--7--7----3-3--3--3----7-7--7--7------3-3--3--3--
----------------------------------------------------------------------

-------------------------------------------------------0--0--0--------
-0-0--0--0----0-0--0--0-----0-0--0--0------------------0--0--0--------
-0-0--0--0----0-0--0--0-----0-0--0--0------------------0--0--0--------
-5-5--5--5----9-9--9--9--\5-5-5--5--5------5-----------2--2--2---2--2-
-3-3--3--3----7-7--7--7-----3-3--3--3--3-3-3---3----------------------
--------------------------------------------------3-2-----------------

--17b-----------3--3---2--0--------0-------------
-------1-1------3--3---3--0--15pb--0-------------
-------0-0------4--4---3--0--------0-------------
-------2-2-2----5--5---------------2-------------
----------------5--5---------------2-------------
-------3-3------3--3---------------0-------------

Em                C                 G     Em
Big man, pig man, ha ha charade you are
                          C                 G    Em
You well heeled big wheel, ha ha charade you are
   C                         G
And when your hand is on your heart
A7
You're nearly a good laugh, almost a joker

With your head down the pigbin saying keep on digging
Am7
Pig stain on your fat chin

What do you hope to find down in the pig mine

You're nearly a laugh, you're nearly a laugh
                Em    C         Em  D  Em  D  Em  D  Em  D
But you really a cry______

Em                C                 G      Em
Bus stop rat bag, ha ha charade you are
                      C                 G    Em
You fucked up old hag, ha ha charade you are
C                                 G
You radiate cold shafts of broken glass
A7
You're nearly a good laugh, almost worth a quick grin

You like the feel of steel, you're hot stuff with a hat pin
Am7
And good fun with a hand gun

You're nearly a laugh, you're nearly a laugh
                   Em    C     Em  D  Em  D  Em  D  Em  D
But you're really a cry______


Em  D  Em  D  Em  D  Em  D  Em  D  Em  D  Em  D  Em  D

C  Bb  C  Bb  C  Bb  C  Bb  C  Bb  C  Bb  Em  ....

Em  C  Em  C  Em  C  Em  C  Em  C  Em  C  Em  C


Em                   C                 G    Em
Hey you, Whitehouse, ha ha charade you are
                           C                 G    Em
You house proud town mouse, ha ha charade you are
      C                                  G
You're trying to keep our feeling off the street
Am
You're nearly a real treat, all tight lips and cold feet

And do you feel abused

.......!  .......!  .......!  .......!

You gotta stem the evil tide and keep it all on the inside

Mary, you're nearly a treat, Mary, you're nearly a treat
                   Em   C      Em  D  Em  D  Em  D  Em  D
But you're really a cry_____

Em  D  C  D
[Repeat and fade]



Solo  ~~~~~~~~~~                                      ~~~~~~~~~
-12------------12----12----12---------12-------12--------------12--12-12--
-15b-----------15b---15b---15b--------15b----------15pb--------15b----15b-
--------------------------------------------------------------------------
--------------------------------------------------------------------------
--------------------------------------------------------------------------
--------------------------------------------------------------------------
          ~~~~                           ~~~~~~~~
~~~~~
-12-12---12----14---14---14---14\-------15------------15b--12--15/17--17b-
----15b--15b---17b--17b--17b--17\---12------------12-------12-------------
--------------------------------------------------------------------------
--------------------------------------------------------------------------
--------------------------------------------------------------------------
--------------------------------------------------------------------------
        1 1/2
-17/19-19b-----19--17--17\15--17/19--17--15--14--15--14------14-----------
---------------------------------------------------------17-----17--15----
--------------------------------------------------------------------------
--------------------------------------------------------------------------
--------------------------------------------------------------------------
--------------------------------------------------------------------------
                                    1/2~~~~~~~        1/2
~~~~
-----------------12-------------------------------------------------------
-15--14-13\12-15----12h13p12-----12---------------------------------------
------------------------------14---14b--------12--14--14pb-p12---14-12----
---------------------------------------------------------------14------14-
--------------------------------------------------------------------------
--------------------------------------------------------------------------
         1/2~~~~ 1/2                   ~~~~~~                 ~~~~
--------------------------------------------------------------------------
------15-15-----15b----15----------12-----------------------------0-----0-
-x-x-----14b----14b----14p12---14--12-----------------------------0---x-0-
--------------------------------------14--12------------------------------
------------------------------------------12--14\12p10--12p10-------------
--------------------------------------------------------------12----------

---------------------------3-----3------3-------5---5\3------/12--12------
-------------------------------------------------------------/12-----12---
-2b---2b---2b------0--2/4----/4----/4------4/6------6\4---4---------------
----------------2---------------------------------------------------------
--------------------------------------------------------------------------
--------------------------------------------------------------------------
                                       ~~~~~~~~~~~~~~        1/2
-15p12-7--15p12-7--15p12-7--15p12-7---15b------------15--14--14b----14-12-
--------------------------------------------------------------------------
--------------------------------------------------------------------------
--------------------------------------------------------------------------
--------------------------------------------------------------------------
--------------------------------------------------------------------------
        ~~~~                                                       1/4
-12-----------------------------------------------------------------------
----15b-----15p12----12-12------------------------------------------------
------------------14-------14pb--12-14p12----12---------------------------
------------------------------------------14----14-13-12----12------------
---------------------------------------------------------14----14--10--12-
--------------------------------------------------------------------------
                                                               ~~~~~~
-------------------------------------------12----15-----------------------
-12----------12-------14-14b----------15b--15b--------15b--12--15-----15\-
-12----------12---14--14-14b--14--12--------------------------------------
----14p12-----------------------------------------------------------------
----------14--------------------------------------------------------------
--------------------------------------------------------------------------
                                           ~~~~~~~              1/4
---------------14---------14-------14-------------------------------------
-x-15--15---------14----------15-------14---------------------------------
-----------14---------14---------14--------14b----0-14b-12-14--12b--------
-------------------------------------------------------------------14-----
----------------------------------------------------------------------14\-
--------------------------------------------------------------------------

----------x---------------------------------------------------------------
--0--15------15-----------15----------------------------------------------
--0--14b-----14b--12--12-----12--14--14b--14pb--12----14-12---------------
--0------------------------------------------------14-------14-12---------
------------------------------------------------------------------12\-10--
--------------------------------------------------------------------------
                                                               Repeat
once
-------------------------------------------------------------------------
---------12--12--12--12--12--12-12--12---12-12--12-0-----12--0---12---12-
---------12--12--12--12--12--12-12--12---12-12--12---0---12----0-12---12'
------------------------------------------------------------------------'
-12p10-------------------------------------------------------------------
-------12----------------------------------------------------------------
                                                      Play until song
ends
--15p12----15p12----15p12----15p12----15p12----15p12----15p12-----15p12---
--------12-------12-------12-------12-------12-------12-------12--------12
-------------------------------------------------------------------------'
-------------------------------------------------------------------------'
--------------------------------------------------------------------------
--------------------------------------------------------------------------
Вверх

POLES APART

TUNING: DADGAD

INTRO:
D-------------0-----------------0--------
A-------0-----------0-----0-----------0--
G----7-----------------6-----------6-----
D----------5-----5-----------5-----------
A----------------------------------------
D----------------------------------------

D-------------0-----------------0--------
A-------0-----------0-----0-----------0--
G----4-----------------6-----------6-----
D----------5-----5-----------5-----------
A----------------------------------------
D----------------------------------------

D-------------0-----------------0--------
A-------0-----------0-----0-----------0--
G----7-----------------6-----------6-----
D----------5-----5-----------5-----------
A----------------------------------------
D----------------------------------------
  ________________________________________
 1.-3                                      3x
D-------------0-----------------0---------
A-------0-----------0-----0-----------0---
G----4-----------------6-----------6-----*
D----------5-----5-----------5-----------*
A-----------------------------------------
D-----------------------------------------
  _______________________________________
 4.
D-------------0-----------------0--------
A-------0-----------0-----0-----------0--
G----4-----------------2-----0-----0-----
D----------5-----5-----------------------
A----------------------------------------
D----------------------------------------


Rhythm figure 1
D------------------------------------------
A-------------------0----------------------
G-------------0-----------------0----------
D-------4--------4--------4-------------4--
A----------0-----------------0-------------
D----0-----------------0-----------(0)-----

D------------------------------------------
A-------------------0----------------------
G-------------0-----------------0----------
D-------4--------4--------4-------------4--
A----------0-----------------0-------------
D----0-----------------0-----------(0)-----

D------------------------------------------
A-------------------0----------------------
G-------------0-----------------0----------
D-------4--------4--------4-------------4--
A----------0-----------------0-------------
D----0-----------------0-----------(0)-----

D------------------------------------------
A-------------------0----------------------
G-------------0-----------------0----------
D-------4--------4--------4-------------4--
A----------0-----------------0-------------
D----0-----------------0-----------(0)-----

Rhythm figure 2
D-------------------------------------
A-------------------0-----------------
G-------------0-----------------0-----
D-------0--------0--------0--------0--
A----------5-----------------5--------
D----5-----------------5--------------

D-------------------------------------
A-------------------0-----------------
G-------------0-----------------0-----
D-------0--------0--------0--------0--
A----------5-----------------5--------
D----5-----------------5--------------

D-------------------------------------
A-------------------0-----------------
G-------------0-----------------0-----
D-------0--------0--------0--------0--
A----------5-----------------5--------
D----5-----------------5--------------

D-------------------------------------
A-------------------0-----------------
G-------------0-----------------0-----
D-------0--------0--------0--------0--
A----------5-----------------5--------
D----5-----------------5--------------

VERSE:(with Rhy. figs 1 and 2)
Did you know
it was all going to go
so wrong for you?
And did you see
it was all going to be
so right for me?

D----------------------------------------------------------------------
A----------------------------------------------------------------0-----
G----------------------------------------------------------------0-----
D----2/4-------2-----0-------------------------------------------4-----
A---------------------------2/4--------2--------0----------------------
D----------------------------------------------------------------------
     Why      did   we      tell      you      then,              You

D----------------------------------------------------------------------
A----0--0-------------------------------------------------0--0--0------
G-------0---------------------0-------------0-----0-------0-----0------
D----5--4-----2-----0---------0-------------0-----0-------4--5--4------
A---------------------------2h4--------2p0--2-----2--0-----------------
D----------------------------------------------------------------------
    were  al - ways  the     gold - en   boy        then,  And that you'd

D------------------------------------------
A------------------------------------------
G------------------------------------------
D-----------------------0--0--0----0--0----
A------2------0-------2h4--4--2p0----------
D----------------------------------5--5p4--
       nev - er       lose that light in your eyes.


Hey you,
did you ever realize
what you had become?
And did you see
that it wasn't only me
you were running from?

Did you know all the time
but it never bothered you anyway?
Leading the blind while I stared out the steel in your eyes.

INTERLUDE

VERSE:
The rain fell slow
Down on all the roofs of uncertainty
I thought of you
And the years and all the sadness fell away from me.

And did you know? (echo)

I never thought that you'd lose that light in your eyes.

OUTRO SOLO
Вверх

REMEMBER A DAY mp3

E          D6               A                    E
Remember a day before today, a day when you were young.
            D6              A              Em  F#m/E  G/E  A/E  Em  F#m/E
Free to play along with time; evening never comes__________________.

G/E  A/E  E  F#o/E  E  F#o/E  E

E      D6                     A                      E
Sing a song that can't be sung without the morning's kiss.
               D6             A              Em  F#m/E  G/E  A/E  Em  F#m/E
Queen you shall be if you wish. Look for your king___________________.

G/E  A/E

A   G        D      Em
Why can't we play today?
A   G        D         Em     F#m/E  G/E  A/E  E(no 3rd)
Why can't we stay that way?

E          D6                   A                 E
Climb your favourite apple tree; try to catch the sun.
              D6                   A                Em  F#m/E  G/E  A/E  Em
Hide from your little brother's gun. Dream yourself away____________________.

F#m/E  G/E  A/E

A   G        D          Em
Why can't we reach the sun?
A   G        D               Em    F#m/E  G/E  A/E
Why can't we blow the years away?

E(no 3rd)
Blow away.
Вверх

Run like hell mp3

INTRO:
    D  A/D   Dsus D    G6/D G/D   D9  D
e---10--9------7--5------5--3------0--2-----
B---10--10-----8--7------5--3------3--3-----
G---11--9------7--7------6--4------2--2-----
D---0---0------0--0------0--0------0--0-----
A-------------------------------------------
E-------------------------------------------

Just hit the open D string in between the descending chord part.

D  A/D     Dsus  D    G6/D  G/D     D(9)  D
D  A/D     Dsus  D    G6/D  G/D     D(9)  D

 ->F ..  .. .. .. .. .. ->A .. .. .. .. . .
Gb   Gb(9) Gb   Gbmaj7 Bb   Bb7  Bb+  Bb
Run, run,  run, run,   run, run, run, run

 ->D
Eb
Run, run, run, run, run, run, run, run


           ->Em
          Fm
You better make your face up in
Your favourite disguise

            ->F
          F#
With your button down lips and your
Roller blind eyes

           ->Em
          Fm
With your empty smile

And your hungry heart

          ->C
         Db
Feel the bile rising from your guilty past
          B7
With your nerves in tatters
When the cockleshell shatters
        E
And the hammers batter
Down your door
                 ->D
           D        Dm
You better run

D  A/D     Dsus  D    G6/D  G/D     D(9)  D

 ->F .. ..              -> A .. ..  ..
Gb   Gb(9) Gb   Gbmaj7 Bb   Bb7  Bb+  Bb
Run, run,  run, run,   run, run, run, run

 ->D
Eb
Run, run, run, run, run, run, run, run

          ->Em
          F
You better run all day
And run all night

               -> F
              F#
And keep your dirty feelings
Deep inside. And if you're

 ->Em
F
Taking your girlfriend
Out tonight,

     ->Em   ->C
    Fm     Db
You better park the car
Well out of sight
             B7
'Cos if they catch you in the backseat
Trying to pick her locks
              E
They're gonna send you back to mother
In a cardboard box
           D
You better run.

D  A/D     Dsus  D    G6/D  G/D     D(9)  D
Вверх

San tropez mp3

D7                           Gmaj7
                As I reach  for a peach slide a  ride down behind  the
                 Gm6
sofa in San Tropez
Gmaj7
Breaking  a stick with a brick on the sand riding a wave in the wake of
            Gm6
an old sedan

G7                                          A7
Sleeping alone in the drone of the darkness scratched by the sand that
                  C7                                             D
fell from our love deep in my dreams and I still hear her calling If
you're alone I'll come home

[play this first time only, second time go to Coda]
Gmaj7                                            Gm6
Backwards and home-bound the pigeon, the dove    gone with the wind and
                       Gmaj7                                  Gm6
the rain on an airplane owning a home with no silver spoon I'm drinking
                           G7
champagne like a big tycoon Sooner than wait for a break in the weather
    A7                                    C7
I'll gather my far-flung thoughts together Speeding away on a wind to a
       D
new day if you're alone I'll come home ..And I pause

[Back to top with these lyrics]

Gmaj7
for a while by a country stile and listen to things they say. Digging for
gold with a hoe in my hand hoping they'll take a look at the way things
stand Would you lead me down to the place by the sea? I hear your soft
voice calling to me. Making a date for later by phone. If you're alone
I'll come

[Coda]

home.

[Repeat and fade out]
Gmaj 7     Gm6
Вверх

Scarecrow

   D               A             C        A   G
The black and green scarecrow, as ev'ryone knows,
            A                   D          A
Stood with a bird on his hat and straw ev'rywhere.
  D
He didn't care.
  G          Am          G      A
He stood in a field where barley grows.

   D           A             C           A  G
His head did no thinking, his arms didn't move,
               A                     D         A            D
Except when the wind cut up rough and mice ran around on the ground.
  G          Am          G      A
He stood in a field where barley grows.

   D               A            C           A  G
The black and green scarecrow is sadder than me__.
              A                            D            A
But now he's resigned to his fate's, 'cause life's not unkind.
  D
He doesn't mind.
  G          Am          G      A
He stood in a field where barley grows.
Вверх

See emily play

G               D/F#    Am/E    N.C.
Emily tries but misunderstands, ah-ooh.
     Cmaj7                    Am                      G
She's often inclined to borrow somebody's dream till tomorrow.
           E
There is no other day.
D              E
Let's try it another way.
D                     E        N.C. A
You'll lose your mind and play free games for May.
               G
See Emily play.

G               D/F#  Am/E   N.C.
Soon after dark Emily cries, ah-ooh.
Cmaj7                           Am                    G
Gazing through trees in sorrow, hardly a sound till tomorrow.
           E
There is no other day.
D              E
Let's try it another way.
D                     E        N.C. A
You'll lose your mind and play free games for May.
               G
See Emily play.

G                  D/F#        Am/E    N.C.
Put on a gown that touches the ground, ah-ooh.
Cmaj7               Am             G
Float on a river forever and ever, Emily.
           E
There is no other day.
D              E
Let's try it another way.
D                     E        N.C. A
You'll lose your mind and play free games for May.
               G   D
See Emily play.
Вверх

SEE-SAW

Cmaj7
Marigolds are very much in love
              Am7
But he doesn't mind
F                                                 B
Picking up sister he makes his way to the see-saw land
       E      E7  A
All the way up she smiles
G                      F     Em
She goes up as he goes down, down

Bb  A  D

Cmaj7
Sits on a stick in the river
           Am7
Laughter in his sleep
F
Sister's throwing stones
G            B    B7
Hoping for a hit
           E
He doesn't know
  A
So then
G                         F     Em      Ebmaj7
She goes up while he goes down, down

Bb  A  D

 Eb         Cmaj7
Another time, another day
F                  A
A brother's way to leave
E             D
Another time, another day

Cmaj7                                              Am7
She'll be selling plastic flowers on a Sunday afternoon
F
Picking up weeds
                               B
She hasn't got the time to care
       E        E7  A
All can see he's not there
G                        F
She grows up for another man,
        Em
And he's down

Bb  A  D

 Eb         Cmaj7
Another time, another day
F                  A
A brother's way to leave
E             D
Another time, another day
 Eb         Cmaj7
Another time, another day
F                  A
A brother's way to leave
Вверх

SET THE CONTROLS FOR THE HEART OF THE SUN

e-------------------------------
B-(0:00)------------------------
G------------------------------- Repeat until
D------------------------------- (0:54)
A-/7--7--7h8~--7---7\5--5--5/7--
E-------------------------------

e-----------------------------------------------------
B-(0:54)----------------------------------------------
G-----------------------------------------------------
D--7--7h8~--7---7\5--5--5/7--7--7h8~--7---7\5--5--5/7-
A-----------------------------------------------------
E-----------------------------------------------------

e--------------------------------------------------------------
B-(1:01)-------------------------------------------------------
G--------------------------------------------------------------
D--------------------------------------------------------------
A-/7--7--7h8~--7---7\5--5--5/7---/7--7--7h8~--7---7\5--5--5/7--
E--------------------------------------------------------------

e------------------------------------------------------------------------
B-(1:08)-----------------------------------------------------------------
G------------------------------------------------------------------------
D------------7~--5~---5~\3--3--3p2---------------7~--5~---5~\3--3--3p2---
A--/7--7--7----------------------------/7--7--7--------------------------
E------------------------------------------------------------------------

e-------------------------------
B-(1:16)------------------------
G------------------------------- Repeat until
D------------------------------- (1:45)
A-/7--7--7h8~--7---7\5--5--5/7--
E-------------------------------

e-----------------------------------------------------
B-(1:45)----------------------------------------------
G-----------------------------------------------------
D--7--7h8~--7---7\5--5--5/7--7--7h8~--7---7\5--5--5/7-
A-----------------------------------------------------
E-----------------------------------------------------

e--------------------------------------------------------------
B-(1:52)-------------------------------------------------------
G--------------------------------------------------------------
D--------------------------------------------------------------
A-/7--7--7h8~--7---7\5--5--5/7---/7--7--7h8~--7---7\5--5--5/7--
E--------------------------------------------------------------

e------------------------------------------------------------------------
B-(1:59)-----------------------------------------------------------------
G------------------------------------------------------------------------
D------------7~--5~---5~\3--3--3p2---------------7~--5~---5~\3--3--3p2---
A--/7--7--7----------------------------/7--7--7--------------------------
E------------------------------------------------------------------------

e-------------------------------
B-(2:06)------------------------
G------------------------------- Repeat until
D------------------------------- (2:13)
A-/7--7--7h8~--7---7\5--5--5/7--
E-------------------------------

e-----------------------
B-(2:13)----------------
G----------------------- Repeat until
D----------------------- (3:13)
A--5~/7~--7~-7~~--------
E-----------------------
 "The heart of the sun"

e-------------------------------
B-(2:13)------------------------
G------------------------------- Repeat until
D------------------------------- (3:42)
A-/7--7--7h8~--7---7\5--5--5/7--
E-------------------------------

e-----------------------------------------------------
B-(3:42)----------------------------------------------
G-----------------------------------------------------
D--7--7h8~--7---7\5--5--5/7--7--7h8~--7---7\5--5--5/7-
A-----------------------------------------------------
E-----------------------------------------------------

e--------------------------------------------------------------
B-(3:49)-------------------------------------------------------
G--------------------------------------------------------------
D--------------------------------------------------------------
A-/7--7--7h8~--7---7\5--5--5/7---/7--7--7h8~--7---7\5--5--5/7--
E--------------------------------------------------------------

e------------------------------------------------------------------------
B-(3:56)-----------------------------------------------------------------
G------------------------------------------------------------------------
D------------7~--5~---5~\3--3--3p2---------------7~--5~---5~\3--3--3p2---
A--/7--7--7----------------------------/7--7--7--------------------------
E------------------------------------------------------------------------

e--------------------------------------------------------------
B-(4:04)-------------------------------------------------------
G--------------------------------------------------------------
D--------------------------------------------------------------
A-/7--7--7h8~--7---7\5--5--5/7---/7--7--7h8~--7---7\5--5--5/7--
E--------------------------------------------------------------
 "Set the controls for the heart of the sun"

e-----------------------
B-(4:11)----------------
G----------------------- Repeat until
D----------------------- (5:00)
A--5~/7~--7~-7~~--------
E-----------------------
 "The heart of the sun"

e-------------------------------
B-/5--5--5h6---5---5\3--3--3/5--
G------------------------------- Repeat until
D------------------------------- (5:12)
A-(5:00)------------------------
E-------------------------------

e--------------------------------------------------------
B--6~--5~--3~--5~---5~--6~--8~--10~--8~--6~--5~--3~--5~----
G------------------------------------------------------------
D--------------------------------------------------------------
A-(5:12)---------------------------------------------------------
E------------------------------------------------------------------
 Start to Fade out...
Вверх

SHINE ON YOU CRAZY DIAMOND PART 1

   Gm
e--------------------------------------------------------------------
B-----18b(20)~--18--18b(20)~-----------------------------------------
G------------------------------------15--17--17b(19)--17--17b(19)~---
D--------------------------------17----------------------------------
A--------------------------------------------------------------------
E--------------------------------------------------------------------

     Dm
e-----------------------------------------------------
B-----------------------------------------------------
G---------17b(19)r17p15--17---17b(19)--17-17b(19)-----
D-----------------------------------------------------
A-----------------------------------------------------
E-----------------------------------------------------

        Cm
e--------------------------------------------------------------------------
B------10h11p10----10------------------------------------------------------
G---------------12----10-10----10---------12-b(15)r12---12b(15)----(15)r12-
D---------------------------12---------------------------------------------
A--------------------------------------------------------------------------
E--------------------------------------------------------------------------

e-------------------------------------------------------------------------
B----------------------------------------------------------------------18-
G---10h12--12b(15)~--------------12b(15)-r12----10--12--12~---17b(19)-----
D-------------------------------------------------------------------------
A-------------------------------------------------------------------------
E-------------------------------------------------------------------------

    Gm
e--------------------------15--18~-----18b(20)---18\~---------------------
B---18b(20)--------18b(20)------------------------------------------------
G---------------------------------------------------------17-b(18)r17-15--
D-------------------------------------------------------------------------
A-------------------------------------------------------------------------
E-------------------------------------------------------------------------

e-------------------------------------------------------------------------
B-------------------------------------------------------------------------
G---------------10--12~---------12b(15)-(15)-(15)---r12------10h12~-------
D-----------12------------------------------------------------------------
A-------------------------------------------------------------------------
E-------------------------------------------------------------------------

        Dm
e--------------------------------------------------------------------
B------------------------------------------------------------18------
G-------------17b(19)r17p15--17----17b(19)~----------17b(19)---------
D--------------------------------------------------------------------
A--------------------------------------------------------------------
E--------------------------------------------------------------------

e-----------15--------------------------------------------------------------
B--18b(20)------18b(20)~-----18b(20)r18-15----------------------------------
G-------------------------------------------17b(19)~-------17b(19)r17p15-17-
D---------------------------------------------------------------------------
A---------------------------------------------------------------------------
E---------------------------------------------------------------------------

   Cm          Dm
e-------------------------------------------------------------------------
B----------------------------------------------------------------------18-
G--17------------------15~-----17b(19)r17p15-17--17b(19)-------17b(19)----
D------------15/17--------------------------------------------------------
A-------------------------------------------------------------------------
E-------------------------------------------------------------------------

     Gm
e--------------------------15----18-------------18--20b(22)-
B------------------18b(20)----------------------------------
G--17b(19)----------------------------------19--------------
D-----------------------------------------------------------
A-----------------------------------------------------------
E-----------------------------------------------------------

                   Segue to Part II
e-----18-b(20)-r18--17-------15----------------------------------------
B-----------------------18---------------------------------------------
G----------------------------------------------------------------------
D----------------------------------------------------------------------
A----------------------------------------------------------------------
E----------------------------------------------------------------------
Вверх

SHINE ON YOU CRAZY DIAMOND PART 2

---------------0----
------6------------- <-- repeat 4 times.
----------0---(0)---
---8----------(8)---
--------------------
--------------------

C       Gm7
-------------0----------------------------------------------------0---
------6-----------------------------------------------------6---------
---------0-----------------------------------------------------0------
---8-----------------------------------------------------8------------
-----------------3--3--3--3--3--3--3--3--3--3/5-----------------------
-----------------1--1--1--1--1--1--1--1--1--1/3-----------------------

 Eb  D     Gm7
------------------------------------------------------------------------
------6-----------------------------------------------------------------
----------0---8------------8---7----------------------------------------
--8-----------8------------8---7----------------------------------------
-------------------------------------3--3--3--3--3--3--3--3--3--3/5-----
-------------------------------------1--1--1--1--1--1--1--1--1--1/3-----

------------------0---
-------6--------------
------------0---------
---8------------------
----------------------
----------------------


SOLO:
-------------------------------------3---------------------------------------
----------------------------------3-----3------------------------------------
---17>(19)>17---15--17----------------------5>(7)----(7)>5>3------5---3------
------------------------17\------------------------------------5----------5--
-----------------------------------------------------------------------------
-----------------------------------------------------------------------------

--18>15-----18---17>(18)--17vvv---------------------------------------------
--15----15--15---------------------18>15--18>(20)----18>(20)>18>15--18vvvv--
----------------------------------------------------------------------------
----------------------------------------------------------------------------
----------------------------------------------------------------------------
----------------------------------------------------------------------------

--18>15------18>15-----18>(20)---18>(20)>1815--18------------------
---------15--------15------------------------------18>(20)--18\----
-------------------------------------------------------------------
-------------------------------------------------------------------
-------------------------------------------------------------------
-------------------------------------------------------------------

--------------------------------------------------------------------------
--------------------------------------------------------------------------
--15>(17)>(19)>15--12--15>(16)vvv-12------6\5--3>(4)----------------------
-------------------------------------------------------5------------------
-----------------------------------------------------------4\3---1--3/5---
--------------------------------------------------------------------1/3---

--------------------------6--------------------------------------
-----------------------------5/6--8/-------(11)>10>8------8/-----
------3--------------6>7------------------------------10---------
------3--3/5vvvvvv-----------------------------------------------
--4/5------------------------------------------------------------
-----------------------------------------------------------------

-------------------------------------------------------------------------
-------------------------------------------------------------------------
---15--17>(19)>17>(19)----17>(19)>(20)vvvvv----17>(19)>(20)---17>(20>17--
-------------------------------------------------------------------------
-------------------------------------------------------------------------
-------------------------------------------------------------------------

--------------------------------15----15-----15--------------15---15--
----------------------------18>(20)------18>(20)>18>15---18>(20)------
----------------------------------------------------------------------
--16---16>17>16\14>16--16---------------------------------------------
----------------------------------------------------------------------
----------------------------------------------------------------------

--17>(18)--17>(18)---17-----------------------------------------------
-------------------------18>(20)----(20)>18>15---18-------------------
-----------------------------------------------------17>(19)=====>17--
----------------------------------------------------------------------
----------------------------------------------------------------------
----------------------------------------------------------------------

---------------------------------------------------------------------------
---------------------------------------------------------------------------
--(19)>17>15-----------------3---5---5>(7)>(8)>5---(8)>5--3--5--5>(7)vvvv--
--------------17\---------5------------------------------------------------
---------------------------------------------------------------------------
---------------------------------------------------------------------------

-----------------------------------------------------------------------
----------3----6-------------------------------------------------------
---5>(7)-----------5>(8)==========>5--(7)>5>3-----5--5>(7)vvvvvvvv>5---
-----------------------------------------------------------------------
-----------------------------------------------------------------------
-----------------------------------------------------------------------

KEYBOARD SOLO:
Gm      Cm
------------------------------------------------------------
---------5\3-------------------5\3-------------------10\8---
------------------------------------------------------------
---3/5---5\3--------------3/5--5\3-------------8/10--10\8---
---------------------------------------5--------------------
------------------------------------6-----------------------

Gm     Eb    D  Eb  D    Gm    Cm   Gm    D7#9
----------------------------------------------------------------------------
--------5\3-----8------7------8------11\---7---------------------------6----
-----------------------------------------------------------------------5----
---3/5--5\3-----8------7------8------11\---7---------------------------4----
-----------------------------------------------------------------------5----
----------------------------------------------------------------------------

SOLO:
------15------------15---18>15-------------------3----------------0----------
--15-------18>(20)--------------18>(20)\------3------6-----------------------
---------------------------------------------------------5>(7)----5>3--5--3--
-----------------------------------------------------------------------------
-----------------------------------------------------------------------------
-----------------------------------------------------------------------------

-----------------------------------------------------------18-----------------
--------------------------------------11----11-----18>(20)-----18>(20)vvvv18\-
----------15>(17)>15>(19)>15----11/12----12-----------------------------------
--5vvvv-----------------------------------------------------------------------
------------------------------------------------------------------------------
------------------------------------------------------------------------------

-------6>5--------------------------------------------------------------
------------6/8\--------------------------------------------------------
--6/7--------------(17)>15>(19)>15--------15--17>(18)>17>15--17--17>15--
------------------------------------15/17-------------------------------
------------------------------------------------------------------------
------------------------------------------------------------------------

-------------------------------3----------------------------------------------
----------------------------------6--------------------3----------------------
--17--17--17>15--17>(19)vvvv\--------5>(7)---5--3>(5)--3---3---5----3\2-------
---------------------------------------------------------5-------5------3-----
--------------------------------------------------------------------------3/5-
------------------------------------------------------------------------------

-----------------------------------------------15-------------------------
-------------------------------------18>(20)--------18>(20)-----18>(20)---
--------3---------15>(17)>15>(19)>0--------------------------0------------
-----------3>5------------------------------------------------------------
--4/5---------------------------------------------------------------------
--------------------------------------------------------------------------

--15--18>15--18>(20)vvv-----18>(20)>18>15--18---------------------------------
-----------------------------------------------18>(20)------------------------
-------------------------0-----------------------------------15--17--17>(19)--
---------------------------------------------------------17-------------------
------------------------------------------------------------------------------
------------------------------------------------------------------------------

--------------------------------------------------------------------
--------------------------------------------------------------------
--17>(20)---17>(20)>17---------------------------------14--15vvvv\--
-------------------------16vvvv---16>17>16\14--16--17--16--17vvvv\--
--------------------------------------------------------------------
--------------------------------------------------------------------

-----3-----------------------------------------------------------
--3----6---------------------------------------------------------
----------5>(7)vvvv>5---(8)>5>3---5--3----3----------------------
----------------------------------------5----5-------------------
------------------------------------------------5\3--1--3/5--5\--
-----------------------------------------------------------------
Вверх

SHINE ON YOU CRAZY DIAMOND PART 3

VERSE:
Remember when you where young.......
-------------------------------------3-------
----------------------------------3--3-------
-----3-----5>(7)>5----------------3----------
--5-----5------------4---------3-------------
-------------------------------1----------5--
---------------------------------------------


Shine on you crazy.......

--------------------------------------------------
--------------------------------------------------
--------------------------------------------------
--8---8---5---3---3-------------------------------
--6---5---3---1---3---3>(5)>3---------------------
------------------1-------------1vvvv---1--2vvvv--


Now there's a look.....

-----------------------------------------------
----6>(8)>6---------2------------3--3--3-------
-------------5>(7)---------------3--3--3-------
-----------------------------3---3--3----------
-----------------------------1-------------5\--
-----------------------------------------------



Shine on you crazy.....
-------------------------13--13--13--10--8/10--1--
-------------------------13--13--13--10--8/10--1--
---8---8---5---3----------------------------------
---6---5---3---1----------------------------------
--------------------1-----------------------------
--------------------------------------------------


You were cought in the crossfire....
and
Well you wore out your welcome...


-----------------------------------------------------------------
-----------------------------------------------------------------
-----3--5--5>(7)>5-------3--5--5>(7)>5>3-----3--5--5>(7)>5-------
--5-------------------4-------------------3------------------2---
-----------------------------------------------------------------
-----------------------------------------------------------------


-----------------------------------------------------------------------1---2---
-----------------------------------------5-----------------6-----------------3-
-----------------8-----8--------------6-----6-----------7-----7----------------
-----------------8>10--8-----------5------------------8----------8--0----0-----
--3--5--6--8/10-----------10\7--7----------------7--8--------------------------
-------------------------------------------------------------------------------


interlude is part 4

You reached for the ...
---------------------------------------------------------3-------------
----------------------11--13>(15)>13-----------------3---3---3---------
-----------------------3---5>(7)>5--->3--------------3-------3---------
---5-----------------------------------------4---3---------------------
-------------------------------------------------1------------------5--
---3-------------------------------------------------------------------


Shine on you crazy....
------------------------------------------------------------
------------------------------------------------------------
------------------------------------------------------------
---8---8---5---3--------------------------------------------
---6---5---3---1--------3---3>(5)--3------------------------
--------------------1---1-------------3>(5)---1vvvvvv--1/2--



threatened by shadows...
------------------------------------------------------------
---6>(8)>6>(8)>6--6-----------------------------3-----3-----
---------------------5>(7)---3>5>3vvvvvv--------3--3--3-----
---------------------------------------------3--3--3-----3--
---------------------------------------------1--------------
-----------------------------------------------------------

Shine on you crazy.....
------------------------13--13--13--10--8\1--
------------------------13--13--13--10--8\1--
---------------------------------------------
---8--8--5--3--------------------------------
---6--5--3--1--------------------------------
-----------------1---------------------------
Вверх

SHINE ON YOU CRAZY DIAMOND PART 4

Two Guitars:
-----------------------------------------------------
--13>(15)vvvvvvvvv--(15)>13>11--13>(15)vvvvvvvvvvv---
---5>(7)vvvvvvvvvv---(7)>5>3-----5>(7)vvvvvvvvvvvv---
-----------------------------------------------------
-----------------------------------------------------
-----------------------------------------------------

-----------------------------------------13--15>(16)--15vvvvv\--
--(15)>13--11--13--14--15vvvv---15--16----6---8>(9)----8vvvvv---
---(7)>5----3---5---6---7vvvv----7---8--------------------------
----------------------------------------------------------------
----------------------------------------------------------------
----------------------------------------------------------------

----------------------------------------------------------------------------
--15>(16)-----15-------16>(18)--16>15---13vvv-------------------------------
---7>(8)-------7--------8>(10)---8>7-----5vvv----12>10vvvvvv----------------
--------------------------------------------------------------------4vvvvv--
----------------------------------------------------------------------------
-----------------------------------------------3>(5)>3--1vvvv---1---2vvvvv--
Вверх

SHINE ON YOU CRAZY DIAMOND PART 5

---------------0------------------------------0----
------6-----------------------------6--------------
---------0----(0)------------------------0---(0)---
--8-----------(8)---------------8------------(8)---
---------------------------------------------------
---------------------1>3>1>3-----------------------

--8-------10------8------0------8------10-------8--------
----6--------6------6------6------6-------6--------6-----
---------------------------------------------------------
-------8-------8------8------8------8-------8---------8--
---------------------------------------------------------
---------------------------------------------------------

-0--------8--------10------8-------0------8--------10-------8--------
----6--------6---------6-----6-------6-------6--------6--------6-----
--------------------------------------------------------------------- repeat
-------8--------8--------8------8-------8-------8--------8-------8--- 3
--------------------------------------------------------------------- times.
---------------------------------------------------------------------

--6---6------6-------5-------6-------6--------6------5------6---------
---------------8-------8-------8--------8-------8------8-------8------
----------------------------------------------------------------------
---------8--------8-------8-------8--------8-------8-----8--------8---
----------------------------------------------------------------------
----------------------------------------------------------------------

--5-------5-------4-------5--------6-----5--------4-----5---------
----7-------7-------7--------7--------7-----7--------7-----7------
------------------------------------------------------------------
------7--------7-------7--------7-------------7---------------7---
------------------------------------------------------------------
------------------------------------------------------------------

--0-------8--------10--------8-------0-------8-------10--------8-------
----6-------6----------6-------6-------6--------6--------6-------6-----
----------------------------------------------------------------------- repeat
------8--------8---------8--------8-------8--------8--------8-------8--  8
----------------------------------------------------------------------- times.
-----------------------------------------------------------------------

--6------6------5------6------6------6-----5-------6---------
----8------8------8-------8-----8-------8-----8------8-------
-------------------------------------------------------------
------8-------8------8------8------8-------------8------8\7--
-------------------------------------------------------------
-------------------------------------------------------------

--5-----5-----4-----5-----6------5-----4-----5---------
-----7----7-----7-----7-----7-------7-----7-----7------
-------------------------------------------------------
------------7-----7-----7-----7--------------------7---
-------------------------------------------------------
-------------------------------------------------------

--0-------8-------10------8------0--------8-------10--------8---------
-----6-------6-------6------6-------6-------6---------6--------6------
---------------------------------------------------------------------- repeat
-------8-------8--------8------8-------8-------8---------8---------8--  and
---------------------------------------------------------------------- fade
----------------------------------------------------------------------
Вверх

SIGNS OF LIFE mp3

   Em
e--------------------------<12>--10--12h14-(14)p12--10p0---7h10------------
B-------------------------<12>---------------------------------------------
G------------------------<12>----------------------------------------------
D--------------------------------------------------------------------------
A------------------------------------------------------------------W.Bar---
E--0-----0-0-0-0-0----------------------------------------------0\-(-1)-/0-

e----<12>--10--12h14-(14)p12--10p0---7h10-/(12)\10-7-----------------------
B---<12>-------------------------------------------------------------------
G--<12>--------------------------------------------------------------------
D--------------------------------------------------------------------------
A--------------------------------------------------------------------------
E--------------------------------------------------------------------------

   Cmaj7                             Em
e----<12>-------------------0---0----0--------------------------------------
B---<12>---13---(0)----13-------3/5--5/(.5)\5---(5)p3-----------------------
G--<12>-----------(0)---------------------------------4\0-2p0---------------
D-------------------------------------------------------------2p0-----------
A-----------------------------------------------------------------2p1p0-----
E-----------------------------------------------------------------------3-0-

e---------------------------------------------------------------------------
B--15/(17)=====>(17)\15p12----15-15-15/(17)======>((17)\15p12)--------------
G--------------------------14-----------------------------------------------
D---------------------------------------------------------------------------
A---------------------------------------------------------------------------
E---------------------------------------------------------------------------

e-----------------------------12--------------------------------------------
B--15/(17)=====>(17)-12----15----12-\(11)/-12--\--(0)-----------------------
G-----------------------14----------W.Bar-----------------------------------
D---------------------------------------------------------------------------
A---------------------------------------------------------------------------
E---------------------------------------------------------------------------

                  Bend Up 1/2 step with bar         Dive 2 steps then pickand
                                          V         V       release with bar.
e-----12\10--10--10\7--7--7\5--7\5--3--2/(3)\2--0--(-2)/0--0---------------
B----------------------------------------W.Bar------W.Bar------------------
G--------------------------------------------------------------------------
D-----14\12--12--12\9--9--9\7--9\7--5--4/(5)\4--2---(0)/2--2----(2)\0------
A---------------------------------------------------------------------0----
E--12(Fretwith Thumb)------------------------------------------------------

e-------------------------------------------------
B-------------------------------------------------
G--2/(3)\2p0---2-0--------------------------------
D------------2-----2p0----------------------------
A----------------------2p1p0----------------------
E----------------------------3-0-\(-2)/-0---------
Вверх

SORROW mp3

INTRO:
e-----------------------------------------------------
B-----------------------------------------------------
G-----------------------------------------------------
D-----------------------------------------------------
A---------------------5/7-7vvvvvv--7/9\7\5vvvvvvvv----
E---/0vvvvvvvvvvv-------------------------------------

e-----------------------------------------
B-----------------------------------------
G-----------------------------------------
D-----------------------------------------
A------2/5-5vvvvvvv-----------------------
E----3-----------------/0\/vvvvvvvvvvv----

e---------------------------------------------------------------------
B---------------------------------------------------------------------
G---------------------------------------------------------------------
D---------------------------------------------------------------------
A----5/7-7vvvv---7/9\7\5vvvv------2/5-(3)>5\-0vvvvvv------------------
E------------------------------3-----------------------/0vvvvvvvvvv\--

e---------------------------------------------------------------
B---------------------------------------------------------------
G---------------------------------------------------------------
D---------------------------------------------------------------
A---5/7-7vvvvvvvv--7/9\7\5vvvvv-------2/5-5vvvvv--5/7-7vvvvvvv--
E---------------------------------3-----------------------------

e-------------------------------------------------------------------------
B-------------------------------------------------------------------------
G-----------------------------------------------------------"9"\\\/\\-----
D-------------------------------------------------------------------------
A---7/9\7\5vvvvvvv--------2/5(3)>5--5vvvvvvvvvv---------------------------
E--------------------3----------------------------/0vvvvvvvvvvvvvvvvvvvvv-

e--------------------------
B--------------------------
G--------------------------
D--------------------------
A--------------------------
E---///////0vvvvvvvvv------


    Em
e---------------------------------------
B---------------------------------------
G----------------------------7----------
D----0\----------------------7----------
A----0\----------------------5----------
E---------------------------------------

guitar 2;       --------------------
 -------------------- <---   play over the D5 chord, it's
 ---("0")>"3">("-4")-        a harmonic at the third fret,
 --------------------        but depress the bar first, so
 --------------------        it sounds like your going up to
 --------------------        it, than dive w/bar to fret -4.

D/E                                            C/E            EM2
---------"12">("10)------------------------------------------
---------------/3>(1)----"12"\"7"/"12"-----------------------  <- this is 2
---------------/2>(0)----"12"\"7"/"12"-----------------------   guitars. You
---------------/0>(-2)---------------------------------------   can probably
-------------------------------------------------------------   figure out
-------------------------------------------3/6--0vvvvvvvv\---   the arangment
   one bar between chord changes.
   v
D/E   Em2
-----------------------------------
--------15--15>(17)======>15------- <-- 2 guitars, same as above. The bend
-------------7---------------------     is gradually released.
-------------7---------------------
-------------5---------------------
-----------------------------------


Verse 1:

Em
Sweet smell of great sorrow lies over the land,
D/E
Plumes of smoke rise, and merge into the leaden sky,
C/E
A man lies and dreams, of green fields and river,
  Em
But awakes to the morning, with no reason for waking.

Fill 1
              D/E
-------------------
----0-------7------ <-- sustain into the D/E chord.
------------7------
------------7------
-------------------
-------------------

Em
He's haunted by the memory of a lost paradise, (Play Fill A)

Bridge:


One word, one soul.
Time pass, river roll.

--------------------------------------
--------------------------------------
-----------------------------------4--
--5------5--7------5--------5------4--
--5------5--7------5--------5------2--
--3------3--5------3--------7---------

-----------------------------2-----
-------5---------------------3----- <- swell in w/ volume control on
-------6---------------------4-----    all simile.
-----------------------------------
-----------------------------------
-----------------------------------

------/17vvvv---------------------2--/17vvvvv-----
---5------------------------------3--------------- <- two guitars again!
---6------------------------------4---------------
--------------------------------------------------
--------------------------------------------------
--------------------------------------------------

-----/17vvvvvvv---------------2--/12vvvvvvvv---
------5-----------------------3----------------  <- three guitars!
------6-----------------------4----------------
-------------"7">("5")>"7"-------\/-\/-\/------  <- slight feedback
-----------------------------------------------     (harmonic only)
-----------------------------------------------

----------------------------------2-----------------
---/10vvvv-5----------------------3-----------------
-----------6----------------------4-----------------
--("7")-------\("5")/"7"vvvvvvv---------------------
------------------------------------//////0---vvvv--

Verse 3:
(hold low E till "dedication", than dive out w/bar)

Em
And he talks to the river, of lost love and dedication,
D/E
Slient replies, that swirl invitation,
C/E
Flow dark and troubled, to an oily sea,
Em                     D/E            Em                      D/E
A grim intmation, of what is to be.

------------------------------------------------------------------
--------------------------------------------------------0---7--\--
---------------------------------------------------0----0---7--\--
----------------------0--2-----0--0-------------------------7--\--
------------------------------------------------------------------
-------------------------------------0vvvvvvv---------------------

            Em
There's an unceasing wind, that blows through this night,
        D/E
There's dust in my eyes, it blinds my sight, (Play Fill D)
    C/E
And silence that speaks so much louder than words,  (Play Fill D)
   Em
Of promises broken.


SOLO:
--------------------------------------------0--0--0--0--0--0--0--0vvvv--
------------------------------------------3/5--5--5--5--5--5--0--0vvvv--
---7/9\7-\-----(2)>4\-(-3)>4vvvvvvv>2>0---------------------------------
---7/9\7-\--------------------------------------------------------------
---5/7\5-\--------------------------------------------------------------
------------------------------------------------------------------------

---0-----------0---0---0---0-----------------------------------
---0----2>3>2--0---0---0---0-----------------------------------
------------------------------'2'>'3'>'2'vvvvv--2>0--2vvvvvv---
---------------------------------------------------------------
---------------------------------------------------------------
---------------------------------------------------------------

----------------------------------------------------------------------
----------------------------------------------------------------------
----------------------------------------------------------9--7vvvvvv--
--/2--5--/0---5--2>0------5-------------------------------9--7vvvvvv--
----------------------2>0-----2>0--------------------/7---------------
------------------------------------3---0vvvvvvvv---------------------

------------------------------0------------------------------------------
--/0-------------------3/5-------5vvvvv----------------------------------
-------2>(4)>2vvvv-----------------------2-\/-\/vvvvvv---2--2/4>0-2vvv---
-------------------------------------------------------------------------
-------------------------------------------------------------------------
-------------------------------------------------------------------------

-----------------------------------------------------0--
------------------------------------------------3/5-----
--0>2--2vvvv----2>3>2>0--2--0>2vvvv\/vvvvv>0------------
--------------------------------------------------------
--------------------------------------------------------
--------------------------------------------------------

--0---5>0--0--3>0--0--5>0--0--3>0--0--5>0--0--3---2--2---\/-\/-\/-\/-vvvvv--
----------------------------------------------5---3--3---\/-\/-\/-\/-vvvvv--
----------------------------------------------------------------------------
----------------------------------------------------------------------------
----------------------------------------------------------------------------
----------------------------------------------------------------------------

------------0-------------------------------------------------------
---(3)>5------3>0---------------------------------------------------
-------------------2>(3)>2>0-----2----------------------------------
------------------------------2------2----0>2>0---------------------
--------------------------------------------------------------------
--------------------------------------------------\5---0vvvvvvvvvv--

--------------12--14--15--17>(19)vvvvv--17>(19)>17>15---17>(19)>17>15--17vvv-
---15>(17)\------------------------------------------------------------------
-----------------------------------------------------------------------------
-----------------------------------------------------------------------------
-----------------------------------------------------------------------------
-----------------------------------------------------------------------------

--17>(19)vvvvvvv------15--17vvvvvv\---0--0-----0----------------------
--------------------------------------0--3/5---5------5\3>0-----------
--------------------------------------------------------------2>(4)---
----------------------------------------------------------------------
----------------------------------------------------------------------
----------------------------------------------------------------------

--------------------------------------------------------------------
--------------------------------------------------------------------
--2>(4)>2>0-----2>0-------------------------------------------------
-------------2--------2---0---2-------------------------------------
-------------------------------------0------------------------------
----------------------------------3-----3---0---0----/////0vvvvvv---

-----------------------------/5---0---------------------------------
-----------------------------/5-------5vvvvvv---8---8vvvv---7--7>8--
--2>(4)---'0'vvvvv----------------------------------7vvvv-----------
--------------------2vvvvvv-----------------------------------------
--------------------------------------------------------------------
--------------------------------------------------------------------

---------------------------------------------------------------
--8>(10>8>7-----8>7--------------------------------------------
-------------9-------9>7---9>7----------2>0--------------------
---------------------------------9\7>5------2>0----------------
--------------------------------------------------5>(7)vvvv\---
---------------------------------------------------------------

----------------------12--14--15--15>(17)vvvvv--15--14>(12)---15vvvvvv---
--15>(17)======>(15)-----------------------------------------------------
-------------------------------------------------------------------------
-------------------------------------------------------------------------
-------------------------------------------------------------------------
-------------------------------------------------------------------------

---14>12-----------------12--------------------------------------
----------15vvvvvvvvv---------------15---------------------------
----------------------------14>(16)-----14vvvvvv---4---2vvvvvv---
-----------------------------------------------------------------
-----------------------------------------------------------------
-----------------------------------------------------------------

---------------------------------------------------
----------------------------------7-------/8---0---
----------------------------------7----------------
--2---2---2>0----2vvvvvvvv>0------7--7--0----------
---------------------------------------------------
---------------------------------------------------

--------------------------------------------------------
--15>(17)vvvvvvv>15>12--14>(15)>12----------------------
--------------------------------------14>(16)>14---12\--
--------------------------------------------------------
--------------------------------------------------------
--------------------------------------------------------

------14vvvvvvvv--14>(15)>14>12--14vvvvv\/vvvvvv--12--14--15--15>17vvvvv--
---12---------------------------------------------------------------------
--------------------------------------------------------------------------
--------------------------------------------------------------------------
--------------------------------------------------------------------------
--------------------------------------------------------------------------

--15>(17)--15--14>12--14>(15)========>14>12---12---------------
--------------------------------------------15--15>(17)vvvvv\--
---------------------------------------------------------------
---------------------------------------------------------------
---------------------------------------------------------------
---------------------------------------------------------------

---------------------------------------------
------15VVVVvvvvvvvv-15>(17)>VVVVVVVVVV------
--14-----------------------------------------
---------------------------------------------
---------------------------------------------
---------------------------------------------

--------------------------------------------------------------------------
-------0------------------------------------------------------------------
---------------12-\/--\/--14>(16)vvvvv--/12--14--14>(16)>14--12-----------
-----------14----------------------------------------------------14vvv\---
--------------------------------------------------------------------------
---12---------------------------------------------------------------------

------------------------0---0------------0---0---0----------------------
------------------------0---0--3/5--3>0--0---0---5----------------------
--0--'2'vvvv--0>2vvvvv------------------------------2>0-----------------
--------------------------------------------------------2>0----2vvvvv---
------------------------------------------------------------------------
------------------------------------------------------------------------

------------------------------------------------------------
------------------------------------------------------------
--0---------------------------------------------------------
-----2>0--------------------0>2--0>2--5>2--5/7--7vvvvvvv----
---------2>0----5-------------------------------------------
-------------3-----3---0------------------------------------

----------------------------------------------------
----------------------------------------------------
--------0-------2>(3)>2>0---2>0---------------------
--0--2-----0>2--------------------2/4\2--0vvvvvvv---
----------------------------------------------------
----------------------------------------------------

------12-------12--------12--------11-------12vvvvvvvv--
--15>(17)--15>(17)---15>(17)---14>(16)--15>(17)vvvvvvv-- <-- unison
--------------------------------------------------------     bends
--------------------------------------------------------
--------------------------------------------------------
--------------------------------------------------------

-----12vvvvv-------12vvvv-------14vvv---------------------------------------
-15>(17)vvvv---15>(17)vvv---17>(19)vv--19>(20)vvvvv--19>(20)vvvv---19>(20)--
----------------------------------------------------------------------------
----------------------------------------------------------------------------
----------------------------------------------------------------------------
----------------------------------------------------------------------------

------17vvvv-------17vvvvvv------17------17------17------17------17---------19-
--20>(22)vvv---20>(22)vvvvv--20>(22)-20>(22)-20>(22)-20>(22)-20>(22)-20>(22)---
-------------------------------------------------------------------------------
-------------------------------------------------------------------------------
-------------------------------------------------------------------------------
-------------------------------------------------------------------------------

--19vvvvv--19vvvvvvvvvvv\----------------------------
-----------------------------------------------------
------------------------------2>(3)>2>0--------------
------------------------------------------2vvvvvvv---
-----------------------------------------------------
-----------------------------------------------------

------0--------------------------------------------------------------------
----------12-VVVVVVV\------------------------------------------------------
-/9-------12-VVVVVVV\--7---------------------------------------------------
----------12-VVVVVVV\--7--7>(8)>7>5--7vvvv---------------------------------
--------------------------------------------7--7----------------5----------
--------------------------------------------------5>(6)>5--3--0----3---0---

-----------------------------------------------------------------
--------------------------------------------------------------7--
--------------------------------------------------7--9--7--9-----
--2--2--4--4/5--4--'5'--5/7--5--4--7/9vvvv---7--9----------------
-----------------------------------------------------------------
-----------------------------------------------------------------

----------------------------------------------
--8>7>5----5>3>0---3>0------------------------
---------7-------2----------------------------
------------------------2>0--5--2>0-----------
--------------------------------------2-------
-----------------------------------------3/5--




Fills:
------

Fill A
------------------
--7---------------
----7-----7vvvvv--
-------9----------
------------------
------------------

Fill B
------------
------------
------------
------------
------------
--10\3--0\--

Fill C
--------------
--------------
--------------
------2-------
--------------
-2/3------3---


Fill D
-------------
-------------
-------------
------0------
-1/2---------
---------0---
Вверх

Stay

Intro

 G  C  D  Am7

 G   C             D            Am7
Stay and help me to end the day.
          G           C
And of you don't mind,
            D                Am7
We'll break a bottle of wine.
     G      C              D              Am7
Stick around and maybe we'll put one down,
               G    C           D               Am7
Because I wanna find what lies behind those eyes.

 Gm   C(III)   Gm   C(III)
Midnight blue burning gold.

 Gm   C(III)  Gm     C(III)
A yellow moon is growing cold.

 C  Bb  Am  Eb  F  D  (2X)
 G     C                     D          Am7
I rise, looking through my morning eyes,
     G   C           D           Am7
Surprised to find you by my side.
       G     C           D                 Am7
Rack my brain to try to remember your name
 G     C            D                 Am7
To find the words to tell you goodbye.
 Gm   C(III)
Morning dues.
 Gm   C(III)
Newborn day.
 Gm   C(III)  Gm     C(III)
Midnight blue turned to gray.

 C  Bb  Am  Eb  F  D  (1X)

Solo

 G  C  D  Am7

 Gm    C(III)  Gm  C(III)
Midnight blue burning gold.
 Gm    C(III)  Gm  C(III)
A yellow moon is growing cold.

Outro

 G  C  D  Am7
Вверх

Stay (2 вариант)

G  C/G  D/G  C/G  G  C/G  D/G  C/G

G    C/G            D/G
Stay and help me to end the day.
C/G        G          C/G           D/G
And if you don't mind we'll break a bottle of wine.
C/G    G     C/G             D/G          C/G             G
Stick around and maybe we'll put one down, 'cause I wanna find
C/G         D/G              C/G
What lies behind those eyes.
Gm7      C     Gm7     C
Midnight blue, burning gold.
 Gm7    C       Gm7     C
A yellow moon is growing cold.

Bb  F/A  Eb  F  D  C  Bb  F/A  Eb  Db  D

 G     C/G                D/G            C/G
I rise, looking through my morning eyes,
  G     C/G          D/G
Surprised to find you by my side.
C/G     G    C/G          D/G              C/G
Rack my brain to try to remember your name
  G    C/G          D/G                C/G
To find the words to tell you goodbye.
Gm7     C     Gm7     C
Morning dues. Newborn day.
Gm7      C    Gm7     C
Midnight blue turn to gray.

Bb  F/A  Eb  F  D  G  C/G  D/G  C/G  G  C/G  D/G  C/G

Gm7      C     Gm7     C
Midnight blue, burning gold.
 Gm7    C       Gm7     C    G  C/G
A yellow moon is growing cold_______.

D/G  C/G  G  C/G  D/G  C/G  G
Вверх

STOP mp3

Em
Stop
I wanna go home
Take off this uniform
And leave the show
And I'm waiting in this cell
Because I have to know
Have I been guilty all this time
Вверх

SUMMER '68

D  Gmaj7  D  Gmaj7  D  Em  G  A7  D  Em  G  A7  D

D                         G                D
Would you like to say something before you leave?
                             G             D
Perhaps you'd care to state exactly how you feel.
                G                  D
We say goodbye before we've said hello.
 A                       G                 D
I hardly even like you. I shouldn't care at all.
  A                           G             D
We met just six hours ago. The music was too loud.
A                              G             D
>From your bed I came today and lost a bloody year.
   A               G     Bm7
And I would like to know, how do you feel?
F
How do feel?

A  D  Em(addA)  Dmaj7/F#  Dm  Cmaj7  Dm7  Cmaj7  Dm  Cmaj7  Dm7  Cmaj7  Dm

Bb  C  F  Bb  E  A  D  G/D  D  G/D  D  G/D  D  G/D

D                                G                  D
Not a single word was said. They lied still without fears.
                                    G            D
Occasionally you showed a smile, but what was the need?
                                 G               D
I felt the cold far too soon in a wind of ninety-five.
  A                               G               D
My friends are lying in the sun, I wish that I was there.
 A                             G               D
Tomorrow brings another town, another girl like you.
A                                  G             D   A              G
Have your time before you leave to greet another man just to let me know,
Bm7
How do you feel?
F
How do you feel?

Am  D  Em(addA)  Dmaj7/F#  Dm  Cmaj7  Dm7  Cmaj7  Dm  Cmaj7  Dm7  Cmaj7  Dm

Gm/Bb  C  F6  F  Bb  E+  E  A

Dm
Goodbye to you.
A7sus2
Childish bangles too.
Am/D                    G
I've had enough for one day.

Gm  Dm  Cmaj7  Dm7  Cmaj7  Dm  Cmaj7  Dm7  Cmaj7  Dm  Gm/Bb

C  F6  F  Bb  E+  E  A
Вверх

TERMINAL FROST mp3

Eb  C  D/C  C

Eb  C  Dm  Bb  C  F/C  C  F/C  C  F/C

C  Dm  Bb  F/C  C  F/C  F/C  C  F  C/E  Gm/D  F  C/E  Gm/D  D

Eb  C  Dm  Bb  C  F/C  C  F/C  C  F/C

C  Dm  Bb  F/C  C  F/C  F/C  C  F  C/E  Gm/D  F  C/E  Gm/D  D
Вверх

The final cut

F                                          F/C   C
Through the fish-eyed lens of tear stained eyes____
     Bb add9                                   F
I can barely define the shape of this moment in time.
   F                                  F/C   C
And far from flying high in clear blue skies___,
   Bb add9                                           F
I'm spiralling down to the hole in the ground where I hide.

Bb                   F Accoustic guitar
If you negotiate the minefield in the drive, begins here.

Bb                                   F Listen to record
And beat the dogs and cheat the cold electronic eyes, for strumming rhytm.

Bb         C                    Dm
And if you make it past the shotgun in the hall,

Gm7
Dial the combination, open the priesthole

                   C                                 F
And if I'm in I'll tell you what's behind the wall. Stop here.
Am                                   F
There's a kid who had a big hallucination
Am                          C
Making love to girls in magazines.
  Bb                                   Dm
He wonders if you're sleeping with your new found faith.
Gm7
Could anybody love him
               /C          F      F/C  C  Bb add9  F
Or is it just a crazy dream___?
   F                     C
And if I show you my dark side
                   Bb   F
Will you still hold me tonight?
   F            C
And if I open my heart to you
                    Bb
And show you my weak side,
              F
What would you do?
Bb                                   F
Would you sell your story to Rolling Stone? Start again here.

Bb
Would you take the children away

F
And leave me alone?

   Bb           C
And smile in reassurance

      Dm
As you whisper down the phone,

Gm7
Would you send me packing, Stop here.

/C                   F
Or would you take me home?

Am  F  Am  C  Bb  Dm  Gm7  /C  F


SOLO:(Background guitar is not notated)

Lead guitar: lightly distorted
4/4
  H.                      Er  E   F
e13>(15)~~~~~~~~~~~~~~~~~----20-17~~~~~~~~~~~~~~~~~~~~~~~~~~~~~
B--------------------------------------------------------------
G--------------------------------------------------------------

  Q       Q       H               Q       E   E   H
e--------13------13>(15)~~~~~~~~13------12 p10-----------------
B13---------------------------------------------13~~~~~~~~~~~~~
G--------------------------------------------------------------

  Q        Q      Q       Q.          Q       E   H
e----------------12------13---------12-------------------------
B13-------15--------------------------------15--15~~~~~~~~-----
G--------------------------------------------------------------

  Q         Q.       E   Q        Q       Q.          E   Q
e--------------------------------------------------------------
B15--------13--------------------------------------------------
G-------------------14--14------10------12----------14--12-----

  E   E   H.                      Q       Q       H
e-------------------------------15>(17)(18)====>15~~~~~~~~~~~~~
B--------------------------------------------------------------
G14 p12--10~~~~~~~~~~~~~~~~~\----------------------------------

                                  E   Q.          E   Q.
e--------13------13>(15)~~~~~~~~13--12-------------------------
B13---------------------------------------------13--11---------
G--------------------------------------------------------------

  Q       H.
e-------------------------------
B------------------------------- End of guitar solo
G14 p12--10~~~~~~~~~~~~~~~~~\---

Am                                 F Start here.
Thought I oughta bare my naked feelings,

Am                                C
Thought I oughta tear the curtain down.

 Bb
I held the blade in trembling hands,

  Dm                   Gm7
Prepared to make it but just then the phone rang, Stop here.

                                       G      C  Bb add9  F
I never had the nerve to make the final cut.
Вверх

The fletcher memorial home

G                       C             G/B Am
Take all your overgrown infants away, somewhere,
                D              Bb+            Bm    A/C#
And build them a home, a little place of their own.
D   Em                C                  D      Em7  D/F#  G       C
The Fletcher Memorial Home for incurable tyrants     and   kings.
   G                      C                  G/B   Am
And they can appear to themselves every day,
                 D            Bb+                Bm      A/B  Bm
On closed circuit T.V. to make sure they're still real.
C                   D         Em
It's the only connection they feel.

                                     Cmaj7
"Ladies and gentlemen, please welcome Reagan and Haig,
                          D
Mr. Begin and friend, Mrs. Thatcher and Paisley,
   Cmaj7
Mr. Brezhnev and party, the ghost of McCarthy,
                          D
The memories of Nixon. And now adding colour,
 G                  D/F#                C
A group of anonymous Latin-American meat packing glitterati."

Em                                           D
Did they expect us to treat them with any respect?
        G            D/F#       C
They can polish their medals and sharpen their smiles,
    G          D/F#         C
And amuse themselves playing games for a while.
G        D/F#         C               Em add9
Boom boom, bang bang, lie down you're dead.

G  D/F#  Em  D/F#  G  D/F#  Em  D  Cmaj7  D

G  D/F#  C  D  G  D/F#  Cmaj7  D  G  D/F#  Cmaj7  Em add9


G                     C              G/B   Am
Safe in the permanent gaze of a cold glass eye,
                   D                Bb+            Bm
With their favorite toys, they'll be good girls and boys.
A/C# D   Em                C                 D          Em7  D/F#  G
In   the Fletcher Memorial Home for colonial wasters of life and   limb.
D/F#           C       G      D/F#   C add9
Is everone in? Are you having a nice time?
       D/F#    C               Em add9
Now the final solution can be applied.
Вверх

The gnome

 D       A          D             C      A    C    A
I want to tell you a story 'bout a little man, if I can,

 D           A       D            C      A           C        A
A gnome named Grimble Grumble. And little gnomes stay in their homes,

G  D    Bb7  C    F    A7        D
Eating, sleeping, drinking their wine.


  D      A       D        C         A        C            A
He wore a scarlet tunic, a bluegreen hood; it looked quite good.

  D     A     D        C         A            C      A
He had a big adventure amidst the grass, fresh air at last.

G  D    Bb7 C   F  A7      D
Wining, dining, biding his time.


   G           C/G  F      A/E   E          G       D    G  D
And then one day, hooray, another way for gnomes to say, "Hooray!"

    D      A         D             C/G   A       C/G  A
Look at the sky; look at the river. Isn't it good?

    D      A         D             C/G   A       C/G A
Look at the sky; look at the river. Isn't it good?

G   D    Bb7 C   F   A7    D
Winding, finding places to go.

   G           C/G  F      A/E   E          G       D    G  D
And then one day, hooray, another way for gnomes to say, "Hooray!"
Вверх

The gold it's in the...

E  D  A  E  D  A

E                          D            A
Come on, my friends, let's make for the hills.
     E                       D           A
They say there's gold but I'm looking for thrills.
       E                 D           A
You can get your hands on whatever we find,
            E                   D    A
'Cause I'm only coming along for the ride.
      B
Well, you go your way, I'll go mine.
G
I don't care if we get there on time.
A
Everybody's searching for something, they say.
 F
I'll get my kicks on the way.

E                     D        A
Over the mountains, across the seas,
E                      D           A
Who knows what will be waiting for me?
       E               D                A
I could sail forever to strange sounding names.
 E                 D      A
Faces of people and places don't change.
 B
All I have to do is just close my eyes
   G
To see the seagulls wheeling in those far distant skies.
A                                                     F
All I want to tell you, all I want to say is count me in on the journey.

Don't expect me to stay.

E  D  A  E  D  A
Вверх

The great gig in the sky

INTRO:

Bm  F  F(b5)  F  F6  F  F(b5)  F  Bb  F/A  Gm7  C9  Gm7  C9

Fmaj7  Bbmaj7  Ebmaj7  Cm7  Cm7  F7  Bbmaj7  Ebmaj7  Bb


[Vocal scat solo]

Gm7  C9  Gm7  C9  Gm7  C9  Gm7  C9  ...

Bb/D  Bbm/Db  F#7  Bm

Bm  F  F(b5)  F  F6  F  F(b5)  F  Bb  F/A  Gm7  C9  Gm7  C9

Fmaj7  Bbmaj7  Ebmaj7  Cm7  F7  Bbmaj7  Ebmaj7  Bb

[Spoken: I never said I was afraid of dying.]

Gm7  C9  Gm7  C9  Gm7  C9  Gm7  C9  ...

Gm7
Вверх

The gunner's dream

G  G+  Em  C  G  D  Em

G             G+
Floating down through the clouds
Em/G                  C
Memories come rushing up to meet me now.
      G
In the space between the heavens
          D                             C
And in the corner of some foreign field,
       G      Em  C
I had a dream,
       G
I had a dream.

G            G+
Goodbye Max, goodbye Ma.
Em/G                          C
After the service when you're walking slowly to the car
       G                                D
And the silver in her hair shines in the cold November air,
   Em                         Cmaj7                  D/C     C
You hear the tolling bell, and touch the silk in your lapel,
   G                                  D                      Em
And as the tear drops rise to meet the comfort of the band,
C                  D
You take her frail hand and hold on to the dream.

G  G+  Em  C  D  G  D  Em  D  C  D/C  G  D  C  G  Em  C  Em

G                G+
A place to stay, enough to eat,
Em                           C
Somewhere old heroes shuffle safely down the street.
             G                                    D
Where you can speak out loud about your doubts and fears,
               Em
And what's more no-one ever disappears,
                                   Cmaj7
You never hear their standard issue kicking in your door.
G                D
You can relax on both sides of the tracks,
           Em                  C                      D7/C
And maniacs don't blow holes in bandsmen by remote control,
   G                            D
And everyone has recourse to the law,
   C                            G     Em
And no-one kills the children anymore.
C                                   G
No-one kills the children anymore.

C             D          G         D        Em      D
Night after night, going round and round my brain,

   C        D            G
His dream is driving me insane___________________.
      G
In the corner of some foreign field,
   D
The gunner sleeps tonight.
Em                     C    D/C
What's done is done.
  G                               D
We cannot just write off his final scene.
C                G       Em
Take heed of his dream,
C           Em
Take heed.
Вверх

The happiest days of our lives mp3

 gtr. 1 (w/delay) PM throughout
------------------------------------------------------------------
------------------------------------------------------------------
------------------------------------------------------------------
------------------------------------------------------------------
-5''''''''''''''''''''''''''''''''''''''''''''''''''''''''''''''''
------------------------------------------------------------------

--------------------------------------------------------------------
--------------------------------------------------------------------
--------------------------------------------------------------------
--------------------------------------------------------------------
''''''''''''''''''''''''''''''''''''''''''''3'''''''----------------
----------------------------------------------------6'''''''5---3'''

------------------------------------------------------------------
------------------------------------------------------------------
------------------------------------------------------------------
------------------------------------------------------------------
------------------------------------------------------------------
''''''''''''''''''''''''''''''''''''''''''''''''''''''''''''''''''

------------------------------------------------------------------
------------------------------------------------------------------
------------------------------------------------------------------
------------------------------------------------------------------
------------------------------------------------------------------
''''''''''''''''''''''''''''''''''''''''''''''''''''''''''''''''''

------------------------------------------------------------------
------------------------------------------------------------------
------------------------------------------------------------------
------------------------------------------------------------------
------------------------------------------------------------------
-3H5---5''''''''''''''''''''''''''''''''''''''''''''''''''''''''''
          When

-------------------------------------------------
-------------------------------------------------
-------------------------------------------------
-------------------------------------------------
-------------------------------------------------
'''''''''''''''''''''''''''''''''''''''''''''''''
 we    grew  up    and   went  to    school

-------------------------------------------------
-------------------------------------------------
-------------------------------------------------
-------------------------------------------------
-------------------------------------------------
'''''''''''''''''''''''''''''''''''''''''''3-----
 There were  cer - tain  teachers    who   would

-------------------------------------------------
-------------------------------------------------
-------------------------------------------------
-------------------------------------------------
-------------------------------------------------
-------------------------3''''''''''''''''''''---
-5'''''''''''''''''''''''---------------------3--
 Hurt  the children      an-y- way         they

------------------------------------------------------------------
------------------------------------------------------------------
------------------------------------------------------------------
------------------------------------------------------------------
------------------------------------------------------------------
-5''''''''''''''''''''''''''''''''''''''''''''''''''''''''''''''''
 could              "Oof!"              By

------------------------------------------------------------------
------------------------------------------------------------------
------------------------------------------------------------------
------------------------------------------------------------------
------------------------------------------------------------------
'''''''''''''''''''''''''''''3----1'''''''''''''''''''''''''''3---
 pouring their derision    Upon    anything    we  did         Ex-

------------------------------------------------------------------
------------------------------------------------------------------
------------------------------------------------------------------
------------------------------------------------------------------
------------------------------------------------------------------
-5'''''''''''''''''''''''''''3----0'''''''''''''''''''''''''''3B--
 pos-ing ev- 'ry weakness    How - ever  carefully hidden  by  the

------------------------------------------------------------------
------------------------------------------------------------------
------------------------------------------------------------------
------------------------------------------------------------------
------------------------------------------------------------------
-5'''''''''''''''''''''''''''3-4--5'''''''''''''''''''''''''''3-4-
 kids [laughing]

------------------------------------------------------------------
------------------------------------------------------------------
------------------------------------------------------------------
------------------------------------------------------------------
------------------------------------------------------------------
-5'''''''''''''''''''''''''''3-4--5'''''''''''''''''''''''''''''''
      But in  the

-------------------------------------------------
-------------------------------------------------
-------------------------------------------------
-------------------------------------------------
-5'''''''''''''''''''''''''''''''''''''''''3-----
-------------------------------------------------
 town  it was      well  known When  they  got

-------------------------------------------------
-------------------------------------------------
-------------------------------------------------
-------------------------------------------------
-------------------------------------------------
-6'''''''''''''''''''''''''''''''''''''''''5-----
 home  at night,   their fat   and   Psy - cho -

-------------------------------------------------
-------------------------------------------------
-------------------------------------------------
-------------------------------------------------
-------------------------------------------------
-3'''''''''''''''''''''''''''''''''''''''''''''''
 pathic   wives    would thrash them       Within

        gtr. 2 (w/dist.)
-------------------------------------------------------------------
-------------------------------------------------------------------
---------------------------------------------------3---------------
----------------------------------3----------------3---------------
-3'''''''''''''''''''''''''''''''-3----------------1---------------
----------------------------------1--------------------------------
 inches of their lives       Ooh   ooh ooh     Ooh   ooh ooh

---------------------------------------------------
---------------------------------------------------
------------------3--------------------------------
-3----------------3----------------3---------------
-3----------------1----------------3---------------
-1---------------------------------1---------------
 Ooh   ooh ooh     Ooh   ooh ooh     Ooh   ooh ooh

---------------------------------------------------
---------------------------------------------------
-3----------------5--------------------------------
-3----------------5--------------------------------
-1----------------3--------------------------------
---------------------------------------------------
 Ooh   ooh ooh     Ooh        [Scream]
Вверх

The hero's return

D
Jesus, Jesus, what's it all about?
Trying to clout these little ingrates into shape.
When I was their age all the lights went out.
There was no time to whine or mope about.

Cmaj7                      D
And even now part of me flies over
Cmaj7
Dresden at angels one five.
D      Cmaj7
Though they'll never fathom it behind my
                          D
Sarcasm desperate memories lie.

D
Sweetheart sweetheart are you fast asleep? Good.
'Cause that's the only time that I can really speak to you.
And there is something that I've locked away
A memory that is too painful
To withstand the light of day.

Cmaj7                      D       Cmaj7
When we came back from the war the banners and
                        D
Flags hung on everyone's door.
  Cmaj7
We danced and we sang in the street and
                D
The church bells rang.
   G             C
But burning in my heart,
  G                C
My memory smoulders on
      G             C            Em add9
Of the gunners dying words on the intercom.
Вверх

The narrow way (part 3)

E drone

(guitar with vibrato pedal)                    ______*__*______
                                              __________
C   *Dadd4 C  Emadd9                           __________*
                                              ________*__
Am            G/Am          F/Am               __________
Following the path as it leads toward          __________
   Amb5              D      D/D#              E  A  D  G  B  E
The darkness in the north
Am        G/Am        F/Am                     *This is a diagram
Weary stranger's faces show their sympathy      for "Dadd4", I'm not
       Amb5             D      D/D#            sure if that is the
They've seen that hope before                   name for it.

A                             D
And if you want to stay for a little bit
A                            D
Rest your aching limbs for a little bit
D/E
For you the night is beckoning
D
And now you can't delay

D/E
You hear the night birds calling you
D/F
But you can't catch the words they say
D/E                   D               A
And you realize you must be on your way


Am                 G/Am
Mystery swelling, creatures crawling
F/Am               Amb5             D     D/E  D
Hear the roar get louder in your ears
Am                 G/Am
You know the folly was your own
       F/Am                  Amb5            D      D/E  D
But the force behind can't conquer all you fears


A                             D
And if you want to stay for a little bit
A                            D
Rest your aching limbs for a little bit

D/E
For you the night is beckoning
D
And now you can't delay
D/E
You hear the night birds calling you
D/F
But you can't catch the words they say
D/E                   D               A
And you realize you must be on your way

Am                 G/Am
Throw your thoughts back many years
F/Am                         Amb5              D        D/E    D
To the time when love was life with every morning
Am                  G/Am
Perhaps a day will come,
F/Am                          Amb5           D       D/E   D
When the match for me the curlers past warning

A                             D
And if you want to stay for a little bit
A                            D
Rest your aching limbs for a little bit

D/E
For you the night is beckoning
D
And now you can't delay
D/E
You hear the night birds calling you
D/F
But you can't catch the words they say
D/E                   D               A
And you realize you must be on your way

Am, G/Am, F/Am, Amb5 D D/D# (repeat to fade)
Вверх

The nile song

Intro: A  G  A  G  A  G  F#

B                         A
   I was standing by the Nile
B                       A
   Whe I saw the lady smile.
B                               A     G#
   I would take her out for a while, for a while.

C#                           B
   Light tears wept like a child.
C#                                  B
   How her golden hair was blowing wild.
C#                                B   A#
   Then she spread her wings to fly, for to fly.

D#                          C#
   Soaring high above the breezes,
D#                          C#
   Going always where she pleases.
D#                          C#    C
   She will make it to the island in the sun.

F                         D#
   I will follow in her shadow
F                          D#
   As I watch her from my window.
F                          D#    D
   One day I will catch her eye.

solo: G  F  G  F  G  F  E
      A  G  A  G  A  G  F#

B                           A
   She is calling from the deep,
B                                 A
   Summoning my soul to endless sleep.
B                           A      G#
   She is bound to drag me down, drag me down.

final solo: C# B  C# B  C# B  A#
     D# C# D# C# D# ... (fade out)
Вверх

The post war dream

INTRO:
Bb  C  F  Bb/F  F  Bb  C  Bb/F  F

Bb/F    F                     Bb
Tell me true, tell me why was Jesus crucified?
C                   C7    F
Is it for this that daddy died?
Bb/F   F
Was it you? Was it me?
     Bb
Did I watch too much T.V.?
         C                            F     Bb/F
Is that a hint of accusation in your eyes?

F
If it wasn't for the Nips
F7       Bb
Being so good at building ships,
   C                         C9       F
The yards would still be open on the Clyde.
                            F7
And it can't be much fun for them
 Bb
Beneath the rising sun
    C                         C7 F
With all their kids committing suicide.

            Bb                         F
What have we done, Maggie what have we done?
             Bb
What have we done to England?

C         F                   A
Should we shout, should we scream,
     Bb       Bbm             F/C       Dm7
"What happened to the post war dream?"
Gm7           C7
Oh, Maggie,
      C7+          F        C  Bb  F
Maggie what have we done?
Вверх

THE SHOW MUST GO ON mp3

G  C  G  C  G  C

G      C                          G     C  G
Oooh Ma Oooh Pa, must the show go on ?
D    Bm6
Oooh Pa take me home
D    Bm6
Oooh Ma let me go
Cmaj7
There must be some mistake, I didn't mean to let them
                                         G     C  G
Take away my soul, Am I too old is it too late ?
D      G  C
Oooh Ma   Oooh Pa
G
Where has the feeling gone?
D      G  C
Oooh Ma   Oooh Pa

Will I remember the songs?
D  G C                     Gsus/C  G
Oooh ah - The show must go on.
Вверх

THE THIN ICE mp3

INTRO:(with baby crying)
C           Am7           Fmaj9       G
C     G     F     C/G     Am7

VERSE:
C               Am
Mamma loves her baby
F               G
and daddy loves you too
C                    Am
and the sea may look warm to you babe
F                    G
and the sky may look blue

C  G  F  C/G  Am
Ooooooooooooh babe
C  G  F  C/G  Am    Am7  Am6
Oooooooh baby blue
C  G  F  C  Am  D7  G
Ooooooooooh ooooooh babe

C                Am
If you should go skating
      F                        G
On the thin ice of modern life
C                       Am
Dragging behind you the silent reproach
    Fmaj7                 G
Of a million  tear stained eyes
C                         Am
Dont be surprised, when a crack in the ice
F                  G
Appears under your feet
        C                     Am
You slip out of your depth and out of your mind
         F                        G
With your fear flowing out  behind you
N.C.
As you claw the thin ice

SOLO:
  Gtr. 1
e------------------------------------------------------------------
B------------------------------------------------------------------
G--7B(9)---R---(7)-7~~~~~~~~~~~~~~~7B(10)--R---(7)-7B(9)-----------
D------------------------------------------------------------------
A------------------------------------------------------------------
E------------------------------------------------------------------
  Gtr. 2
e------------------------------------------------------------------
B------------------------------------------------------------------
G--9---------------7---------X-X-X-10--------------9---------------
D--9---------------7---------X-X-X-10--------------9---------------
A--7---------------5---------X-X-X-8---------------7---------------
E-----------------------------------------------------------X-12\--

                                                             w/bar
-----------------5---5----------------------------------------------
---------------5---8------------------------------------------------
----------7B(9)--------7-7B(8)R(7)P5---5----------------------------
-------------------------------------7---7-6-5----------------------
-----------------------------------------------7-6-5-3---3--\(0)/-\-
-------------------------------------------------------5------------
                                                        *   w/bar
--------------------------------------------------------------------
--------------------------------------------------------------------
-2------------------------------------------------------------------
-2------------------------------------------------------------------
-0------------------------------------------------------------------
--------------------------------------------------------(-12)/----0-
*depress bar equivalent to 12 frets down, strike note & slowly release

-----------------------------------------------------------------
-----------------------------------------------------------------
-----------------7---7---------------------------9---9-----------
-----------------7---7---------------------------9---9-----------
-7~~~~~~~~~~~~~~~5---5-----------8~~~~~~~~~~~~~~~7---7-----------
------------------------------------------------------------12\--

-----------------------------------------------------------------
-----------------------------------------------------------------
-9---------------7---------------10--------------9---9-----9-9\--
-9---------------7---------------10--------------9---9-----9-9\--
-7---------------5---------------8---------------7---7-----7-7\--
-----------------------------------------------------------------

----------------17------------------17------17------17------------17---
-------------17----20-17-20-20B(22)~--20B(22)-20B(22)-20B(22)-20B(22)~~
-2----19B(21)----------------------------------------------------------
-2---------------------------------------------------------------------
-0---------------------------------------------------------------------
-----------------------------------------------------------------------

-----------------------------------------------------------------------
-----------------------------------------------------------------------
-2---------------------------2------2----------------------------------
-2---------------------------2------2----------------------------------
-0---------------------------0------0----------------------------------
--------------------------------3B(5)----------------------------------

---------------------------------------------------------------------
-15B(17)--R--(15)-15~~~~~~~~~~~~~~~15B(18)--R--(15)--15B(17)~~~~~~~~~
---------------------------------------------------------------------
---------------------------------------------------------------------
---------------------------------------------------------------------
---------------------------------------------------------------------

---------------------------------------------------------------------
---------------------------------------------------------------------
-9----------------7----------------10----------------9---------------
-9----------------7----------------10----------------9---------------
-7----------------5----------------8-----------------7---------------
---------------------------------------------------------------------

                           rake-]
--------------------------------15-17B(19)-----------------------------
-15B(17)--R--(15)-15~~~~~~~~--15---------------------------------------
----------------------------16-----------------------------------------
-----------------------------------------------------------------------
-----------------------------------------------------------------------
-----------------------------------------------------------------------

-----------------------------------------------------------------------
-----------------------------------------------------------------------
-9----------------10---------------12----------------------------------
-9----------------10---------------12----------------------------------
-7----------------8----------------10----------------------------------
-----------------------------------------------------------------------

                                 fade out
-----------------------------------------------------------------
-17--------------------------------------------------------------
-17--------------------------------------------------------------
-17--------------------------------------------------------------
-15--------------------------------------------------------------
-----------------------------------------------------------------

-----------------------------------------------------------------
-----------------------------------------------------------------
-----------------------------------------------------------------
-10--------------------------------------------------------------
-10--------------------------------------------------------------
-8---------------------------------------------------------------
Вверх

THE TRIAL mp3

NOTES:
  1) It's stupid to try to play this tune without an orchestra! but
     I guess I'm not the only stupid guy on heart, so Ok, play it
     for example on a synth (strings are good, power strings are better).
     I sometimes play it on organs, but I play it mainly on piano,
     and that works pretty well! Some can try to play it with guitar/Bass
     /Drums, It sure can do the job. I recently started to learn accordion,
     you couldn't believe how nice it sounds on that thing!

   2) What's that thing? Well, we all saw .CRD files with just chords
      & lyrics, Ok, fine, but that's not enough here, 'cause strings are
      playing a melody wich is different from the vocal one, I believe
      that this part definitly IS the song, so I tried to indicate it here.
      How does it works? It's quite simple: there's 3 lines
        Chords...
        strings melody                  & '' is the bar line
        Lyrics
      In melody:
      n means nOPE, nO note, at least with the right hand, play 1st or 5th
              with left hand instead.
      - means Let ring.
      + means play this note an octave higher (all is played between F & E)
      L.H. means that this prt of melody is played by left hand

   3) How do I play it? It's pretty simple again:
        the left hand is for the bass line:
          alternate 1st & 5th of each chord + chromatics
        the right hand is for the melody:
          indicated notes + thumb playing any note of the actual chord,
          1st mainly but it can be any.
      Let's take a closer look at the beginning:

               B  Bb B     B  Bb B    B  Bb B  C  B  A  G
Right hand:  -  E  E     -  E  E     -  E  E     E     E
-------------1-----2-----3-----4-----1-----2-----3-----4-----
Left  hand:  E     B     E     B     E     B     E     B

      Well, that's a simplification but you can see what I mean.

    4) I've seen .CRDs with the tune in Fm, I've written it as Em, as it's
       the way I'm playing it and it's much more floydian (think of WYWH,
       Welcome.., Atom Heart Mother, ..Turning away,Pigs , among others).
       If that bothers you, translate, retune your synth or put a capo on
       your piano!

       [intro is the first two lines repeated]
-----------------------------------------------------------------------
Em                               Em
n B    Bb B    n    B    Bb B   n  B   Bb    B    C    B  A    G
 Good morning worm your honour,    The crown will plainly show the
-----------------------------------------------------------------------
F                                  F
n    C   B   C   n      C B    B   n  C   B      C   D  C   D  C
prisoner who now stands before you   was caught red handed showing
-----------------------------------------------------------------------
Em                             Em   (melody octave up this bar)
n  B  Bb  B    n  B  Bb  B     E  B+    B    D  E   -   E D
feelings...          Sho-wing feelings of an almost    human
-----------------------------------------------------------------------
C                               B7           ...  N.C.       L.H.
C-   G  F  G  n  G    F    C   B - A - F# - ...   [Quick: B A G F#]
nature...        This will not do!       (Call the schoolmaster!)
-----------------------------------------------------------------------
Em                             Em
n B Bb B    n    B    Bb   B   n  B   Bb    B C   B    A G   (  If
 I al-ways said he'd come to no good In the end your honour(they'd
-----------------------------------------------------------------------
F#                               Em7                         L.H.
n   C# C    C# D   C# C     C#   D    -    C#  - B   -   [n E F F#]
let me have my way I  could Have flayed him into shape
-----------------------------------------------------------------------
G                               G#-
n   C# B     C#   D    C# B C#  n   C#   B      C#  D    C# B   C#
But my hands were tied      The bleeding hearts and artists Let him
-----------------------------------------------------------------------
D/A                             D          L.H.
F#  F# F#  F#   G  F#   E   F# [ D D#   E   F F# G G# A ]
get a- way with murder, Let me   hammer him today
-----------------------------------------------------------------------

-----------------------------------------------------------------------
Em                                 B
Bb - B  - Bb   B  C   B A   G  A   Bb - B  - Bb B  C   B A G F#
Cra- zy   toys in the attic I  am cra- zy,  truly gone  fi- shing
-----------------------------------------------------------------------
F#m         D                         D#-                 half
C# C# C# C# D      D         D     D   D#      D# D# D# <- size
              They must have taken my marbles away       bar!
-----------------------------------------------------------------------
Em                                 B                  L.H.
Bb - B  - Bb   B  C   B A   G  A   Bb - B  -      [ F#  D# B - ]
Cra- zy   toys in the attic He is cra- zy...
-----------------------------------------------------------------------

       (call the defendant's wife)

 (Second verse, Only bars wich are differents from 1st verse are
  indicated. Caution: Baa-aabe lines are notated one bar per line,
  while everything else is two bars/line, that's because the
  chromatics are twice as fast as any other part of the melody)

 You little shit, you're in it now, I hope they thrown away the
 key! You should have talked to me more often Than you did, but no: you
 had to go your own way. Have you broken any homes up lately?
 "Just five minutes Worm your honour, him and me alone..."
-----------------------------------------------------------------------
Em
B   Bb  A   Ab  G   Gb  F   E   Eb  D   Db  C   B   Bb  A   Ab
Baaaaaaaaaaaaaaaaaaaaaaaaaaaaaaaaaaaaaaaaaaaaaaaaaaaaaaaaaaaaaaa--
-----------------------------------------------------------------------
Em
G   Gb  F   E   Eb  D   Db  C   B   Bb  A   Ab  G   Gb  F   E
--aaaaaaaaaaaaaaaaaaaaaaaaaaaaaaaaaaaaaaaaaaaaaaaaaaaaaaaaaaaaaabe!
-----------------------------------------------------------------------
F#m            F#           Bm       F#    Bm            L.H.
n    C# A C#   n C# A#  C#   B    B   A# A# B-    [ F#   D    F#  ]
Come to mother baby let me   hold you In my arms
-----------------------------------------------------------------------
 M'lud I never wanted him to get in any trouble
 Why'd he ever have to leave me, Worm your honour let me take him home

 Crazy over the rainbow I am crazy, Bars in the window
 There must have been a door there in the wall When I came in!
 Crazy over the rainbow he is cra---zy


(3rd verse: just 4 bars repeated ad infinitum, I give you my own
 coda, nothing interesting, it's just that you need to end at a
 time, and sometimes, you just don't have time to wait the crumbling
 of the nearest wall)

 The...
-----------------------------------------------------------------------
Em                               Em
E B* F#    G E    F#  -     G   E B* F# G  E  F#     G
e-vi-dence before the court is     incon-travertable, there's
-----------------------------------------------------------------------
Am                               Am
A  E*   B   C   A  B   - C       A  E*   B   C   A  B   - C
no need for the ju-ry to retire                                in
-----------------------------------------------------------------------

 all my years of judging I have never heard before  of
 Someone more deserving the full penalty of law! The
 way you made them suffer your exquisite wife and mother
 Fills me with the urge to defecate
 Since, my friend, you have revealed your Deepest fear, I
 sentence you to be exposed before your peers!

         Tear down the wall!

-the mine coda of me that i've made myself ----------------------------
Em                               Em
E B* F#    G E    F#  -     G   E B* F# G  E  F#     G
Tear down the wall!
-----------------------------------------------------------------------
Am                               Am
A  E*   B   C   A  B   - C       A   E*   B   C   A   B   C   D
Tear down the wall!
-----------------------------------------------------------------------
Em
E
(boom)
-----------------------------------

 *: thumb played note, to hehance the melody. I do not play chords on
    this part, I just play octaved (thumb and little finger) melody
    (except those *-marked notes) with left hand, while the right one
    plays it entirely. It goes like that:

            E     F# G  E  F# - G   E     F# G  E  F# - G
Right hand:     B  B  B  B  B  - -      B  B  B  B  B  - -
-------------1-----2-----3-----4-----1-----2-----3-----4----
Left  hand:  E     F# G  E  F# - G   E     F# G  E  F# - G
            E     F# G  E  F# - G   E     F# G  E  F# - G
-------------1-----2-----3-----4-----1-----2-----3-----4----
A.Left hand: E     B     E     B     E     B     E     B



Two Suns In The Sunset ----------------------

D  A  G  A  D

D                          G                   A
In my rear view mirror the sun is going down,
D                             G       A   D
Sinking behind bridges in the road
     G                     A
And I think of all the good things
    D       A      G
That we have left undone
D/F#  Em
And I suffer premonitions,
Bm
Confirm suspicions,
Em                  A        D  A  G  A
Of the holocaust to come.

D
The wire that holds the cork
    G                    A
That keeps the anger in,
D
Gives way
                 G           A   D
And suddenly it's day again.
   G                A
The sun is in the east
    D          A      G     D/F#
Even though the day is done.
Em
Two suns in the sunset
Bm
Hmmmmmmmmmm
Em                         A
Could be the human race is run.

A  D  A  G  A  D  A  G  A  D

Bm                              A
Like the moment when the brakes lock

Bm
And you slide towards the big truck
   G                  A                 D
You stretch the frozen moments with your fear.
Bm                              A
And you'll never hear their voices,
Bm
And you'll never see their faces,
G           A                   D    A
You have no recourse to the law anymore.

G  A  D  A  G  A  D

D
And as the windshield melts
G                    A
My tears eveaporate,
D                          G       A   D
Leaving only charcoal to defend.
G           A            D        A      G     D/F#
Finally I understand the feelings of the few.
Em
Ashes and diamonds,
Bm
Foe and friend,
Em                       A
We were all equal in the end.

D  A  G  A  D  A  G  A
Вверх

TIME mp3

INTRO:(clean guitar with echo)
e-----------------------------------------------------------------------
B-----------------------------------------------------------------------
G-----------------------------------------------------------------------
D-----------------------------------------------------------------------
A-----------------------------------------------------------------------
E--------------0------------------2--------------------0----------------

e------------------------------------------------------------------------
B------------------------------------------------------------------------
G------------------------------------------------------------------------
D------------------------------------------------------------------------
A------------------------------------------------------------------------
E----2----------------0---------------0--1--2-------------0--------------

e-----------------------------------------------------------------(12)---
B------------------------------------------------------------------------
G------------------------------------------------------------------------
D--------------------2---------------------------------------------------
A----------------2---------------------------------------0---------------
E---0--1--2-------------2--------2----------2----------------------------

e-----------------------------(12)---------------------------------------
B------------------------------------------------------------------------
G------------------------------------------------------------------------
D------------------------------------------------------------------------
A------------------------------------------------------------------------
E---2b(3)--2--0---------------------------------------0--1--2------------


VERSE:(w/ distortion)
F#M                                       A            Asus4   A
Ticking away, the moments that make up a dull day
          lead A
E                                                  F#m
You fritter and wasste the hours in an offhand way
            lead B
         A
Kicking around on a piece of ground in your home town

E                                                   F#m
Waiting for someone or something to show you the way.


Dmaj7                           Amaj7
Tired of lying in the sunshine, staying home to watch the rain,
Dmaj7                           Amaj7
You are young, and life is long, and there is time to kill today,
Dmaj7                       C#m7
And then one day you find, ten years have got behind you
Bm7                           E
No one told you where to run, you missed the starting gun.

SOLO:
e---------------------------------------------------------------------------
B---------------------------------------------------------------------------
G----------------------------------4>(6)======>(5)===>(6)vvvvvvvv>(5)>(6)---
D-----2>4vvvvvvvvvvvvvvvv---------------------------------------------------
A---------------------------------------------------------------------------
E---------------------------------------------------------------------------

e--------------------------------------------------
B--------------------------------------------------
G----4<(6)=======>4>2---4>(6)--4vvvvvvvvvvvvvvv----
D--------------------------------------------------
A--------------------------------------------------
E--------------------------------------------------

e----------------------------------------------5>(6)----------------
B-------------------------------5-5>7>5>7>5>7------------7vvvvvv----
G-------------------------/6----------------------------------------
D---4<(6)====>4vvvvvv-----------------------------------------------
A-------------------------------------------------------------------
E-------------------------------------------------------------------

e----------------------------------------------9--9---9--9>(10)======>9--
B------------------------------------------------------------------------
G----4>(6)==========>4>2-----4>(6)------6/9----9--9---9------------------
D------------------------------------------------------------------------
A------------------------------------------------------------------------
E------------------------------------------------------------------------

-------------------------------------------------------------------------------
--10>(12)==========>10----9vvvvvvv--9>(10)=====>9------------------------------
-----------------------------------------------------9>(10)==>(11)==========>9-
-------------------------------------------------------------------------------
-------------------------------------------------------------------------------
-------------------------------------------------------------------------------

e-----------------------------------17----------------------------------
B-----------14---17>(19)----17>(19)-----17>(19)==========>17---17>(19)--
G-------14--------------------------------------------------------------
D---/16-----------------------------------------------------------------
A-----------------------------------------------------------------------
E-----------------------------------------------------------------------

e---------------------------------------------------------------------------
B---17----------------------------------------------------------------------
G--------16>(18)vvvvvvv--16>(19)>16>(18)vvvv---16>(18)==========>16vvvvvvv--
D---------------------------------------------------------------------------
A---------------------------------------------------------------------------
E---------------------------------------------------------------------------

--------------------------------------------------17>(19)-----17>(19)=====>17-
--------15--15---14>(15)>14-------------------14------------------------------
----16------------------------14----------------------------------------------
----------------------------------16vvvvvvv-----------------------------------
------------------------------------------------------------------------------
------------------------------------------------------------------------------

----------------------------------------------------------------------------
----17>(19)vvvvvvvvvvvvv----(19)>17--17vvvv---------------------------------
----------------------------------------------(17)>16>14--14---16>(18)vvvv--
----------------------------------------------------------------------------
----------------------------------------------------------------------------
----------------------------------------------------------------------------

e----19>(21)===>19--19>(21)=====>19--19vvvvvvv----
B-------------------------------------------------
G-------------------------------------------------
D-------------------------------------------------
A-------------------------------------------------
E-------------------------------------------------

e----16------------------------------------------------------
B--------17--------17/19vvvvvv---17>19>17---17\14vvvvvvvvv\--
G------------16----------------------------------------------
D------------------------------------------------------------
A------------------------------------------------------------
E------------------------------------------------------------


This begins where the rhythm changes to the progression that plays over the
chorus(begins with Dmaj7)
----------------------------------------------------------
----------7---10/12--10vvvvv---9--10---9>10>9>7\5vvvvvv---
-----2/7--------------------------------------------------
--4-------------------------------------------------------
----------------------------------------------------------
----------------------------------------------------------

-------------------------------------------------------------
--7/9---9----7\5-----5\2/5-----2---2-------------------------
----------------------------------4>(6)======vvvv>4--4>(7)---
-------------------------------------------------------------
-------------------------------------------------------------
-------------------------------------------------------------

-------------------------------------------------------------------
-------------------------------------------------------------------
--(6)======>4--------(6)========>4>2>4>2vvvvvv--4>(6)=========>4---
-------------------------------------------------------------------
-------------------------------------------------------------------
-------------------------------------------------------------------

-------------------------------------------------------------------
-------------------------------------------------------------------
----4vvvvvvvvvvvv-----2vvvvvvvvvvvv--------4-----------------------
--------------------------------------4/6-------6\4--2vvvvvvv------
-------------------------------------------------------------------
----------------------------------------------------------------0--

           lead c
(E)    F#m                                                    A
And you run, and you run to catch up to the sun, but it's sinking,

E                                              F#m              lead D
And racing around, to come up behind you again
        lead E
E                                                  A        Asus4   A
The sun is the same in a relative way, but your older,

E                                              F#m
Shorter of breath, and one day closer to death.

Dmaj7                           Amaj7
Every year is getting shorter, never seem to find the time
Dmaj7                            Amaj7
Plans that either come to naught, or half a page of scribbled lines
Dmaj7                           C#m
Hanging on in quite desperation is the english way,
Bm                                           Bm7         F
The time is gone, the song is over thought I'd something more to say.

Leads:

A
--------------------------------------
----2----------2--------2-------------
---4>(6)======(6)=4--2--2-------------
----------------------------2vvvvv----
--------------------------------------
--------------------------------------

B
---7/9--9--9\7--7\---
---------------------
---7/9--9--9\7--7\---
---------------------
---------------------
---------------------

C
------------------
---7---5---3---2--
------------------
---7---5---4---2--
------------------
------------------

D
-----------------------------------------------
---2-------------------------------------------
--4>(6)------4>(6)>4>2-----2-------------------
------------------------4------2-vvvvvvvvvvv---
-----------------------------------------------
-----------------------------------------------

E
-----------------------
----10---12----10------
----0-----0-----0------
----11---12----11------
-----------------------
-----------------------
Вверх

US AND THEM mp3

   Fig. 1
  Dsus2          Esus2/D
e----------5----------------5----------------7----------------7-------
B------5-----5---5------5-----5---5------7-----7---7------7-----7---7-
G----7---7-----7------7---7-----7------9---9-----9------9---9-----9---
D--0-----0----------0-----0----------0----------------0---------------
A---------------------------------------------------------------------
E---------------------------------------------------------------------

  Dm(maj7)    G/D
e----------9----------------9----------------7----------------7-------
B------10----10--10-----10----10--10-----8-----8---8------8-----8---8-
G----10--------10-----10--------10-----7---7-----7------7---7-----7---
D--0-----0----------0-----0----------0-----0----------0-----0---------
A---------------------------------------------------------------------
E---------------------------------------------------------------------

                           end Fig. 1   Fig. 2
   Dsus2                              Bm           Bm/A
e----------5----------------5-------------2---2-------------------------
B -----5-----5---5------5-----5---5-------3---3-----3-2-3---------------
G ---7---7-----7------7---7-----7---------4---4-----4-2-4---------4---4-
D -0----------------0-----0-----------4---4---4-----4-2-4--------4-4-4-4
A ------------------------------------2-----------------2-------2---0---
E ----------------------------------------------------------------------

   D/G        C   Bm     A
E ---------------------------------------2---2-------------------------
B -------7-----7-------------------------3---3-----3-2-3---------------
G -------7-----7--------5---5---5555-----4---4-----4-2-4---------4---4-
D -------7-----7----5---5---5---5555-4---4---4-----4-2-4--------4-4-4-4
A -5---5-------5----3-----3---3---33-2-----------------2-------2---0---
E -3-----------3-------------------------------------------------------

                           end Fig. 2
  D/G        C
E -----------------------------------
B -------7-----7----5----------------
G -------7-----7----5----------------
D -------7-----7----5----------------
A -5---5-------5----3----------------
E -3-----------3---------------------

  Fill 1
E -----5-----0---0-
B -------5----3---3
G ---7------2---2--
D -0-------0-------
A -------------4---
E------------------

INTRO:

[Organ] Fig. 1 Saxaphone solo w/Fig. 1

VERSE:
w/Fig. 1
Dsus    Esus2/D     Dm(maj7)
Us, and them
                        G/D            D  (A/D)  (D)  A/D
And after all we're only ordinary men.

w/Fig. 1 (substitute last measure with Fill 1)
Dsus2   Esus2/D     Dm(maj7)
Me, and you.
                            G/D                    D  A/C#
God only knows it's not what we would choose to do.

w/Fig. 2
Bm
Forward he cried from the rear
             Bm/A  D/G  C
and the front rank died.
   Bm                                    A
The general sat and the lines on the map
D/G                C
moved from side to side.

w/Fig.1
Dsus2     Esus2/D  Dm(maj7)
Black and blue
                                G/D            Dsus2
And who knows which is which and who is who.

w/Fig. 1 (substitute last measure with Fill 1)
      Esus2/D  Dm(maj7)
Up and down.
                        G/D                         D  A/D A/C#
And in the end it's only round and round and round.

w/Fig. 2
Bm
"Haven't you heard? It's a battle of words"
Bm/A  D/G         C
the poster bearer cried.
Bm
"Listen son", said the man with the gun
Bm/A    D/G          C
"There's room for you inside."

SOLOS:

Piano solo w/Fig. 1 Saxaphone solo w/Fig. 1 (substitute last measure
  with Fill 1)

Dsus2  Esus2/D  Dm(maj7)  G/D  A/D

Dsus2  Esus2/D  Dm(maj7)  G/D  Dsus2


Saxaphone solo w/Fig. 2

Bm  Bm/A  D/G  C  Bm  A  Bm  Bm/A  G  C

VERSE:
w/Fig. 1
Dsus2    Esus2/D    Dm(maj7)
Down and out
                                G/D                D
It can't be helped but there's a lot of it about.

w/Fig. 1 (substitute last measure with Fill 1)
Dsus2     Esus2/D   Dm(maj7)
With, without.
                              G/D                  D
And who'll deny it's what the fighting's all about?

w/Fig. 2
Bm
Out of the way, it's a busy day
Bm/A D/G              C
I've got things on my mind.
       Bm
For the want of the price of tea and a slice
Bm/A D/G    C
The old man died.
Вверх

VERA mp3

e-------------------------------------------------------------
B-------------------------------------------------------------
G-------------------------------------------------------------
D-------------------------------------------------------------
A-------------------------------------------------------------
E-------------------------------------------------------------
            Does anybody here remember Vera

   Em
e----------------------------------------0--------------
B---------0---------------------------0-----------------
G------0-----0-------0-----0-------0-----------0-----0--
D---2-----------(2)-----2-------2-----------2-----0-----
A-------------------------------------------------------
E-------------------------------------------------------
    Lynn?

     C       D
e--------------0--------------------------2---------------
B-----------1-----1--------------------3-----3------------
G--------0-----------0--------------2-----------2-----0---
D---------------------------2----0-----------------0------
A----3-------------------3--------------------------------
E---------------------------------------------------------
 Remember    how   she   said  that

     G       D/F#    C         Em
e-------------------------------------------------------------------------
B----------------------------------------1--------------------------------
G-------------------------------------0-----0-----------------------------
D----------------------------------2-----------2-----2--------------------
A-------------------------------3-----------------3-----------------------
E----3--------2---------------------------------------------0-------------
    we would   meet  again      some  sun - ny  day.

e----------------------------------------------------------------------
B---(5)-----5/8-------7-------5--------5/10-----10/13------------------
G--------0--------0-------0-------0----------0----------0--------------
D----2------2/5-------4-------2--------2/7-------7/10------9-----------
A----------------------------------------------------------------------
E----------------------------------------------------------------------

   Am7      D         G       C            Em
e---3-------------2-------------------------------0----0--3--0-----------
B---1-------------3------------------------3------1----------------------
G---0-------------2----------------(0)------------0----------------------
D---2-------------0-------------------------------2----------------0---2-
A---0---------------------------------------------3-------------3--------
E------------------------------------------------------------------------
    u.      u.          u.

      Em7
e--------------------------------------------------------------
B------------------------------------------------------3-------
G------------------------------------------------------0-------
D------------------------------------------------------0-------
A------------------------------------------------------2-------
E------------------------------------------------------0-------
   Vera!    Vera!    What has become of you?

   Em     C
e------------0-----------------------------0------------
B---------0-----------------------------1-----1---------
G------0------------0-----0----------0------------------
D---2------------2-----0----------2------------------2--
A------------------------------3------------------3-----
E-------------------------------------------------------
       Does any - body

     D     G  D/F#
e------------------------------3----------3---2h3---2-------
B----------3-------0--1--2---------0--------------------3---
G-------2-----------------------------0---------------------
D----0---------0--------------------------------------------
A-----------------------------------------------------------
E------------------------------3--------------2-------------
    else in here   feel    the way  I     do?

    C
e--(0)--------0-----------------------------------------------
B----------1-----1--------------------------------------------
G-------0------------0----------------------------------------
D---------------------------0----2----------------------------
A---3--------------------2------------------------------------
E-------------------------------------------------------------
Вверх

WAITING FOR THE WORMS mp3

G   C   G                       C
Ooh Ooh Ooh You cannot reach me now
G                      C
Ooh No matter how you try

(with distortion)
e--------------------------------------------------------
B--------------------------------------------------------
G--------------------------------------------------------
D---x--x--7-----------------------5----------------------
A---x--x--5-----------------------3-------------5--------
E-----------------------------------------------3--------
         Goodbye cruel world it's over walk on by


G                          G    D  C    C B Am
Sitting in a bunker here behind my wall
Am              G        C
Waiting for the worms to come
   G                        G    D  C    C B Am
In perfect isolation here behind my wall
 Am              G        C
Waiting for the worms to come

(powerchords with distortion)
A                               G A
Waiting to cut up the deadwood
                             G A
Waiting to clean up the city
           G          A
Waiting to follow the worms
                               G A
Waiting to put on a black shirt
                                 G A
Waiting to weed out the weaklings
                                                         G A
Waiting to smash in their windows and kick in their doors
                                                        G A
Waiting for the final solution to strengthen the strain
           G          A
Waiting to follow the worms
                                                  G A
Waiting to turn on the showers and fire the ovens
                                                              G A
Waiting for the queers and the coons and the reds and the jews
           G          A
Waiting to follow the worms

G                                    D C             C B Am
Would you like to see Britannia rule again my friend
Am                     G          C      Riff1 x 2
All you have to do is follow the worms
G                                                D C             C B Am
Would you like to send our coloured cousins home again my friend
Am                     G          C      Riff1 x 20
All you need to do is follow the worms

[Segue to "Stop"]

Riff1
-----
(with distortion)
e-------------------------------
B-------------------------------
G-------------------------------
D----2--------------------------
A----2--------------------------
E----0---2vv---3vv---2vvvvvvv---
Вверх

WEARING THE INSIDE OUT

    Cm                 Gm
From morning to night I stayed out of sight
Dm                     F
Didn't recognize I'd become
  Cm                  Gm
No more than alive I'd barely survive
Dm              F
In a word...overrun

            Gm            Dm
Won't hear a sound from my mouth
              Gm                 Dm
I've spent too long on the inside out
          Gm                Dm
My skin is cold to the human touch
             Gm                  Dm    F
This bleeding heart's not beating much

 Cm                Gm
I murmured a vow of silence and now
Dm                              F
I don't even hear when I think aloud
 Cm                    Gm
Extinguished by light I turn on the night
Dm                              F
Wear its darkness with an empty smile

Ab
I'm creeping back to life
  G
My nervous system all awry
Ab                     Bb
I'm wearing the inside out

Cm                    Gm
Look at him now, he's paler somehow
Dm                 F
 But he's coming around
    Cm                              Gm
He's starting to choke, it's been so long since he spoke
Dm                                       F
Well he can have the words right from my mouth

              Gm          Dm
And with these words I can see
                 Gm                  Dm
Clear through the clouds that covered me
            Gm                 Dm
Just give it time then speak my name
          Gm              Dm
Now we can hear ourselves again

           Gm          Dm
I'm holding out for the day
              Gm                Dm
When all these clouds have blown away
            Gm                  Dm
I'm with you now, can speak your name
          Gm             Dm    F  Bb
Now we can hear ourselves again
Вверх

WHEN YOU'RE IN

E---------------------------------------------------------------------
B---------------------------------------------------------------------
G--------------------------------------------------x-x-7-5------------
D-7---7---5-7-7----7---7---5-7-7-5-----------------x-x-7-5------------
A-7---7---7---7----7---7---7---7---7----------------------------------
E-5---5---5---5----5---5---5---5------5-------------------------------

E---------------------------------------------------------------------
B---------------------------------------------------------------------
G--------------------------------------------------x-x-7-5------------
D-7---7---5-7-7----7---7---5-7-7-5-----------------x-x-7-5------------
A-7---7---7---7----7---7---7---7---7----------------------------------
E-5---5---5---5----5---5---5---5------5-------------------------------

E---------------------------------------------------------------------
B---------------------------------------------------------------------
G-7---7---7-5--------7---7---7-5--------------------------------------
D-7---7---7---7-7----7---7---7---7-7-5--5-7---------------------------
A-5---5---5---5-5----5---5---5---5-5-5--5-----------------------------
E---------------------------------------------------------------------

E---------------------------------------------------------------------
B---------------------------------------------------------------------
G---------------------------------------------------------------------
D-7---7---5-7-7----7---7---5-7-7-5------------------------------------
A-7---7---7---7----7---7---7---7---7----------------------------------
E-5---5---5---5----5---5---5---5------5-------------------------------

E---------------------------------------------------------------------
B---------------------------------------------------------------------
G--------------------------------------------------x-x-7-5------------
D-7---7---5-7-7----7---7---5-7-7-5-----------------x-x-7-5------------
A-7---7---7---7----7---7---7---7---7----------------------------------
E-5---5---5---5----5---5---5---5------5-------------------------------

E---------------------------------------------------------------------
B---------------------------------------------------------------------
G--------------------------------------------------x-x-7-5------------
D-7---7---5-7-7----7---7---5-7-7-5-----------------x-x-7-5------------
A-7---7---7---7----7---7---7---7---7----------------------------------
E-5---5---5---5----5---5---5---5------5-------------------------------

E---------------------------------------------------------------------
B---------------------------------------------------------------------
G-7---7---7-5--------7---7---7-5--------------------x-x-7-5-----------
D-7---7---7---7-7----7---7---7---7-7-5--5-7---------x-x-7-5-----------
A-5---5---5---5-5----5---5---5---5-5-5--5-----------------------------
E---------------------------------------------------------------------

E---------------------------------------------------------------------
B---------------------------------------------------------------------
G------------------------------------------------------Repeat ad lib.-
D-7---7---5-7-7----7---7---5-7-7-5------------------------------------
A-7---7---7---7----7---7---7---7---7----------------------------------
E-5---5---5---5----5---5---5---5------5-------------------------------
Вверх

WISH YOU WERE HERE mp3

  INTRO: (Rhythm figure 1)
    Em7     G
e---------------------3--3-3------3----------------3----3----3-----------
B-----------------3-3-3--3-3----3-3--------------3-3----3----3-----------
G-----------------0-0-0--0-0-0--0---0------------0-0-0--0----0-----------
D--------0----2--------------2----------2----0-------0--0--------------0-
A----0h2-----------------------------------------------------------0h2---
E----------------------------------------------------3--3-------3--------

   Em7      G
e-----------3---3-3-3-3----------------------3-----3-----3---------------
B-------3---3---3-3-3-3--------------------3-3-----3-----3---------------
G-------0---0---0-0-0-0------0-------------0-0-0---0-----0---------------
D---2--------------------2--------2----0-------0---------------------0---
A---------------------------------------------------------------0h2------
E----------------------------------------------3-------------3-----------

   Em7      A7sus4
e-------3-3-3---3-3-3-3-------------------------3-3-3---------3-3---------
B-------3-3-3---3-3-3-3-------------------------3-3-3---------3-3---------
G-------0-0-0---0-0-0-0-------------------------0-0-0---------------------
D---2--------------------2---0--------------2-------2------------------0--
A--------------------------------2------0-----------0--------------0h2----
E-------------------------------------------------------------------------

   Em7     A7sus4
e-------3-3-3---3-3-3-3-----------------------3-----------3---------------
B-------3-3-3---3-3-3-3-----------------------3-----------3------3------3-
G-------0-0-0---0-0-0-0-----------------------0------------------0----0-0-
D---2-------------------2---0-------------2-2----------------2-0-0----0-0-
A-------------------------------2-----0-------------0------------0h2------
E-------------------------------------------------------------------------

     G           (end Rhythm figure 1)
e----3-------3-------3-----------3-3--3-----------3-3-3-----------------
B----3---3-3-3-------3-----------3-3--3-----------3-3-3-----------------
G----0---0-0-0-------0-----------0-0--0-----------0-0-0-----------------
D----0---0---0-------0-------0---0-0--0-------0---0-0-0-------------0---
A----2---2-----------2-----------2-2--2-----------2-2----------0h2------
E----3-----------3---3---3---------3--3---3---------3------3------------

SOLO:(Guitar 2 with first 9 bars of Rhythm Figure 1)
   Em7        G
e---------------------------------------------------------------
B-----------3------5-----3--------------------------------------
G------2/4------------4---------4p2p0---------------------------
D----------------------------------------0----------0--0--------
A---------------------------------------------1/2---------------
E---------------------------------------------------------------

   Em7           G
e----3/5--3/5----------------------------------------------------
B----3/5--3/5--3/5--5/3-p0--3/5--4/2-p0--------------------------
G--------------2/4--4/2-p0--2/4--4/2-p0-----4---------------x\---
D-------------------------------------------5---------------x\---
A----------------------------------------------------------------
E----------------------------------------------------------------

   Em7       A7sus4
e--------------------------------------------------------------------
B----------3-----5----5b(7)r5p3-----3---------------3--5-------------
G-----2/4-----4------------------4-------2----4b(5)-------4b(6)--2---
D--------------------------------------------------------------------
A--------------------------------------------------------------------
E--------------------------------------------------------------------

   Em7            A7sus4              G
e------------------------------------------------------------------3-
B----------3-----5------5b(7)-(7)r5--3--5------------------------3-3-
G-----2/4-----4-------------------------------2----4b(6)r4--2----0-0-
D----------------------------------------------------------------0-0-
A--------------------------------------------------------------------
E--------------------------------------------------------------------

e---3--------3-----3--------3----
B---3------3-3-----3------3-3-3--
G---0------0-0-----0------0-0-0--
D---0------0-0-----0------0-0-0--
A---2------2-------2-------------
E---3------3-------3-------------

VERSE:
C                         D/F#
So, so you think you can tell
            Am/E                  G                         D/F#
Heaven from hell, Blue skies from pain. Can you tell a green field
                 C                    Am                         G
From a cold steel rail, A smile from a veil? Do you think you can tell?
                   C                       D/F#                  Am/E
Did they get you to trade, Your heroes for ghosts, Hot ashes for trees,
               G                           D/F#              C
Hot air for a cool breeze, Cold comfort for change? Did you exchange
                     Am                          G
A walk on part in the war, For a lead role in a cage?

SOLO:(with scat vocal and Rhythm Figure 1)
   Em7           G
e--------------------------------/10--------/12--10----------------------
B---/12--12--10/12--12----10/12-------12\--------------------/12--12-12\-
G------------------------------------------------------------------------
D------------------------------------------------------------------------
A------------------------------------------------------------------------
E------------------------------------------------------------------------

   Em7          G
e------10\--------------------------------------------------
B--/12------/12\11/12-12------12\----7----------------------
G---------------------------------------7-------------------
D-------------------------------------------7/9-------------
A-----------------------------------------------------------
E-----------------------------------------------------------

   Em7      A7sus4
e--------10--------10-10---------------------12------------------------
B--10/12-------/12------------15\------12/14--------14\--/14-14-14-14\-
G---------------------------------12\----------------------------------
D----------------------------------------------------------------------
A----------------------------------------------------------------------
E----------------------------------------------------------------------

   Em7         A7sus4         G
e---------10------------------------------------12------------------/10--
B---10/12---------12\----------12---------12/14--------14\10--------/10--
G------------------------12/14----12/14----------------------------------
D------------------------------------------------------------------------
A------------------------------------------------------------------------
E------------------------------------------------------------------------

VERSE:
C                               D/F#
How I wish, how I wish you were here,
          Am/E                                G                  D/F#
We're just two lost souls simming in a fish bowl, Year after year,
                               C                                    Am
Running over the same old ground,  What have we found?  The same old fears,
              G
Wish you were here.

PLAY RHYTHM FIGURE ONE

SOLO:(with Rhythm Figure 1, doubled by scat vocal)
   G         Em7
e-----------------------------------------------------------------
B-----3---3--5---------3---3--5-------10/12-10--8-8---------------
G-------4--------4---4---4--------------------------7--9---9/12---
D-----------------------------------------------------------------
A-----------------------------------------------------------------
E-----------------------------------------------------------------

   G     Em7
e----------------------------------------------10--12\10------
B-----3--0--3---5---------8---8--10--8--10/12------------/12--
G---------------------------9---------------------------------
D-------------------------------------------------------------
A-------------------------------------------------------------
E-------------------------------------------------------------

   G      Em7
e--------7-----------------------------10-10-------10-10-------10-10-
B----/12---10p8-----/12-/12------10/12-------10/12-------10/12-------
G---------------9-7--------------------------------------------------
D--------------------------------------------------------------------
A--------------------------------------------------------------------
E--------------------------------------------------------------------

     A7sus4      Em7
e---------------12-12------------10--------12----------10-------------------
B--10/12\10-/14------------10/12-----12/14-------10/12-------8----8---8---8-
G-------------------------------------------------------------------9---9---
D---------------------------------------------------------------------------
A---------------------------------------------------------------------------
E---------------------------------------------------------------------------

     (begin fade)   (fade into sound effects,
   A7sus4    G     with Rhy. Fig 1)
e--------------------------------------------------------------
B----8---8-10----\---------------------------------------------
G------9-------------------------------------------------------
D--------------------------------------------------------------
A--------------------------------------------------------------
E--------------------------------------------------------------
Вверх

Young lust mp3

(E5)
I am just a new boy,
--------------------------------
------------------3------------
------------2/4----------------
--------------------------------
--------------------------------
-0----0------------------------

A
    a
--------------------------------
--------------------------------
--------------x---2---2--------
--------------x---2---2--------
--------------x---0---0--------
--------------------------------

E5
stranger in this town
--------------------------------
------------------3-------------
-----------2/4------------------
--2---2-------------------------
--2---2-------------------------
--0---0-------------------------

--------------------------------
--------------------------------
-----------------0--2----2-----
--------------------------------
--------------------------------
--------------------------------

Who's gonna show this stranger around.
--------------------------------
------------------3------------
------------2/4----------------
--------------------------------
--------------------------------
-0----0------------------------

--------------------------------
-------------------------0------
--------------------------------
--------------------------------
------------------------------3/
------------------------------1/

Pre-chorus:
G5
-------------------------------------------------
-------------------------------------------------
-------------------------------------------------
-------------------------------------------------
--5------(5)--7------(7)-5--5--5--5--7--------7
--3----3--3--3----3--3--3--3--3--3--3----3---

-------------------------------------------------
-------------------------------------------------
-------------------------------------------------
-------------------------------------------------
--5----x--x--7----x--x--5----x--x--7/---x--x\
--3----x--x--3----x--x--3----x--x-(3)----x--x\

(E5)
--------------------------------
------------------3------------
------------2/4----------------
--------------------------------
--------------------------------
------0------------------------

-------------------------------------------------
-------------------------------------------------
-----------------------------x--x--x------------
-----------------------------x--x--x------------
-----------------------------x--x--x------------
-----------------------------x--x--x--10\------

Chorus:
Am
Ooh,
-------------------------------------------------
-------------------------------------------------
--5-------------------------------5-------------
--7-------------------------------7-------------
--7-------------------------------7-------------
--5-------------------------------5--------5----

 I need a dirty woman
-------------------------------------------------
-------------------------------------------------
--5------------------5\-------------------------
--7------------------7\-------------------------
--7------------------7\-------------------------
--5------------------5\-------------------------

G
-------------------------------------------------
-------------------------------------------------
--4------------------4--------------------------
--5------------------5--------------------------
--5------------------5--------------------------
--3------------------3------------------3-------

-------------------------------------------------
-------------------------------------------------
--4-----------------(4)---4------(5)---5--------
--5------------------5----5-------6---6--------
--5------------------5----5-------6---6--------
--3------------------3----3-------4---4--------

Am
Ooh,
-------------------------------------------------
-------------------------------------------------
--5----------------------------------------5----
--7----------------------------------------7----
--7----------------------------------------7----
--5----------------------------------------5----

 I need a dirty girl.
-------------------------------------------------
-------------------------------------------------
--5------------------5--5-----------------------
--7------------------7--7-----------------------
--7------------------7--7-----------------------
--5-------------------------5\------------------

(E5)
-------------------------------------------------
-------------------------------------------------
-------------------------------------------------
-------------------------------------------------
-------------------------------------------------
----0--------------------------------------------

--------------------------------------------------
----------------------12------------15-----------
----------------------12-------12----------------
--------------------------------12---------------
-----------12/-----------------------------------
-------------------------------------------------
Вверх

YOUR POSSIBLE PASTS

    G                                  Am
They flutter behind you your possible pasts,
    C                          D              G
Some brighteyed and crazy, some frightened and lost.
 G                              Am
A warning to anyone still in command
C                 D               G
Of their possible future, to take care.
  G                                 Am
In derelict sidings the poppies entwine
    C                      D                 G
With cattle trucks lying in wait for the next time.
Em
Do you remember me, how we used to be,
                        D
Do you think we shoud be closer?

   G                                       Am
She stood in the doorway, the ghost of a smile
C                        D           G
Haunting her face like a cheap hotel sign.
   G                                     Am
Her cold eyes imploring the men in their macs
       C                         D               G
For the gold in their bags or the knives in their backs.
G                                   Am
Stepping up boldly one put out his hand.
         C                      D                G
He said, "I was just a child then, now I'm only a man."
Em
Do you remember me,  how we used to be,
                         D
Do you think we should be closer?

Em  C  Em  C  Em  D  C  D  Cmaj9

      G                                    Am
By the cold and religious we were taken in hand
     C                    D            G
Shown how to feel good and told to feel bad.
G                                      Am
Strung out behind us the banners and flags
      C                     D           G
Of our possible pasts lie in tatters and rags.
Em
Do you remember me, how we used to be,
                         D
Do you think we should be closer?
Вверх
English songs 109

ABBA
AC-DC
Adams Bryan
Adriano Celentano
Aerosmith
A-Ha
Animals
Antonio Banderos
Apocalyptica
Armstrong Louis
Billy's Band
Bjork
Blink 182
Blondie
Blur
Bob Dylan
Boney M
Bon Jovi
Bowie David
Brainstorm
Braxton Toni
Butch
Celine Dion
Chris De Burgh
Chris Isaak
Chuck Berry
Clapton Eric
Cohen Leonard
Cranberries
Deep Purple
Depeche Mode
Dire Straits
Donovan Jason
Eagles
Electric Light Orchestra
Elton John
Elvis Presley
Era
Europe
Evanescence
Garbage
Gary Moore
Glen Wiston
Gorillaz
Green Day
Guano Apes
Guns N Roses
Hendrix Jimi
Iggy Pop
Iron Maiden
Joe Dassin
Kansas
King Crimson
Kiss
Led Zeppelin
Leonard Cohen
Limp Bizkit
Linkin Park
Louis Amstrong
Madonna
Marilyn Manson
Marley Bob
Metallica
Moby
Morricone Ennio
Muse
Nazareth
Nelly Furtado
Nick Cave
Nirvana
No Doubt
Oasis
Offspring
Ottawan
Outkast
Ozzy Osbourne
Pain
Para Bellum
Pink Floyd
Placebo
P.O.D.
Queen
RadioHead
Rainbow
Rammstein
Rea Chris
Red Hot Chili Peppers
Ritchie Blackmore
Rolling Stones
Roxette
Rufus Wainwright
Santana
Sarah Brightman
Scorpions
Sex Pistols
Simon & Garfunkel
Shocking Blue
Soul Asylumx
Status Quo
Sting
System of a down
Sum 41
The Beatles
The Doors
Tito & Tarantula
U2
UB 40
Uriah Heep
Van Halen

Українські пісні 109

Boom Box
Escape
Flit
Kapela Drewutnia
Lama
LЮK
Mad Heads (XL)
Motor' rolla
NEON
Ot Vinta
The Вйо
Абздольц
Аероплан
Акорд
Ані Лорак
Бандурна розмова
Білик Ірина
Борщ
Брати Гадюкіни
Вася Club
Вій
Воплі Відоплясова
Гайдамаки
Гончар Олесь
Гринжоли
Гроно
Гуляйгород
Дарка і Славко
Дивні
Друга Ріка
Другий подих
Дударик
Експампей
Євтушенко Андрій
Жарівка (Дяк Олесь)
Журбовіз
Зібров Павло
Зінкевич Василь
Злотник Олександр
Івасюк Володимир
Калєкція
Карна
Карпа Ірена
Клямка
Козловський Віталій
Кому вниз
Крихітка Цахес
Курінь
Лесик-Band
Лорд Юрія
Львівські музики
Мандри
Менестрелі
Мері
Мертвий Півень
Міпеніум
Монте Крісто
Морозов Віктор
Нахтіґаль
Не журись!
Неборак Віктор
НеДІля
НЕМО
Нічлава блюз
Океан Ельзи
ПереBANDя
Перкалаба
Петрович
Піккардійська Терція
Піпа Олександр
Плач Єремїі
Пономарьов Олександр
Пророк
Росава
Ротару Софія
Руслана
Рутенія
С.К.А.Й.
САД
Самі свої
Серцевий Напад
Скрябін
Смерічка
Сокира Перука
Соколи
Таліта Кум
Тартак
Тінь сонця
Ткач Михайло
ТНМК
Тостер
Тріо Мареничів
Фарбований лис
Фестиваль Снів
Хвилю тримай
Цісик Квітка
Черемош
Черемшина
Четвертий кут
Чорний вересень
Чорні черешні
Шевченко Тарас
Щастя
Юркеш
Юрченко Юрко
Юрчишин Ярослав
Явір
Яка існуЄ
Яремчук Назарій

   
 sait@i.ua



Рейтинг@Mail.ru