accordS-land.ru Аккорды и табулатуры к гитаре.
Главная | Песенник | Аккорды | Учебник
Руссике песни 180
5nizza
7Б
9-й Район
Animal ДжаZ
Billy's Band
Butch
Para Bellum
TequilaJazzz
Worms
Zdob Si Zdub
Автоматические удовлетворители
Агата Кристи
Агузарова Жанна
Агутин Леонид
Адо
Аквариум
Алиса
Алсу
Амирамов Е.
Антонов Ю.
Арефьева Ольга
Ария
АукцЫон
Барыкин
Башаков Михаил
Башлачев Александр
БекХан
Бернес М.
Би - 2
Бони неМ
Борзов Найк
Боярский Михаил
Браво
Братья Грим
Ва-Банкъ
Вертинский Александр
Визбор Юрий
Високосный год
Воскресенье
Восьмая Марта
Высоцкий В.С.
Високосный год
Газманов О.
Галич Александр
Герман А.
Городницкий Александр
Глызин А.
Градский Александр
Гражданская Оборона
Гребещенков
Данко
ДДТ
Дидюля
Диоды
Дискотека Авария
Дягилева Янка
Ёлка
Жуки
Заблудовский Андрей
Запрещенные Барабанщики
Звери
Земляне
Земфира
Зинчук Виктор
Зоопарк
Иван Кайф
Иванов А.
Иваси
ИЗ КИНО И МУЛЬТФИЛЬМОВ
Империя
Калинов мост
Кашин Павел
Кельми К.
КИНО
Кипелов
Конец Фильма
Контингент
Корни
Король и Шут
Коррозия металла
Крематорий
Крупнов Анатолий
Кузьмин Владимир
Куликов Е.
Кукрыниксы
Курехин Сергей
Лаэртский Александр
Ласковый май
Ленинград
Леонидов Максим
Лесоповал
Лещенко Л.
Линда
Лицей
Лоза Юрий
Любэ
Люмен
Ляпис Трубецкой
Мальчишник
Манго-манго
Мара
Маркин В.
Маршал Александр
Маша и медведи
Машина времени
Мечтать
Мистер Кредо
Митяев Олег
Многоточье
Монгол Шуудан
Моральный Кодекс
Мультfильмы
Мумий Тролль
Настя
Науменко Майк
Наутилус Помпилиус
Непара
Неприкасаемые
Несчастный случай
Никоваев И.
Никольский Константин
Ногу свело
Ноль
Носков Николай
Ночные Снайперы
Окуджава Булат
Оркрист
Осин Е.
Оскар
Отиева И.
Паперный Т.А.М.
Парк Горького (Gorky Park)
Пикник
Пилот
Пламя
Полковник и однополчане
Пугачева А.
ПЭХ
Приключения Электроников
Просто прикольные песни
Рада и Терновник
Римский-Корсаков
Розенбаум Александр
Рок-Острова
Рондо
Сансара
Саруханов
Сегодня Ночью
Секрет
Сектор газа
Сенчина Л.
СерьГа
Смысловые Галлюцинации
Сплин
Солодуха А.
Старые блатные песни
Сукачев Гарик
Сурганова и Оркестр
Сюткин Валерий
Тальков Игорь
Танцы минус
Тараканы
Тату
Технология
УмаТурман
Умка и Броневичок
Ундервудъ
Фабрика звезд
Х.З. (Хуй Забей)
Центр
ЧайФ
Черный кофе
Черный Лукич
Чиж и Ко
Чистяков Федор
Шанхай
Щербаков Михаил
Ю-Питер

Классика 22

Албениз Исаак
Албениз Матео
Бах Иоган Себостьян
Бетховен Людвиг ван
Бизе Жорж
Брамс Иоганнес
Вивальди Антонио
Гендель Георг Фридрих
Гершвин Джордж
Григ Эдвард
Дебюсси Клод
Камиль Сен-Санс
Мендельсон
Моцарт Вольфгант Амадей
Мусоргский Модест Пертрович
Норис Крис
Огинский Михал Клеофас
Паганини Никколо
Рахманинов Сергей Васильевич
Римский-Корсаков
Чайковский Пётр Ильич
Шуберт Франц
 

 

RadioHead

Black Star
Bullet Proof
Creep
Creep (2 вариант)
Exit Music
Fake Plastic Trees
I Will
I Will (2 вариант)
Karma Police
Kid A
Killer Cars
Lucky
No Surprises
No Surprises (2 вариант)
Paranoid Android
Street Spirit
Street Spirit (Fade Out)
Street Spirit (Fade Out) (2 вариант)
True Love Waits
You
You and Whose Army?
You Never Wash Up After Yourself
Вверх

Black Star mp3

Вступление- D  Dsus4  Em7    Cadd9   G/B   A7sus4
       D  Dsus4  Em7    Cadd9   G/B   A7sus4    можно повторить

G                Csus2/9              G/B                Dadd4/F#
I get home from work and you?re still standing in your dressing gown well
Emadd9
what am I to do?
G                Csus2/9               G/B  Dadd4/F#      Emadd9
I know all the things around your head,     and what they do to you
Cadd9                               Bm         D   D7/9     D6/9
What are we coming to?  What are we gonna do?     Blame it on the
Am         G/B  Cadd9                   Am         G/B  Cadd9
Black Star              Blame it on the falling sky
                G      Cadd9   G      Gsus4 G  D5
Blame it on the satellite        That beams me home

the troubled words of a troubled mind i try to understand
what is eating you.
i try to stay awake but its 58 hrs since that i last slept with you.
what are we coming to?
i just don?t know anymore.

i get on the train and i just stand about now that i don?t think of you.
i keep falling over i keep passing out
when i see a face like you.
what am i coming to?
i?m gonna melt down.
Вверх

Bullet Proof

Am7                Cmaj7
limb by limb and tooth by tooth
Gmaj7/B           Dsus2  Csus2 G/B
stirring up inside of me
Am7      Cmaj7      Gmaj7/B    Dsus2
everyday every hour wish that I
                |Am7|Cmaj7|Bmaddb6(or Gmaj7/B)|Dsus2  Csus2 G/B|
was bullet proof

Am7     Cmaj7
wax me, mould me,
Gmaj7/B             Dsus2
heat the pins and stab them in
Am7                  Cmaj7
you have turned me into this
Gmaj7/B          Dsus2
just wish that it
                G---
was bullet proof

Chords for this chorus part are as follows:
|G|Gmaj7/B|Cadd9|Cadd9|G|Gmaj7/B|Cadd9|Bb6|
                                         so
Am7                     Cmaj7
pay me money and take a shot
Gmaj7/B           Dsus2
lead-fill the hole in me
Am7                Cmaj7
i could burst a million bubbles, all
Gmaj7/B  Dsus2
surrogate
                G----
and bullet proof
Вверх

Creep

вступление:

 (первый круг)
  CC    x-совет: сначала посмотри первую версию(ниже)----------------|
  HH  4 --x-x-x-x-x-x-x-|x-x-x-x-x-x-x-X-|x-x-x-x-x-x-x-x-|x-x-x-x-x-x-x-X-|
  SD  4 ----o-------o---|----o-------o---|----o-------o---|----o-------o---|
  BD    o------oo-o-----|o------oo-o-----|o------oo-o-----|o------oo-o---o-|

 (втоорой круг)
  HH x-x-x-x-x-x-x-x-|x-x-x-x-x-x-x-x-|x-x-x-x-x-x-x-x-|x-x-x-x-x-x-x-X-|
  SD ----o-------o---|----o-------o---|----o-------o---|----o-------o---|
  BD o------oo-o-----|o------oo-o---o-|o------oo-o-----|o------oo-o-----|


Версия 1:

  *повтори вступление один раз
  *затем начни первый круг вступления
  *теперь играй это:

  HH x-x-x-x-x-x-x-x-|x-x-x-x-x-x-x-X-|X-X-X-X-X-X-X-X-|X-X-X-X-X-X-X-X-|
  SD ----o-------o---|----o-------o---|----o-------o---|----o-------o---|
  BD o------oo-o-----|o------oo-o---o-|o-------oo------|--oo----o-o-----|

Припев 1: x2

  CC x---------------|----------------|----------------|----------------|
  RC --x-x-x-x-x-x-x-|x-x-x-x-x-x-x-x-|x-x-x-x-x-x-x-x-|x-x-x-x-x-x-x-x-|
  SD ----o-------o---|----o-------o---|----o-------o---|----o-------o---|
  BD o------oo-o-----|o------oo-o---o-|o------oo-o-----|o------oo-o---o-|

 заканчивай этим

  RC xxxxxxxxxxxxxxxx|
  BD o---------------|

Версия 2:

  *только как версия 1*

Припев 2:

  "but i?m a creep..."
  CC x---------------|----------------|----------------|----------------|
  RC --x-x-x-x-x-x-x-|x-x-x-x-x-x-x-x-|x-x-x-x-x-x-x-x-|x-x-x-x-x-x-x-x-|
  SD ----o-------o---|----o-------o---|----o-------o---|----o-------o---|
  BD o------oo-o-----|o------oo-o---o-|o------oo-o-----|o------oo-o---o-|


  CC x---------------|----------------|x---------------|----------------|
  RC --x-x-x-x-x-x-x-|x-x-x-x-x-x-x-x-|--x-x-x-x-x-x-x-|x-x-x-x-x-x-x-x-|
  SD ----o-------o---|----o-------o---|----o-------o---|-o--o--o--o---o-|
  BD o------oo-o-----|o------oo-o---o-|o------oo-o---o-|o-o-----o---o---|

  "she?s running out..."
  CC x---------------|----------------|x---------------|------------x---|
  RC --x-x-x-x-x-x-x-|x-x-x-x-x-x-x-X-|--x-x-x-x-x-x-x-|x-x-x-x-x-x---x-|
  SD ----o-------o---|----o-------o---|----o-------o---|----o-------o---|
  BD o------oo-o-----|o------oo-o---o-|o------oo-o-----|o------oo-o---o-|


  CC x---------------|----------------|----------------|----------------|
  RC --x-x-x-x-x-x-x-|x-x-x-x-x-x-x-x-|X-X-X-X-X-X-X-X-|----------------|
  T  ----------------|----------------|----------------|-o-o--o---------|
  SD ----o-------o---|----o-------o---|--o-o-----o-o---|o---o---dddd----|
  F  ----------------|----------------|----------------|------------dddd|
  BD o------oo-o-----|o------oo-o---o-|o------oo-----o-|----o-------o---|

  "ruuuuuuuuuuunn!..."
  CC x-----------x---|------------x---|x-----------x---|------------x---|
  RC --X-X-X-X-X---X-|X-X-X-X-X-X---X-|--X-X-X-X-X---X-|X-X-X-X-X-X---X-|
  SD ----o-------o---|----o-------o---|----o-------o---|----o-------o---|
  BD o------oo-o-----|o------oo-o---o-|o------oo-o-----|o------oo-o---o-|

  "ruuuuuuuuuuunn!"
  CC x-----------x---|------------x---|x-----------x---|------------x---|
  RC --X-X-X-X-X---X-|X-X-X-X-X-X---X-|--X-X-X-X-X---X-|X-X-X-X-X-X---X-|
  SD ----o-------o---|----o-------o---|----o-------o---|----o-------o---|
  BD o------oo-o-----|o------oo-o---o-|o------oo-o-----|o------oo-o-----|


  CC x---------------|x---------------|
  RC --xxxxxxXXXXXxxx|----------------|
  BD o---------------|o---------------|

Версия 3:

  RC x-x-x-x-x-x-x-x-|x-x-x-x-x-x-x-x-|x-x-x-x-x-x-x-x-|x-x-x-x-x-x-x-x-|
  BD --------------o-|o---------------|o-------------o-|o---------------|

  RC x-x-x-x-x-x-x-x-|x-x-x-x-x-x-x-x-|x-x-x-x-x-x-x-x-|x-x-x-x-x-x-x-x-|
  BD o-------------o-|o---------------|o-------------o-|o---------------|

  "but i?m a creep..."
  CC x---------------|----------------|----------------|----------------|
  RC --x-x-x-x-x-x-x-|x-x-x-x-x-x-x-x-|x-x-x-x-x-x-x-x-|x-x-x-x-x-x-x-x-|
  ES ----o-------o---|----o-------o---|----o-------o---|----o-------o---|
  BD o------oo-o-----|o------oo-o---o-|o------oo-o-----|o------oo-o---o-|

  RC x-x-x-x-x-x-x-x-|x-x-x-x-x-x-x-x-|x-x-x-x-x-x-x-x-|x-x-x-x-x-x-x-x-|
  ES ----o-------o---|----o-------o---|----o-------o---|----o-------o---|
  BD o------oo-o-----|o------oo-o---o-|o------oo-o---o-|o------oo-o---o-|

  CC x---------------|x---------------||                               ||
  RC --xxxxxxxxxxxxxx|----------------||           КОНЕЦ            ||
  BD o---------------|o---------------||                               ||
Вверх

Creep (2 вариант)

   1   &   2   &   3   &   4   &   1   &   2   &   3   &   4   &
1 |-------------------------------|-------------------------------|
  |-------------------------------|-------------------------------|
  |-------------------------------|-------------------------------|
  |3-------3.----3-3---3-------3--|3-------3.----3-3---3-------3--|


   1   &   2   &   3   &   4   &   1   &   2   &   3   &   4   &
3 |-------------------------------|-------------------------------|
  |-------------------------------|-------------------------------|
  |2-------2.----2-2---2----------|2-------2.------2---2-------2--|
  |----------------------------2-2|-------------(2)---------------|

   1   &   2   &   3   &   4   &   1   &   2   &   3   &   4   &
5 |-------------------------------|-------------------------------|
  |-------------------------------|-------------------------------|
  |3-------3.------3---3----------|3-------3.----3-3---3----------|
  |--------------3-------------3--|----------------------------3--|

   1   &   2   &   3   &   4   &   1   &   2   &   3   &   4   &
7 |-------------------------------|-------------------------------|
  |-------------------------------|-------------------------------|
  |3-------3.----3-3---3-------2--|3-------5.----x-6--------------|
  |-------------------------------|----------------------------1--|
                                     When you were here before...

   1   &   2   &   3   &   4   &   1   &   2   &   3   &   4   &
9 |-------------------------------|-------------------------------|
  |-------------------------------|-------------------------------|
  |-------------------------------|-------------------------------|
  |3-------3.----3-3---3-------3--|3-------3.----3-3---3-------3--|


   1   &   2   &   3   &   4   &   1   &   2   &   3   &   4   &
11|-------------------------------|-------------------------------|
  |-------------------------------|-------------------------------|
  |2-------2.----2-2---2----------|2-------2.------2---2-------2-2|
  |----------------------------2-2|-------------(2)---------------|

   1   &   2   &   3   &   4   &   1   &   2   &   3   &   4   &
13|-------------------------------|-------------------------------|
  |-------------------------------|-------------------------------|
  |3-------3.------3---3----------|3..-------------3---3----------|
  |--------------3-------------3--|--------------3-------------3--|

   1   &   2   &   3   &   4   &   1   &   2   &   3   &   4   &
15|-------------------------------|-------------------------------|
  |-------------------------------|------------------------3------|
  |3-------3.------3---3----------|3-------5.---(5)6--------------|
  |-------------(3)------------3--|-------------------------------|


   1   &   2   &   3   &   4   &   1   &   2   &   3   &   4   &
17|-------------------------------|-------------------------------|
  |-------------------------------|-------------------------------|
  |-------------------------------|-------------------------------|
  |3-------3.----3-3---3-------3--|3-------3.----3-3---3-------3--|


   1   &   2   &   3   &   4   &   1   &   2   &   3   &   4   &
19|-------------------------------|-------------------------------|
  |-------------------------------|-------------------------------|
  |2-------2.----2-2---2----------|2-------2.------2---2----------|
  |----------------------------2-2|-------------(2)-----------(2)-|

   1   &   2   &   3   &   4   &   1   &   2   &   3   &   4   &
21|-------------------------------|-------------------------------|
  |-------------------------------|----------------------------0~1|
  |3-------3.------3---3----------|3-------3-------3---3----------|
  |--------------3-------------3--|--------------3----------------|

   1   &   2   &   3   &   4   &   1   &   2   &   3   &   4   &
23|-------------------------------|-------------------------------|
  |-------------------------------|--------------------3----------|
  |3-------3.------3---3-3-3------|3-------5-----x-6--------------|
  |--------------3-------------3--|-------------------------------|


Припев:

   1   &   2   &   3   &   4   &   1   &   2   &   3   &   4   &
25|--------7----------------------|7-----------7------------------|
  |5-------------5-5---5-------5--|----5---------------5---5-----|
  |-------------------------------|-------------------------------|
  |-------------------------------|-------------------------------|

   1   &   2   &   3   &   4   &   1   &   2   &   3   &   4   &
  |--------4----------------------|----4--------------------------|
  |-------------------------------|-------------------------------|
  |2------------(2)2---2----------|2-----------2---2---2-------2--|
  |----------------------------2--|-------------------------------|

   1   &   2   &   3   &   4   &   1   &   2   &   3   &   4   &
  |-------------------------------|-------------------------------|
  |-------------------------------|------------------------5------|
  |3-------3-------3---3----------|3-------3-------3---3----------|
  |--------------3-------------3--|------------3-3----------------|

   1   &   2   &   3   &   4   &   1   &   2   &   3   &   4   &
31|--------5----------------------|-------------------------------|
  |-------------------------------|-------------------------------|
  |3-----------3-3-3---3----------|3---3--------------------------|
  |----------------------------3--|-------------------------------|


2-я версия:

   1   &   2   &   3   &   4   &   1   &   2   &   3   &   4   &
33|-------------------------------|-------------------------------|
  |-------------------------------|-------------------------------|
  |-------------------------------|-------------------------------|
  |3-------3-----3-3---3-------3--|3-------3-----3-3---3-------3--|

   1   &   2   &   3   &   4   &   1   &   2   &   3   &   4   &
  |-------------------------------|-------------------------------|
  |-------------------------------|-------------------------------|
  |2-------2-----2-2---2-------2--|2-------------2-2---2---2---2--|
  |-------------------------------|-------------------------------|

   1   &   2   &   3   &   4   &   1   &   2   &   3   &   4   &
37|-------------------------------|-------------------------------|
  |-------------------------------|-------------------------------|
  |3-------3-------3---3----------|3-------------3-3---3-------2--|
  |--------------3-------------3--|-------------------------------|

   1   &   2   &   3   &   4   &   1   &   2   &   3   &   4   &
  |-------------------------------|-------------------------------|
  |-------------------------------|------------------------3------|
  |3-------------3-3---3----------|3-------5-----x-6--------------|
  |----------------------------3--|-------------------------------|

   1   &   2   &   3   &   4   &   1   &   2   &   3   &   4   &
41|-------------------------------|-------------------------------|
  |5-------5-----5-5---5----------|5-------5-----5-5---5-------5--|
  |----------------------------5--|-------------------------------|
  |-------------------------------|-------------------------------|


   1   &   2   &   3   &   4   &   1   &   2   &   3   &   4   &
  |-------------------------------|-------------------------------|
  |-------------------------------|-------------------------------|
  |2---2-2-2-----2-2---2----------|2-------2-------2---2----------|
  |----------------------------2--|--------------2------------(2)-|


   1   &   2   &   3   &   4   &   1   &   2   &   3   &   4   &
45|-------------------------------|-------------------------------|
  |-------------------------------|-------------------------------|
  |3-------3-------3---3----------|3-------------3-3---3-------2--|
  |--------------3-------------3--|-------------------------------|


   1   &   2   &   3   &   4   &   1   &   2   &   3   &   4   &
  |-------------------------------|-------------------------------|
  |-------------------------------|------------------------3------|
  |3-------3-------3---3----------|3-------5-----5-6--------------|
  |--------------3-------------3--|-------------------------------|

   1   &   2   &   3   &   4   &   1   &   2   &   3   &   4   &
  |-------------------------------|-------------------------------|
  |-------------------------------|-------------------------------|
  |-------------------------------|-------------------------------|
  |3-------3-----3-3---3-------3--|3-------3-----3-3---3-------3--|

   1   &   2   &   3   &   4   &   1   &   2   &   3   &   4   &
51|----------------4-4-4----------|--------4----------------------|
  |-------------------------------|-------------------------------|
  |2---2---2----------------------|2-------------2-2---2---2---2--|
  |----------------------------2--|-------------------------------|

   1   &   2   &   3   &   4   &   1   &   2   &   3   &   4   &
  |-------------------------------|-------------------------------|
  |-------------------------------|-------------------------------|
  |3-------3-------3---3----------|3-------3-----3-3---3----------|
  |--------------3-------------3--|----------------------------3-3|

   1   &   2   &   3   &   4   &   1   &   2   &   3   &   4   &
  |-------------------------------|-------------------------------|
  |-------------------------------|------------------------3------|
  |3---------------3---3----------|3-------5-----5-6-6---------5--|
  |--------------3-------------3--|-------------------------------|

   1   &   2   &   3   &   4   &   1   &   2   &   3   &   4   &
  |-------------------------------|-------------------------------|
  |-------------------------------|-------------------------------|
  |----------------------------5-5|-------------------------------|
  |3-------3-----3-3---3----------|3-------3-----3-3-x-3-------3--|

   1   &   2   &   3   &   4   &   1   &   2   &   3   &   4   &
  |-------------------------------|----11-------------------------|
  |--------9-------9-119-------9-9|9------------------------------|
  |--------------9----------------|-------------------------------|
  |7------------------------------|------------0-2-5-7-7-7-5-----|

   1   &   2   &   3   &   4   &   1   &   2   &   3   &   4   &
61|-------------------------------|-------------------------------|
  |-------------------------------|-------------------------------|
  |3-------3-------3---3----------|3---3---3-----3-3-5-3---3------|
  |--------------3-------------3--|----------------------------3--|

   1   &   2   &   3   &   4   &   1   &   2   &   3   &   4   &
63|-------------------------------|-------------------------------|
  |-------------------------------|-------------------------------|
  |3---3---3---3---3---3---3---3--|3-------5-----x-6-5------------|
  |-------------------------------|--------------------1----------|

   1   &   2   &   3   &   4   &   1   &   2   &   3   &   4   &
65|-------------------------------|-------------------------------|
  |--------5-5--------------------|----------------5-7-5---5-----|
  |-------------------------------|-------------------------------|
  |3-------------3-3---3-------3--|3---3-3-3-3-3------------------|

   1   &   2   &   3   &   4   &   1   &   2   &   3   &   4   &
  |-------------------------------|-------------------------------|
  |-------------------------------|-------------------------------|
  |2---2-2-2-----2-2-2-2-2-2---2--|2---2---2---2---2---2---2--/5--|
  |-------------------------------|-------------------------------|

   1   &   2   &   3   &   4   &   1   &   2   &   3   &   4   &
  |-------------------------------|-------------------------------|
  |-------------------------------|-------------------------------|
  |3-------3-------3---3---3---2--|3---3---3-----3-3---3---3---5--|
  |--------------3----------------|-------------------------------|

   1   &   2   &   3   &   4   &   1   &   2   &   3   &   4   &
  |-------------------------------|-------------------------------|
  |-------------------------------|-------------------------------|
  |3------------------------------|-------------------------------|
  |-------------------------------|-------------------------------|

   1   &   2   &   3   &   4   &   1   &   2   &   3   &   4   &
  |-------------------------------|-------------------------------|
  |-------------------------------|-------------------------------|
  |-------------------------------|-------------------------------|
  |3---------------------------3--|3------------------------------|

   1   &   2   &   3   &   4   &   1   &   2   &   3   &   4   &
75|-------------------------------|-------------------------------|
  |-------------------------------|-------------------------------|
  |2---------------------------2--|2------------------------------|
  |-------------------------------|-------------------------------|

   1   &   2   &   3   &   4   &   1   &   2   &   3   &   4   &
  |-------------------------------|-------------------------------|
  |-------------------------------|-------------------------------|
  |3---------------------------3--|3------------------------------|
  |-------------------------------|-------------------------------|

   1   &   2   &   3   &   4   &   1   &   2   &   3   &   4   &
  |-------------------------------|-------------------------------|
  |-------------------------------|-------------------------------|
  |3---------------------------3--|3------------------------------|
  |-------------------------------|-------------------------------|

   1   &   2   &   3   &   4   &   1   &   2   &   3   &   4   &
  |-------------------------------|-------------------------------|
  |-------------------------------|-------------------------------|
  |-------------------------------|-------------------------------|
  |3---------------------------3--|3------------------------------|

   1   &   2   &   3   &   4   &   1   &   2   &   3   &   4   &
  |-------------------------------|-------------------------------|
  |-------------------------------|-------------------------------|
  |2---------------------------2--|2------------------------------|
  |-------------------------------|-------------------------------|

   1   &   2   &   3   &   4   &   1   &   2   &   3   &   4   &
85|-------------------------------|-------------------------------|
  |-------------------------------|-------------------------------|
  |3---------------------------3--|3---------------------------3--|
  |-------------------------------|-------------------------------|

   1   &   2   &   3   &   4   &   1   &   2   &   3   &   4   &
  |-------------------------------|-------------------------------|
  |-------------------------------|-------------------------------|
  |3------------------------------|пропусти это место ---------|
  |-------------------------------|-------------------------------|

   1   &   2   &   3   &   4   &   1   &   2   &   3   &   4   &
  |-------------------------------|-------------------------------|
  |-------5/7------7/9------------|-------------------------------|
  |-------------------------------|-------------------------------|
  |3------------------------------|-------------------------------|
Вверх

Exit Music

Вступление:

Am      Asus2 Asus4     (X2)   потом   Am


Куплет 1
Am               E          C/G             Dadd9/F#
wake from your sleep,   the drying of your tears,
Am             E        Asus4   A
today we escape,   we escape
Am                E        C/G                  Dadd9/F#   Dadd9/F
pack and get dressed,     before your father hears us,
Am          E           Asus4   A
before all hell breaks loose


припев
Gm11                    D7/F#
breathe,        keep breathing
Asus2     Am Asus2    Asus4      Am          Esus4
don?t      lose         your    nerve
Gm11                     D7/F#
breathe,        keep breathing
Asus2          Am   Asus2    Asus4    Am      Esus4     E
I can?t do    this             alone


Куплет 2

Sing us a song, a song to keep us warm
there?s sucha chill, sucha chill

Am             B             E      F                     Bb
And you can laugh,    a spineless laugh,   we hope your rules and  E
Esus4
wisdom choke you
Am           E            C/G         Dadd9/F#   Dadd9/F
And now we are one, in everlasting peace,
Am                E                Asus4   A
We hope that you choke, that you choke    (повтори три раза и переходи на А)

Эд О Брайан начинает играть на электро:

e-----19----21------------18---19---15---------15---------------------
B-19------------21----17-------------------15------15---17---20-------
G---------------------------------------------------------------------

e-20--19--18----------16---18------19--21----19-18-------17--19--17-15
B---------------19----------------------------------19----------------
G---------------------------------------------------------------------

e--14-----------12----11----10----9-------------------
B-------14-------------------------------11----12------
G------------------------------------------------------

Использующиеся аккорды

Am (x02210)
Asus2 (x02200)
Asus4 (x02230)
E (022100)
C/G (332010)
Dadd9/F# (2x0230)
Dadd9/F (1x0230)
Gm11 (3x0313)
D7/F# (2x0212)
Esus4 (022200)
B (x2444x)
F (133211)
Bb (x1333x)
A (x02220)
Вверх

Fake Plastic Trees mp3

A                         F#m
Her green plastic wateringcan
                          D
For her fake chinesrubber plant
       A            D
In the fake plastic earth.
That she bought from a rubber man
In a town full of rubber plans
To get rid of itself.
             Hm
It wears her out
             A
Wears her out…

She lives with a broken man
A cracked polystyremen
Who just crumbles and burns.
He used to do surgery
For girls in the eighties but
Gravity always wins.
And it wears him out…

She looks like the real thing
She tastes like the real thing,
My fake plastic love.
But I can’t help the feeling
I could blow through the ceiling
If I just turn and run.
And it wears me out…

If I could be who you wanted…
All the time.
Вверх

I Will mp3

Fig A

Repeat x 7

e|----------------------------------------------------5-|
B|------------------6---6---6---6-----6-----------5---5-|
G|----6-------6-----7---7---7---7-----7-----7-6--(6)----|
D|----7-------7-----7---7---7---7-----7-----7-7---------|
A|----7---------7-5---5---5-----------------------------|
E|--5---(5)-5-----------------6---6-6---6-5-----5---5---|

Fig B (Kind of a transistion into the next part)

e|----------------|
B|----------------|
G|----6-----6---6-|
D|----7-----7---7-|
A|----------------|
E|--5---5-5---5---|

Fig C (Key Change)

e|---------------------------------------|
B|----------3----------------------------|
G|----7-----3------6-----2-----4-----6---|
D|----8------------7-7---3-----5-5---7---|
A|---------------------------------------|
E|--6---6-3----3-5---5-1---1-3---3-5---5-|

e|---------------------------------------|
B|----------3------5---------------------|
G|----7-----3--------6---2-----4-----6---|
D|----8------------------3-----5-5---7---|
A|---------------------------------------|
E|--6---6-3----3-5---5-1---1-3---3-5---5-|

e|------------------------------------------------------------|
B|----------3--------------------3-----------3---5-----5----6-|
G|----7-----3------6-----2-----4-----2-----4-----6-----6----7-|
D|----8------------7-7---3-----5-----3-3---5-----7-----7----7-|
A|----------------------------------------------------------5-|
E|--6---6-3----3-5---5-1---1-3---3-1---1-3---3-5---5-5---5----|
Вверх

I Will (2 вариант) mp3

Dm    B
i will
        A
lay me down
      Dm   B
in a bunker
       A
underground
        Dm               B          A
i won’t let this happen to my children
          Dm               B             A
meet the real world coming out of your shell
           Dm       B
with white elephants
         A
sitting ducks
   Dm  B
i will
     A
rise up
 B      Gm     A    F    G    A
little babies eyes eyes eyes eyes
 B      Gm     A    F    G    A
little babies eyes eyes eyes eyes
 B      Gm     A   G H  G E A
little babies eyes eyes eyes
Вверх

Karma Police

Chords Used:

	E A D G B E

Am	x 0 2 2 1 0
Am/F#	2 x 0 2 1 0
Em	0 2 2 0 0 x
Em/F#	2 x 0 0 x x
E7	0 2 0 1 0 x
F*	x 3 3 2 1 x
F#*	x 4 4 3 2 x
G	3 2 0 0 0 3
G*	x 5 5 4 3 x
G**	0 2 0 0 0 3
G/F#	2 x 0 0 0 3
C	x 3 2 0 1 0
C/B	x 3 0 0 1 x
D	x x 0 2 3 2
D*	x 5 4 0 3 x
Bm	2 2 4 4 3 2


Intro:

Am Am/F# Em Em/F# G
Am F* Em Em/F# G
Am D G G/F# C C/B
Am Bm D

Am  Am/F#     Em Em/F# G      Am
   Karma  police, arrest this man
    F*       Em
he talks in maths
Em/F#  G            Am
  he buzzes like a fridge
      D      G      C C/B Am   Bm   D
he?s like a detuned ra__dio

Karma police, arrest this girl
her hitler hairdo
is making me feel ill
and we have crashed her pa_rty

 C       D*         G*     F#*
This is what you?ll get
 C       D*         G*     F#*
this is what you?ll get
 C       D*         G*            Bm        C  Bm D
this is what you?ll get, when you mess with us

Karma police, I?ve given all I can
it?s not enough
I?ve given all I can
but we?re still on the payro__ll

This is what you?ll get
this is what you?ll get
this is what you?ll get, when you mess with us

Bm           D       G   G** D     G    G** D     E7
  And for a minute there, I lost myself, I lost myself
and for a minute there, I lost myself, I lost myself
and for a minute there, I lost myself, I lost myself
just for a minute there, I lost myself, I lost myse__lf
Вверх

Kid A

Музыкальный ряд:
----------------

E--------------10--8---8------13----12--12--12----------10---
B------------------11--11--10-----------11--------13----10---
G------12--10--10-----------------------12--------12---------
D------12--------------10------------------------------------
A--13------12--------------------10-----10-----------10------
E------------------10------13------------------13------------
                                            ^^^
Здесь также можно взять более высокую ноту на 18-ом ладу (нижняя E струна)
совмещая с этой нотой на 12-ом ладу. Но если ты будешь играть
партию на одной гитаре, то это получится слишком длинный участок,
но можно разделить эту часть на две гитары, тогда можно сыграть
этот кусок на высокой ноте

так:

E----12--18----------10---
B----11--17----13----10---
G----12--------12---------
D-------------------------
A----10-----------10------
E-----------13------------


часть A:
--------

E-----------------------------------------------
B-----------------------------------------------
G-----------------------------------------------
D---3-3---5-5---8--8-----7-7-------7-7---5-5----
A-----------------------------------------------
E---5-5---6-6---10-10----8-8-------8-8---6-6----

часть Б:
--------

E---3-3---3-3--3-3--3-3-------3-3---3-3-----3-3----5-5-----
B----------------------------------------------------------
G----------------------------------------------------------
D---5-5---3-3-----------------5-5---3-3--------------------
A-----------------------------7-7---------5-5----------3-3-
E---6-6---5-5---------1-1-----6-6---5-5--------1-1---------

(нижние струны играть необязательно - или можно сыграть на второй гитаре)


Бас-партия:
---------------

G-------------------------------
D-------------------------------
A--1-3-3-3-3-3---1-3-3-3-3-3-3--
E-------------------------------



Структура песни:
----------------

Музыкальный ряд x 2
Часть A x 4          (Музыкальный ряд продолжается)
Часть A x 2          (+ Музыкальный ряд + вокал)
Часть B x 2          (без вокала)
Музыкальный ряд x 2  (+ вокал + ударные)
Часть A x 2          (+ Музыкальный ряд + вокал + ударные)
Часть B x 4          (+ вокал + прерывающиеся ударные)
Бас-партия x 2       (+ ударные)
синтезатор           (+ ударные)
Музыкальный ряд x 4  (вступает третий аккорд синтезатотра)
Музыкальный ряд x 2  (+ вокал + вступает 4-ый аккорд синтезатора)
Бас-партия x 4       (+ Музыкальный ряд + ударные + синтезатор)


Когда синтезатор начинает в первый раз,
первые два аккорда играются так:

E  A  D  G  B  E       E  A  D  G  B  E
x  8  8  12 10 8       x  8  8  10 8  8

   Fadd2add4              Fsus2add4

первый и второй аккорды повторяются.
3-ий аккорд звучит так:
E  A  D  G  B  E
x  x  x  17 x 17

и 4-ый аккорд синтезатора:

EADGBE
x331xx

Fsus4
Вверх

Killer Cars

Используемые аккорды:
G5: 3-5-5-5-x-x
F#5: 2-4-4-4-x-x
C5: x-3-5-5-5-x
D5: x-5-7-7-7-x
Aadd4: x-0-2-2-3-0
Bm: x-x-4-4-3-2

G5
Too hard on the brakes again,
F#5
What if these brakes just give in?
C5
What if they don?t get out of the way?
D5
What if there?s someone overtaking?
I?m goin? out for a little drive,
And it could be the last time you see me alive,
There could be an idiot on the road,
The only kick in life is pumping his steel.

Aadd4             Bm
Wrap me up in the back of the trunk,
C5
Packed with foam and blind drunk,
A+                  Bm
They won?t ever take me alive,
C5                        G5
?Cause they all drive.

Don?t die on the motorway,
The moon would freeze, the plants would die,
I couldn?t cope if you crashed today,
All the things I forgot to say.
I?m goin? out for a little drive,
And it could be the last time you see me alive,
What if the car loses control?
What if there?s someone overtaking?

Wrap me up in the back of the trunk,
Packed with foam and blind drunk,
They won?t ever take me alive,
?Cause they all drive killer cars.

Wrap me up in the back of the truck,
Packed with foam and blind drunk,
They won?t ever take me alive,
?Cause they all drive killer cars.
?Cause they all drive killer cars.
?Cause they all drive killer cars.
Вверх

Lucky

VERSE 1:

Em          Am
  I?m on a roll,
 G          Bm        Em
  I?m on a roll this time.
 C   G       Bm          Em
  I feel my luck could change.

  Kill me, Sarah,
  Kill me again with love.
  This gonna be a glorious day.

CHORUS:

           A             Em
  Pull me out of the aircrash,
           A          Em
  Pull me out of the lake,
                A        Em
  If I?m your superhero,
            C             B7
  We are standing on the edge.

VERSE 2:

  The head of state
  Was called for me by name,
  But I?ve no time for him.

  This gonna be
  A glorious day,
  I feel my luck could change.

CHORUS.
Вверх

No Surprises

  Dm
A heart that?s full up like a landfill
                  A#
A job that slowly kills you
C
Bruises that won?t heal

You look so tired and happy
Bring down the government
They don?t
They don?t speak for us

I?ll take a quiet life
A handshake
Some carbon monoxide
A#            C
No alarms and no surprises
No alarms and no surprises
No alarms and no surprises

Silent
Silent
This is my final fit
My final bellyache with
No alarms and no surprises
No alarms and no surprises
No alarms and no surprises please

Such a pretty house and such a pretty garden
No alarms and no surprises
No alarms and no surprises
No alarms and no surprises please
Вверх

No Surprises (2 вариант)

Во вступлении соло О`Брайена см. F(4 раза) Hm (1 раз)
В куплете см. F(4 раза) Dm(4 раза) Gm(2 раза) С(1 раз) F(4 раза) Hm(1 раз)

Вступление: F Dm Gm C

Соло F
|--5-------------
|--------6-------
|----5------5----
|----------------
|----------------
|----------------

Соло Dm
|--5-----------------
|-----------6--------
|------7---------7---
|--------------------
|--------------------
|--------------------

Соло Gm
|-6-------------------
|--------6------------
|----7------7---------
|---------------------
|---------------------
|---------------------

Соло Bm
|-----------------
|------6---8--------
|---6-------------
|-8-----------------
|------------------
|------------------

Соло C
|------------------------
|--6-5----------------6--
|---------------5--------
|-------5--5h7-----------
|------------------------
|------------------------


  F                            Dm
A heart that?s full up like a landfill
                   Gm
A job that slowly kills you
  C                 F
Bruises that won?t heal
You look so tired and happy
Bring down the government
They don?t
They don?t speak for us
I?ll take a quiet life
A handshake
Some carbon monoxide

 Gm               C
No alarms and no surprises
No alarms and no surprises
No alarms and no surprises

F      Bm    F  Bm
Silent...    Silent...

 F
This is my final fit
   Dm
My final bellyache with
 Gm               C
No alarms and no surprises
No alarms and no surprises
                           F
No alarms and no surprises please

Проигрыш: С Bm C Bm Gm Bm Gm Bm

 F                      Dm
Such a pretty house and such a pretty garden
 Gm               C
No alarms and no surprises
No alarms and no surprises
                           F
No alarms and no surprises please
Вверх

Paranoid Android

Cm      Cm/H   F   Gm     Gm/A  Gm/E    Gm Gm/A     Gm/E
Please could you stop that noise I’m trying to get some rest
Cm      Cm/H   F   Gm     Gm/A  Gm/E    Gm Gm/A     Gm/E
From all the unborn chicken voices in my head
Gm      F      E
What’s that?
Gm      F      E
What’s that?

Cm          Cm/H   F   Gm     Gm/A  Gm/E    Gm Gm/A     Gm/E
When I’m king, you will be first against the wall
Cm          Cm/H   F   Gm     Gm/A  Gm/E    Gm
With your opinion which is of no consequence at all
Gm      F      E
What’s that?
Gm      F      E
What’s that?

Am  G#  - 4x
C    G# - 4x

    Am                        G#                      Am  G#
Ambition makes you look pretty ugly
Am                        G#                      Am  G#
Kicking squealing Gucci little piggy
C      G#   - 4x
Am                        G#                      Am  G#
You don’t remember, you don’t remember why don’t you remember my name
Am                        G#
Off with his head man, off with his head man
Am                        G#              C G# C G# C G# C G#
Why don’t you remember my name I guess he does

Am G#   - 4x
C G#      - 4x
Cm  G H A Dm A Dm С H  H/A  Gm  F E   A
Cm  G H A Dm A Dm С
Rain down, rain down come on rain down on me
H  H/A  Gm  F E   A
From a great height, from a great height           ----2x

Cm  G H A
That’s it sir, you’re leaving’ The crackle of pig skin
Dm A Dm С
The dust and the screaming the yuppies networking
H  H/A  Gm  F
The panic, the vomit, the panic, the vomit
E                        E          A
God loves his children, God loves his children. Yeah!!!
Am G#   - 4x| 2x
C G#      - 4x
Вверх

Street Spirit

    Am              Asus4           Am              Asus2
 E-|---------0---------------0---------------0-----------------------|
 B-|-----------------3---------------1---------------0---------------|
 G-|-----2-------2-------2-------2-------2-------2-------2-------2---|
 D-|---------------------------------------------------------2-------|
 A-|-0---------------------------------------------------------------|
 E-|-----------------------------------------------------------------|


 FIG E:-

     Em              Em7             Em6             Em
 E-|---------0---------------0---------------0-----------------------|
 B-|-----------------3---------------1---------------0---------------|
 G-|-----0-------0-------0-------0-------0-------0-------0-------0---|
 D-|---------------------------------------------------------2-------|
 A-|-----------------------------------------------------------------|
 E-|-0---------------------------------------------------------------|


 FIG C:-

     C               Cadd9           C               Cmaj7
 E-|---------0---------------0---------------0-----------------------|
 B-|-----------------3---------------1---------------0---------------|
 G-|-----0-------0-------0-------0-------0-------0-------0-------0---|
 D-|---------------------------------------------------------2-------|
 A-|-3---------------------------------------------------------------|
 E-|-----------------------------------------------------------------|


 Intro: A
 Verses: A E
 Chorus: C E A


 Rows of houses all bearing down on me
 I can feel their blue hands touching me
 All these things in all positions
 All these things we`ll one day swallow whole
 And fade out again
 And fade out

 This machine will
 Will not communicate
 These thoughts
 And the strain i am under
 Be a world child form a circle before we all
 Go under
 And fade out again
 And fade out again

 Cracked eggs, dead birds
 Scream as they fight for life
 I can feel death, can see it`s beady eyes
 All these things into frution
 All these things we`ll one day swallow whole
 And fade out again
 And fade out again

 Immerse your soul in love
 Immerse your soul in love
Вверх

Street Spirit (Fade Out)

(intro)Am

Am
rows of houses all bearing down on me
Am
i can feel their blue hands touching me
Em
all these things in all positions
Em                                  Am
all these things will one day take control
     C   E     Am       C   E
and fade out again and fade out

this machine will   will not communicate these thoughts
and the strain i am under
be a world child form a circle before we all go under
and fade out again and fade out again

cracked eggs dead birds
scream as they fight for life
i can feel death can see it?s beady eyes
all these things into frution
all these things we?ll one day swallow whole
and fade out again and fade out again.
Вверх

Street Spirit (Fade Out) (2 вариант)

Куплет: Am C/H После этого Am (2 раза)
C C/H Am (Am - 2 раза)

Играется струна бас, затем полностью проигрывается

Основа

|---------0---------------0---------------0---------------0--------
|-----------------3---------------1---------------0----------------
|-----2-------2-------2-------2-------2-------2-------2-------2---2

Первые две строчки каждого куплета дергается бас Am(5-0)
Вторые две - C/H(5-2)
В припеве, по очереди - С(5-3), С/H(5-2), Am(5-0)

Вступление: бас Am + основа (4 раза)

Rows of houses all bearing down on me
I can feel their blue hands touching me
All these things is all positions
All these things will one day swallow whole
.....And fade out again fade out again

This machine will will not communicate
These thougts and the strain i am under
Be a world child form a circle
Before we all go under
.....And fade out again fade out again

Na-na-na na-na-na na-na-na na-na-na
Na-na-na na-na-na

Cracked eggs dead birds
Scream as they fight for life
I can feel death can see it`s beady eyes
All these things is all positions
All these things will one day swallow whole
.....And fade out again fade out again

Na-na-na na-na-na na-na-na na-na-na
Na-na-na na-na-na na-na-na na-na-na




Концовка

|---------0---------------0---------------0---------------0--------
|-----------------3---------------1----------------0---------------
|-----1-------1-------1-------1-------1-------1--------1------1---2
Вверх

True Love Waits mp3

C* - тот же С, только без второй струны на первом ладу

Intro: C C* Am G#

 C              C* Am
I?ll drown my beliefs
                  G#
To have you be in peace
I?ll dress like you
To wash your swollen feet


 C Em        Am Em
Just don?t leave
        Am   G
Don?t leave

I?m not living
I?m just killing time
Your tiny hands
Your crazy kiss and smile

Just don?t leave
Don?t leave

And true love waits
It haunted all our days
And true love leaves
On lollipops and hate

Just don?t leave
Don?t leave
Вверх

You

Intro: (with chorus effect)
e|------0-------0------0-------0------0------0------0------0-|
B|----0------15------0------15------0------0------0------0---|
G|-13-----13------13-----13------16-----16-----14-----14-----|   repeat this
D|-----------------------------------------------------------|     once
A|-----------------------------------------------------------|
E|-----------------------------------------------------------|
       E   Em  C   G   E        C   G
e|---------0-0--------------------------|
B|---------0-0-------------11b/---------|
G|-x-x-1-1-0-0-5-5-----1-1------5-5-----|
D|-x-x-2-2-2-2-5-5-5-5-2-2------5-5-5-5-|
A|-x-x-2-2-2-2-3-3-5-5-2-2------3-3-5-5-|
E|-x-x-0-0-0-0-----3-3-0-0----------3-3-|
{Note: if the bit above doesn?t sound right, it?s because theres a bass line
in the
background. I?m no bassist, but i think it goes something like this}
G|-----------------------|
D|-----------------------|
A|---------3-3-2-0-------|
E|-0-0-0-0---------3-2-0-|
First verse:
(E chord, let ring while bassline plays in background)
You are, the sun the moon and stars are you
And I, could never run away from
Pre-Solo:
   C#        C                                 C#        C
e|-----------------------------------------------------------------|
B|-----------------------------------------------------------------|
G|-6-6-6-6-6-5-5-5-5-5-7-9-9-7-9-9-7-9-9-7-9-9-6-6-6-6-6-5-5-5-5-5-|
D|-6-6-6-6-6-5-5-5-5-5-0-----------0-----------6-6-6-6-6-5-5-5-5-5-|
A|-4-4-4-4-4-3-3-3-3-3-------------------------4-4-4-4-4-3-3-3-3-3-|
E|-----------------------------------------------------------------|

   you...
  Solo:
e|--------------------------------------------------------------------------|
B|--------------------------------------------------------------------------|
G|-7-9-9-9-11-11-11-12-12-12-14-14-14-16-16-16-17-17-17-16-16-16------------|
D|---------------------------------------------------------------9-12-9-13b-|
A|--------------------------------------------------------------------------|
E|--------------------------------------------------------------------------|

  {repeat this once, on the second go, hold the last note and let it go into a
feedback frenzy}
E   Em(let ring)                  E
You try, but when can I can I eat this
    Em(let ring)
And why, should I believe myself, not
e|-4~3~0-------------------2-0-|
B|-------------3---------------|
G|-----------0---0-------0-----|   repeat this once too
D|---------0-------0---0-------|
A|-------3---------------------|
E|-------------------3---------|
   you.....

It?s like, the world is gonna end so soon
And why, should believe myself
{after that, play the pre-solo, and there?s a bit like the intro chords,
then there?s the
solo again.}
You, me and everything
Caught in the fire              (play the main riff during this section)
I, can see me drowning
Caught in the fire
E    Em     C    G
You, me and everything
E       Em     C G
Caught, in the fire
E  Em         C   G
I, can see me drowning
E       Em     C G
Caught, in the fire
Вверх

You and Whose Army? mp3

1. -играем в первый раз
2. -во второй
3. -соотвественно в третий

Куплет:
                                     x2
E---6---4---4---2---2-------0---4------ | -----0------------- |
B---7---4---5---2---3---0---2-2-5------ | -0---2---5-------5- |
G---8-8-5-5-6-6-3---4-4-1---2-2-6-6---- | -1-1-2-2---6-----6- |
D---8-8-6-6-6-6-4-4-4-4-2-2-2-2-6-6---- | -2-2-2-2-----6---6- |
A---6---6-6-4---4---2---2-2-0---4-4---- | -2-2-0---------4-4- |
E-------4-------2-------0-------------- | -0---------------4- |

                                     x2
E---6---4---4---2---2-------0---4------ | -----0-----0---4--- |
B---7---4---5---2---3---0---2-2-5------ | -0---2-----2---5-5- |
G---8-8-5-5-6-6-3---4-4-1---2-2-6-6---- | -1-1-2-2---2-2-6-6- |
D---8-8-6-6-6-6-4-4-4-4-2-2-2-2-6-6---- | -2-2-2-2---2-2-6-6- |
A---6---6-6-4---4---2---2-2-0---4-4---- | -2-2-0---0-----4--- |
E-------4-------2-------0-------------- | -0----------------- |

Играть 3 раза          _______________1. 2.____   ____________3.______
                       |                      |   |                  |
E---6---4---6------- | ------------------4---4- | ---4--------------- |
B---7---4---7---4--- | ---5-------5------5---5- | ---5-----5-------5- |
G---8-8-5-5-8-8-5-5- | ---6-----6---6----6---6- | -6-6---6---6-6-6-6- |
D---8-8-6-6-8-8-6-6- | ---6---6--------6------- | -6---6-------6-6--- |
A-------6-6-----6-6- | -4-4-2-4------4-----4--- | -4-----------4----- |
E-------4-------4--- | ------------------------ | -------------4----- |

Проигрыш:
C#  E  A G#
C#  B  A G#

D#m     G#m C#m  F#m
   Come on, come on
Hm      E       A           C#m
   You think you drive me crazy
D#m     G#m C#m  F#m
   Come on, come on
Hm      E       A     C#m
   You and whose army?
E       A             C#m
   You and your cronies

Come on, come on
Holy Roman empire
Come on if you think
Come on if you think
You can take us on
You can take us on

You and whose army?
You and your cronies

You forget so easily
You ought to know
You ought to know
I?m so sad
I?m so sad
You ought to know
You ought to know
I?m so sad
I?m so sad
I?m so sad
Вверх

You Never Wash Up After Yourself

-------1-----------1-----------1-----------1-----
-----3---3-------3---3-------3---3-------3---3---
---2-------2---2-------2---0-------0---0-------0-
-0-----------------------------------------------
-------------3-----------2-----------------------
-------------------------------------3-----------

-------0-----------0-----------0-----------0-----
-----1---1-------1---1-------1---1-------1---1---
---0-------0---0-------0---2-------2---2-------0-
-------------------------------------------------
-3-----------2-----------0-----------0-----------
-------------------------------------------------

-------0-----------3-----------0-----------0-----
-----1---1-------3---3-------0---0-------1---1---
---2-------2---0-------0---1-------1---2-------2-
-------------------------------------------------
------------------(2)----------------0-----------
-1-----------3-----------4-----------------------

-------3-----------3-----------3-----------3-------
-----1---1-------3---3-------1---1-------1---1-----
---0-------0---0-------0---0-------0---0-------0---
---------------------------------------------------
-3----------------(2)----3-----------3-----------3-
-------------3-------------------------------------

I must get out once in a while
Everything is starting to die
The dust settles, the worms dig
Spiders crawl over the bed

I must get out once in a while
I eat all day and now I?m fat
Yesterday?s meal is hugging the plates
You never wash up after yourself
Вверх
English songs 109

ABBA
AC-DC
Adams Bryan
Adriano Celentano
Aerosmith
A-Ha
Animals
Antonio Banderos
Apocalyptica
Armstrong Louis
Billy's Band
Bjork
Blink 182
Blondie
Blur
Bob Dylan
Boney M
Bon Jovi
Bowie David
Brainstorm
Braxton Toni
Butch
Celine Dion
Chris De Burgh
Chris Isaak
Chuck Berry
Clapton Eric
Cohen Leonard
Cranberries
Deep Purple
Depeche Mode
Dire Straits
Donovan Jason
Eagles
Electric Light Orchestra
Elton John
Elvis Presley
Era
Europe
Evanescence
Garbage
Gary Moore
Glen Wiston
Gorillaz
Green Day
Guano Apes
Guns N Roses
Hendrix Jimi
Iggy Pop
Iron Maiden
Joe Dassin
Kansas
King Crimson
Kiss
Led Zeppelin
Leonard Cohen
Limp Bizkit
Linkin Park
Louis Amstrong
Madonna
Marilyn Manson
Marley Bob
Metallica
Moby
Morricone Ennio
Muse
Nazareth
Nelly Furtado
Nick Cave
Nirvana
No Doubt
Oasis
Offspring
Ottawan
Outkast
Ozzy Osbourne
Pain
Para Bellum
Pink Floyd
Placebo
P.O.D.
Queen
RadioHead
Rainbow
Rammstein
Rea Chris
Red Hot Chili Peppers
Ritchie Blackmore
Rolling Stones
Roxette
Rufus Wainwright
Santana
Sarah Brightman
Scorpions
Sex Pistols
Simon & Garfunkel
Shocking Blue
Soul Asylumx
Status Quo
Sting
System of a down
Sum 41
The Beatles
The Doors
Tito & Tarantula
U2
UB 40
Uriah Heep
Van Halen

Українські пісні 109

Boom Box
Escape
Flit
Kapela Drewutnia
Lama
LЮK
Mad Heads (XL)
Motor' rolla
NEON
Ot Vinta
The Вйо
Абздольц
Аероплан
Акорд
Ані Лорак
Бандурна розмова
Білик Ірина
Борщ
Брати Гадюкіни
Вася Club
Вій
Воплі Відоплясова
Гайдамаки
Гончар Олесь
Гринжоли
Гроно
Гуляйгород
Дарка і Славко
Дивні
Друга Ріка
Другий подих
Дударик
Експампей
Євтушенко Андрій
Жарівка (Дяк Олесь)
Журбовіз
Зібров Павло
Зінкевич Василь
Злотник Олександр
Івасюк Володимир
Калєкція
Карна
Карпа Ірена
Клямка
Козловський Віталій
Кому вниз
Крихітка Цахес
Курінь
Лесик-Band
Лорд Юрія
Львівські музики
Мандри
Менестрелі
Мері
Мертвий Півень
Міпеніум
Монте Крісто
Морозов Віктор
Нахтіґаль
Не журись!
Неборак Віктор
НеДІля
НЕМО
Нічлава блюз
Океан Ельзи
ПереBANDя
Перкалаба
Петрович
Піккардійська Терція
Піпа Олександр
Плач Єремїі
Пономарьов Олександр
Пророк
Росава
Ротару Софія
Руслана
Рутенія
С.К.А.Й.
САД
Самі свої
Серцевий Напад
Скрябін
Смерічка
Сокира Перука
Соколи
Таліта Кум
Тартак
Тінь сонця
Ткач Михайло
ТНМК
Тостер
Тріо Мареничів
Фарбований лис
Фестиваль Снів
Хвилю тримай
Цісик Квітка
Черемош
Черемшина
Четвертий кут
Чорний вересень
Чорні черешні
Шевченко Тарас
Щастя
Юркеш
Юрченко Юрко
Юрчишин Ярослав
Явір
Яка існуЄ
Яремчук Назарій

   
 sait@i.ua



Рейтинг@Mail.ru