accordS-land.ru Аккорды и табулатуры к гитаре.
Главная | Песенник | Аккорды | Учебник
Руссике песни 180
5nizza
7Б
9-й Район
Animal ДжаZ
Billy's Band
Butch
Para Bellum
TequilaJazzz
Worms
Zdob Si Zdub
Автоматические удовлетворители
Агата Кристи
Агузарова Жанна
Агутин Леонид
Адо
Аквариум
Алиса
Алсу
Амирамов Е.
Антонов Ю.
Арефьева Ольга
Ария
АукцЫон
Барыкин
Башаков Михаил
Башлачев Александр
БекХан
Бернес М.
Би - 2
Бони неМ
Борзов Найк
Боярский Михаил
Браво
Братья Грим
Ва-Банкъ
Вертинский Александр
Визбор Юрий
Високосный год
Воскресенье
Восьмая Марта
Высоцкий В.С.
Високосный год
Газманов О.
Галич Александр
Герман А.
Городницкий Александр
Глызин А.
Градский Александр
Гражданская Оборона
Гребещенков
Данко
ДДТ
Дидюля
Диоды
Дискотека Авария
Дягилева Янка
Ёлка
Жуки
Заблудовский Андрей
Запрещенные Барабанщики
Звери
Земляне
Земфира
Зинчук Виктор
Зоопарк
Иван Кайф
Иванов А.
Иваси
ИЗ КИНО И МУЛЬТФИЛЬМОВ
Империя
Калинов мост
Кашин Павел
Кельми К.
КИНО
Кипелов
Конец Фильма
Контингент
Корни
Король и Шут
Коррозия металла
Крематорий
Крупнов Анатолий
Кузьмин Владимир
Куликов Е.
Кукрыниксы
Курехин Сергей
Лаэртский Александр
Ласковый май
Ленинград
Леонидов Максим
Лесоповал
Лещенко Л.
Линда
Лицей
Лоза Юрий
Любэ
Люмен
Ляпис Трубецкой
Мальчишник
Манго-манго
Мара
Маркин В.
Маршал Александр
Маша и медведи
Машина времени
Мечтать
Мистер Кредо
Митяев Олег
Многоточье
Монгол Шуудан
Моральный Кодекс
Мультfильмы
Мумий Тролль
Настя
Науменко Майк
Наутилус Помпилиус
Непара
Неприкасаемые
Несчастный случай
Никоваев И.
Никольский Константин
Ногу свело
Ноль
Носков Николай
Ночные Снайперы
Окуджава Булат
Оркрист
Осин Е.
Оскар
Отиева И.
Паперный Т.А.М.
Парк Горького (Gorky Park)
Пикник
Пилот
Пламя
Полковник и однополчане
Пугачева А.
ПЭХ
Приключения Электроников
Просто прикольные песни
Рада и Терновник
Римский-Корсаков
Розенбаум Александр
Рок-Острова
Рондо
Сансара
Саруханов
Сегодня Ночью
Секрет
Сектор газа
Сенчина Л.
СерьГа
Смысловые Галлюцинации
Сплин
Солодуха А.
Старые блатные песни
Сукачев Гарик
Сурганова и Оркестр
Сюткин Валерий
Тальков Игорь
Танцы минус
Тараканы
Тату
Технология
УмаТурман
Умка и Броневичок
Ундервудъ
Фабрика звезд
Х.З. (Хуй Забей)
Центр
ЧайФ
Черный кофе
Черный Лукич
Чиж и Ко
Чистяков Федор
Шанхай
Щербаков Михаил
Ю-Питер

Классика 22

Албениз Исаак
Албениз Матео
Бах Иоган Себостьян
Бетховен Людвиг ван
Бизе Жорж
Брамс Иоганнес
Вивальди Антонио
Гендель Георг Фридрих
Гершвин Джордж
Григ Эдвард
Дебюсси Клод
Камиль Сен-Санс
Мендельсон
Моцарт Вольфгант Амадей
Мусоргский Модест Пертрович
Норис Крис
Огинский Михал Клеофас
Паганини Никколо
Рахманинов Сергей Васильевич
Римский-Корсаков
Чайковский Пётр Ильич
Шуберт Франц
 

 

Rammstein

Adios
Adios (2 вариант)
Asche Zu Asche
Bestrafe Mich
Das Alte Leid
Das Modell
Das Modell (3 вариант)
Der Meister
Der Meister (2 вариант)
Du Hast
Du Hast (2 вариант)
Du Hast (3 вариант)
Du Hast (4 вариант)
Du Riechst So Gut
Engel
Feurer Frie
Feurer Frie (2 вариант)
Hallelujah
Ich Will
Ich Will (2 вариант)
Ich Will (3 вариант)
Klavier
Klavier (2 вариант)
Kokain
Laichzeit
Links 2-3-4
Links 2-3-4 (2 вариант)
Mein Herz Brennt
Mutter
Mutter (2 вариант)
Nebel
Rammstein
Seemann
Seemann (2 вариант)
Sehnsucht
Sonne
Sonne (2 вариант)
Sonne (3 вариант)
Spieluhr
Stripped
Tier
Tier (2 вариант)
Tier (3 вариант)
Weisses Fleisch
Wilder Wein
Wolt Ihr Das Bett In Flammen Sehen
Wolt Ihr Das Bett In Flammen Sehen (2 вариант)
Zwitter
Вверх

Adios

 Intro
G|--------------------------|---10--10--10--10/-12--12--12--7--|
D|--8--8--8--8--8--8--8--8--|---10--10--10--10/-12--12--12--7--|
A|--8--8--8--8--8--8--8--8--|---8---8---8---8/--10--10--10--5--|
D|--8--8--8--8--8--8--8--8--|----------------------------------|

G|--7--7--7--7--7/-5--5/-4--|
D|--7--7--7--7--7/-5--5/-4--|
A|--5--5--5--5--5/-3--3/-2--|
D|--------------------------|

 После Интро и в Куплете(в куплете только начало).
G|---5-7---------------------|---------------------------------|
D|-3-5-7---------------------|---------------------------------|
A|-3-3-5-------------3h5-----|---------3h5---------------------|
D|-3-----0-0-0-0-0-0-----0-0-|-0-0-0-0-----0-0-0-0-0-0-0-0-0-0-|

 Distorted припев (Nichts...)
G|--------------------------|
D|--8--8--8--8--8--8--8--8--|
A|--8--8--8--8--8--8--8--8--|
D|--8--8--8--8--8--8--8--8--|

G--10--10--10--10/-12--12--12--7--|----7--7--7--7--7/-5--5/-4--|
D--10--10--10--10/-12--12--12--7--|----7--7--7--7--7/-5--5/-4--|
A--8---8---8---8/--10--10--10--5--|----5--5--5--5--5/-3--3/-2--|
D---------------------------------|----------------------------|

перевод:

Прощай

Кладет он иглу на вену
И просит музыку войти.
Между шеей и предплечьем
Мелодия в тело тихо вливается.
Давай!

Глаза он закрыл,
В крови у него битва бушует.
Армия марширует через его кишки,
Внутренности медленно нагреваются.

Давай!

Ничего нет для тебя,
Ничего не было для тебя,
Ничего не осталось для тебя –
Навсегда.

Убирает он иглу от вены,
Мелодия исходит от кожи.
Скрипки с криком горят,
Арфы режут себе плоть.
Глаза он открыл,
Хотя и не проснулся.

Ничего не для тебя,
Ничего не было для тебя,
Ничего не осталось для тебя –
Навсегда
Вверх

Adios (2 вариант)

 Intro

E|-------------------------------------------------------------|
B|-------------------------------------------------------------|
G|-------------------------------------------------------------|
D|--8--8--8--8---12--12--12---10---12--12--12--12--12--10------|
A|--8--8--8--8---12--12--12---10---12--12--12--12--12--10------|
E|--6--6--8--6---10--10--10----8---10--10--10--10--10--8-------|

D|--8--8--8--8----12--12--12----10----12--12--12--12--12-------|
A|--8--8--8--8----12--12--12----10----12--12--12--12--12-------|
E|--6--6--8--6----10--10--10-----8----10--10--10--10--10-------|

E|-------------------------------------------------------------|
B|--8h6--------------------3--------------------3--------------|


 Riffa (2 раза)
E|----------------------------------------|
B|----------------------------------------|
G|-3-5-7--------------57---------------57-|-
D|-3-5-7--------------57---------------57-|-
A|-1-3-5--5-5-5-5-5-5-35-5-5-5-5-5-5-5-35-|-

G|-----------------3-5-7-|
D|-----------------3-5-7-|
A|-5-5-5-5-5-5-5-5-1-3-5-|

Er legt die Nadel auf die Ader
und bittet die Musik herein
zwischen Hals und Unterarm
die Melodie fahrt leise ins Gebein

 Riffb(3 раза)
G|-3-5-7-|
D|-3-5-7-|
A|-1-3-5-|

 Идет проигрыш Riffa

Er hat die Augen zugemacht

in seinem Blut tobt eine Schlacht
ein Heer marschiert durch seinem Darm
die Eingeweide werden langsam warm


 Riffb(3 раза)
G|-3-5-7-|
D|-3-5-7-|
A|-1-3-5-|

 Проигрыш Riffa

Nichts ist fur dich
nichts war fur dich
nichts bleibt fur dich
fur imme

E|--------------------------|
B|--------------------------|
G|--------------------------|
D|-8-8-8-8---12-12-12---10--|
A|-8-8-8-8---12-12-12---10--|
E|-6-6-8-6---10-10-10----8--|

Nichts ist fur dich
nichts war fur dich
nichts bleibt fur dich
fur immer
2 раз

G|-3-3-3-3--7-7-7--5--7-7-7-7-7---5---3-3-3-3-|
D|-3-3-3-3--7-7-7--5--7-7-7-7-7---5---3-3-3-3-|
A|-1-1-1-1--5-5-5--3--5-5-5-5-5---3---1-1-1-1-|

2 раза

E|------------------------------------|
B|--9-10-10--9-10-10-9-10-10--10-9-8--|

E|------------------------------------|
B|--9-10-10--9-10-10-9-10-10-10-9-8--8|

E|--------------------------------|
B|--10-9-8--8-9-10--10-9-8--8-9-10|

E|--------------------------------|
B|--9-1010--9-1010-9-101010-9-8--8|

Er nimmt die Nadel von der Ader
die Melodie fahrt aus der Haut
Geigen brennen mit Gekreisch
Harfen schneiden sich ins Fleisch
er hat die Augen aufgemacht
doch er ist nicht aufgewacht

Nichts ist fur dich
nichts war fur dich
nichts bleibt fur dich
fur immer

G|-3-3-3-3--7-7-7--5--7-7-7-7-7---5---3-3-3-3-|
D|-3-3-3-3--7-7-7--5--7-7-7-7-7---5---3-3-3-3-|
A|-1-1-1-1--5-5-5--3--5-5-5-5-5---3---1-1-1-1-|

 В самом конце
G|-3-3-3-3--5-5-5--5--5-|
D|-3-3-3-3--5-5-5--5--5-|
A|-1-1-1-1--7-7-7--3--7-|
Вверх

Asche Zu Asche

Все песни RAMMSTEIN играются на гитаре с расстроенной 6-ой
струной. Надо чтобы 6–я звучала в унисон с 4–ой.
Проигрыш: 3 раза.
4 |       3          5          6       5    3|
5 |       3          5          6       5    3|
6 | 0 0 3 0 0 0 5 0 0 0 6 0 0 5 0 3| x4

Куплеты можно играть так: 2 раза.
3 | 0 0 3 0 0 0 5 0 0 0 6 0 0 5 0 3| x4

Warmer Korper
heisses Kreuz
falsches Urteil
kaltes Grab

Auf dem Kreuze lieg ich jetzt
sie schlagen mir die Nagel ein
das Feuer wascht die Seele rein
und ubrig bleibt ein Mundvoll
Asche

Ich komm wieder
in zehn Tagen
als dein Schatten
und werd dich jagen

Heimlich werd ich auferstehen
und du wirst um Gnade flehen
dann knie ich mich in dein Gesicht
und steck den Finger in die Asche

Затем идёт соло на BASS. На гитаре можно сыграть так: 2 раза.
4 |       3          5         6        5    3| x4

Asche zu Asche
und Staub zu Staub
Вверх

Bestrafe Mich

Intro
4|-4--4--4-5--4-----5--4-|
5|-2--2--2-3--2--22-3--2-|
6|-----------------------|

4|-------------------------------------------------------------|
5|------------------2------------------------------------------|
6|000-0-0-000-0-0-000-0-0-0-0-0-000-0-0-000-0-0-000-0-0-000000-|

4|-2-2-2-2-2-2-----------2-|
5|-2-2-2-2-2-2-----------2-|
6|-0-0-0-0-0-0-000000000-0-|


Riff a
6|-0-0-0-0-0-0-0-...-|
bestrafe mich
Stroh wird Gold
und Gold wird Stein
deine Grosse macht mich klein
du darfst mein Bestrafer sein
ja

Intro
Der Herrgott nimmt
der Herrgott gibt

Bestrafe mich
bestrafe mich
du meinst ja
und ich denk nein
schliess mich ein in dein Gebet
bevor der Wind noch kalter weht

Intro
Deine Grosse macht mich klein
du darfst mein Bestrafer sein
du darfst mein Bestrafer sein

Deine Grosse macht mich klein
du darfst mein Bestrafer sein
deine Grosse macht ihn klein
du darfst meine Strafe sein
Der Herrgott nimmt
der Herrgott gibt
doch gibt er nur dem
den er auch liebt
bestrafe mich
Вверх

Das Alte Leid

Начало и Припев:
|-------------------------|
|-------------------------|
|-------------------------|
|-0-2--0-2--0-2--0-2/7-0--|
|-0-2--0-2--0-2--0-2/7-0--|
|-0-2--0-2--0-2--0-2/5-0--|

Куплет:
|----------------|------|
|----------------|------|
|----------------|------|
|-0-0----0-0-0-0-|-5^r--|
|-0-0----0-0-0-0-|------|
|-0-0----0-0-0-0-|------|

P.S.Это приблизительно столько ударов, надо просто прослушать
песню ещё раз и играть вместе с Rammsteinom.
Вверх

Das Modell

E||-----------------------------|------------------------------|
B||-----------------------------|------------------------------|
G||*---------2---------5------5-|-----------------------------*|
D||*---------2---------5------5-|---------2----------5-----5--*|
A||--0-0-0-0-0-0-0-0-0-3--0-0-3-|---------2----------5-----5---|
E||-----------------------------|-0-0-0-0-0--0-0-0-0-3-0-0-3---|


E||--------------|--------------|
B||--------------|--------------|
G||--5-----------|--4-----------|
D||--5-----------|--4-----------|
A||--3-----------|--2-----------|
E||--------------|--------------|

E||--------------|--------------|--------------|---------------|
B||--------------|--------------|--------------|---------------|
G||--------------|--------------|--5-----------|--4------------|
D||--5-----------|--5-----------|--5-----------|--4------------|
A||--5-----------|--5-----------|--3-----------|--2------------|
E||--3-----------|--3-----------|--------------|---------------|

E||--------------|--------------|
B||--------------|--------------|
G||--9-----------|--6----7--9---|
D||--9-----------|--------------|
A||--7-----------|--------------|
E||--------------|--------------|

 Intro Chords (Played during the French inroduction):

E C7 (possibly an A chord of some type in there as well

Verse

Played with Guitar and between lyrics:
Some time in the song it is plyed, with less A and E notes
A,A,A,A,A,A,A,C,A,A,C,A,A
E,E,E,E,E,E,E,G,E,E,G,E,E

Played in between the lyrics:

G,b,G,e,d,F,D

Solo Part:

E,C,A,C,E,C,E
E,B,G,B,E,D
E,C,A,C,E,C,E
E,B,G,B,E
During the last solo hit a high G note and let it sustain
for a long time.

After one of the solos, this is played (during the Bridge):

C,B,B,G,G,C,B,E

 Outro Notes:
C and G. These notes are played in some rhythm, listen to
the album to get it correct.
Вверх

Das Modell (3 вариант)

Шестая струна ре (D)

Основной рифф:

E|----------------------------|--------------------------------|
B|----------------------------|--------------------------------|
G|----------------------------|--------------------------------|
D|-5-5-5-5-5--5-5-5-5--8--5-8-|-0-0-0-0-0--0-0-0-0--3--0-3-----|
A|-5-5-5-5-5--5-5-5-5--8--5-8-|-0-0-0-0-0--0-0-0-0--3--0-3-----|
D|-5-5-5-5-5--5-5-5-5--8--5-8-|-0-0-0-0-0--0-0-0-0--3--0-3-----|

 Проигрыш:(лучше играть слайдом)

E|---|---|---|---|---|---|------------------|------------------|
B|---|---|---|---|---|---|------------------|------------------|
G|---|---|---|---|---|---|------12--14--15--|---17--19---------|
D|-8-|-7-|-3-|-3-|-8-|-7-|--12--------------|------------------|
A|-8-|-7-|-3-|-3-|-8-|-7-|--12--------------|------------------|
D|-8-|-7-|-3-|-3-|-8-|-7-|--12--------------|------------------|

 Во втором куплете добавляется небольшой солячок:

E|-------------------------|-------------------------|
B|-------------------------|-------------------------|
G|-------------------------|-------------------------|
D|-5-5-5-5-5-5-5-5-5-8-5-8-|-0-0-0-0-0-0-0-0-0-3-0-3-|
A|-5-5-5-5-5-5-5-5-5-8-5-8-|-0-0-0-0-0-0-0-0-0-3-0-3-|
D|-5-5-5-5-5-5-5-5-5-8-5-8-|-0-0-0-0-0-0-0-0-0-3-0-3-|

E|-------------------------|
B|-8-11-10-11--10----------|
G|----------------10-7-----|
d|-------------------------|
a|-------------------------|
e|-------------------------|

Sie ist ein Modell und sie sieht gut aus
ich nehm sie heut gerne mit zu mir nach Haus
sie wirkt so kuhl an sie kommt niemand ran
doch vor der Kamera da zeigt sie was sie kann

Sie trinkt in Nachtclubs immer Sekt korrekt
und hat hier schon alle Manner abgecheckt
Im Scheinwerferlicht ihr junges Lacheln strahlt
sie sieht gut aus und Schonheit wird bezahlt

Sie stellt sich zur Schau fur das Konsumprodukt
und wird von millionen Augen angeguckt
ihr neues Titelbild ist einfach fabelhaft
ich muss sie wiedersehen ich weiss sie hats geschafft
Вверх

Der Meister

Intro

e|-------------------------------|--------------------------
b|-------------------------------|--------------------------
g|---------7h8-------7h8-----7h8-|---------7h8-------7h8----
D|-0-0-0-0-7h8-0-0-0-7h8-0-0-7h8-|-0-0-0-0-7h8-0-0-0-7h8----
A|-------------------------------|----------------------0-0-
E|-------------------------------|--------------------------

e|-------|
b|-------|
g|-5h7---|
D|-5h7---|
A|-------|
E|-------|

Verse

e|-------------------------------------------|
b|-------------------------------------------|
g|-7--5--7--5--7--5--7--9--7-10--------------|
D|-7--5--7--5--7--5--7--9--7-10--------------|
A|-5--3--5--3--5--3--5--7--5--8--------------|
E|---0--0--0--0--0--0--0--0------------------|

It changes somewhere in the song and does this

e|-------------------------------------------|
b|-------------------------------------------|
g|-9---7---9---7---9---7---9---7-10----------|
D|-9---7---9---7---9---7---9---7-10----------|
A|-7---5---7---5---7---5---7---5--8----------|
E|---0---0---0---0---0---0---0--0---0--------|

Chorus

e|-------------------------------|------------------------|
b|-------------------------------|------------------------|
g|---------7h8-------7h8-----7h8-|---------7h8-------7h8--|
D|-0-0-0-0-7h8-0-0-0-7h8-0-0-7h8-|-0-0-0-0-7h8-0-0-0-7h8--|
A|-------------------------------|------------------------|
E|-------------------------------|------------------------|

Lauft!

Weil der Meister uns gesandt
verkunden wir den Untergang
der Reiter der Boshaftigkeit
futtert sein Geschwur aus Neid
Neid (3x)

Die Wahrheit ist wie ein Gewitter
es kommt zu dir du kannst es horen
es kund zu tun ist ach so bitter
es kommt zu dir um zu zerstoren
um zu zerstoren (2x)

Weil die Nacht im Sterben lag
verkunden wir den jungsten Tag
es wird kein Erbarmen geben
lauft, lauft (3x), um euer Leben

Die Wahrheit ist ein Chor aus Wind
kein Engel kommt um euch zu rachen
diese Tage eure letzten sind
wie Stabchen wird es euch zerbrechen
euch zerbrechen (2x)

Es kommt zu euch (2x)
Es kommt zu euch [lauft, lauft]
Als das Verderben

Die Wahrheit ist ein Chor aus Wind
kein Engel kommt um euch zu rachen
diese Tage eure letzten sind
wie Stabchen wird es euch zerbrechen
euch zerbrechen (2x)
Вверх

Der Meister (2 вариант)

Intro
4|---------2---------2-----2-|
5|-0-0-0-0-0-0-0-0-0-0-0-0-2-|
6|---------------------------|

Riff a
4|-4-2-4-2-4-2-4-2-5-4-|
5|-2-0-2-0-2-0-2-0-3-2-|
6|---------------------|
Lauft!

Intro
Weil der Meister uns gesandt
verkunden wir den Untergang
der Reiter der Boshaftigkeit
futtert sein Geschwur aus Neid

Die Wahrheit ist wie ein Gewitter
es kommt zu dir du kannst es horen
es kund zu tun ist ach so bitter
es kommt zu dir um zu zerstoren

Weil die Nacht im Sterben lag
verkunden wir den jungsten Tag
es wird kein Erbarmen geben
lauft, lauft um euer Leben

Die Wahrheit ist ein Chor aus Wind
kein Engel kommt um euch zu rachen
diese Tage eure letzten sind
wie Stabchen wird es euch zerbrechen

Riff a
Es kommt zu euch als das Verderben

Die Wahrheit ist ein Chor aus Wind
kein Engel kommt um euch zu rachen
diese Tage eure letzten sind
wie Stabchen wird es euch zerbrechen
Вверх

Du Hast

Riff 1
E|-------------------------------------------------------------|
B|-------------------------------------------------------------|
G|-------------------------------------------------------------|
D|-7--5---2---2---2-2-2---2---2-2-75--2---2---2-2-2---2---2-2--|
A|-7--5---2---2---2-2-2---2---2-2-75--2---2---2-2-2---2---2-2--|
E|-5--3---0---0---0-0-0---0---0-0-53--0---0---0-0-0---0---0-0--|

E|-------------------------------------------------------------|
B|-------------------------------------------------------------|
G|-------------------------------------------------------------|
D|-5-/-7---7---7---7-7-7---7---7-7-----------------------------|
A|-5-/-7---7---7---7-7-7---7---7-7-----------------------------|
E|-3-/-5---5---5---5-5-5---5---5-5-----------------------------|

Du
Du hast
Du hast mich

Du
Du hast
Du hast mich

Du
Du hast
Du hast mich

Du
Du hast
Du hast mich

Du hast mich
Du hast mich gefragt
Du hast mich gefragt
Du hast mich gefragt und ich hab nichts gesagt

  Riff 2
E|-------------------------------------------------------------|
B|-------------------------------------------------------------|
G|-------------------------------------------------------------|
D|-7--5---2---2---2-2-2---2---2-2-75---2---2---2-2-2---2---2-2-|
A|-7--5---2---2---2-2-2---2---2-2-75---2---2---2-2-2---2---2-2-|
E|-5--3---0---0---0-0-0---0---0-0-53---0---0---0-0-0---0---0-0-|

 Willst du bis der   Tod euch scheidet

E|-------------------------------------------------------------|
B|-------------------------------------------------------------|
G|-------------------------------------------------------------|
D|-5-/-7--7--7--7-7-7--7---7-7-5/7-----7---7---7-7-7---7---7-7-|
A|-5-/-7--7--7--7-7-7--7---7-7-5/7-----7---7---7-7-7---7---7-7-|
E|-3-/-5--5--5--5-5-5--5---5-5-3/5-----5---5---5-5-5---5---5-5-|

 treu ihr sein   fur alle Tage

E|-------------------------------------------------------------|
B|-------------------------------------------------------------|
G|-4-/-5---5---5---5-5-5---5---5-5-5/4--4---4--4-4-4---4---4-4-|
D|-4-/-5---5---5---5-5-5---5---5-5-5/4--4---4--4-4-4---4---4-4-|
A|-2-/-3---3---3---3-3-3---3---3-3-3/2--2---2--2-2-2---2---2-2-|
E|-------------------------------------------------------------|

                                     NEIN
E|-------------------------------------------------------------|
B|-------------------------------------------------------------|
G|-------------------------------------------------------------|
D|-7--5---2---2---2-2-2---2---2-2-75--2---2---2-2-2---2---2-2--|
A|-7--5---2---2---2-2-2---2---2-2-75--2---2---2-2-2---2---2-2--|
E|-5--3---0---0---0-0-0---0---0-0-53--0---0---0-0-0---0---0-0--|

                                     NEIN

Willst du bis der Tod euch scheidet
treu ihr sein fur alle Tage
NEIN
NEIN

Du
Du hast
Du hast mich

Du
Du hast
Du hast mich

Willst du bis der Tod euch scheidet
treu ihr sein fur alle Tage
NEIN
NEIN

Willst du bis zum Tod der Scheide
sie lieben auch in schlechten Tagen
NEIN
NEIN

Willst du bis der Tod euch scheidet treu ihr sein
NEIN
NEIN
Вверх

Du Hast (2 вариант)

Проигрыш,
Припев играются одинаково:

E|------------------------------------|
B|------------------------------------|
G|------------------------------------|
D|-2-2-2-2-7-7-7-7-10-10-9-9-2-2-2-2--|
A|-2-2-2-2-7-7-7-7-10-10-9-9-2-2-2-2--|
E|-0-0-0-0-5-5-5-5-8--8--7-7-0-0-0-0--

Куплет играется следующим образом:
Du
Du hast
Du hast mich

Du
Du hast
Du hast mich

Du hast mich

E|----------|
B|----------|      НА ОДНОМ КВИНТЕ
G|----------|
D|-2-2-2-2--|
A|-2-2-2-2--|
E|-0-0-0-0--|

Du hast mich gefragt
Du hast mich gefragt
Du hast mich gefragt und ich hab nichts gesagt

E|-------------------|
B|-------------------|
G|-------------------|   НА ЭТОМ КВИНТЕ
D|-------------------|
A|-10-10-9-9-2-2-2-2-|
E|-8--8--7-7-0-0-0-0-|

Как играется припев-выше.

Du
Du hast
Du hast mich

Du hast mich
Du hast mich gefragt
Du hast mich gefragt
Du hast mich gefragt und ich hab nichts gesagt

Willst du bis der Tod euch scheidet
treu ihr sein fur alle Tage...

nein

Willst du bis zum Tod der Scheide
sie lieben auch in schlechten Tagen....

nein
Вверх

Du Hast (3 вариант)

Em
Du
Am Em
Du hast
Am Em
Du hast mich
Em
Du
Am Em
Du hast
Am Em
Du hast mich
Em
Du
Am Em
Du hast
Am Em
Du hast mich
Du
Du hast
Du hast mich
Du hast mich
Du hast mich gefragt
Du hast mich gefragt
Du hast mich gefragt und ich hab nichts gesagt
Em            Am  Em
Willst du bis der Tod euch scheidet
Am                          C
treu ihr sein fur alle Tage...
Hm   Em
nein! nein!
Em            Am  Em
Willst du bis der Tod euch scheidet
Am                          C
treu ihr sein fur alle Tage...
Hm   Em
nein! nein!
Du
Du hast
Du hast mich
Du
Du hast
Du hast mich
Willst du bis der Tod euch scheidet
treu ihr sein fur alle Tage...
nein! nein!
Willst du bis zum Tod der Scheide
sie lieben auch in schlechten Tagen....
nein! nein!
Willst du bis der Tod euch scheidet treu ihr sein...
nein! nein!
Вверх

Du Hast (4 вариант)

 Intro

1|--------------|---------------|--------------|---------------|
2|--------------|---------------|--------------|---------------|
3|--------------|---------------|--------------|---------------|
4|-7-5-2-2-22-2-|-75-2-2-22--22-|-7-5-2-2-22-2-|-75-2-2-222-22-|
5|-7-5-2-2-22-2-|-75-2-2-22--22-|-7-5-2-2-22-2-|-75-2-2-222-22-|
6|-5-3-0-0-00-0-|-53-0-0-00--00-|-5-3-0-0-00-0-|-53-0-0-000-00-|

1|---------------|------------------|--------------------------|
2|---------------|------------------|--------------------------|
3|---------------|------------------|--------------------------|
4|-7-5-2-2-222-2-|-75-2-2-222--2222-|-5-7--7-7-777-7777--------|
5|-7-5-2-2-222-2-|-75-2-2-222--2222-|-5-7--7-7-777-7777--------|
6|-5-3-0-0-000-0-|-53-0-0-000--0000-|-3-5--5-5-555-5555--------|

Du
Du hast
Du hast mich
Du
Du hast
Du hast mich
Du
Du hast
Du hast mich
Du
Du hast
Du hast mich

 Riff

6|-0-0-0-0-0-0-3-0-0-0-0-0-3-0-0-0-0-0-0-5-3-0-0-0-3-0-0-0-----|

1|--------------|----------------|--------------|--------------|
2|--------------|----------------|--------------|--------------|
3|--------------|----------------|--------------|--------------|
4|-7-5-2-2-22-2-|-75-2-2-22--222-|-7-5-2-2-22-2-|-75-2-2-22-22-|
5|-7-5-2-2-22-2-|-75-2-2-22--222-|-7-5-2-2-22-2-|-75-2-2-22-22-|
6|-5-3-0-0-00-0-|-53-0-0-00--000-|-5-3-0-0-00-0-|-53-0-0-00-00-|

1|---------------|------------------|--------------------------|
2|---------------|------------------|--------------------------|
3|---------------|------------------|--------------------------|
4|-7-5-2-2-222-2-|-75-2-2-222--2222-|-5-7--7-7-777-7777--------|
5|-7-5-2-2-222-2-|-75-2-2-222--2222-|-5-7--7-7-777-7777--------|
6|-5-3-0-0-000-0-|-53-0-0-000--0000-|-3-5--5-5-555-5555--------|

Du
Du hast
Du hast mich
Du hast mich
Du hast mich gefragt
Du hast mich gefragt
Du hast mich gefragt und ich hab nichts gesagt

Willst du bis der Tod euch scheidet
treu ihr sein fur alle Tage...
nein! nein!
Willst du bis der Tod euch scheidet
treu ihr sein fur alle Tage...
nein! nein!

1|---------------|------------------|--------------------------|
2|---------------|------------------|--------------------------|
3|---------------|------------------|--------------------------|
4|-7-5-2-2-222-2-|-75-2-2-222--2222-|-5-7--7-7-777-7777--------|
5|-7-5-2-2-222-2-|-75-2-2-222--2222-|-5-7--7-7-777-7777--------|
6|-5-3-0-0-000-0-|-53-0-0-000--0000-|-3-5--5-5-555-5555--------|

1|-------------------|-----------------------------------------|
2|-------------------|-----------------------------------------|
3|-------------------|-----------------------------------------|
4|-5-7--7-7-777-7777-|-5-10--10-10-101010-10101010-------------|
5|-5-7--7-7-777-7777-|-5-10--10-10-101010-10101010-------------|
6|-3-5--5-5-555-5555-|-3-8----8--8--8-8-8--8-8-8-8-------------|

1|-------------------|-----------------------------------------|
2|-------------------|-----------------------------------------|
3|-------------------|-----------------------------------------|
4|-5-9--9-9-999-9999-|-7-5-2-2-222-2-|-75-2-2-222-2222---------|
5|-5-9--9-9-999-9999-|-7-5-2-2-222-2-|-75-2-2-222-2222---------|
6|-3-7--7-7-777-7777-|-5-3-0-0-000-0-|-53-0-0-000-0000---------|

Du
Du hast
Du hast mich
Du
Du hast
Du hast mich

Du
Du hast
Du hast mich
Du hast mich
Du hast mich gefragt
Du hast mich gefragt
Du hast mich gefragt und ich hab nichts gesagt

1|---------------|------------------|--------------------------|
2|---------------|------------------|--------------------------|
3|---------------|------------------|--------------------------|
4|-7-5-2-2-222-2-|-75-2-2-222--2222-|-5-7--7-7-777-7777--------|
5|-7-5-2-2-222-2-|-75-2-2-222--2222-|-5-7--7-7-777-7777--------|
6|-5-3-0-0-000-0-|-53-0-0-000--0000-|-3-5--5-5-555-5555--------|

1|-------------------|-----------------------------------------|
2|-------------------|-----------------------------------------|
3|-------------------|-----------------------------------------|
4|-5-7--7-7-777-7777-|-5-10--10-10-101010-10101010-------------|
5|-5-7--7-7-777-7777-|-5-10--10-10-101010-10101010-------------|
6|-3-5--5-5-555-5555-|-3-8----8--8--8-8-8--8-8-8-8-------------|

1|-------------------|-----------------------------------------|
2|-------------------|-----------------------------------------|
3|-------------------|-----------------------------------------|
4|-5-9--9-9-999-9999-|-7-5-2-2-222-2-|-75-2-2-222-2222---------|
5|-5-9--9-9-999-9999-|-7-5-2-2-222-2-|-75-2-2-222-2222---------|
6|-3-7--7-7-777-7777-|-5-3-0-0-000-0-|-53-0-0-000-0000---------|

Willst du bis der Tod euch scheidet
treu ihr sein fur alle Tage...
nein! nein!
Willst du bis zum Tod der Scheide
sie lieben auch in schlechten Tagen....
nein! nein!
Willst du bis der Tod euch scheidet treu ihr sein...
nein! nein!

1|---------------|------------------|--------------------------|
2|---------------|------------------|--------------------------|
3|---------------|------------------|--------------------------|
4|-7-5-2-2-222-2-|-75-2-2-222--2222-|-5-7--7-7-777-7777--------|
5|-7-5-2-2-222-2-|-75-2-2-222--2222-|-5-7--7-7-777-7777--------|
6|-5-3-0-0-000-0-|-53-0-0-000--0000-|-3-5--5-5-555-5555--------|

1|-------------------|-----------------------------------------|
2|-------------------|-----------------------------------------|
3|-------------------|-----------------------------------------|
4|-5-7--7-7-777-7777-|-5-10--10-10-101010-10101010-------------|
5|-5-7--7-7-777-7777-|-5-10--10-10-101010-10101010-------------|
6|-3-5--5-5-555-5555-|-3-8----8--8--8-8-8--8-8-8-8-------------|

1|-------------------|-----------------------------------------|
2|-------------------|-----------------------------------------|
3|-------------------|-----------------------------------------|
4|-5-9--9-9-999-9999-|-7-5-2-2-222-2-|-75-2-2-222-2222---------|
5|-5-9--9-9-999-9999-|-7-5-2-2-222-2-|-75-2-2-222-2222---------|
6|-3-7--7-7-777-7777-|-5-3-0-0-000-0-|-53-0-0-000-0000---------|
Вверх

Du Riechst So Gut

Все песни RAMMSTEIN исполняются не на стандартном 6-ти струнном строе, а с
опущенной на тон 6-й струной. Для того, чтобы настроить свою гитару так, нужно зажать 6-ю
струну на 7-м (а не на 5-м) ладу , и добиться одинакового звучания с открытой 5-й
струной. Такой строй ими используется потому, что он упрощает игру ритма. Теперь-песня.
Начинается она с темы на клавишах; на гитаре это можно сыграть так:

2-я---3-4---3-4---3-4---4---3-4---3--
3-я-0-----0-----0-----0---0-----0----  x4

После-вступает ритм:
  _ _   _ _   _ _   _  _ _   _  _ _  _ _  _ _  _  _ _
E--------------------------------------------------------17^
B-----------------------------------------------------------
G-----------------------------------------------------------
D-0-1---0-1---0-1---1--0-1---0--0-1--0-1--0-1--1--0-1-------
A-0-1---0-1---0-1---1--0-1---0--0-1--0-1--0-1--1--0-1-------
D-0-1---0-1---0-1---1--0-1---0--0-1--0-1--0-1--1--0-1-------

17^-это Bend(подтянуть струну пальцем наверх).
Всё вступление играется на Muting’е(только для электрогитар)
Muting-это способ игры (как правило, ритма) , при котором ребро ладони правой руки глушит струны , прислоняясь к ним у нижнего порожка. Я отмечаю это так :
_ _
0-0
Когда начинается куплет, остается только бас (Ist nur eine schmalle brucke)

G-----------------------------------------------------------
D-0-1---0-1---0-1---1--0-1---0--0-1--0-1--0-1--1--0-1--0----
A-----------------------------------------------------------
E-----------------------------------------------------------

Проигрыш перед припевом:

4-я-12-12-12-12-10-10-10-10-8-8-8-8-7-7-7-7-
5-я-12-12-12-12-10-10-10-10-8-8-8-8-7-7-7-7-
6-я-12-12-12-12-10-10-10-10-8-8-8-8-7-7-7-7-

Припев(Du riechst so gut)
                     _  _ _  _ _  _ _  _  _ _
4-я-5-5-5-5-8-8-8-8--0--0-1--0-1--0-1--1--0-1-----
5-я-5-5-5-5-8-8-8-8--0--0-1--0-1--0-1--1--0-1-----
6-я-5-5-5-5-8-8-8-8--0--0-1--0-1--0-1--1--0-1----- x3

4-й раз:

4-я--10-10-10-10-8-8-8-8-7-7-7-7-7-7-7-7-
5-я--10-10-10-10-8-8-8-8-7-7-7-7-7-7-7-7-
6-я--10-10-10-10-8-8-8-8-7-7-7-7-7-7-7-7-


Бас:

G-----------------------------------------------
D-5-5-5-5-8-8-8-8--0--0-1--0-1--0-1--1--0-1-----
A-----------------------------------------------
E-----------------------------------------------


Во 2-й части припева играется немного по-другому:

4-я-5-5-5-5-7-7-7-7-0-0-0-0-0-0-0-0-
5-я-5-5-5-5-7-7-7-7-0-0-0-0-0-0-0-0-
6-я-5-5-5-5-7-7-7-7-0-0-0-0-0-0-0-0-

Бас:

G---------------------------------
D-5-5-5-5-7-7-7-7-0-0-0-0-0-0-0-0-
A---------------------------------
E---------------------------------

Соло:

3-я-12-0-12-0-12-0-12-0-11-0-11-0-11-0-12-0--
затем:
4-я-12-0-12-0-12-0-12-0-13-0-12-0-13-0-12-0--

При переходе на открытую струну можно использовать Пул (Для тех, кто знает, что это такое)
(На Distortion?е играется без правой руки, с использованием Хаммера (Для тех, кто знает, что это такое)).

Вот, собственно, и всё.

TEXT:

Der Wahnsinn
Ist nur eine schmale Brucke
Die Ufer sind Vernunft und Trieb
Ich steig Dir nach
Das Sonnenlicht den Geist verwirrt
Ein blindes Kind das vorwarts kriecht
Weil es seine Mutter riecht

Die Spur ist frisch und auf die Brucke
Tropft dein Schweiss Dein warmes Blut
Ich seh Dich nicht
Ich riech Dich nur Ich spure Dich
Ein Raubtier das vor Hunger schreit
Witter Ich Dich meilenweit

Припев:
Du riechst so gut
Du riechst so gut
Ich geh Dir hinterher
Du riechst so gut
Ich finde Dich
So gut
Ich steig Dir nach
Du riechst so gut
Gleich hab Ich Dich

Ich warte bis es dunkel ist
Dann fass Ich an die nasse Haut
Verrate Mich nicht
Oh siehst Du nicht die Brucke brennt
Hor auf zu schreien und wehr Dich nicht
Weil Sie sonst auseinander bricht

Припев:
Du riechst so gut
Du riechst so gut
Ich geh Dir hinterher
Du riechst so gut
Ich finde Dich
So gut
Ich steig Dir nach
Du riechst so gut
Gleich hab Ich Dich
Du riechst so gut
Du riechst so gut
Ich geh Dir hinterher
Du riechst so gut
Ich finde Dich
So gut
Ich fass Dich an
Du riechst so gut
Jetzt hab Ich Dich
Du riechst so gut
Du riechst so gut
Ich geh Dir hinterher
Вверх

Engel

E|-10----------------------------------------------------------|
B|-------10----13----10----12----8----10-----------------------|

E|-10----------------------------------------------------------|
B|-------10----13----10----12----8-----------------------------|
G|------------------------------------7------------------------|

G|-------------------------------------------------------------|
D|-------------------------------------------------------------|
A|3-5-----6-5-----3-5---3-5---6-5-3-5-----6-5-----3-5---3-5-8-8|
D|----0-0-----0-0-----0-----0---------0-0-----0-0-----0--------|

E|-------------------------------------------------------------|
B|-------------------------------------------------------------|
G|5-7-----9-7-----5-7---5-7---9-7-5-7-----9-7-----5-7---5-7-x-x|
D|5-7-----9-7-----5-7---5-7---9-7-5-7-----9-7-----5-7---5-7-x-x|
A|3-5-----6-5-----3-5---3-5---6-5-3-5-----6-5-----3-5---3-5-x-x|
D|----0-0-----0-0-----0-----0---------0-0-----0-0-----0--------|

Wer zu Lebzeit gut auf Erden
wird nach dem Tod ein Engel werden
den Blick gen Himmel fragst du dann
warum man sie nicht sehen kann

Erst wenn die Wolken schlafengehn
kann man uns am Himmel sehn
wir haben Angst und sind allein
Gott weiss ich will kein Engel sein

Проигрыш.

(Бас)
G|-------------------------------------------------------------|
D|-------------------------------------------------------------|
A|3-5-----6-5-----3-5---3-5---6-5-3-5-----6-5-----3-5---3-5-8-8|
D|----0-0-----0-0-----0-----0---------0-0-----0-0-----0--------|

(Гитара)
E|-------------------------------------------------------------|
B|-------------------------------------------------------------|
G|-5-7-----9-7-----5-7---5-7---9-7-5-7-----9-7----5-7---5-7-x-x|
D|-5-7-----9-7-----5-7---5-7---9-7-5-7-----9-7----5-7---5-7-x-x|
A|-3-5-----6-5-----3-5---3-5---6-5-3-5-----6-5----3-5---3-5-x-x|
D|-----0-0-----0-0-----0-----0---------0-0-----00-----0--------|

Sie leben hinterm Sonnenschein
getrennt von uns unendlich weit
sie mussen sich an Sterne krallen [ganz fest]
damit sie nicht vom Himmel fallen

Erst wenn die Wolken schlafengehn
kann man uns am Himmel sehn
wir haben Angst und sind allein
Gott weiss ich will kein Engel sein

E|-10-12--15---13---12---10---------------------------10-12-10-|
B|----------------------------13---11-10-8-10-10-8-10----------|
G|-------------------------------------------------------------|
D|-------------------------------------------------------------|
A|-------------------------------------------------------------|
D|-------------------------------------------------------------|
Вверх

Feurer Frie

INTRO:
A|-----7--------|
E|-----5--------|

VERSE(BASS):
E|---34-34-34-34-66---|

Chorus:
A|--5/6-5/6-5/6-5/6--8--|
E|--3/4-3/4-3/4-3/4--6--|

D|--7-7-6-5-----|
A|--5-5-4-3-----|

VERSE:
Getadelt wird wer Schmerzen kennt
Vom Feurer das die Haut verbrennt
Ich werf ein Licht in mein Gesicht
Ein hei?er Schrei
Feurer frei!

Chorus:
Bang bang

VERSE:
Geadelt ist wer Schmerzen kennt
Vom Feurer das in Lust verbrennt
Ein Funkensto? in ihren Scho?
Ein hei?er Schrei
Feurer frei!

Chorus:
Bang bang
Feuer frei!

VERSE:
Gefahrlich ist wer Schmerzen kennt
Vom Feuer das den Geist verbrennt
Bang bang
Gefahrlich das gebrannte Kind
Mit Feuer das vom Leben trennt
Ein hei?er Schrei
Bang bang
Feuer frei!

Dein Gluck
Ist nicht mein Gluck
Ist mein Ungluck

Chorus:
Bang bang
Feuer frei!
Вверх

Feurer Frie (2 вариант)

INTRO:
A# 5

VERSE/PRE CHORUS:
G5,  G# 5, G5, G# 5, G5, G# 5, G#5/A# 5

CHORUS:
D5, C# 5,
A# 5- FEUR FREI!

VERSE:
Getadelt wird wer Schmerzen kennt
vom Feuer das die Haut verbrennt
Ich werf ein Licht
in mein Gesicht
Ein heisser Schrei
Feuer frei!

Pre Chorus:
Bang bang

Geadelt ist wer Schmerzen kennt
vom Feuer das in Lust verbrennt
ein Funkenstoss
in ihren Schoss
ein heisser Schrei
Feuer frei!

Bang bang
CHORUS:
Feuer frei!

Gefahrlich ist wer Schmerzen kenn
Vom Feuer das den Geist verbrenn
Bang ban
Gefahrlich das gebrannte Kin
Mit Feuer das vom Leben trenn
Ein hei?er Schre
Bang ban
Feuer frei!

Dein Gluc
Ist nicht mein Gluc
Ist mein Ungluck

Bang bang

Feuer frei!
Вверх

Hallelujah

Er ist fromm und sehr sensibel
an seiner Wand ein Bild des Herrn
er wischt die Flecken von der Bibel
das Abendmahl verteilt er gern
4|--5-5-2--3-3-2--5-5-2--3-3-2--5-5-2--3-3-2--5-5-2--3-3-2--5-5-2--3-3-2--5-5-|-
5|--5-5-2--3-3-2--5-5-2--3-3-2--5-5-2--3-3-2--5-5-2--3-3-2--5-5-2--3-3-2--5-5-|-
6|--3-3-0--1-1-0--3-3-0--1-1-0--3-3-0--1-1-0--3-3-0--1-1-0--3-3-0--1-1-0--3-3-|-

-4|-2------2------2-------2------3-3-2------2------2-------2------5-5-|
-5|-2------2------2-------2------3-3-2------2------2-------2------5-5-|
-6|-0-0000-0-0000-0--0000-0-0000-1-1-0-0000-0-0000-0--0000-0-0000-3-3-|

Er liebt die Knaben aus dem Chor
sie halten ihre Seelen rein
doch Sorge macht ihm der Tenor
so muss er ihm am nachsten sein
auf seinem Nachttisch still und stumm
ein Bild des Herrn
er dreht es langsam um
4|-2--3-3-2--5-5-2--3-3-2--5-5-2--3-3-2--5-5-2--3-3-2--5-5--|
5|-2--3-3-2--5-5-2--3-3-2--5-5-2--3-3-2--5-5-2--3-3-2--5-5--|
6|-0--1-1-0--3-3-0--1-1-0--3-3-0--1-1-0--3-3-0--1-1-0--3-3--|

-4|-2------2------2-------2------3-3-2------2------2-------2------5-5-|-(1 time)
-5|-2------2------2-------2------3-3-2------2------2-------2------5-5-|-
-6|-0-0000-0-0000-0--0000-0-0000-1-1-0-0000-0-0000-0--0000-0-0000-3-3-|-

Wenn die Turmuhr zweimal schlagt
hallelujah
faltet er die Hande zum Gebet
hallelujah
er ist ohne Weib geblieben
hallelujah
so muss er seinen Nachsten lieben
hallelujah
-4|-2---5-5-10-10--7---7-7-10-10--5---5-5-9-9--3---3-3-5-5--|-(2 times)
-5|-2---5-5-10-10--7---7-7-10-10--5---5-5-9-9--3---3-3-5-5--|-
-6|-0---3-3-8--8---5---5-5-8--8---3---3-3-7-7--1---1-1-3-3--|-

Der junge Mann darf bei ihm bleiben
die Sunde nistet uberm Bein
so hilft er gern sie auszutreiben
bei Musik und Kerzenschein
-4|-5-5-2---10-10--7----10-10--5----9-9--3---5-5-2--|-
-5|-5-5-2---10-10--7----10-10--5----9-9--3---5-5-2--|-
-6|-3-3-0---8--8---5----8--8---3----7-7--1---3-3-0--|-

Wenn die Turmuhr zweimal schlagt
hallelujah
faltet er die Hande zum Gebet
hallelujah
er ist ohne Weib geblieben
hallelujah
so muss er seinen Nachsten lieben
hallelujah
Wenn die Turmuhr zweimal schlagt
hallelujah
nimmt er den Jungen ins Gebet
hallelujah
er ist der wahre Christ
hallelujah
-4|--5-5-10-10--7---7-7-10-10--5---5-5-9-9--3---3-3-5-5---|(4 times)
-5|--5-5-10-10--7---7-7-10-10--5---5-5-9-9--3---3-3-5-5---|
-6|--3-3-8--8---5---5-5-8--8---3---3-3-7-7--1---1-1-3-3---|

dreht es langsam um.....
dreht es um
4|-2------2------2-------2------3-3-2------2------2-------2------5-5-2|
5|-2------2------2-------2------3-3-2------2------2-------2------5-5-2|
6|-0-0000-0-0000-0--0000-0-0000-1-1-0-0000-0-0000-0--0000-0-0000-3-3-0|
Вверх

Ich Will

F#m
Ich will dass ihr mir vertraut
Cm+1/5
Ich will dass ihr mir glaubt
C
Ich will eure Blicke spьren
F#m
Ich will jeden Herzschlag kontrollieren

G
Ich will eure Stimmen hцren
A
Ich will die Ruhe stцren
G
Ich will dass ihr mich gut seht
A
Ich will dass ihr mich versteht

Ich will eure Phantasie
Ich will eure Energie
Ich will eure Hдnde sehen
Ich will in Beifall untergehen

Seht ihr mich?
Versteht ihr mich?
Fьhlt ihr mich?
Hцrt ihr mich?

Kцnnt ihr mich hцren?
Kцnnt ihr mich sehen?
Kцnnt ihr mich fьhlen?
Ich versteh euch nicht

Ich will

Wir wollen dass ihr uns vertraut
Wir wollen dass ihr uns alles glaubt
Wir wollen eure Hдnde sehen
Wir wollen in Beifall untergehen - ja

Kцnnt ihr mich hцren?
Kцnnt ihr mich sehen?
Kцnnt ihr mich fьhlen?
Ich versteh euch nicht

Kцnnt ihr uns hцren?
Kцnnt ihr uns sehen?
Kцnnt ihr uns fьhlen?
Wir verstehen euch nicht

Ich will
Вверх

Ich Will (2 вариант)

Main Riff
G|---------------------------------------------------------|
D|-0-0-0-0-0--0-0-0-0-0-0-0-0--0-0-0-0-0--0-0-0-0-0-0-0-0--|
A|-0-0-0-0-0--0-0-0-0-0-0-0-0--0-0-0-0-0--0-0-0-0-0-0-0-0--|
D|-0-0-0-0-0--0-0-0-0-0-0-0-0--0-0-0-0-0--0-0-0-0-0-0-0-0--|

G|---------------------------------------------------------|
D|-0-0-0-0-0--0-0-0-0-0-0-0-0--0-0-0-0-0--5-5-5-3-3-3-1-1--|
A|-0-0-0-0-0--0-0-0-0-0-0-0-0--0-0-0-0-0--5-5-5-3-3-3-1-1--|
D|-0-0-0-0-0--0-0-0-0-0-0-0-0--0-0-0-0-0--5-5-5-3-3-3-1-1--|

Another Riff
G|-----------|
D|-0-0-0-0-0-|
A|-0-0-0-0-0-|
D|-0-0-0-0-0-|


Chorus (играть 4 раза)
G|--------------------------|
D|-0----8-5-7--0----8-10-7--|
A|-0----8-5-7--0----8-10-7--|
D|-0----8-5-7--0----8-10-7--|

Без Distortion:

G|-------------------------------------------------------------------|
D|-----0-------0-------0-------0-------8-------8-------8-------------|
A|---5---5---5---0---5---5---5---0---8---8---8---8---8---8---8---7---|
D|-0-------0-------0-------0-------8-------8-------8-------8---7-----|

G|-------------------------------------------------------------------|
D|-----5-------5-------5-------5-------7-------7-------7-------7-----|
A|---5---5---5---5---5---5---5---5---7---7---7---7---7---7---7---7---|
D|-5-------5-------5-------5-------7-------7-------7-------7-------7-|


G|-------------------------------------------------------------------|
D|-----0-------0-------0-------0-------8-------8-------8-------------|
A|---5---5---5---0---5---5---5---0---8---8---8---8---8---8---8---7---|
D|-0-------0-------0-------0-------8-------8-------8-------8---7-----|

G|-------------------------------------------------------------------|
D|-----5-------5-------5-------5-------7-------7-------7-------7-----|
A|---5---5---5---5---5---5---5---5---7---7---7---7---7---7---7---7---|
D|-5-------5-------5-------5-------7-------7-------7-------7-------7-|
Вверх

Ich Will (3 вариант)

Главный Riff
3|--------------------------------------------------------|
4|-6-6-6-6-6--6-6-6-6-6-6-6-6-6-6-6-6-6--6-6-6-6-6-6-6-6--|
5|-6-6-6-6-6--6-6-6-6-6-6-6-6-6-6-6-6-6--6-6-6-6-6-6-6-6--|
6|-4-4-4-4-4--4-4-4-4-4-4-4-4-4-4-4-4-4--4-4-4-4-4-4-4-4--|

3|--------------------------------------------------------|
4|-6-6-6-6-6--6-6-6-6-6-6-6-6-6-6-6-6-6--9-9-9-7-7-7-5-5--|
5|-6-6-6-6-6--6-6-6-6-6-6-6-6-6-6-6-6-6--9-9-9-7-7-7-5-5--|
6|-4-4-4-4-4--4-4-4-4-4-4-4-4-4-4-4-4-4--7-7-7-5-5-5-3-3--|

Another Riff
3|-----------|
4|-6-6-6-6-6-|
5|-6-6-6-6-6-|
6|-4-4-4-4-4-|


Chorus (play four times)
3|---------------------------|
4|-6----10-9-7--6----10-9-7--|
5|-6----10-9-7--6----10-9-7--|
6|-4----8- 7-5--4----8--7-5--|

without Distortion: play two times
Intro1
3|-------------------------------------------|
4|-----6-------6-------6-------6-------10----|
5|---6---6---6---6---6---6---6---6---10---10-|
6|-4-------4-------4-------4-------8---------|

Продолжение Intro1
3|--------------------------------------------|(Intro2)
4|-----10---------10--------------------7-----|
5|--10----10---10----10---10--9--7----7---7---|
6|-8---------8-------------8--7--5------------|

3|-------------------------|
4|-----7-------7-------7---|
5|---7---7---7---7---7---7-|
6|-5-------5-------5-------|


Продолжение Intro2
3|-----------------------------------|
4|-----9-------9-------9-------9-----|
5|---9---9---9---9---9---9---9---9---|
6|-7-------7-------7-------7---------|
Вверх

Klavier

Standard Tuning

Intro:
Eb|-----5---------------------------|
Bb|-------------8-------6---8---5---|
Gb|---5---5---5---5---5-------------|
Db|-7-------7-------7-----7---7-----|
Ab|---------------------------------|
Eb|---------------------------------|
   (0:08)Sie sagen zu mir
Eb|-----5---------------------------|
Bb|-------------8-------6---8---5---|
Gb|---5---5---5---5---5-------------|
Db|-7-------7-------7-----7---7-----|
Ab|---------------------------------|
Eb|---------------------------------|

Eb|-----3---------------------------|
Bb|-------------6-------5---6---5---|
Gb|---5---5---5---5---5-------------|
Db|-3-------3-------3-----3---3-----|
Ab|---------------------------------|
Eb|---------------------------------|

Eb|-----3-------2-------------------|
Bb|---------------------5-------5p3-|
Gb|---4---4---4---4---4---4---4-----|
Db|-2-------2-------2-------2-------|
Ab|---------------------------------|
Eb|---------------------------------|

Riff 1(a)
w/Heavy Metal Distortion
Tremolo Picking

Eb|--------------------------------------|
Bb|--------------------------------------|
Gb|-------------777777777777777777777----|
Db|-88888888888-777777777777777777777----|
Ab|-88888888888-555555555555555555555----|
Eb|-66666666666--------------------------|
(0:57) Dort Dam Klavier

Riff 1(b)
Eb|---------------------------------------|
Bb|---------------------------------------|
Gb|-8888888888888-55555555555555555555555-|
Db|-8888888888888-55555555555555555555555-|
Ab|-6666666666666-33333333333333333333333-|
Eb|---------------------------------------|
    Hielt Ich den Atem Man

Riff 2(a)
w/Heavy Metal Distortion
Tremolo Picking

Eb|--------------------------------------------|
Bb|--------------------------------------------|
Gb|--------------------------------------------|
Db|---9999999999999999999-7777777777777777777--|
Ab|---9999999999999999999-7777777777777777777--|
Eb|-0-7777777777777777777-5555555555555555555--|
 (2:26)

Eb|---------------------------------------------------|
Bb|---------------------------------------------------|
Gb|---------------------------------------------------|
Db|-999999-1010101010101010-777777777777777777-2~~~~--|
Ab|-999999-1010101010101010-777777777777777777-2~~~~--|
Eb|-777777-8888888888888888-555555555555555555-0~~~~~-|

Bb|--12-10-12~~~--------------------------------------|

Sie sagen zu mir
schliess auf diese Tur
die Neugier wird zum Schrei
was wohl dahinter sei
hinter dieser Tur
steht ein Klavier
die Tasten sind staubig
die Saiten sind verstimmt
hinter dieser Tur
sitzt sie am Klavier
doch sie spielt nicht mehr
ach das ist so lang her

dort am Klavier
lauschte ich ihr
und wenn ihr Spiel begann
hielt ich den Atem an

Sie sagte zu mir
ich bleib immer bei dir
doch es hatte nur den Schein
sie spielte fur mich allein
ich goss ihr Blut
ins Feuer meiner Wut
ich verschloss die Tur
man fragte nach ihr

Dort am Klavier
lauschte ich ihr
und wenn ihr Spiel begann
hielt ich den Atem an
dort am Klavier
stand ich bei ihr
es hatte den Schein
sie spielte fur mich allein

Geoffnet ist die Tur
ei wie sie schreien
ich hore die Mutter flehen
der Vater schlagt auf mich ein
man lost sie vom Klavier
und niemand glaubt mir hier
das ich todkrank
von Kummer und Gestank

Dort am Klavier
lauschte ich ihr
und wenn ihr Spiel begann
hielt ich den Atem an
Dort am Klavier
lauschte sie mir
und als mein Spiel begann
hielt sie den Atem an
Вверх

Klavier (2 вариант)

E|----------------------------------------
B|------10---------8--------------8-------
G|---------------------------10------9----
D|---10----10---10---10---10----10-10-10--
A|-0----------0---------0-----------------
E|----------------------------------------

E|-------------------------------------------
B|------10---------8-------------------------
G|---------------------------10---------9----
D|---10----10---10---10---10----10---10---10-
A|-0----------0---------0----------0---------
E|-------------------------------------------

E|-------------------------------------
B|------8------------------------------
G|----------------10---------9---10--9-
D|---10---10---10----10---10---10--10--
A|-8---------8----------8--------------
E|-------------------------------------


E|-----------------------------------
B|-----8-------7---------------------
G|---------------------9-------9-----
D|---9---9---9---9---9---9---9---9---
A|-7-------7-------7-------7---------
E|-----------------------------------
Sie sagen zu mir
schliess auf diese Tur
die Neugier wird zum Schrei
was wohl dahinter sei
hinter dieser Tur
steht ein Klavier
die Tasten sind staubig
die Saiten sind verstimmt
hinter dieser Tur
sitzt sie am Klavier
doch sie spielt nicht mehr
ach das ist so lang her

dort am Klavier
lauschte ich ihr
und wenn ihr Spiel begann
hielt ich den Atem an

Sie sagte zu mir
ich bleib immer bei dir
doch es hatte nur den Schein
sie spielte fur mich allein
ich goss ihr Blut
ins Feuer meiner Wut
ich verschloss die Tur
man fragte nach ihr

Dort am Klavier
lauschte ich ihr
und wenn ihr Spiel begann
hielt ich den Atem an
dort am Klavier
stand ich bei ihr
es hatte den Schein
sie spielte fur mich allein

Geoffnet ist die Tur
ei wie sie schreien
ich hore die Mutter flehen
der Vater schlagt auf mich ein
man lost sie vom Klavier
und niemand glaubt mir hier
das ich todkrank
von Kummer und Gestank

Dort am Klavier
lauschte ich ihr
und wenn ihr Spiel begann
hielt ich den Atem an
Dort am Klavier
lauschte sie mir
und als mein Spiel begann
hielt sie den Atem an
Вверх

Kokain

Riff 1
D |-2---2-2-2---2-2-2-2-2---2-2-2-2-|
A |-2---2-2-2---2-2-2-2-2---2-2-2-2-| X3
D |-2---2-2-2---2-2-2-2-2---2-2-2-2-|
        . .     . . . .     . . . .

Riff 2
D |-2---2-2-2---2-2-2-2-0---0-0-0-0-|
A |-2---2-2-2---2-2-2-2-0---0-0-0-0-| X1
D |-2---2-2-2---2-2-2-2-0---0-0-0-0-|
        . .     . . . .     . . . .

Sind die freunde mir gewogen
Die weisse Fee spannt ihren Bogen
Schiesst meiner sorge ins gesicht
Und auf den beiden hдlften bricht
Der vater aller spiegel
(Riff 1)
Er winkt mir und ich beug mich vor
Er flьstert leise in mein ohr
(Riff 1)
Du bist das schцnste kind (von allen)
Ich halt dich wie mein eigen Blut  [ (Riff 1)X3, (Riff 2)X1 ]Repeat
Du bist das schцnste kind
In mir ist auch das bцse gut

Die neugier meinen traum verlдngert
Die weisse fee sie singt und lacht
Hat gewaltsam mich geschwдngert
Und trдchtig quдlt mich durch die nacht
Der Vater aller spiegel
(Riff 1)
Er winkt mir und ich beug mich vor
er flьstert leise in mein Ohr
(Riff 1)
Du bist das schцnste Kind (von allen)
Ich halt dich wie mein eigen Blut  [ (Riff 1)X3, (Riff 2)X1 ]Repeat
Du bist das schцnste Kind
In mir ist auch das bцse gut

Und wie ich mich der wehen wehre
Auf dem kinderbett noch gehurt
Seh ich dabei zu wie ich gebдre
Und fress die eigne nachgeburt

Du bist das schцnste kind...
Вверх

Laichzeit

Intro a
4|-----------------|-----------------|-----------------|----------------|
5|-----------------|-----------------|-----------------|----------------|
6|-000-000-0-0-3-1-|-000-000-0-0-3-1-|-000-000-0-0-3-1-|-000-000-0-0-3-1|

4|-----------------|-----------------|-----------------|-----------3-5-3|
5|-----------------|-----------------|-----------------|-----------3-5-3|
6|-000-000-0-0-3-1-|-000-000-0-0-3-1-|-000-000-0-0-3-1-|-000-000-0-1-3-1|

4|-----------------|-----------------|-----------------|----------------|
5|-----------------|-----------------|-----------------|----------------|
6|-000-000-0-0-3-1-|-000-000-0-0-3-1-|-000-000-0-0-3-1-|-000-000-0-0-3-1|

4|-----------------|-----------------|-----------------|-----------3-5-3-5-|
5|-----------------|-----------------|-----------------|-----------3-5-3-5-|
6|-000-000-0-0-3-1-|-000-000-0-0-3-1-|-000-000-0-0-3-1-|-000-000-0-1-3-1-3-|

Er liebt die Mutter
und von der Seite
den Fisch gibt er ihr selbst
dieser hautet sich vor leerem Hoden
die alte Haut fallt auf den Boden


Riff a
4|-----------------|-----------------|-----------------|----------------|
5|-----------------|-----------------|-----------------|----------------|
6|-000-000-0-0-3-1-|-000-000-0-0-3-1-|-000-000-0-0-3-1-|-000-000-0-0-3-1|

4|-----------------|-----------------|-----------------|-----------3-5-3-5-|
5|-----------------|-----------------|-----------------|-----------3-5-3-5-|
6|-000-000-0-0-3-1-|-000-000-0-0-3-1-|-000-000-0-0-3-1-|-000-000-0-1-3-1-3-|


Er liebt die Schwester
und von hinten
der Fisch frit sich zum Mund
die Kiemen blutig noch vom saugen
an den roten groen Augen

Laichzeit,
Laichzeit,
Laichzeit,
Laichzeit,
Laichzeit,
Laichzeit,
Laichzeit,
es ist Laichzeit
Riff b
4|-----------------|-----------------|-----------------|----------------|
5|-----------------|-----------------|-----------------|----------------|
6|-000-000-0-0-3-1-|-000-000-0-0-3-1-|-000-000-0-0-3-1-|-000-000-0-0-3-1|

4|-----------------|-----------------|-----------------|-----------3-5-3|
5|-----------------|-----------------|-----------------|-----------3-5-3|
6|-000-000-0-0-3-1-|-000-000-0-0-3-1-|-000-000-0-0-3-1-|-000-000-0-1-3-1|

4|-----------------|-----------------|-----------------|----------------|
5|-----------------|-----------------|-----------------|----------------|
6|-000-000-0-0-3-1-|-000-000-0-0-3-1-|-000-000-0-0-3-1-|-000-000-0-0-3-1|

4|-----------------|-----------------|-----------------|-----------3-5-3-5-
5|-----------------|-----------------|-----------------|-----------3-5-3-5-
6|-000-000-0-0-3-1-|-000-000-0-0-3-1-|-000-000-0-0-3-1-|-000-000-0-1-3-1-3-

-4|-5-5-3-8-6-5-5-5-3-8-6-5-5-5-3-8-6-5-5-3-5-|-5-5-5-3-8-6-5-5-5-3-8-6-5-5-
-5|-5-5-3-8-6-5-5-5-3-8-6-5-5-5-3-8-6-5-5-3-5-|-5-5-5-3-8-6-5-5-5-3-8-6-5-5-
-6|-3-3-1-6-4-3-3-3-1-6-4-3-3-3-1-6-4-3-3-1-3-|-3-3-3-1-6-4-3-3-3-1-6-4-3-3-

-4|-5-3-8-6------------------------------------|
-5|-5-3-8-6------------------------------------|
-6|-3-1-6-4-3-3-3-3-3-3-3-3-3----3---3---3---3-|



Er liebt den Hund
oh Gott von oben
der Fisch jetzt mit der Zunge kust
speit tote Milch dir ins Gesicht
ihn anzufassen wagst du nicht

Laichzeit,
Laichzeit,
Laichzeit,
Laichzeit,
Laichzeit,
uberall Fischmilch
Laichzeit
es ist Laichzeit
4|-----------------|-----------------|-----------------|----------------|
5|-----------------|-----------------|-----------------|----------------|
6|-000-000-0-0-3-1-|-000-000-0-0-3-1-|-000-000-0-0-3-1-|-000-000-0-0-3-1|

4|-----------------|-----------------|-----------------|-----------3-5-3|
5|-----------------|-----------------|-----------------|-----------3-5-3|
6|-000-000-0-0-3-1-|-000-000-0-0-3-1-|-000-000-0-0-3-1-|-000-000-0-1-3-1|

4|-----------------|-----------------|-----------------|----------------|
5|-----------------|-----------------|-----------------|----------------|
6|-000-000-0-0-3-1-|-000-000-0-0-3-1-|-000-000-0-0-3-1-|-000-000-0-0-3-1|

4|-----------------|-----------------|-----------------|-----------3-5-3|
5|-----------------|-----------------|-----------------|-----------3-5-3|
6|-000-000-0-0-3-1-|-000-000-0-0-3-1-|-000-000-0-0-3-1-|-000-000-0-1-3-1|

4|-----------------|-----------------|-----------------|----------------|
5|-----------------|-----------------|-----------------|----------------|
6|-000-000-0-0-3-1-|-000-000-0-0-3-1-|-000-000-0-0-3-1-|-000-000-0-0-3-1|

4|-----------------|-----------------|-----------------|-----------3-5-3-5-
5|-----------------|-----------------|-----------------|-----------3-5-3-5-
6|-000-000-0-0-3-1-|-000-000-0-0-3-1-|-000-000-0-0-3-1-|-000-000-0-1-3-1-3-

-4|-5-5-3-8-6-5-5-5-3-8-6-5-5-5-3-8-6-5-5-3-5-|-5-5-5-3-8-6-5-5-5-3-8-6-5-5-
-5|-5-5-3-8-6-5-5-5-3-8-6-5-5-5-3-8-6-5-5-3-5-|-5-5-5-3-8-6-5-5-5-3-8-6-5-5-
-6|-3-3-1-6-4-3-3-3-1-6-4-3-3-3-1-6-4-3-3-1-3-|-3-3-3-1-6-4-3-3-3-1-6-4-3-3-

-4|-5-3-8-6------------------------------------|
-5|-5-3-8-6------------------------------------|
-6|-3-1-6-4-3-3-3-3-3-3-3-3-3----3---3---3---3-|

Die Mutter hat das Meer geholt
Laichzeit
die Schwestern haben keine Zeit
Laichzeit
der Hund steht winkend am Gestade
Laichzeit
der Fisch braucht seine Einsamkeit
Laichzeit

4|-----------------|-----------------|-5-5-5-3-8-6-5-5-5-3-8-6-|
5|-----------------|-----------------|-5-5-5-3-8-6-5-5-5-3-8-6-|
6|-000-000-0-0-3-1-|-000-000-0-0-3-1-|-3-3-3-1-6-4-3-3-3-1-6-4-|

4|-----------------|-----------------|-5-5-5-3-8-6-5-5-5-3-8-6-|
5|-----------------|-----------------|-5-5-5-3-8-6-5-5-5-3-8-6-|
6|-000-000-0-0-3-1-|-000-000-0-0-3-1-|-3-3-3-1-6-4-3-3-3-1-6-4-|

4|-----------------|-----------------|-5-5-5-3-8-6-5-5-5-3-8-6-|
5|-----------------|-----------------|-5-5-5-3-8-6-5-5-5-3-8-6-|
6|-000-000-0-0-3-1-|-000-000-0-0-3-1-|-3-3-3-1-6-4-3-3-3-1-6-4-|

4|-----------------|-----------------|-5-5-5-3-8-6-5-5-5-3-8-6-|
5|-----------------|-----------------|-5-5-5-3-8-6-5-5-5-3-8-6-|
6|-000-000-0-0-3-1-|-000-000-0-0-3-1-|-3-3-3-1-6-4-3-3-3-1-6-4-|

6|-1-1-1--1-1-1--0--0--1-1-1--1-1-1--0--0--1-1-1--1-1-1--0--0--1|
Вверх

Links 2-3-4

 Основной ход:

6|-4-4-4-4-4-4-4-4-4-4-7-9-10-
5|-4-4-4-4-4-4-4-4-4-4-7-9-10-
4|-2-2-2-2-2-2-2-2-2-2-5-7-8--

6|4/-7-7-7-7-7-7-7-7-9-9-9-9-9-9-9-9-10-10-10-10-10-10-10-10
5|4/-7-7-7-7-7-7-7-7-9-9-9-9-9-9-9-9-10-10-10-10-10-10-10-10
4|2/-5-5-5-5-5-5-5-5-7-7-7-7-7-7-7-7-8—-8--8--8--8--8--8--8-

Kann man Herzen brechen
konnen Herzen sprechen
kann man Herzen qualen
kann man Herzen stehlen

Sie wollen mein Herz am rechten Fleck
doch seh ich dann nach unten weg
da schlagt es links

Konnen Herzen singen
kann ein Herz zerspringen
konnen Herzen rein sein
kann ein Herz aus Stein sein

Sie wollen mein Herz am rechten Fleck
doch seh ich dann nach unten weg
da schlagt es links 2 3 4

Kann man Herzen fragen
ein Kind darunter tragen
kann man es verschenken
mit dem Herzen denken

Sie wollen mein Herz am rechten Fleck
doch seh ich dann nach unten weg
da schlagt es in der linken Brust
der Neider hat es schlecht gewusst
Вверх

Links 2-3-4 (2 вариант)

Kann man Herzen brechen
konnen Herzen sprechen
kann man Herzen qualen
kann man Herzen stehlen

Sie wollen mein Herz am rechten Fleck
doch seh ich dann nach unten weg
da schlagt es links

Konnen Herzen singen
kann ein Herz zerspringen
konnen Herzen rein sein
kann ein Herz aus Stein sein

Sie wollen mein Herz am rechten Fleck
doch seh ich dann nach unten weg
da schlagt es links 2 3 4

Kann man Herzen fragen
ein Kind darunter tragen
kann man es verschenken
mit dem Herzen denken

Sie wollen mein Herz am rechten Fleck
doch seh ich dann nach unten weg
da schlagt es in der linken Brust
der Neider hat es schlecht gewusst
Main Riff x4

3|-----9-------9-------9-----------------
4|-----9-------9-------9--x-x--5-7-x-8---
5|-----7-------7-------7--x-x--5-7-x-8---
6|-0-0---0-0-0---0-0-0----x-x--3-5-x-6---
p.m...   .....   .....

Chorus:

4|--2-2-2-2-2-2---5-5-5-5-5-5--7-7-7-7-7-7-7-7-7-7-7-7-7-7-7
5|--2-2-2-2-2-2---5-5-5-5-5-5--7-7-7-7-7-7-7-7-7-7-7-7-7-7-7
6|--0-0-0-0-0-0---3-3-3-3-3-3--5-5-5-5-5-5-5-5-5-5-5-5-5-5-5
Вверх

Mein Herz Brennt mp3

Dm               Gm
Nun liebe Kinder gebt fein acht
B(VI)              C
Ich bin die Stimme aus dem Kissen
Dm                 Gm
Ich hab euch etwas mitgebracht
B                 C
Hab es aus meiner Brust gerissen

Mit diesem Herz hab ich die Macht
Die Augenlider zu erpressen
Ich singe bis der Tag erwacht
Ein heller Schein am Firmament

            Dm   Ddim
Mein Herz brennt

Sie kommen zu euch in der Nacht
Damonen Geister schwarze Feen
Sie kriechen aus dem Kellerschacht
Und werden unter euer Bettzeug sehen

Nun liebe Kinder gebt fein acht
Ich bin die Stimme aus dem Kissen
Ich hab euch etwas mitgebracht
Ein heller Schein am Firmament
Mein Herz brennt

Все аккорды желательно играть с барре, правда реминор в нек.
местах звучит лучше без. Для того чтоб исполнение разнообразить
советую играть вначале перебором. На электрухе, ясное дело,
можно риффы вставить в припеве, ну и т.д.

Эти позиции на акустике играются боем по первым 4-м струнам.
На эл. просто Dm на 12-м ладу, где басовая "ля" через каждые
2 такта меняется на "ля бемоль".

1|-1--0--1--0----1--0--1--4-
2|-3--3--3--3----3--3--3--3-
3|-2--2--1--1----2--2--1--4-
4|-0--0--0--0----0--0--0--0-
Вверх

Mutter mp3

Fm                  G#            C
Die Tranen greiser Kinderschar …
Ich zieh sie auf ein weisses Haar …
Fm                    G#          C
Werf in die Luft die nasse Kette,
Und wunsch mir, dass ich eine Mutter hatte -
Keine Sonne, die mir scheint,
Keine Brust hat Milch geweint …
In meiner Kehle steckt ein Schlauch,
Hab keinen Nabel auf dem Bauch …
Fm G# C
MUTTER
Ich durfte keine Nippel lecken,
Und keine Falte zum Verstecken
Niemand gab mir einen Namen.
Gezeugt in Hast und ohne Samen,
Der Mutter, die mich nie geboren.
Hab ich heute Nacht geschworen,
Ich werd ihr eine Krankheit schenken,
Und sie danach im Fliss versenken.
Fm G# C
MUTTER
C#                             D#
In ihren Lungen wohnt ein Aal.
                       C
Auf meiner Stirn ein Muttermal,
Entferne es mit Messers Kuss,
Auch wenn ich daran sterben muss.
Gm B D
MUTTER
D#                              F
In ihren Lungen wohnt ein Aal.
                        D
Auf meiner Stirn ein Muttermal,
Entferne es mit Messers Kuss,
Auch wenn ich verbluten muss.
Gm B D
MUTTER
Вверх

Mutter (2 вариант) mp3

Intro
E---------------7----------------
B-------8---8-7---8-----10-------
G-----9---9---------9------------
D---9-----------------9----------
A-7------------------------------
E--------------------------------

2 раза:
E-----------7--------------------
B---------7---7------------------
G-------8-------8----------------
D-----9--------------------------
A---9----------------------------
E-7------------------------------

Distortion Part
(Guitar 1)
E-------------
B-------------
G---------7-4-
D-2-2-5-7-7-4-
A-2-2-5-7-5-2-
E-0-0-3-5-----

(Guitar 2)
E-------------------------------------
B-------------12--12-12-10------------
G-8/9-9--9/12---------------11--12-11-
D-------------------------------------
A-------------------------------------
E-------------------------------------

Second time they play the distortion part (guitar 2)
E----------------------------------------
B-------------12--12-12-10------12-10----
G-8/9-9--9/12---------------11--------12-
D----------------------------------------
A----------------------------------------
E----------------------------------------

Next Part (2:19)
E------------------------
B------------------------
G-11/12---14-11---17--14-
D------------------------
A--9/10---12--9---15--12-
E------------------------

(2:36)Keyboard part 1
E----------------------7---8-
B-----5-8-7-5---8---5----5---
G-------------8--------------
D----------------------------
A----------------------------
E-0--------------------------

(2:36)Keyboard part 2 (played over part 1)
E----------------------
B----------------------
G-16--16-15------------
D-----------16---14-16-
A----------------------
E----------------------

(2:56) Guitar 1
E--------------
B--------------
G----------9-6-
D-4-4/7/9--9-6-
A-4-4/7/9--7-4-
E-2-2/5/7------

Guitar 2
E-------------------------------------------
B----------------14--14--14-14-12-----------
G-10/11-11-11/14------------------13--14-13-
D-------------------------------------------
A-------------------------------------------
E-------------------------------------------

(3:29)
E
B
G-11--13----
D--------11-
A--9--11----
E---------9-

Ending Note
E---
B---
G---
D-4-
A-4-
E-2-
Вверх

Nebel

verse:
(muted)
e|3555|3555|3555|35555|

chorus:
(distored)
  A   E   F   D   E   H   C   A
e|--------------------------------|
h|--------------------------------|
G|------------33335555------------|
D|33332222333333335555555566664444|
A|33332222333355557777555566664444|
E|555500001111--------777788885555|

названия квинтов мог напутать - писал на память,
а нарисованно все правильно.
Вверх

Rammstein

Intro a (four times)
4|-----4h5-----4h5-----4h5--5h4-|
5|-----2h3-----2h3-----2h3--3h2-|
6|-0-0-----0-0-----0-0----------|

Rammstein
Ein Mensch brennt
Rammstein
Fleischgeruch liegt in der Luft
Rammstein
ein Kind stirbt
Rammstein
die Sonne scheint
Intro a
4|-----4h5-----4h5-----4h5--5h4-|
5|-----2h3-----2h3-----2h3--3h2-|
6|-0-0-----0-0-----0-0----------|

в конце intro a (two times0 4|-----------------|
                            5|-5-2---------5-2-|
                            6|-3-0--000000-3-0-|
Intro a
Rammstein
ein Flammenmeer
Rammstein
Blut gerinnt auf dem Asphalt
Rammstein
Mutter schreien
Rammstein
die Sonne scheint

Rammstein
ein Massengrab
Rammstein
kein Entrinnen
Rammstein
kein Vogel singt mehr
Rammstein
die Sonne scheint

Solo
1|-7-9-10-9-7-9-10-9-7-9-10-9-7-9-7-9-|-7-9-10-9-7-9-10-9-7-9-10-9-7-9-7-9-|-
-1|-7-9-10-9-7-9-10-9-7-9-10-9-7-9-7-9-|-7-9-10-9-7-9-10-9-2-3-5-3-2-2h3-|
Rammstein
Вверх

Seemann

1||--------------------------------
2||--3---1-------------------------
3||----------3---2---0---0---2---2-
4||-0-0-0-0-0-0-0-0-0-0-0-0-0-0-0-0
5||1---1---1---1---0---0---0---0---
6||--------------------------------

продолжение...
----------------------------------|
----------------------------------|
--3---2---0-----------------------|
-0-0-0-0-0-0--3----0-------0---0--|
-------------5-5--0-0-0-0-0-0-0-0-|
3---3---3---3----0---0-9-0---0---0|

Дальше аккордами,а по идеи это вторая гитара должна
делать,на фоне intro (там вообще-то ещё и distortion
нехилый,но можно и без него):A#m(V),Am(V),G(III),Em

Только,если на акустике играть,то лучше только
верхние 3 струны.

Таким образом:
    A#m(V)   Am(V)  G(III) G#(III)
1||---x---|---x---|---x---|---x---|
2||---x---|---x---|---x---|---x---|
3||---x---|---x---|---x---|---x---|
4||---8---|---7---|---5---|---6---|
5||---8---|---7---|---5---|---6---|
6||---6---|---5---|---3---|---4---|
Потом опять Intro,там так и чередуется,
когда куплет - только Intro,когда припев
Intro+Гитара№2.


1||-9-10-10-12-13-14-12-9-10-10-13-13-12-13-8-7-5-7-8-------|||

Текст:
Komm in mein Boot
Ein Sturm kommt auf
Und es wird Nacht

Wo willst du hin
So ganz allein
Treibst du davon

Wer halt deine Hand
Wenn es dich
Nach unten zieht

Wo willst du hin
So uferlos
Die kalte See

Komm in mein Boot
Der Herbstwind halt
Die Segel straff

CHORUS:
      Jetzt stehst du da an der Laterne
      Mit Tranen im Gesicht
      Das Tageslicht fallt auf die Seite
      Der Herbstwind fegt die Strasse leer

      Jetzt stehst du da an der Laterne
      Hast Tranen im Gesicht
      Das Abendlicht verjagt die Schatten
      Die Zeit steht still und es wird Herbst

Komm in mein Boot
Die Sehnsucht wird
Der Steuermann

Komm in mein Boot
Der beste Seemann
War doch ich

CHORUS:
      Jetzt stehst du da an der Laterne
      Hast Tranen im Gesicht
      Das Feuer nimmst du von der Kerze
      Die Zeit steht still und es wird Herbst

      Sie sprachen nur von deiner Mutter
      So gnadenlos ist nur die Nacht
      Am Ende bleib ich doch alleine
      Die Zeit steht still und mir ist kalt
                               ...kalt...kalt..kalt...

Перевод:

 Моряк
Войди в мою лодку,
Шторм прибывает,
И наступает ночь,
Куда хочешь ты?
Я совершенно одинок,
Ты уведи меня отсюда,
Кто держит твою руку,
Когда тебя
Вниз тянет?

Куда хочешь ты?
Так бесконечно
Холодное море,
Войди в мою лодку,
Осенний ветер натягивает
Паруса туго.

Теперь ты стоишь там под фонарем
Со слезами на лице,
Дневной свет падает в сторону,
Осенний ветер подметает улицы.

Теперь ты стоишь там под фонарем
Со слезами на лице,
Вечерний свет прогонит тени,
Время остановилось и наступает осень.

Войди в мою лодку,
Тоска станет
Штурманом.
Войди в мою лодку,
Лучшим моряком
Был все же я.

Теперь ты стоишь там под фонарем
Со слезами на лице,
Огонь ты берешь от свечи,
Время стоит и наступает осень.

Они говорили только о твоей матери,
Так безжалостна - только ночь,
В конце я все равно останусь один,
Время останавливается
И мне холодно...
Вверх

Seemann (2 вариант)

              A                           G#m
1-ая ---------------------   1-ая --------------------
2-ая --2----0-------------   2-ая --------------------
3-ая -------------2----1--   3-ая --------------------
4-ая -2-2--2--2--2-2--2-2-   4-ая --4----4----6----6--
5-ая 0----0-----0----0----   5-ая -6-6--6-6--6-6--6-6-
6-ая ---------------------   6-ая 4----4----4----4----

             F#m                          C#m
1-ая --------------------    1-ая --------------------
2-ая --------------------    2-ая --------------------
3-ая --2-----------------    3-ая --6----5----6----6--
4-ая -------6----4----2--    4-ая -6-6--6-6--6-6--6-6-
5-aя -4-4--4-4--4-4--4-4-    5-ая 4----4----4----4----
6-ая 2----2----2----2----    6-ая --------------------

Вступление, основной текст (куплеты) и окончание играются такими
вот переборами.

CHORUS же для акустической гитары можно играть боем
(аккорды остаются теми же)

Текст песни:

 A            G#m
Komm in mein Boot
      F#m
ein Sturm kommt auf
             C#m
und es wird Nacht

 A            G#m
Wo willst du hin
    F#m
so ganz allein
             C#m
treibst du davon

 A            G#m
Wer halt deine Hand
     F#m
wenn es dich
            C#m
nach unten zieht

Тяжёлый проигрыш (аккордами :)) , затем - опять перебор:

Wo willst du hin
so uferlos
die kalte See

Komm in mein Boot
der Herbstwind halt
die Segel straff

CHORUS:          A                     G#m
          Jetzt stehst du da an der Laterne
               F#m        C#m
          Mit Tranen im Gesicht
               A                       G#m
          Das Tageslicht fallt auf die Seite
               F#m                        C#m
          Der Herbstwind fegt die Strasse leer

                  A                    G#m
          Jetzt stehst du da an der Laterne
                F#m         C#m
          Hast Tranen im Gesicht
                A                      G#m
          Das Abendlicht verjagt die Schatten
               F#m                          C#m
          Die Zeit steht still und es wird Herbst

Komm in mein Boot
die Sehnsucht wird
der Steuermann

Komm in mein Boot
der beste Seemann
war doch ich

CHORUS:  Jetzt stehst du da an der Laterne
         Hast Tranen im Gesicht
         Das Feuer nimmst du von der Kerze
         Die Zeit steht still und es wird Herbst

         Sie sprachen nur von deiner Mutter
         So gnadenlos ist nur die Nacht
         Am Ende bleib ich doch alleine
         Die Zeit steht still und mir ist kalt
                                 ...kalt...kalt..kalt...

Проигрыш перебором - 1 раз.
Вверх

Sehnsucht

main riff:
3)           9   8    10   9  12    9    9    10    9>7
4)           9   8    10   9  12    9    9    10    9>7
5)           7   6     8   7  10    7    7     8    7>5
6) 0 0 0

INTRO: main riff x4

1) 8 7 0    0 6 7 8 7 5    5 6 7

куплеты можно играть просто на аккорде Em

Lass mich deine Trane reiten
ubers Kinn nach Afrika
wieder in den Schoss der Lowin
wo ich einst zuhause war
Zwischen deine langen Beinen
such den Schnee vom letzten Jahr
doch es ist kein Schnee mehr da

INTRO.

Lass mich deine Trane reiten
uber Wolken ohne Gluck
der grosse Vogel schiebt den Kopf
sanft in sein Versteck zuruck
Zwischen deine langen Beinen
such den Sand vom letzten Jahr
doch es ist kein Sand mehr da

main riff:
Sehnsucht versteckt
sich wie ein Insekt
im Schlafe merkst du nicht
dass es dich sticht
glucklich werd ich nirgendwo
der Finger rutscht nach Mexiko
doch er versinkt im Ozean
A5
Sehnsucht ist so grausam

main riff:
SEHNSUCHT!
SEHNSUCHT!
SEHNSUCHT!
SEHNSUCHT!

небольшой проигрыш: C5 G5 A5 E5

SEHNSUCHT!
SEHNSUCHT!
SEHNSUCHT!
SEHNSUCHT!

C5 G5 A5 E5

E5
Sehnsucht versteckt
sich wie ein Insekt
     C5		           C5 H5
im Schlafe merkst du nicht
A5		A5 A5 G5 F#5
dass es dich sticht
glucklich werd ich nirgendwo
der Finger rutscht nach Mexiko
doch er versinkt im Ozean
Sehnsucht ist so grausam

main riff:
SEHNSUCHT!
SEHNSUCHT!
SEHNSUCHT!
SEHNSUCHT!
SEHNSUCHT!
SEHNSUCHT!
SEHNSUCHT!
SEHNSUCHT!
Вверх

Sonne mp3

 Dm
 Ein zwei drei vier funf sechs sieben acht neun auch
 Dm(q) – 4eins

 Dm
   Alle warten auf das licht
 Dm(q) – 1eins
 Dm
   Furchtet euch furchtet euch nicht
 Dm(q) – 1eins
 Dm
   Die sonne scheint mir aus den augen
 Dm(q) – 1eins
 Dm
   Sie wird heute nacht nicht untergehen
 Hm
   Und die welt zahlt laut bis zehn

 Hm Em      D         C
      Hier commt die sonne
 Hm Em      D         C
      Hier commt die sonne
    Em             Hm       G       F#m
      Sie ist der hellste stern von allen
 Em Hm      G         F#m
      Hier commt die sonne
 Dm(q) – 2eins

 Dm
   Die sonne scheint mir aus den handen
 Dm
   Kann verbrenden kann euch blenden
 Dm
   Wenn sie aus den fausten bricht
 Dm
   Legt sich heiss auf das gesicht
 Dm(q) – 1eins
 Dm
   Sie wird heut nacht nicht untergehen
 Dm(q) – 1eins
 Hm
   Und die welt zahlt laut bis zehn

 Hm Em      D         C
      Hier commt die sonne
 Hm Em      D         C
      Hier commt die sonne
    Em             Hm       G       F#m
      Sie ist der hellste stern von allen
 Em Hm      G         F#m
      Hier commt die sonne
 Hm Em      D         C
      Hier commt die sonne
 Hm Em      D         C
      Hier commt die sonne
    Em             Hm       G       F#m
      Sie ist der hellste stern von allen
 Em Hm      G         F#m
      Hier commt die sonne


 Hm                      Em
   Die sonne scheint mir aus den handen
  D                 C
   Kann verbrenden kann euch blenden
 Hm                  Em
   Wenn sie aus den fausten bricht
  D                     C
   Legt sich heiss auf das gesicht
    Em                  Hm
   Legt sich schmerzend auf die brust
         G                 F#m
   Das gleichgewicht wird zum verlust
 Em                    Hm
   Lasst dich hart zu boden gehen
  G                    F#m
   Und die welt zahlt laut bis zehn

 Hm Em      D         C
      Hier commt die sonne
 Hm Em      D         C
      Hier commt die sonne
    Em             Hm       G       F#m
      Sie ist der hellste stern von allen
    Em          Hm      G      F#m
      Und wird nie vom himmel fallen
 Hm Em      D         C
      Hier commt die sonne
 Hm Em      D         C
      Hier commt die sonne
    Em             Hm       G       F#m
      Sie ist der hellste stern von allen
 Em Hm      G         F#m
      Hier commt die sonne

 Hm Em D C
 Hm Em D C
 Em Hm G F#m
 Em Hm G F#m

 Dm(q):

 3-ая(G) |-----1--0--1--0--|-----1--0--1--|
 4-ая(D) |-0--0----------0-|-0--0-------0-|

Перевод:
Раз, два, три, четыре, пять, шесть, семь, восемь, девять, все
Все ждут света.
Если боитесь – не бойтесь,
Солнце светит из моих глаз.
Оно сегодня на ночь не закатится
И мир громко считает до десяти.

Раз
Восходит солнце
Два
Восходит солнце
Три
Оно – ярчайшая звезда из всех
Четыре
Восходит солнце

Солнце светит из моих рук,
Может сжечь, может вас ослепить.
Когда вы выдыхаете через кулак,
Теплом ложиться вам на лицо.
Оно сегодня не закатится,
И мир громко считает до десяти.

Раз
Восходит солнце
Два
Восходит солнце
Три
Оно – ярчайшая звезда из всех
Четыре
С неба не упадет никогда
Пять
Восходит солнце
Шесть
Восходит солнце
Семь
Оно – ярчайшая звезда из всех
Восемь, девять
Восходит солнце

Солнце светит у меня из рук,
Может сжечь, может ослепить
Когда вы выдыхаете через кулак,
Теплом ложиться на лицо.
И на грудь болезненно,
Может в нокаут спокойно отправить.
И мир громко считает до десяти.

Раз
Восходит солнце
Два
Восходит солнце
Три Оно – ярчайшая звезда из всех
Четыре И с неба никогда не упадет
Пять
Восходит солнце
Шесть
Восходит солнце
Сем
Оно – ярчайшая звезда из всех
Восемь, девять
Восходит солнце
Вверх

Sonne (2 вариант) mp3

Intro (Hard Distortion)


   Fm  ?m  Bb
1:-1---2---1------
2:-1---2---1------
3:-1---4---3------
4:-3---4---3------
5:-3---2---1------
6:-1---2---1------
          /
       Slide

куплет = intro


Chorus:

   Fm  Cm  Dm# Cm#
1:-1---3---6---4----
2:-1---4---6---4----
3:-1---5---4---6---- x2
4:-3---5---4---6----
5:-3---3---6---4----
6:-1---3---6---4----

   E# Cm Dm# Cm#  Fm Cm Dm# Cm#
1:--8--3--6---5----1--3--6---5--
2:--9--4--6---5----1--4--6---5--
3:--10-5--4---6----1--5--4---6--
4:--10-5--4---6----3--5--4---6--
5:--8- 3--6---4----3--3--6---4--
6:--8--3--6---4----1--3--6---4--
Вверх

Sonne (3 вариант) mp3

Drop D tuning

E||----------------------|-----------------|--------------------|
B||----------------------|-----------------|--------------------|
G||----------------------|-----------------|--------------------|
D||--0--6--0--6--5--0----|--0--6--0--6--0--|--0--6--0--6--5--0--|
A||--0--6--0--6--5--0----|--0--6--0--6--0--|--0--6--0--6--5--0--|
D||--0--6--0--6--5--0----|--0--6--0--6--0--|--0--6--0--6--5--0--|



-------------------------||
-------------------------||
-------------------------||
--0--6--0--5--5--5--5----||
--0--6--0--5--5--5--5----||
--0--6--0--5--5--5--5----||


	Eins					Zwei
E||--------------------------|--------------------------|
B||--------------------------|--------------------------|
G||--------------------------|--------------------------|
D||--4-4-4-9-9-9-7-7-7-5-5-5-|--4-4-4-9-9-9-7-7-7-5-5-5-|
A||--2-2-2-7-7-7-5-5-5-3-3-3-|--2-2-2-7-7-7-5-5-5-3-3-3-|
D||--------------------------|--------------------------|


     Drei				Vier
--------------------------|--------------------------||
--------------------------|--------------------------||
--------------------------|--------------------------||
--9-9-9-9-9-9-5-5-5-4-4-4-|--9-9-9-9-9-9-5-5-5-4-4-4-||
--7-7-7-9-9-9-5-5-5-4-4-4-|--7-7-7-9-9-9-5-5-5-4-4-4-||
--------9-9-9-5-5-5-4-4-4-|--------9-9-9-5-5-5-4-4-4-||



   Alle warten auf das licht
   Furchtet euch furchtet euch nicht
   Die sonne scheint mir aus den augen
   Sie wird heute nacht nicht untergehen
   Und die welt zahlt laut bis zehn
      Hier commt die sonne
      Hier commt die sonne
     Sie ist der hellste stern von allen
       Hier commt die sonne
    Die sonne scheint mir aus den handen
   Kann verbrenden kann euch blenden
   Wenn sie aus den fausten bricht
   Legt sich heiss auf das gesicht
   Sie wird heut nacht nicht untergehen
   Und die welt zahlt laut bis zehn
      Hier commt die sonne
      Hier commt die sonne
      Sie ist der hellste stern von allen
      Hier commt die sonne
      Hier commt die sonne
      Hier commt die sonne
      Sie ist der hellste stern von allen
      Hier commt die sonne
   Die sonne scheint mir aus den handen
   Kann verbrenden kann euch blenden
   Wenn sie aus den fausten bricht
   Legt sich heiss auf das gesicht
   Legt sich schmerzend auf die brust
   Das gleichgewicht wird zum verlust
   Lasst dich hart zu boden gehen
   Und die welt zahlt laut bis zehn
      Hier commt die sonne
      Hier commt die sonne
     Sie ist der hellste stern von allen
     Und wird nie vom himmel fallen
     Hier commt die sonne
    Hier commt die sonne
     Sie ist der hellste stern von allen
     Hier commt die sonne
Вверх

Spieluhr mp3

After Till first talks:
G|--------|
D|---3----|
A|---3----|
D|---1----|

Intro/Verse:
F5, G#5

Chorus:
G#5 - hoppe hoppe Reiter
D5- und kein  Engel.....
C5- mein Herz.....
Bb5- nur der Regen...

F5, E5

Back to chorus

Ein kleiner Mensch stirbt nur zum Schein
wollte ganz alleine sein
das kleine Herz stand still fьr Stunden
so hat man es fьr tot befunden
es wird verscharrt in nassem Sand
mit einer Spieluhr in der Hand

Der erste Schnee das Grab bedeckt
hat ganz sanft das Kind geweckt
in einer kalten Winternacht
ist das kleine Herz erwacht

Als der Frost ins Kind geflogen
hat es die Spieluhr aufgezogen
eine Melodie im Wind
und aus der Erde singt das Kind

Hoppe hoppe Reiter
und kein Engel steigt herab
mein Herz schlдgt nicht mehr weiter
nur der Regen weint am Grab
hoppe hoppe Reiter
eine Melodie im Wind
mein Herz schlдgt nicht mehr weiter
und aus der Erde singt das Kind

Der kalte Mond in voller Pracht
hцrt die Schreie in der Nacht
und kein Engel steigt herab
nur der Regen weint am Grab

Zwischen harten Eichendielen
wird es mit der Spieluhr spielen
eine Melodie im Wind
und aus der Erde singt das Kind

Hoppe hoppe Reiter
und kein Engel steigt herab
mein Herz schlдgt nicht mehr weiter
nur der Regen weint am Grab
hoppe hoppe Reiter
eine Melodie im Wind
mein Herz schlдgt nicht mehr weiter
und aus der Erde singt das Kind

Hoppe hoppe Reiter
mein Herz schlдgt nicht mehr weiter

Am Totensonntag hцrten sie
aus Gottes Acker diese Melodie
da haben sie es ausgebettet
das kleine Herz im Kind gerettet

Hoppe hoppe Reiter
eine Melodie im Wind
mein Herz schlдgt nicht mehr weiter
und auf der Erde singt das Kind
hoppe hoppe Reiter
und kein Engel steigt herab
mein Herz schlдgt nicht mehr weiter
nur der Regen weint am Grab

Thank you that love RAMMSTEIN
Вверх

Stripped

beggining guitar riff
E---------------------------------------------------------------------
B---------------------------------------------------------------------
G---------------------------------------------------------------------
D--2----7*------------------------------------------------------------
A--2------------------------------------------------------------------
E--0------------------------------------------------------------------
Let me see you stripped...
E---------------------------------------------------------------------
B---------------------------------------------------------------------
G--7--2--5------------------------------------------------------------
D--7--2--5--2---------------------------------------------------------
A--5--0--3--2---------------------------------------------------------
E-----------0---------------------------------------------------------
Guitar part 3:20
E---------------------------------------------------------------------
B---------------------------------------------------------------------
G--9--11---14-16----19---------19-------------------------------------
D-----------------------17--------17----------------------------------
A--7--9----12--14---17---------17-------------------------------------
E-----------------------15----------15--------------------------------
Play along with the song if you get lost...
Вверх

Tier

настройка на D

|-e-|
|-B-|
|-G-|
|-D-|
|-A-|
|-D-|

аккорды

  G     A#    C     D

|-5-| |-1-| |-0-| |-3-|
|-5-| |-3-| |-1-| |-2-|
|-0-| |-3-| |-0-| |-3-|
|-0-| |-3-| |-2-| |-0-|
|-5-| |-1-| |-3-| |-0-|
|-5-| |---| |---| |-0-|




акустическое начало/конец

G A# C D

G A# C



гланый рифф

|----------------------------------------------------------|
|----------------------------------------------------------|
|-----------------8-7-5/7---------------------8-10-87-----|
|-----------------8-7-5/7---------------------8-10-87-----|
|-3h5-----3h5-----6-5-3/5-----3h5-----3h5-----6--8-65-----|
|-----0-0-----0-0---------0-0-----0-0-----0-0----------0-0-|
pm.] pm.] pm.] pm.] pm.] pm.]



хорус

|-----------------|-----------------|-----------------------|-----------------|
|-----------------|-----------------|-----------------------|-----------------|
|-----------------|-----------------|-----------------------|-----------------|
|-----------------|-----------------|-----------------------|-----------------|
|-3h5-5-5-3h5-5-5-|-5h8-8-8-5h8-8-8-|-8h10-10-10-8h10-10-10-|-0h3-3-3-0h3-3-3-|
|-3h5-5-5-3h5-5-5-|-5h8-8-8-5h8-8-8-|-8h10-10-10-8h10-10-10-|-0h3-3-3-0h3-3-3-|
pm.] pm.] pm.] pm.] pm...] pm...] pm.] pm.]



клавишные
|------5-----1-----3-------|
|-3------------------------|
|--------------------------|
|--------------------------|
|--------------------------|
|--------------------------|

Was macht ein Mann
was macht ein Mann
der zwischen Mensch und Tier
nicht unterscheiden kann
was

Er wird zu seiner Tochter gehen
sie ist schon und jung an Jahren
und dann wird er wie ein Hund
mit eigen Fleisch und Blut sich paaren

Was - tust du
Was - fuhlst du
Was - bist du
doch nur ein Tier

Was macht die Frau
was macht die Frau
die zwischen Tier und Mann
nicht unterscheiden kann

Sie taucht die Feder in sein Blut
schreibt sich selber einen Brief
entseelte Zeilen an die Kindheit
als der Vater bei ihr schlief

Was - tust du
Was - fuhlst du
Was - bist du
doch nur ein Tier
Вверх

Tier (2 вариант)

Все песни Rammstein играются на гитаре с расстроеной струной. Чтобы правильн ее
расстроить нужно опустить 6-ую струну на 2 лада(чтобы 4-ая и 6-ая звучали в унисон).

Проигрыш:
D|10/12-------10/12-------13----12----10/12------|
A|10/12-------10/12-------13----12----10/12------|
D|10/12-12-12-10/12-12-12-13-13-12-12-10/12-12-12|

D|10/12-------10/12-------13----15----1312------|
A|10/12-------10/12-------13----15----1312------|
D|10/12-12-12-10/12-12-12-13-13-15-15-1312-12-12|

Was macht ein Mann
was macht ein Mann
der zwischen Mensch und Tier
nicht unterscheiden kann
was

Er wird zu seiner Tochter gehen
sie ist schon und jung an Jahren
und dann wird er wie ein Hund
mit eigen Fleisch und Blut sich paaren

Was tust du
Was fuhlst du
Was bist du
doch nur ein
Tier

Was macht die Frau
was macht die Frau
die zwischen Tier und Mann
nicht unterscheiden kann

Sie taucht die Feder in sein Blut
schreibt sich selber einen Brief
entseelte Zeilen an die Kindheit
als der Vater bei ihr schlief

Was tust du
Was fuhlst du
Was bist du
doch nur ein Tier

Второй проигрыш(2 раза):
D|5-----5-----8-----8-----10-------10-------3-----3----|
A|5-----5-----8-----8-----10-------10-------3-----3----|
D|5-5-5-5-5-5-8-8-8-8-8-8-10-10-10-10-10-10-3-3-3-3-3-3|
Вверх

Tier (3 вариант)

Гитара 1 играет вступление:
 A,H
---------------------------------------------|
---------------------------------------------|
---------------------------------------------|
---------------------------------------------|
---5p7--5p7--8-7-5p7--5p7--5p7--8-8/10-87---|
---------------------------------------------|

 A,H
---------------------------------------------|
---------------------------------------------|
---------------------------------------------|
---------------------------------------------|
---5p7--5p7--8-7-5p7--5p7--5p7--8-8/10-87---|
---------------------------------------------|


Затем присоединяется гитара 2:

-----------------------------------------------------------------------|
-----------------------------------------------------------------------|
-----------------------------------------------------------------------|
--5/7--5/7--8--7--5/7---5/7--5/3-8--10--87----------------------------|
--5/7--5/7--8--7--5/7---5/7--5/3-8--10--87----------------------------|
--3/5--5/5--6--5--3/5---3/5--5/3-6--8---65----------------------------|


Во время припева,где Тилль после слов "doch nur ein... " поет:"Tier" гитара 1 играет
следующее:

----------------------------------------------------------------------|
----------------------------------------------------------------------|
----------------------------------------------------------------------|
-5/7--5/7--5/7--5/7--5/7--5/7--5/7--5/7--5/7--5/7--5/7--5/7--5/7------|
-5/7--5/7--5/7--5/7--5/7--5/7--5/7--5/7--5/7--5/7--5/7--5/7--5/7------|
-3/5--3/5--3/5--5/5--3/5--3/5--3/7--3/5--3/5--3/5--3/5--3/5--3/5------|


Was macht ein Mann
was macht ein Mann
der zwischen Mensch und Tier
nicht unterscheiden kann
was

Er wird zu seiner Tochter gehen
sie ist schon und jung an Jahren
und dann wird er wie ein Hund
mit eigen Fleisch und Blut sich paaren

Was - tust du
Was - fuhlst du
Was - bist du
doch nur ein Tier

Was macht die Frau
was macht die Frau
die zwischen Tier und Mann
nicht unterscheiden kann

Sie taucht die Feder in sein Blut
schreibt sich selber einen Brief
entseelte Zeilen an die Kindheit
als der Vater bei ihr schlief

Was - tust du
Was - fuhlst du
Was - bist du
doch nur ein Tier
Вверх

Weisses Fleisch

e|-------------|--------
b|-*-----------|--------
g|-------------|-4^bend-
D|-------------|--------
A|-*-----3/4-*-|--------
E|---0-0-3/4---|--------

e------------------------
b------------------------
g------------------------
D-1-----6-5-3----------5-
A-1-----6-5-3--------3-5-
E-1-----6-5-3--------3-5-

Du auf dem Schulhof
ich zum Toten bereit
und keiner hier weiss
von meiner Einsamkeit

Rote Striemen auf weisser Haut
ich tu dir weh
und du jammerst laut

Jetzt hast du Angst und ich bin soweit
mein schwarzes Blut versaut dir das Kleid

Dein weisses Fleisch erregt mich so
ich bin doch nur ein Gigolo
dein weisses Fleisch erleuchtet mich

Mein schwarzes Blut und dein weisses Fleisch
ich werd immer geiler von deinem Gekreisch
der Angstschweiss da auf deiner weissen Stirn
hagelt in mein krankes Gehirn

Dein weisses Fleisch erregt mich so
ich bin doch nur ein Gigolo
mein Vater war genau wie ich
dein weisses Fleisch erleuchtet mich

Jetzt hast du Angst und ich bin soweit
mein krankes Dasein nach Erlosung schreit
dein weisses Fleisch wird mein Schafott
in meinem Himmel gibt es keinen Gott

Dein weisses Fleisch erregt mich so
ich bin doch nur ein Gigolo
dein weisses Fleisch erleuchtet mich
mein Vater war genau wie ich
dein weisses Fleisch erregt mich so
ich bin ein trauriger Gigolo
dein weisses Fleisch erleuchtet mich
Вверх

Wilder Wein

Вступление

4-ая |---2---2---2---3-|---2---2---2---3-|
5-ая |-0---0---0---0---|-0---0---0---0---|

4-ая |--2---2---2---3-2-0------------|
5-ая |0---0---0---0-------3-2-3-2-0-2|

Куплет

5-ая |-0--2--3--2--5---3--2--0--2--3--2--3---2---|

После куплета

5-ая |-0---0-2-3-2-0-2-3-2-0-2-3---2---|
6-ая |---0-----------------------------|

5-ая |-0---0-2-3-2-0-2-3-2-0-2-3-5-3-7-|
6-ая |---0-----------------------------|

На 3-х гитарах

Аккорды - | Em | D | C | D |

Окончание

4-ая |--2---2---2---3-2-0---------------|
5-ая |0---0---0---0-------3-2-3-2-0-2---|



Wilder Wein - ich bin bereit
man meldet Ankunft - nur fur den Konig
Gott steh mir bei - und offne deine Tore
Wilder Wein - und ganz langsam
Wilder Wein - so warm und feucht


Wilder Wein - vor deinem Schoss
Wilder Wein - es steht geschrieben
tief im Wasser - kreuzt man nicht
doch meine Lust - verlacht die Flugel
Wilder Wein - wie eine Taube
Wilder Wein - so nass und heiss


Wilder Wein - vor diesem Dunkel
Wilder Wein - von Licht geheilt
es bleibt verborgen - sonst konnten wir uns wehren
ich warte auf dich - am Ende der Nacht
Wilder Wein - nur eine Traube
Wilder Wein - und bitter wie Schnee

Ich warte auf dich - am Ende der Nacht
Вверх

Wolt Ihr Das Bett In Flammen Sehen

riff:
1|-------------------------------|-------------
2|-------------------------------|-------------
3|-------------------------------|-1010101010--
4|--7--8--7--5~~7--8--7--5~~7----|-1010101010--
5|--7--8--7--5~~7--8--7--5~~7----|-8-8-8-8-8---
6|--5--6--5--3~~5--6--5--3~~5----|-------------

BASS
1|------------------
2|------------------
3|------------------
4|-5-6-5-3~5-6-5-3~5

Wollt Ihr das Bett in Flammen sehen
Wollt Ihr in Haut und Haaren untergehen
Ihr wollt doch auch den Dolch ins Laken stecken
Ihr wollt doch auch das Blut vom Degen lecken

Rammstein

Ihr seht die Kreuze auf dem Kissen
Ihr meint euch darf die Unschuld kussen
Ihr glaubt zu toten ware schwer
Doch wo kommen all die Toten her

Rammstein


    (4 раза)
1|-----------------
2|-----------------
3|-----------------
4|-5--55-5-5--5-55-
5|-5--55-5-5--5-55-
6|-3--33-3-3--3-33-

Sex ist ein Schlacht
Liebe ist Krieg



Wollt Ihr das Bett in Flammen sehen
Wollt Ihr in Haut und Haaren untergehen
Ihr wollt doch auch den Dolch ins Laken stecken
Ihr wollt doch auch das Blut vom Degen lecken
Вверх

Wolt Ihr Das Bett In Flammen Sehen (2 вариант)

Riff a
4|-----------|
5|-5-6-5-5-3-|
6|-3-4-3-3-1-|
Wollt Ihr in Haut und Haaren untergehen
Ihr wollt doch auch den Dolch ins Laken stecken
Ihr wollt doch auch das Blut vom Degen lecken

Rammstein

Riff a
Ihr seht die Kreuze auf dem Kissen
Ihr meint euch darf die Unschuld kussen
Ihr glaubt zu toten ware schwer
Doch wo kommen all die Toten her

Rammstein

Riff b
4|--------------|
5|------6-5-5-5-|
6|-1111-4-3-3-3-|
Sex ist ein Schlacht
Liebe ist Krieg

Riff a
Wollt Ihr das Bett in Flammen sehen
Wollt Ihr in Haut und Haaren untergehen
Ihr wollt doch auch den Dolch ins Laken stecken
Ihr wollt doch auch das Blut vom Degen lecken
Вверх

Zwitter

Intro:
D|-----------------------------------|
D|-----------------------------------|
A|-----------------------------------|
D|-0-0-0-0-0-0-53---0-0-0-0-0h1--0--|
  pm.........       pm.....


После intro

D|------------------------------------|
D|-0-0-0-0-0-0-53---0-0-0-0-0h1--0---|
A|-0-0-0-0-0-0-53---0-0-0-0-0h1--0---|
D|-0-0-0-0-0-0-53---0-0-0-0-0h1--0---|
  pm.........       pm.....

Припев:
G|-8-8-8-8-8-8-8-8-5-5-5-5-5-5-5-5-3-3-3-3-3-3-3-3-3-3-3-3---------|
D|-8-8-8-8-8-8-8-8-5-5-5-5-5-5-5-5-3-3-3-3-3-3-3-3-3-3-3-3-----1-3-|
A|-6-6-6-6-6-6-6-6-3-3-3-3-3-3-3-3-1-1-1-1-1-1-1-1-1-1-1-1-1-3-----|
D|-----------------------------------------------------------------|

G|-8-8-8-8-8-8-8-8-5-5-5-5-5-5-5-5---------------------------------|
D|-8-8-8-8-8-8-8-8-5-5-5-5-5-5-5-5-5-5-5-5-5-5-5-5-5-5-5-5-5-5-5-5-|
A|-6-6-6-6-6-6-6-6-3-3-3-3-3-3-3-3-5-5-5-5-5-5-5-5-5-5-5-5-5-5-5-5-|
D|---------------------------------5-5-5-5-5-5-5-5-5-5-5-5-5-5-5-5-|


Ich hab ihr einen Kus gestohlen
Sie wollte sich ihn wiederholen
Ich hab sie nicht mehr losgelassen
Wir schmolzen so zu einer Masse
So ist es mir nur allzu Recht
Ich bin ein schones Zweigeschlecht
Zwei Seelen unter meiner Brust
Zwei Geschlechter eine Lust

Zwitter Zwitter
Zwitter Zwitter

Ich gehe anders durch den Tag
Ich bin der schonste Mensch von allen
Ich sehe wunderbare Dinge
Sie sind mir vorher gar nicht aufgefallen
Ich kann mich jeden Tag beglucken
Ich kann mir selber Rosen schicken
Da ist kein zweiter und kein dritter
Eins und eins das ist gleich

Zwitter Zwitter
Ich bin so verliebt
Zwitter Zwitter
Ich bin in mich verliebt

Eins fur mich
Eins fur dich
Gibt es nicht
Fur mich

Eins fur mich
Eins fur dich
Eins und eins
Das bin ich

Ich bin alleine doch nicht allein
Ich kann mit mir zusammensein
Ich kusse fruh mein Spiegelbild
Und schlafe abends mit mir ein
Wenn die andren Madchen suchten
Konnte ich mich selbst befruchten
So bin ich dann auch nicht verzagt
Wenn einer zu mir "Fick dich" sagt

Zwitter Zwitter
Ich bin so verliebt
Zwitter Zwitter
Ich bin in mich verliebt
Eins fur dich
Eins fur mich...
Вверх
English songs 109

ABBA
AC-DC
Adams Bryan
Adriano Celentano
Aerosmith
A-Ha
Animals
Antonio Banderos
Apocalyptica
Armstrong Louis
Billy's Band
Bjork
Blink 182
Blondie
Blur
Bob Dylan
Boney M
Bon Jovi
Bowie David
Brainstorm
Braxton Toni
Butch
Celine Dion
Chris De Burgh
Chris Isaak
Chuck Berry
Clapton Eric
Cohen Leonard
Cranberries
Deep Purple
Depeche Mode
Dire Straits
Donovan Jason
Eagles
Electric Light Orchestra
Elton John
Elvis Presley
Era
Europe
Evanescence
Garbage
Gary Moore
Glen Wiston
Gorillaz
Green Day
Guano Apes
Guns N Roses
Hendrix Jimi
Iggy Pop
Iron Maiden
Joe Dassin
Kansas
King Crimson
Kiss
Led Zeppelin
Leonard Cohen
Limp Bizkit
Linkin Park
Louis Amstrong
Madonna
Marilyn Manson
Marley Bob
Metallica
Moby
Morricone Ennio
Muse
Nazareth
Nelly Furtado
Nick Cave
Nirvana
No Doubt
Oasis
Offspring
Ottawan
Outkast
Ozzy Osbourne
Pain
Para Bellum
Pink Floyd
Placebo
P.O.D.
Queen
RadioHead
Rainbow
Rammstein
Rea Chris
Red Hot Chili Peppers
Ritchie Blackmore
Rolling Stones
Roxette
Rufus Wainwright
Santana
Sarah Brightman
Scorpions
Sex Pistols
Simon & Garfunkel
Shocking Blue
Soul Asylumx
Status Quo
Sting
System of a down
Sum 41
The Beatles
The Doors
Tito & Tarantula
U2
UB 40
Uriah Heep
Van Halen

Українські пісні 109

Boom Box
Escape
Flit
Kapela Drewutnia
Lama
LЮK
Mad Heads (XL)
Motor' rolla
NEON
Ot Vinta
The Вйо
Абздольц
Аероплан
Акорд
Ані Лорак
Бандурна розмова
Білик Ірина
Борщ
Брати Гадюкіни
Вася Club
Вій
Воплі Відоплясова
Гайдамаки
Гончар Олесь
Гринжоли
Гроно
Гуляйгород
Дарка і Славко
Дивні
Друга Ріка
Другий подих
Дударик
Експампей
Євтушенко Андрій
Жарівка (Дяк Олесь)
Журбовіз
Зібров Павло
Зінкевич Василь
Злотник Олександр
Івасюк Володимир
Калєкція
Карна
Карпа Ірена
Клямка
Козловський Віталій
Кому вниз
Крихітка Цахес
Курінь
Лесик-Band
Лорд Юрія
Львівські музики
Мандри
Менестрелі
Мері
Мертвий Півень
Міпеніум
Монте Крісто
Морозов Віктор
Нахтіґаль
Не журись!
Неборак Віктор
НеДІля
НЕМО
Нічлава блюз
Океан Ельзи
ПереBANDя
Перкалаба
Петрович
Піккардійська Терція
Піпа Олександр
Плач Єремїі
Пономарьов Олександр
Пророк
Росава
Ротару Софія
Руслана
Рутенія
С.К.А.Й.
САД
Самі свої
Серцевий Напад
Скрябін
Смерічка
Сокира Перука
Соколи
Таліта Кум
Тартак
Тінь сонця
Ткач Михайло
ТНМК
Тостер
Тріо Мареничів
Фарбований лис
Фестиваль Снів
Хвилю тримай
Цісик Квітка
Черемош
Черемшина
Четвертий кут
Чорний вересень
Чорні черешні
Шевченко Тарас
Щастя
Юркеш
Юрченко Юрко
Юрчишин Ярослав
Явір
Яка існуЄ
Яремчук Назарій

   
 sait@i.ua



Рейтинг@Mail.ru