accordS-land.ru Аккорды и табулатуры к гитаре.
Главная | Песенник | Аккорды | Учебник
Руссике песни 180
5nizza
7Б
9-й Район
Animal ДжаZ
Billy's Band
Butch
Para Bellum
TequilaJazzz
Worms
Zdob Si Zdub
Автоматические удовлетворители
Агата Кристи
Агузарова Жанна
Агутин Леонид
Адо
Аквариум
Алиса
Алсу
Амирамов Е.
Антонов Ю.
Арефьева Ольга
Ария
АукцЫон
Барыкин
Башаков Михаил
Башлачев Александр
БекХан
Бернес М.
Би - 2
Бони неМ
Борзов Найк
Боярский Михаил
Браво
Братья Грим
Ва-Банкъ
Вертинский Александр
Визбор Юрий
Високосный год
Воскресенье
Восьмая Марта
Высоцкий В.С.
Високосный год
Газманов О.
Галич Александр
Герман А.
Городницкий Александр
Глызин А.
Градский Александр
Гражданская Оборона
Гребещенков
Данко
ДДТ
Дидюля
Диоды
Дискотека Авария
Дягилева Янка
Ёлка
Жуки
Заблудовский Андрей
Запрещенные Барабанщики
Звери
Земляне
Земфира
Зинчук Виктор
Зоопарк
Иван Кайф
Иванов А.
Иваси
ИЗ КИНО И МУЛЬТФИЛЬМОВ
Империя
Калинов мост
Кашин Павел
Кельми К.
КИНО
Кипелов
Конец Фильма
Контингент
Корни
Король и Шут
Коррозия металла
Крематорий
Крупнов Анатолий
Кузьмин Владимир
Куликов Е.
Кукрыниксы
Курехин Сергей
Лаэртский Александр
Ласковый май
Ленинград
Леонидов Максим
Лесоповал
Лещенко Л.
Линда
Лицей
Лоза Юрий
Любэ
Люмен
Ляпис Трубецкой
Мальчишник
Манго-манго
Мара
Маркин В.
Маршал Александр
Маша и медведи
Машина времени
Мечтать
Мистер Кредо
Митяев Олег
Многоточье
Монгол Шуудан
Моральный Кодекс
Мультfильмы
Мумий Тролль
Настя
Науменко Майк
Наутилус Помпилиус
Непара
Неприкасаемые
Несчастный случай
Никоваев И.
Никольский Константин
Ногу свело
Ноль
Носков Николай
Ночные Снайперы
Окуджава Булат
Оркрист
Осин Е.
Оскар
Отиева И.
Паперный Т.А.М.
Парк Горького (Gorky Park)
Пикник
Пилот
Пламя
Полковник и однополчане
Пугачева А.
ПЭХ
Приключения Электроников
Просто прикольные песни
Рада и Терновник
Римский-Корсаков
Розенбаум Александр
Рок-Острова
Рондо
Сансара
Саруханов
Сегодня Ночью
Секрет
Сектор газа
Сенчина Л.
СерьГа
Смысловые Галлюцинации
Сплин
Солодуха А.
Старые блатные песни
Сукачев Гарик
Сурганова и Оркестр
Сюткин Валерий
Тальков Игорь
Танцы минус
Тараканы
Тату
Технология
УмаТурман
Умка и Броневичок
Ундервудъ
Фабрика звезд
Х.З. (Хуй Забей)
Центр
ЧайФ
Черный кофе
Черный Лукич
Чиж и Ко
Чистяков Федор
Шанхай
Щербаков Михаил
Ю-Питер

Классика 22

Албениз Исаак
Албениз Матео
Бах Иоган Себостьян
Бетховен Людвиг ван
Бизе Жорж
Брамс Иоганнес
Вивальди Антонио
Гендель Георг Фридрих
Гершвин Джордж
Григ Эдвард
Дебюсси Клод
Камиль Сен-Санс
Мендельсон
Моцарт Вольфгант Амадей
Мусоргский Модест Пертрович
Норис Крис
Огинский Михал Клеофас
Паганини Никколо
Рахманинов Сергей Васильевич
Римский-Корсаков
Чайковский Пётр Ильич
Шуберт Франц
 

 

Red Hot Chili Peppers

Aeroplane
Aeroplane (2 вариант)
Aeroplane (3 вариант)
American Ghost Dance
American Ghost Dance (2 вариант)
Apache Rose Peacock
Apache Rose Peacock (2 вариант)
Around The World
Around The World (2 вариант)
Baby Appeal
Baby Appeal (2 вариант)
Backwoods
Backwoods (2 вариант)
Backwoods (3 вариант)
Battle Ship
Behind The Sun
Behind The Sun (2 вариант)
Behind The Sun (3 вариант)
Behind The Sun (4 вариант)
Blackeyed Blonde
Blackeyed Blonde (2 вариант)
Blackeyed Blonde (3 вариант)
Blood Sugar Sex Magik
Blood Sugar Sex Magik (2 вариант)
Blood Sugar Sex Magik (3 вариант)
Blues For Meister
Body Of Water
Breaking The Girl
Breaking The Girl (2 вариант)
Buckle Down
Buckle Down (2 вариант)
Bullet Proof
By The Way
Cabron
Cabron (2 вариант)
Californication
Cant Stop
Cant Stop (2 вариант)
Cant Stop (3 вариант)
Castles Made Of Sand
Catholic School Girls Rule
Catholic School Girls Rule (2 вариант)
City Of Angels
City Of Angels (2 вариант)
Coffee Shop
Coffee Shop (2 вариант)
Crosstown Traffic
Dani California
Deep Kick
Dont Forget Me
Dont Forget Me (2 вариант)
Dosed
Dosed (2 вариант)
Dosed (3 вариант)
Easily
Easily (2 вариант)
Easily (3 вариант)
Easily Live
Emit Remmus
Emit Remmus (2 вариант)
Falling Into Grace
Felas Cock
Fight Like A Brave
Fight Like A Brave (2 вариант)
Fight Like A Brave (3 вариант)
Fire
Fire (2 вариант)
Flea From Rhcp
Freaky Styley
Freaky Styley (2 вариант)
F U
Funky Crime
Funky Monks
Funky Monks (2 вариант)
Get On Top
Get On Top (2 вариант)
Get Up And Jump
Get Up And Jump (2 вариант)
Give It Away
Give It Away (2 вариант)
Give It Away (3 вариант)
Give It Away (4 вариант)
Gong Li
Good Time Boys
Grand Pappy Do Plenty
Green Heaven
Greeting Song
Havana Affair
Havana Affair (2 вариант)
Higher Ground
Higher Ground (2 вариант)
Higher Ground (3 вариант)
Hollywood
My Friends
My Lovely Man
Nevermind
Nobody Weird Like Me
Nobody Weird Like Me (2 вариант)
Nobody Weird Like Me (3 вариант)
No Chump Love Sucker
One Big Mob
One Big Mob (2 вариант)
One Hot Minute
On Mercury
On Mercury (2 вариант)
On Mercury (3 вариант)
On Mercury (4 вариант)
Organic Anti Beat Box Band
Organic Anti Beat Box Band (2 вариант)
Otherside
Otherside (2 вариант)
Out In La
Out In La (2 вариант)
Parallel Universe
Parallel Universe (2 вариант)
Parallel Universe (3 вариант)
Pea
Pea Live
Phat Dance
Police Helicopter
Porcelain
Porcelain (2 вариант)
Porcelain (3 вариант)
Power Of Equality
Power Of Equality (2 вариант)
Pretty Little Ditty
Pretty Little Ditty (2 вариант)
Pretty Little Ditty (3 вариант)
Punk Rock Classic
Punk Rock Classic (2 вариант)
Purple Stain
Purple Stain (2 вариант)
Purple Stain (3 вариант)
Rare Bass
Religion
Righteous And The Wicked
Right On Time
Rivers Of Avalon
Rivers Of Avalon (2 вариант)
Road Trippin
Roller Coaster Of Love
Save The Population
Save The Population (2 вариант)
Save The Population (3 вариант)
Savior
Savior (2 вариант)
Scar Tissue
Scar Tissue (2 вариант)
Scar Tissue (3 вариант)
Sex Rap
Sexy Mexican Maid
Shallow Be Thy Game
Show Me Your Soul
Sickamickanico
Sickamickanico (2 вариант)
Sickamickanico (3 вариант)
Sir Psycho Sexy
Sir Psycho Sexy (2 вариант)
Someone
Soul To Squeeze
Soul To Squeeze (2 вариант)
Soul To Squeeze (3 вариант)
Soul To Squeeze (4 вариант)
Special Secret Song Inside
Stone Cold Bush
Stone Cold Bush (2 вариант)
Stone Cold Bush (3 вариант)
Subterrannean Homesick Blues
Subterrannean Homesick Blues (2 вариант)
Subterrannean Homesick Blues (3 вариант)
Subway To Venus
Subway To Venus (2 вариант)
Suck My Kiss
Suck My Kiss (2 вариант)
Sweet Home Alabama Live
Taste The Pain
Taste The Pain (2 вариант)
Tear
Tear (2 вариант)
Tear (3 вариант)
Tearjerker
Tearjerker (2 вариант)
Tearjerker (3 вариант)
Teatro Jam
Teenager In Love
Teenager In Love (2 вариант)
Teenager In Love (3 вариант)
The Brothers Cup
The Coffee Shop
The Coffee Shop (2 вариант)
The Greeting Song
The Righteous And The Wicked
The Righteous The Wicked
Theyre Red Hot
The Zephyr Song
The Zephyr Song (2 вариант)
This Is The Place
This Is The Place (2 вариант)
This Velvet Glove (2 вариант)
Throw Away Your Television
Throw Away Your Television (2 вариант)
Time
Time (2 вариант)
Tiny Dancer
Transcending
Transcending (2 вариант)
True Men Dont Kill Coyotes
True Men Dont Kill Coyotes (2 вариант)
Under The Bridge
Universally Speaking
Universally Speaking (2 вариант)
Universally Speaking (3 вариант)
Universally Speaking (4 вариант)
Venice Queen
Venice Queen (2 вариант)
Venice Queen (2 вариант)
Venice Queen (3 вариант)
Venice Queen (4 вариант)
Walkabout
Walkin On Down The Road
Warm Tape
Warped
Warped (2 вариант)
What Is Soul
What It Is
Why Dont You Love Me
Woodstock Bass
Yertle The Turtle
Zephyr Song
Вверх

Aeroplane

Intro
  Gm              Cm                             Gm
g|----------------|---------------------------------|--------=-|
d|----------------|---------------------------------|--------=-|
a|----------------|--------------------------=------|----------|
e|-15-5--6--------|--------8------0------1////10----|--15-5--6-|

  Cm
g|------------------------------------|
d|-------------10-----13-13-12-----10-|
a|--------10------10------------------|
e|-8----------------------------------|

verse-SLAP EVERYTHING ON E AND A STRINGS
AND PLUCK THE D AND G STRINGS
**  Gm         Gm/Bb      Cm         Cm/Eb
g|-----------------7---7----|--------5----5--------------------|
d|-----5--------------------|----------------------3----3----5-|
a|------------------------4-|-3--3----3----5-6-6---------------|
e|-3-3---5-(6)--(6)---------|------------------------3-----3---|

Repeat ** part then play this
g|--------5----5---------------5----5----5-|
d|-------------------------5---------------|
a|-3--3----3----5h6-6---6----6----6--------|
e|-----------------------------------------|

Ending
g|--------------3-----------------------------------|
d|----5----3----------------------------------------|
a|------------------4----3--1---3-1-----------------|
e|-3--------------------------------------3-1-1-1-2-|

g|-------------3-4-------------------|----5--------|
d|-------5-5-------5----3------------|-------------|
a|----5----------------5-------4-----|-3-----------|
e|-3------------------------3------3-|-------319/3-|
THats it
Вверх

Aeroplane (2 вариант)

  Gtr I
|---------|---------0/-|-17------(17)-17-|-(17)--------------|
|---------|------------|-----------------|------17-----------|
|---------|------------|-----------------|---------------15--|
|---------|------------|-----------------|-------------------|

|-------------------|---------------|
|-15----(15)--------|---------------|
|-------------------|------------9/-|
|-------------15-10-|-8------(8)----|

|--------------12-|-17------21----19----17--|
|-----------------|------17----17----17-----|
|-15------(15)----|-------------------------|
|-----------------|-------------------------|

|-17------(17)----|
|--------------17-|
|-----------------|
|-----------------|

|----------------------------------------------------|-----------------|
|----------------------------------------------------|-----------------|
|-15h17p15h17p15h17p15h17p15h17p15h17p15h17p15--(15)-|-----------0-1---|
|----------------------------------------------------|-15---(15)-------|

|-------------------|-------------------|----------------------|---------------|
|-------------------|-------------------|------0-0-0-1-1-1-3-3-|-3---(3)-------|
|-3---(3)------4s10-|-(10)---(10)-0-1---|-3--3-----------------|---------0-1---|
|---------0-1-------|-------------------|----------------------|---------------|

|---------------|-------------|-------------|---------------------|
|---------------|-------------|-------------|---------------------|
|-3---(3)-------|----0--1--3--|-3---3-------|---0-0-1-1-3-3-3-3-3-|
|---------0-1---|-3-----------|-------0-1---|-3-------------------|

|-----------------0---------|---------------------|-----------------------0---|
|-----0-0-1-1-2-3---3-1-----|---------------------|-----0-0-1-1---1---3-------|
|-3-3-------------------3-1-|---0-0-1-1-3-3-3-3-3-|-3-3---------3---3---3-----|
|---------------------------|-3-------------------|---------------------------|

  Gtr II
|----------------7------|-----5--5----------------|
|---5--5-------5---5----|----------------3--5---5-|
|--------------------4--|-3-3------5--6-----------|
|-3------5--6-----------|-------------------------|

|----------------7------|---5-----------3-------|
|---5--5-------5---5----|------------3----------|
|--------------------4--|-3-----3-5--------3-3--|
|-3------5--6-----------|-----------------------|

|------------------7------|-----5------------------|
|-----5--5-------5---5----|--------------3---3-----|
|----------------------4--|-3-3-----3-5----------3-|
|-3-3------5--6-----------|------------------------|

|--------------------7---6-|------5-------------8---7-|
|-----5---5------------5---|--------------------------|
|--------------------------|-3--3-----3--5---6----5---|
|-3-3--------5--6--3-------|--------------------------|

|----------------7------|----5--------------------|
|---5--5-------5---5----|---------------3---5---5-|
|--------------------4--|-3-----3-5--6------------|
|-3------5--6-----------|-------------------------|

|----------------7------|----5------------------|
|---5--5-------5---5----|-----------------------|
|--------------------4--|-3-------------1---1---|
|-3------5--6-----------|--------1--4---------3-|

|------------------3--------|------5--5---------------|
|-----5---5-----------------|-----------------3--5--5-|
|------------------------2--|-3--3------5--6----------|
|-3-3--------5--6----6-3----|-------------------------|

|----------------7------|---5-5-------------|----------------|
|---5--5-------5---5----|-------------------|----------------|
|--------------------4--|-3-----5--6-7------|----------------|
|-3------5--6-----------|-------------------|----------------|

  Gtr I
|-----------------------|-------------------|-0---(0)--------|
|-----------------------|---------------3---|----------------|
|-----------------------|-------------------|---------0-1----|
|-----------------------|-------------------|----------------|

  Gtr I
|-------------------|-------------------|----------------6--|----------------|
|-------------------|-------------------|------0-0-0-1-1----|-3---(3)--------|
|-3---(3)------4s10-|-(10)---(10)-0-1---|-3--3--------------|---------0-1----|
|---------0-1-------|-------------------|-------------------|----------------|

|---------------|-0--2--3--5--|-5-5-5-5-5-5-5--------------|
|---------------|-------------|----------------------------|
|-3---(3)-------|-------------|----------------------------|
|---------0-1---|-------------|---------------0-1-1-1-1-2--|

|-------------------------------|-----------------------0-------|-0-2-3-5-5---|
|-------------------------------|-------0-0-0-1-1-1-2-3---3-0-3-|-------------|
|-------0-0-0-1-1-1-3-3-3-3-3-3-|-3-3-3-------------------------|-------------|
|-3-3-3-------------------------|-------------------------------|-------------|

|-5-7-8-12-12-12-12-12-12-12-12-|
|-------------------------------|
|-------------------------------|
|-------------------------------|

  Gtr II
|----------------7------|-----5--5----------------|
|---5--5-------5---5----|----------------3--5---5-|
|--------------------4--|-3-3------5--6-----------|
|-3------5--6-----------|-------------------------|

|----------------7------|-----5------------------------|
|---5--5-------5---5----|------------------------------|
|--------------------4--|-3-3--------------1---3-------|
|-3------5--6-----------|--------6-1-1--3----3---0-1-2-|

|--------------------7------|-----5------------------|
|-----5---5--------5---5----|--------------5---5---5-|
|---------------1--------4--|-3-3----5--6------------|
|-3-3--------5--------------|------------------------|

|----------------7-----|-----5------8----------|
|---5--5-------5---5---|------------------6----|
|--------------------4-|-3-3-------------------|
|-3------5--6----------|----------8-----6------|

|----------------7------|-----5--5----------------|
|---5--5-------5---5----|----------------3--5---5-|
|--------------------4--|-3-3------5--6-----------|
|-3------5--6-----------|-------------------------|

|----------------7------|-----5---------------------|
|---5--5-------5---5----|-------------------5-------|
|--------------------4--|-3-3------3--6---8-------3-|
|-3------5--6-----------|--------6------------3-6---|

|-------------------------|---5-------------5---6--7---|
|---5-----------8---8-----|-------------3--------------|
|-------------------------|-3-----3-3-5----------------|
|-3-----3-5--6---------6--|----------------------------|

|------------------------|---5---5---------------|-----------------|
|---5-----------8---8----|-----------------------|-----------------|
|------------------------|-3--------5--6-7-------|-----------------|
|-3-----3-5--6---------6-|-----------------------|-----------------|

 Gtr I
|------------------------|-----------------------|-----------------|
|------------------------|-----------------------|-----------------|
|------------------------|-----------------------|-10---(10)-------|
|------------------------|------------------13---|-----------5-6---|

  Gtr I
|-------------------|-------------------|
|-------------------|-------------------|
|-3---(3)------4s10-|-(10)---(10)-0-1---|
|---------0-1-------|-------------------|

|--------0-3-0-8-8-8-7-5-|---------------|
|------------------------|-3---(3)-------|
|-3--(3)-----------------|---------0-1---|
|------------------------|---------------|

|---------------|-------------|---------------------|
|---------------|-------------|---------------------|
|-3---(3)-------|----0--1--3--|-3---(3)-------0-1-3-|
|---------0-1---|-3-----------|---------0-1-3-------|

|-----------------|-------------|------------------|
|-----------------|--5---5------|------------------|
|-6--6-----8--8---|-------------|-6--6-----8--8----|
|-----------------|-------------|------------------|

|-------------|-------------10---|--0--7-10-7-12-10-12-10----|
|--5---5------|------------------|------------------------12-|
|-------------|-6--6-----8-------|---------------------------|
|-------------|------------------|---------------------------|

|----------8-------10--|------7-10--10-7--12-10----|--------------------|
|----------------------|------------------------12-|----------------10--|
|--------------8-------|--10-----------------------|------------8-------|
|-11--11---------------|---------------------------|-11--11-------------|

|------7-10-7-12--15--12-----|-------------------|--0---0---0-----|
|------------------------12--|-------------------|----------------|
|--10------------------------|------------8--8---|----------------|
|----------------------------|-11--11------------|----------------|

|-----------------|-----------------|-----------------|
|-----------------|-----------------|-----------------|
|-----------0-1---|-3---(3)------4/-|-10---(10)-0-1---|
|-15---(15)-------|---------0-1-----|-----------------|

|---------------------1s5--|---------------|---------------|
|--------------------------|-3---(3)-------|---------------|
|-3------1-0----10s3-------|---------0-1---|-3---(3)-------|
|---3s8-------3------------|---------------|---------0-1---|

|-------------|-------------|-----3--4---------0-(0)--------|
|-------------|-------------|------------3---0-------3-0----|
|----0--1--3--|-3---3-------|-------------------------------|
|-3-----------|-------0-1---|-3-----------------------------|

|------------------------------------------|-----------------------|
|------------------------------------------|-----------------------|
|-3------1-(1)---3-(3)-1-------------------|-----------------------|
|------3-------3---------3-0-(0)-0-1-(1)---|-3-3-1-1--3-(3)-4s15s4-|

|-------------------------------------------|
|-------------------------------------0-----|
|-3-(3)-3-3-1-(1)-1-1-----3-----4-----------|
|----------------------3-----3-----3-----1--|

|-----0---------3-----|-----------------------|
|----------3----------|-----------------------|
|-------------------4-|-3----1----3-1---------|
|-3-------------------|---------------3-0-0-1-|

|-------------------3-(3)-4-------------------------|
|-----------5-(5)-----------5-(5)---2-(2)-----------|
|---------5-------5---------------5---------5-(5)---|
|-3-(3)-----------------------------------3-------3-|

|---------5------------------|
|----------------------------|
|-3-(3)----------4s14-14s3---|
|----------------------------|

|---------------------|---------------------|-0--0-2--2-3--3-4--4--|
|---------------------|------0--0-1--1-3--3-|----------------------|
|------0--0-1--1-2--2-|-3--3----------------|----------------------|
|-3--3----------------|---------------------|----------------------|

|-5--5-7--7-8--8-10--10-|-12-(12)-12-10-(10)-10-8--8-7--7-|
|-----------------------|---------------------------------|
|-----------------------|---------------------------------|
|-----------------------|---------------------------------|

|-5-(5)-5-5-3-(3)-3-3-2-(2)-2-2-1-(1)-1-1-|
|-----------------------------------------|
|-----------------------------------------|
|-----------------------------------------|

|-0-(0)-0-0-------------------------------|
|-----------3-(3)-3-3-1-(1)-1-1-0-(0)-0-0-|
|-----------------------------------------|
|-----------------------------------------|

|-----------------------------------------|---------------------|
|-----------------------------------------|---------------------|
|-3-(3)-3-3-1-(1)-1-1-0-(0)-0-0-----------|------0--0-1--1-2--2-|
|-------------------------------4-(4)-4-4-|-3--3----------------|

|-----------------------------------------|
|-----------0-(0)-0-0-1-(1)-1-1-3-(3)-3-3-|
|-3-(3)-3-3-------------------------------|
|-----------------------------------------|

|-0-(0)-0-2-(2)---2-3-(3)---3-4-(4)---4-|
|---------------------------------------|
|---------------------------------------|
|---------------------------------------|

|-5-(5)-5-5-7-(7)---7-8-(8)---8-10-(10)---10-|
|--------------------------------------------|
|--------------------------------------------|
|--------------------------------------------|

|-12-(12)-12-10-(10)-10-8-(8)-8-7-(7)-7-|
|---------------------------------------|
|---------------------------------------|
|---------------------------------------|

|-8-(8)-7-5-7-(7)-5-3-5-(5)-3-2-3-(3)-2-1-|
|-----------------------------------------|
|-----------------------------------------|
|-----------------------------------------|

|-0-(0)---0-------------------------------|
|-----------3-(3)---3-1-(1)---1-0-(0)---0-|
|-----------------------------------------|
|-----------------------------------------|

|-----------------------------------------|-------------|---------|
|-----------------------------------------|-------------|---------|
|-3-(3)-3-3-1-(1)-1-1-0-(0)-0-0-----------|-------------|---------|
|-------------------------------4-(4)-4-4-|-3----3s=15--|-(15)----|

|-------------|------------------------*|
|-------------|------------------------*|
|-------------|------------------------*|
|-(15)--------|-(15)------(15)-(15)----*|
Вверх

Aeroplane (3 вариант)

Intro:

E|--3~~------3~~------5~~----6----------------------------|
B|--6~~------3~~------3~~-------------3------------5~~----|
G|--3~~------3~~------3~~-----------------3--------5~~----|
D|--3~~------5~~------3~~--------------------------5~~----|
A|--3~~------3~~------3~~--------------------------3~~----|
E|--------------------------------------------------------|

E|--6~~----5--------------3----3~~------------------------|
B|--3~~-----------6------------3~~----------3~~------5~~--|
G|--3~~---------------3--------5~~------5---3~~------5~~--|
D|--3~~------------------------5~~----------3~~------5~~--|
A|--3~~------------------------3~~----------3~~------3~~--|
E|--------------------------------------------------------|

Chorus:

E|-6-6-6-6-6-6-6-6-6-6-6-6-6-6-6-6-6-6-6-6-6-6-6-6-6-6-6-6-6-6-6-6|
B|-6-6-6-6-6-6-6-6-6-6-6-6-6-6-6-6-5-5-5-5-5-5-5-5-5-5-5-5-5-5-5-5|
G|-5-5-5-5-5-5-5-5-5-5-5-5-5-5-5-5-5-5-5-5-5-5-5-5-5-5-5-5-5-5-5-5|
D|----------------------------------------------------------------|
A|----------------------------------------------------------------|
E|----------------------------------------------------------------|
							 Repeat X6

Verse:
E|--18---x--18------18---x--18------18--x--18------18---x--18---|
B|--18---x--18------18---x--18------17--x--17------17---x--17---|
G|--------------------------------------------------------------|
D|--------------------------------------------------------------|
A|--------------------------------------------------------------|
E|--------------------------------------------------------------|
						       Repeat X8

Bridge:
E|----------------------------------------------------------------|
B|-6-6-6-6-6-6-6-6-6-3-3-3-3-3-3-3-3-3-3-3-3-3-3-3-3---3-3-3-3-3-3|
G|-3-3-3-3-3-3-3-3-3-3-5-5-5-5-5-5-5-3-3-3-3-3-3-3-3---3-3-3-3-3-3|
D|-3-3-3-3-3-3-3-3-3-3-3-3-3-3-3-3-3-3-3-3-3-3-3-3-3-5-5-5-5-5-5-5|
A|----------------------------------------------------------------|
E|----------------------------------------------------------------|

Solo:
E|---------------------------17^-----17--15----15-----------------|
B|--18^----(18)------18--15-----------------18----18^-------------|
G|-------------------------------------------------------17--17---|
D|----------------------------------------------------------------|
A|----------------------------------------------------------------|
E|----------------------------------------------------------------|

E|----------------------------------------------------------------|
B|----------------------------------------------------------------|
G|--15------------------------------------------------------------|
D|-------17--15--17---15--17--------------------------------------|
A|---------------------------15---15--15--------15^------(15)~~~~-|
E|----------------------------------------------------------------|

E|----------------------------------------------------------------|
B|----------------------------------------------------------------|
G|----------------------------------------------------------------|
D|----------------------------------------------------------------|
A|--15^~~~--15^~~~--15^~~~--15^~~~--15^~~~--15^~~~--15^~~~--15^~~-|
E|----------------------------------------------------------------|

E|-------------------------------------------------------------|
B|-------------------------------------------------------------|
G|-------------------------------------------------------------|
D|-------------------------------------------------------------|
A|-15-13-15^---(16)---15^---15----------15--13^--------13-15-13|
E|------------------------------15--13-----------13-15---------|

E|-------------------------------------------------------------|
B|-------------------------------------------------------------|
G|-------------------------------------------------------------|
D|-------------------------------------------------3--5--3--5--|
A|------------13------13-15-13-----------3--1-1-3--------------|
E|--15--13-15-----15------------15-1^-3------------------------|

E|--------------------------------------------------------6----|
B|--------------5-----------------6--8^----(8)---6--6--8-------|
G|--3-----3-5^-----3--5--3---57--------------------------------|
D|-----5-------------------------------------------------------|
A|-------------------------------------------------------------|
E|-------------------------------------------------------------|

E|-8^---(8)--6--8-8^--8--6--8--6---6---------------------------|
B|--------------------------------8--8-6-8-6---6---------------|
G|-------------------------------------------7---75-3-5-3--3-3-|
D|---------------------------------------------------------5---|
A|-------------------------------------------------------------|
E|-------------------------------------------------------------|

E|------------------------3-x----------------------------------|
B|-------------------5-3--3-x-5--x-x-x-x-5--5^--5~-------------|
G|---3-5----------3--5-3------5--x-x-x-x-5--5^--5~-5^--5-3--4~-|
D|-5-----5-3--5-5----------------------------------------------|
A|-------------------------------------------------------------|
E|-------------------------------------------------------------|

E|--------------------------------------|
B|--------------------------------------|
G|-----------------------------------10-|
D|--5--3--5--3--5~~~~~~~~~~~---------9--|
A|-----------------------------------10-|
E|--------------------------------------|

Lyrics:

-chorus-
I like pleasure spiked with pain
and music is my aeroplane
it's my aeroplane
Songbird sweet and sour Jane
and music is my aeroplane
it's my aeroplane
pleasure spiked with pain
that motherfucker's always spiked with pain

Looking in my own eyes, hello
I can find the love I want
Someone better slap me
before I start to rust
before I start to decompose

Looking in my rear view mirror
Looking in my rear view mirror
I can make it disapear
I can make it disapear, have no fear

-repeat chorus-

Sitting in my kitchen
I'm turning into dust again
My melancholy baby
the star of mazy must
push her voice inside of me

I'm overcoming gravity
I'm overcoming gravity
It's easy when you're sad to be
It's easy when you're sad
Saddle up me

-repeat chorus-

Just one note could make me float
could make me float away
One note from the song
she wrote could fuck me where I lay
Just one note could make me choke
one note that's not a lie
Just on enote could cut my throat
one note could make me die

-repeat chorus-
Вверх

American Ghost Dance

Intro

e-|----------- -----|
B-|----------- -----|
G-|--10-10-10- -9---|
D-|--10-10-10- -9---|
A-|--9--9--9-- -7---|
E-|----------- -----|

Refrain

e|-------------------- ----|
B|-------------------- --x-|
G|-------------------- --x-|
D|------5--0--3--0--2- --x-|
A|---0---------------- --x-|
E|-------------------- ----|
Вверх

American Ghost Dance (2 вариант)

Bass
Intro:
G-|---------|---------|---------|
D-|---------|---------|---------|
A-|-5-5-5-5-|-5-5-5-5-|-5-5-5-5-|
E-|---------|---------|---------|

Verse:
G-|--------|---------------------|--------|----------------------|
D-|--------|---------------------|--------|----------------------|
A-|--------|-4-5-4---------------|--------|-4--5-4---------------|
E-|-0----0-|-------6-5-4-0----0-R|-0----0-|--------6-5-4-0----0--| etc.

Chorus:
G-|------------------------|-----------------------|
D-|---5--0--3--------------|--5--0--3--------------|
A-|------------3-----------|-----------3-----------|
E-|-0-------------0---0---0|0-------------0---0---0| etc.
      --------/
          |
          -->i'm not sure if this part exists, but sounds ok.


Interlude(after second chorus):
G-|---------|---------|
D-|---------|---------|
A-|---------|---------|
E-|-0----0-R|-0----0-R| etc.

Last chorus + outro:
G-|------------------------|-----------------------|-----------------------|
D-|---5--0--3--------------|--5--0--3--------------|--5--0--3--------------|
A-|------------3-----------|-----------3--2---2---2|2----------3--2---2---2|
E-|-0-------------0---0---0|0----------------------|-----------------------|
                                                                   --->fade.
Вверх

Apache Rose Peacock

Bass
Moderately funk

Bass figure 1:
G-|-------------------|------------------|------------------|
D-|-------------------|------------------|------------------|
A-|---------------x-2-|------------------|--------------x-2-|
E-|-0--x-0--x-3-------|-0--x-0--x-5--x-3-|-0--x-0--x-3------|

G-|-------------------|
D-|-------------------|
A-|-------------------|
E-|-0--x-0--x-5--5-3--|

Variations:
G-|------------------------|--------------------|------------------|
D-|------------------------|--------------/7--5-|------------------|
A-|------------------------|--------------------|------------------|
E-|-0--x-0--x-5--5-x-3h5p3-|-0--x-0--0-5--------|-0--x-0--5--5-5-3-|

Bass figure 2:
G-|----x-7-----------|---------------------|----x-7------------|
D-|-------------x-3--|---------------------|---------------x-3--|
A-|-5------0h3-------|-0--x-0--x-3--0-3-4/-|-5--------0h3-------|
E-|------------------|---------------------|--------------------|

G-|------------5--------|----x-7------------|---------------------|
D-|---------/7---75-3--|---------------x-3--|--------------3------|
A-|-0--0-0--------------|-5--------0h3-------|-0--0-0--3--3--x-3-4-|
E-|---------------------|--------------------|---------------------|

G-|----x-7-------------|--------------------|
D-|----------------x-3--|--------------------|
A-|-5--------0h3--------|-0--x-0---x-5-------|
E-|---------------------|----------------0-4-|

Variations:
G-|----x-7-----------|--------------------------|
D-|-------------x-3--|---------7p0-6p0-5p0-3p0--|
A-|-5------0h3-------|-0--0-0-------------------|
E-|------------------|--------------------------|

G-|----x-7-----------|-----------------------|
D-|-------------x-3--|---------------3-------|
A-|-5------0h3-------|-0--0-0--3-4-5---5-0-4-|
E-|------------------|-----------------------|

G-|----x-7-----------|-------------12-----|
D-|-------------x-3--|---------/14---14--|
A-|-5------0h3-------|-0--0-0-------------|
E-|------------------|--------------------|

Bass figure 3:
G-|------------------|---------------------|-------------------|
D-|------------4-----|--------4--5--4------|------------4------|
A-|----4---7-----5h7-|-----4-----------5h7-|----4---7------5h7-|
E-|-5----------------|-5-------------------|-5-----------------|

G-|---------------------|
D-|--------4--5--4------|
A-|-----4-----------5h7-|
E-|-5-------------------|

Bass figure 4:
G-|----------------|----------------|----------------------|
D-|----------------|----------------|----------------------|
A-|-7--7-----------|-5--5-----------|-------5------------5-|
E-|---------8--8---|--------5-5--5--|-7--7------7-7-7-7----|

G-|---------------------|---------------|------------------|
D-|---------------------|---------------|------------------|
A-|-------5----------5--|-7--7----------|-5--5-------------|
E-|-7--7-----7-7-7-7----|--------8--8---|--------5-5--5---|

G-|---------------------|------------------|
D-|---------------------|------------------|
A-|-------5----------5--|------5---------5-|
E-|-7--7-----7-7-7-7----|-7--7----7--7-7---|
Вверх

Apache Rose Peacock (2 вариант)

Rhythm figure 1

E-------------X--------X-X-----7/9--|----------X-----------------|
B-------------X--------X-X-----7/9--|----------X-----------------|
G-----7---7---X--7---7-X-X-7---7/9--|---7---7--X--7p0--6----7----|
D-----------------------------------|----------------------------|
A-----------------------------------|----------------------------|
E-----------------------------------|----------------------------|


E-------------X--------X-X-----7/9--|----------X-----12-12-------|
B-------------X--------X-X-----7/9--|----------X-----12-12-10---8|
G-----7---7---X--7---7-X-X-7---7/9--|---7---7--X--7--12-12-11---9|
D-----------------------------------|----------------------------|
A-----------------------------------|----------------------------|
E-----------------------------------|----------------------------|

Rhythm figure 2

E13-13--13---13---13-13--13-13--X-13-|-15-15-X-15--X-15--15-15-15-15--X-15-|
B15-15--15---15---15-15--15-15--X-15-|-14-14-X-14--X-14--14-14-14-14--X-14-|
G17-17--17---17---17-17--17-17--X-17-|-14-14-X-14--X-14--14-14-14-14--X-14-|
D------------------------------------|-14-14-X-14--X-14--14-14-14-14--X-14-|
A------------------------------------|-------------------------------------|
E------------------------------------|-------------------------------------|

Rhythm figure 3

E-15------15------15---15---X--X---14-|-15---15---15--15----15---15--15-|
B-14------14------14---14---X--X---13-|-14---14---14--14----14---14--14-|
G-14------14------14---14---X--X---13-|-14---14---14--14----14---14--14-|
D-14------14------14---14---X--X---13-|-14---14---14--14----14---14--14-|
A-------------------------------------|---------------------------------|
E-------------------------------------|---------------------------------|

Rhythm figure 4

E---7-----7--------7-----7---|-----------------------------|
B---8-----8--------8-----8---|----7------------------------|
G---9-----9--------9-----9---|----7------------------------|
D----------------------------|----7------------------------|
A----------------------------|-----------------------------|
E----------------------------|-----------------------------|

E-----------------------------------|---------------------------------|
B---0--0--0--0--3-----0--0--0--0--3-|-0--0--0--0--3-----0--0--0--0--3-|
G---2--2--2--2--2-----2--2--2--2--2-|-2--2--2--2--2-----2--2--2--2--2-|
D---1--1--1--1--2-----1--1--1--1--2-|-1--1--1--1--2-----1--1--1--1--2-|
A---2--2--2--2--2-----2--2--2--2--2-|-2--2--2--2--2-----2--2--2--2--2-|
E-----------------------------------|---------------------------------|

Rhythm figure 5

E---------------------|---------------------|
G---------------------|---------------------|
B---------------------|---------------------|
D---------------------|---------------------|
A-------------------2-|---------------------|
E--0----0--0---3------|--0-----0-----5---3--|


(with rhithm figure 1)
Sittin'on a sack of beans, sittin'down in a New Orleans,
You won't belive what I've seen, sittin'on that sack of beans.
Lunatics on pogo sticks, another soutern fried freak on a crucifix.
Hicks don't miss with politics, peolple on the street just kickin' to
the licks.
(with rhithm figure 2)
Yes my favorite place to be is not a land called  Honah Lee.
Mentally or physic'lly,
I wanna be in New Orleans.
(with rhithm figure 3)
Oh good brother, just when I throught that I had seen it all, My
eyes popped out, my dick got hard and I dropper my jaw. I
saw a bird walkin' down the block, name Apache Rose Peacock, I
could not speak i was in shock, I told my knees to please not knock
(with rhythm figure 2)
Yes, my favorite place to be. It's not a land called Honah Lee.
Mentally or physic'lly,
I wanna be in New Orleans.
(with rhythm figure 4)
(Do do do do do,)
Ba da bom,
(do do do do do do)
bom bom bom bomnomn n monomn oh yeah
(Do do do do do,)
Ba da bom,
(do do do do do do)
bom bom bom bomnomn n monomn oh yeah

Additional lyrics

A little boy came along, name of Louis Armstrong.
Said that who left me silly, she liked the looks of me and my willy.
So I found her in the quarter, good God how I adored her.
Oh she made me feel so cozy, when she told me I could call her Rosey.

I kiss you hair, your skin so bare.
I'll take you with me girl, anywhere.
You fare well in stormy weather.
I never met a girl that I liked better.

Twinkle twinkle little star, shining down on my blue car.
Drivin'down the boulevard, she was soft and I was hard.
Apache Rose gotta rockin' peacock, hottest ass on the goddamn block.
Rockin' to the beat of the funky-ass Meters, she has on of those built-in heaters.
Вверх

Around The World

    flea w/fuzz pedal
    E5
e|---------------|
B|---------------|
G|---------------|
D|-2-(2)---------|
A|-------2-2-2-2-|
E|-0-(0)-0-0-0-0-|

    flea
    E5
e|-------------------------------------------------------------|
B|-------------------------------------------------------------|
G|-------------------------------------------------------------|
D|-12h14-14-14-12h14-14-14-12h14-14-14-12h14-14-12-------------|
A|-------------------------------------------------14-13-12-10-|
E|-------------------------------------------------------------|

    flea
    E5
e|-------------------------------------------------------------|
B|-------------------------------------------------------------|
G|-------------------------------------------------------------|
D|-12h14-14-14-12h14-14-14-12h14-14-14-12h14-12----------------|
A|----------------------------------------------14-13-12-------|
E|-------------------------------------------------------15-12-|

    John w/distortion
e|--/12-12-12--/12-12-12--/12-12-12--/12-12-12-12-12-12-12-|
B|--/12-12-12--/12-12-12--/12-12-12--/12-12-12-12-12-12-12-|
G|--/-9--------/-9--------/-9--------/-9--------9--9--9--9-|
D|---------------------------------------------------------| x6
A|---------------------------------------------------------|
E|---------------------------------------------------------|

      John (verse) [clean guitar]
      G5
e|-----------------------------------|
B|-----------------------------------|
G|-----------------------------------|
D|------3-5-3-5-3-5-------3-5-3-5----|
A|----5-----------------5------------|
E|-----------------------------------|

     Flea (verse) [pop bass]
     G5                              G5
e|------------------------------|------------------------------|
B|------------------------------|------------------------------|
G|------------------------------|------------------------------|
D|---------3-----5--------2--3--|--------3----5---------3-2----|
A|------------------------------|---------------------------5--|
E|--3----------------3--3-------|---3-------------3--3---------|

e|-------------------------------------------------------------|
B|-------------------------------------------------------------|
G|-------------------------------------------------------------|
D|----------3-----5-----------2--3-----------3--5--------------|
A|--------------------------------------------------3~~---1~~--|
E|-----3----------------3--3-----------3-----------------------|
---
Lyrics:

Around The World

All around the world
We could make time
Rompin' and a stompin'
'cause I'm in my prime

Born in the north
And sworn to entertain ya
'cause I'm down for
The state of Pennsylvania

I try not to whine
But I must warn ya
'Bout the girls
>From California

Alabama baby
Said hallelujah
Good god girl
I wish I knew ya

I know I know for sure
That life is beautiful around the world
I know I know it's you
You say hello and then I say I do

Come back baby
'Cause I'd like to say
I've been around the world
Back from Bombay

Fox hole love
Pie in your face
Living in and out
Of a big fat suitcase

Bonafide ride
Step aside my Johnson
Yes I could
In the woods of Wisconsin

Wake up the cake
It's a lake she's kissin' me
As they do when
When they do in Sicily

I know I know for sure
That life is beautiful around the world
I know I know it's you
You say hello and then I say I do

Where you want to go
Who you want to be
What you want to do
Just come with me

I saw God
And I saw the fountains
You and me girl
Sittin' in the Swiss mountains

Me Oh My O
Me and Guy O
Freer than a bird
'Cause we're rockin' Ohio

Around the world
I feel dutiful
Take a wife
'Cause life is beautiful

I know I know for sure
(then some crazy stuff)
I know I know it's you
(more crazy chinese sounding nonsense)

Mother Russia do not suffer
I know you're bold enough
I've been around the world
And I have seen your love
I know I know it's you

You say hello then I say I do
Вверх

Around The World (2 вариант)

GUITAR
E:--12----12-12---12----12-12----12----12-12--
B:--12----12-12---12----12-12----12----12-12--
G:--14^---14-14r--14^---14-14r---14^---14-14r-
D:--------------------------------------------
A:--------------------------------------------
E:--------------------------------------------

BASS ( arranged for guitar )
E:-------------------------------------------------
B:-------------------------------------------------
G:-7h9-9---7h9-9---7h9-9---7h9-7-------------------
D:-------------------------------9--8--7--5--------
A:-------------------------------------------7--5--
E:-------------------------------------------------


VERSE repeat as many times as needed. Pick near the bridge for
the twangy sound.
E:---------------------------
B:---------------------------
G:---------------------------
D:-3-5-3-5-3-5---0-3-5-3-5---
A:---------------------------
E:---------------------------

CHORUS repeat a few times:
E:--------------------------------------------------
B:--------------------------------------------------
G:--------------------8------------------------10-8-
D:-10--10----8-8-10-----10---8h10-10---8-10-10------
A:--------------------------------------------------
E:--------------------------------------------------

E:-------------------
B:-------------------
G:-------------8-----
D:-8h10----------10--
A:------10-11--------
E:-------------------

FUNKY BASS PART ( it sounds really cool so I transcribed it for guitar
)
E:---------------------------------------------------
B:---------------------------------------------------
G:-----10--12--------9--10-----10--12------10-9------
D:----------------------------------------------8~~--
A:---------------------------------------------------
E:--3---------0--1----------3---------0-1------------

E:---------------------------------------------------
B:---------------------------------------------------
G:-----10--12--------9--10-----10--12----------------
D:-------------------------------------------3-2-----
A:-----------------------------------------1-----1---
E:--3---------0--1----------3----------1-3---------1-
Вверх

Baby Appeal

Intro
E||-9---9-9----------|-----------------|
B||-9---9-9----------|-----------------|
G||-9---9-9----------|-----------------|
D||-8---8-8----------|-----------------|
A||----------7-9---7-|-9---------------|
E||------------------|-----------------|

E|-9---9-9----------|-------------------|
B|-9---9-9----------|-------------------|
G|-9---9-9----------|-------------------|
D|-8---8-8----------|-------------------|
A|----------7-9---7-|-------------------|
E|------------------|-2-2-0-2-0-2-2-0-2-|

Verse A
E|----------------|----------------|
B|----------------|----------------|
G|-11-11----------|----------------|x
D|-11-11----------|----------------|2
A|-9--9--9-9/12-9-|-7-9------------|
E|----------------|----------------|

E|----------------|----------------|
B|----------------|----------------|
G|-7-7------------|----------------|
D|-7-7--7-7/9--7--|----------------|
A|-5-5------------|-7-9------------|
E|----------------|----------------|

E|----------------|----------------|
B|----------------|----------------|
G|-11-11----------|----------------|x
D|-11-11----------|----------------|2
A|-9--9--9-9/12-9-|-7-9------------|
E|----------------|----------------|

E|------------------|----------------|
B|------------------|----------------|
G|-11-11------------|----------------|
D|-11-11------------|----------------|
A|-9--9--9-9/14-12--|-9-----7-9------|
E|------------------|----------------|

Chorus
E|-------------12~|-------------------|
B|----------------|-------------------|
G|-----9-9-6-7----|-----9-9-6---------|
D|-----9-9-6-7----|-----9-9-6---------|
A|-----7-7-4-5----|-----7-7-4-5-5-7-7-|
E|-0-0------------|-0-0---------------|

E|-----------------|-------------------|
B|-----------------|-------------------|
G|-----9-9-6-7-7-9-|-----9-9-6---------|
D|-----9-9-6-7-----|-----9-9-6---------|
A|-----7-7-4-5-----|-----7-7-4-5-5-7-7-|
E|-0-0-------------|-0-0---------------|

Fill A
E|------------------------|------------------------|
B|-10------10-------------|---------12-10----------|
G|-11-9-------11----------|-11-9-------------------|
D|------11----------------|------11----------------|
A|---------------7-9--7-9-|---------------7-9--7-9-|
E|------------------------|------------------------|

Verse B
E|----------------|----------------|
B|----------------|----------------|
G|-11-11----------|----------------|x
D|-11-11----------|----------------|5
A|-9--9--9-9/12-9-|-7-9------------|
E|----------------|----------------|

E|------------------|----------------|
B|------------------|----------------|
G|-11-11------------|----------------|
D|-11-11------------|----------------|
A|-9--9--9-9/14-12--|-9-----7-9------|
E|------------------|----------------|

Chorus

Bass Bridge - No Playing

Solo
E|------|---------------|-----------|---------------|
B|------|---------------|-----------|---------------|
G|------|---------------|-----------|---------------|
D|------|---------------|-----------|-------------5~|
A|-14 -|---7-5-4-5-4---|-----------|---7-5-4-5-4---|
E|------|-0-----------3-|-0-0---0-0-|-0-------------|

Drum Solo/Fill - No Playing

Fill B
E|-----------|
B|-----------|
G|-----------|x
D|-----------|4
A|-9-7-9-----|
E|-----------|

Verse A

Chorus

Outro
E|---------------|-----------||
B|---------------|-----------||
G|---------------|-----------||
D|---------------|-----------||
A|---7-5-4-5-4---|-----------||
E|-0-----------3-|-0-0---0-0-||
Вверх

Baby Appeal (2 вариант)

Intro
E------------------------|---------------------------------------------|
B-|-14--14-14------------|-14--14-14-----------------------------------|
G-|-14--14-14------------|-14--14-14-----------------------------------|
D-|-14--14-14------------|-14--14-14-----------------------------------|
A-|----------------------|---------------------------------------------|
E-|--------12-14--12-14--|------------12-14---12-14--2-2-0-2-0-2-2-0-2-|


e|---- ---!  ----------|
B|---- ---!  ----------|
G|-11- -7-!  ----------|
D|-11- -7-!  -4-4--4-4-|
A|--9- -5-!  -4-4--4-4-|
E|---- ---!  -0-2--0-2-|


e|-------------------------------------------------|
B|-------------------------------------------------|
G|---------9--9--6--7------------------------------|
D|---------9--9--6--7------------------------------|
A|---------7--7--4--5------------------------------|
E|---0--0---------------11/12----------------------|

SOLO :


e|--------------------------------------------------------|
B|--------------------------------------------------------|
G|--------------------------------------------------------|
D|--9---------------------------------------------------5-|
A|-------7--5--4--5--4--------------------7--5--4--5--4---|
E|-----0----------------3--0--0---------0-----------------|
Вверх

Backwoods

Bass
Bass figure 1:
G-|-----------------------|-----------------------|
D-|-----4--4--4--4---4--4-|-----4--4--4--4---4--4-|
A-|-----------------------|-----------------------|
E-|-2-x------------2------|-2-x------------2------|
    T T P  P  P  P T P  P   T T P  P  P  P T P  P

Chorus:
G-|--------------------------|-------------------------|
D-|-------2--------7-------9-|-------2--------7------9-|
A-|--------------------------|-------------------------|
E-|-2--2----2--5-5----7-7----|-2--2----2--5-5----7-7---|
    T T   P T  T T P  T T  P   T  T  P T  T T P  T T P

Interlude:
G-|---------------------------------|---------------------------------|
D-|---------------------------------|---------------------------------|
A-|---------------------------------|-0h2-0h2-0h2-0h2-0h2-0h2-0h2-0h2-|
E-|-5h7-5h7-5h7-5h7-5h7-5h7-5h7-5h7-|---------------------------------|
               			     Can also be played this way

Bridge:
G-|--------------------------------|-----------------------------------|
D-|--------------------------------|-----------------------------------|
A-|--------------------------------|-----------------------------------|
E-|-2--x-2--2--2--2-2--x-2--2--2-2-|-2--x-2--2--x-2--0/2-2--0/2-2--2-2-|
    T  T T  T  T  T T  T T  T  T T   T  T T  T  T T  T   T  T   T  T T

G-|--------------------------------|-----------------------------------|
D-|--------------------------------|--------------4------4---------2h4-|
A-|--------------------------------|-----------------------------------|
E-|-2--x-2--2--2--2-2--x-2--2--2-2-|-2--x-2--2--x---2--2---2--x--2-----|
    T  T T  T  T  T T  T T  T  T T   T  T T  T  T P T  T P T  T  T P
Played with varitions. Frequently used variations showed below.

G-|-------------------------------|--------------------------------|
D-|-----------4--4----------------|--------------------------------|
A-|-------------------------------|--------------------------------|
E-|-2--x-2--2--2---x--2-x--0--2-2-|-2/5/75/82/12-2--x-2--2--x-2-|
    T  T T  T PT P T  T T  T  T T   T   T   T   T   T  T T  T  T T

G-|------------4------------------|-----------------------------------|
D-|----------4--------------------|---------------------------------4-|
A-|--------------x----------------|-----------x--0--2-----------------|
E-|-2--x-2-2-------2--x-2--2--x-2-|-2--x-2--2----------2--x-2-2--2----|
    T  T T T P P T T  T T  T  T T   T  T T  T T  T  T  T  T T T  T  P

Ending:
G-|------------------------|------------------------|------------|
D-|-------2--------7-----9-|-------2--------7-----9-|------------|
A-|------------------------|------------------------|------2-----|
E-|-2--2----2--5-5---7-7---|-2--2----2--5-5---7-7---|-2--2----2--|
    T  T  P T  T T P T T P   T  T  P T  T T P T T P   T  T T  T
Вверх

Backwoods (2 вариант)

Intro and Verse:


    F#5

e-|---
B-|---
G-|---
D-|-4-
A-|-4-
E-|-2-
(Listen to it to get the correct rythm!)

Chorus:
(Do slides between the notes!And let ring the notes.)

    F#5   E5   A5    B5
e-|-----------------------
B-|-----------------------
G-|-----------------------
D-|-4-4-/-2-2-/7-7-/-9-9--
A-|-4-4-/-2-2-/7-7-/-9-9--
E-|-2-2-/-0-0--5-5-/-7-7--   repeat it

Interlude:
(Perhaps it's bass solo.Maybe the guitar plays here nothing,but this sounds good.)

e-|---------------------------------|
B-|---------------------------------|
G-|---------------------------------|
D-|---------------------------------|
A-|-0h2-0h2-0h2-0h2-0h2-0h2-0h2-0h2-|
E-|---------------------------------|

Solo:
Use the tremolo (if you have) and bend the notes.I can't tab this out perfectly.

    F#5    A5 			     F#
e-|-------------------------------------------------------------------|
B-|------------~13b---------------------------------------------------|
G-|b11~----14--------~12~---b14~b~----don't know this fast part-------|
D-|-------------------------------------------------------------------|
A-|-------------------------------------------------------------------|
E-|-------------------------------------------------------------------|
Or something like this.I think you can work out an own solo,when you play along the record.


****************************
And the lyrics:

:
Someone spilled blood many years ago
someone spilled blood but do you know
that from the backwoods
where the Chuck Berrys grow
come your long tall
daddies of a rock and roll

:
Take me to your backwoods now
Take me to your backwoods now

:
Spinning' down from the clouds like a tornado
spinnin' out of control like a psychedelic soul
with a rhythm hittin' harder than Larry Holmes
come your long tall daddies of rock and roll

:
Take me to your backwoods now
take me to your backwoods now

Take me to your backwoods now
Take me to your backwoods now
yeah!



:
Mr. Uplift Mofo - my man Bo Diddley
hit sippin' a bottle of nickle ripple
play the lickity split finger licking licks
for all you wicked city slick chicks
and all you nitty gritty hick
we'll make your nipples ripple make you wanna dip your dipple
make you wanna soak your hickory stick
because my man has a grip on it
and I do mean on it which brings to mind
a very sinister minister kind of guy a man named Little Richard
born to make them bitches stir that's right he'll make
the sweet substance drip
from the middle of your hillbilly lips and like the farmer milk
his cow the Howling Wolf will howl
and since times does allow you all can

:
Take me to your backwoods now	(X4)
:
AAAAAAAAh,take me to your backwoods
Вверх

Backwoods (3 вариант)

	Intro/verse- quiet fuzz distortion. Listen to it to get the rhythm
e|---------------------------------------------------------------------------|
B|---------------------------------------------------------------------------|
G|---------------------------------------------------------------------------|
D|--4-x-4-4-4-4-xx-4-4-------------------------------------------------------|
A|--4-x-4-4-4-4-xx-4-4-------------------------------------------------------|
E|--2-x-2-2-2-2-xx-2-2-------------------------------------------------------|
	Chorus- I think this is pretty much right
e|---------------------------------------------------------------------------|
B|----------------10-10-9-xx-10-12-12----------------------------------------|
G|---------2-4-----9--9-9-xx--9-11-11----------------------------------------|
D|-4-4-2-2-2-4---------------------------------------------------------------|
A|-4-4-2-2-0-2---------------------------------------------------------------|
E|-2-2-0-0-------------------------------------------------------------------|
	Interlude bit                                                 then
e|---------------------------------------------------------------------------|
B|-----------------------------------------------------------------------/19-|
G|---------------------------------------------------------------------------|
D|------------------------------------------------------------------x2-------|
A|-0h2-0h2-0h2-0h2-0h2-0h2-0h2-0h2-0h2-0h2-0h2-0h2-0h2-0h2-0h2-0h2-----------|
E|---------------------------------------------------------------------------|
	Solo- This is about right I think.  Might not be exact though
e|---------------------------------------------------------------------------|
B|--7--7—--8^--8^--8^--10^------------------------5--------------------------|
G|--9^-9^------------------------------5-5--------5-5------------------------|
D|-----------------------------------------7p5-7------7p5-7------------------|
A|---------------------------------------------------------------------------|
E|---------------------------------------------------------------------------|

e|---------------------------------------------------------------------------|
B|--------------------5---------------------------------------5^~------------|
G|----------5---5-7-7^--7r-5-7p5--------------------5---------5^~------------|
D|--5---5h7---7------------------7---------5---5-7^---7-5h7------------------|
A|----7------------------------------7p5h7---7-------------------------------|
E|---------------------------------------------------------------------------|

e|---------------------------------------------------------------------------|
B|--8^^^---10^^^-------------------------------------------------------------|
G|---------------------------------------------------------------------------|
D|---------------------------------------------------------------------------|
A|------------------9~-------------------------------------------------------|
E|---------------------------------------------------------------------------|
	Outro
e|---------------------------------------------------------------------------|
B|---------------------------------------------------------------------------|
G|---------------------------------------------------------------------------|
D|-4-4-xx-4-4----------------------------------------------------------------|
A|-4-4-xx-4-4----------------------------------------------------------------|
E|-2-2-xx-2-2----------------------------------------------------------------|
Вверх

Battle Ship

G |---------------------------|
D |---------------------------|
A |---------------------------|
E |---7--7-7p5p7--7p5-5p7-7---|


Interlude
G |---9---9---9-----------------|
D |----------------5------7-----|
A |---7---7---7-----------------|
E |--------------3---3--5---5---|
Вверх

Behind The Sun

  N.C.        D                 A
 4/4
  Gtrs I, II
|---------||----------------------------------------|
|---------||o---------------------------------------|
|---------||--12s11-9--9----------------9-(9)-9-----|
|---------||---0----0-(0)-0-9-7--9s11---9-(9)-9-----|
|---------||o---------------0-0--0----0-0-(0)-0-9-7-|
|---------||------------------------------------0-0-|
|
| Gtr III
|---------||--12------12--------12--------12--------|
|---------||o---------------------------------------|
|---------||---9-------9---------9---------9--------|
|---------||----------------------------------------|
|---------||o---------------------------------------|
|---------||----------------------------------------|


                                                         1.
  E                  A5               E9
|-----------------------------------|--------7-(7)------|-(7)-----------||
|-----------------------------------|--------7-(7)------|-(7)----------o||
|-----------------------------------|--------7-(7)------|-(7)-----------||
|-----------------------------------|--------6-(6)------|-(6)-----------||
|--9s11-11-9-(9)-9-7------------5h7-|--------7-(7)------|-(7)----------o||
|--0-----0-0-(0)-0-0--9--7--5h7-----|--0-0-0------------|---------------||
|
|-12---------12------12----12-------|-12-----7-(7)------|-(7)-----------||
|-----------------------------------|--------7-(7)------|-(7)----------o||
|--9----------9-------9-----9-------|--9-----7-(7)------|-(7)-----------||
|-----------------------------------|--------6-(6)------|-(6)-----------||
|-----------------------------------|-------------------|--------------o||
|-----------------------------------|-------------------|---------------||
|
| Gtr IV
|-----------------------------------|-------------------|---------------||
|-----------------------------------|-------------------|--------------o||
|-------------------------------7h9-|-------------------|---------------||
|--------------------11--9--7h9-----|-------------------|---------------||
|-----------------------------------|-------------------|-----7-(7)----o||
|-----------------------------------|-------------------|--0------------||


                       Verse
  2.
  E9                    E9                      E6
|-(7)----------------||-----------7-------------9-|
|-(7)----------------||-------7---7-------------9-|
|-(7)----------------||-------7---7-------------9-|
|-(6)----------------||-------6---6-------------7-|
|-(7)----------------||-------7---7---------------|
|--------------------||---0-0---------0-0-0-0-0---|
|
|-(7)----------------||-----7---7-----7---7---7s9-|
|-(7)----------------||-8h9---------9-------------|
|-(7)----------------||---------------------------|
|-(6)----------------||---------------------------|
|--------------------||---------------------------|
|--------------------||---------------------------|
|
|--0-----------------||---------------------------|
|-----0-(0)--(0)-----||---------------------------|
|------------------9-||---------------------------|
|--------------------||---------------------------|
|--------------------||---------------------------|
|--------------------||---------------------------|


  E9                     E6
|-------7--7-7-----------9----|
|-------7--7-7-----------9----|
|-------7--7-7-----------9----|
|-------6--6-6-----------7----|
|-------7--7-7----------------|
|-0-0-0--------0-0-0-0-0------|
|
|-----------------------------|
|-----------------------------|
|--------------------------9--|
|-----------------------------|
|-----------------------------|
|-----------------------------|
|
|-----------------------------|
|-----------------------------|
|-----------------------------|
|-----------------------------|
|-----------------------------|
|-----------------------------|


  E9                      E6  E9
|---------7---------------9-|-------7--7-7------------------|
|-----7---7---------------9-|-------7--7-7------------------|
|-----7---7---------------9-|-------7--7-7-----9h11-11-11-9-|
|-----6---6---------------7-|-------6--6-6-----9-----9--9-9-|
|-----7---7-----------------|-------7--7-7------------------|
|-0-0-----------0-0-0-0-0---|-0-0-0--------0-0--------------|
|
|---7---7---9---------------|-------------------------------|
|-9-----------7h8---8p7-----|-------------------------------|
|-----------------------9---|-----------------------------9-|
|---------------------------|-------------------------------|
|---------------------------|-------------------------------|
|---------------------------|-------------------------------|


                          E6
|-----------7-------------9--|
|-------7---7-------------9--|
|-------7---7-------------9--|
|-------6---6-------------7--|
|-------7---7----------------|
|---0-0---------0-0-0-0-0----|
|
|-----7---7-----7---7---7s9--|
|-8h9---------9--------------|
|----------------------------|
|----------------------------|
|----------------------------|
|----------------------------|


  E9                     E6  E9                     E6
|-------7--7-7-----------9-|----------7-------------9-|
|-------7--7-7-----------9-|------7---7-------------9-|
|-------7--7-7-----------9-|------7---7-------------9-|
|-------6--6-6-----------7-|------6---6-------------7-|
|-------7--7-7-------------|------7---7---------------|
|-0-0-0--------0-0-0-0-0---|--0-0---------0-0-0-0-0---|
|
|--------------------------|-12-9---7-----------------|
|--------------------------|------------8-8---8p7-----|
|--------------------------|----------------------9---|
|--------------------------|--------------------------|
|--------------------------|--------------------------|
|--------------------------|--------------------------|


  E9
|-------7--7-7--------------------||
|-------7--7-7--------------------||
|-------7--7-7-----9h11-11-11-9---||
|-------6--6-6-----9-----9--9-9---||
|-------7--7-7--------------------||
|-0-0-0--------0-0----------------||
|
|---------------------------------||
|---------------------------------||
|---------------------------------||
|---------------------------------||
|---------------------------------||
|---------------------------------||


 Verse InterVerse Continues
  N.C.       E9                      E6
|---------||-----------7-------------9-|
|---------||-------7---7-------------9-|
|---------||-------7---7-------------9-|
|---------||-------6---6-------------7-|
|---------||-------7---7---------------|
|---------||---0-0---------0-0-0-0-0---|
|
|---------||-----7---7-----7---7---7s9-|
|---------||-8h9---------9-------------|
|---------||---------------------------|
|---------||---------------------------|
|---------||---------------------------|
|---------||---------------------------|


  E9                     E6    E9                      E6
|-------7--7-7-----------9---|---------7---------------9-|
|-------7--7-7-----------9---|-----7---7---------------9-|
|-------7--7-7-----------9---|-----7---7---------------9-|
|-------6--6-6-----------7---|-----6---6---------------7-|
|-------7--7-7---------------|-----7---7-----------------|
|-0-0-0--------0-0-0-0-0-----|-0-0-----------0-0-0-0-0---|
|
|----------------------------|---7---7---7---------------|
|----------------------------|-9-----------7h8---8p7-----|
|--------------------------9-|-----------------------9---|
|----------------------------|---------------------------|
|----------------------------|---------------------------|
|----------------------------|---------------------------|


  E9
|-------7--7-7------------------||
|-------7--7-7------------------||
|-------7--7-7-----9h11-11-11-9-||
|-------6--6-6-----9-----9--9-9-||
|-------7--7-7------------------||
|-0-0-0--------0-0--------------||
|
|-------------------------------||
|-------------------------------||
|-------------------------------||
|-------------------------------||
|-------------------------------||
|-------------------------------||


 Chorus
  D                 A
|---------------------------------------|
|---------------------------------------|
|-12s11-9--9----------------9-(9)-9-----|
|--0----0-(0)-0-9-7--9s11---9-(9)-9-----|
|---------------0-0--0----0-0-(0)-0-9-7-|
|-----------------------------------0-0-|
|
|-12------12--------12--------12--------|
|---------------------------------------|
|--9-------9---------9---------9--------|
|---------------------------------------|
|---------------------------------------|
|---------------------------------------|
|
| Gtr IV
|---------------------------------------|
|---------------------------------------|
|---------------------------------------|
|---------------------------------------|
|---------------------------------------|
|---------------------------------------|


  E                  A5               E9
|-----------------------------------|--------7-(7)----|
|-----------------------------------|--------7-(7)----|
|-----------------------------------|--------7-(7)----|
|-----------------------------------|--------6-(6)----|
|--9s11-11-9-(9)-9-7------------5h7-|--------7-(7)----|
|--0-----0-0-(0)-0-0--9--7--5h7-----|--0-0-0----------|
|
|-12---------12------12----12-------|-12-----7-(7)----|
|-----------------------------------|--------7-(7)----|
|--9----------9-------9-----9-------|--9-----7-(7)----|
|-----------------------------------|--------6-(6)----|
|-----------------------------------|-----------------|
|-----------------------------------|-----------------|
|
|-----------------------------------|-----------------|
|-----------------------------------|-----------------|
|-------------------------------7h9-|-----------------|
|--------------------11--9--7h9-----|-----------------|
|-----------------------------------|-----------------|
|-----------------------------------|-----------------|


  E9           D                 A
|-(7)--------|---------------------------------------|
|-(7)--------|---------------------------------------|
|-(7)--------|-12s11-9--9----------------9-(9)-9-----|
|-(6)--------|--0----0-(0)-0-9-7--9s11---9-(9)-9-----|
|-(7)--------|---------------0-0--0----0-0-(0)-0-9-7-|
|------------|-----------------------------------0-0-|
|
|-(7)--------|-12------12--------12--------12--------|
|-(7)--------|---------------------------------------|
|-(7)--------|--9-------9---------9---------9--------|
|-(6)--------|---------------------------------------|
|------------|---------------------------------------|
|------------|---------------------------------------|
|
|------------|---------------------------------------|
|------------|---------------------------------------|
|------------|---------------------------------------|
|------------|---------------------------------------|
|------------|---------------------------------------|
|------------|---------------------------------------|


  E                  A5
|------------------------------------|
|------------------------------------|
|------------------------------------|
|------------------------------------|
|--9s11-11-9-(9)-9-7------------5h7--|
|--0-----0-0-(0)-0-0--9--7--5h7------|
|
|-12---------12------12----12--------|
|------------------------------------|
|--9----------9-------9-----9--------|
|------------------------------------|
|------------------------------------|
|------------------------------------|
|
|------------------------------------|
|------------------------------------|
|-------------------------------7h9--|
|--------------------11--9--7h9------|
|------------------------------------|
|------------------------------------|


  E9                                    D                 A
|--------7-(7)------|-(7)-------------|---------------------------------------|
|--------7-(7)------|-(7)-------------|---------------------------------------|
|--------7-(7)------|-(7)-------------|-12s11-9--9----------------9-(9)-9-----|
|--------6-(6)------|-(6)-------------|--0----0-(0)-0-9-7--9s11---9-(9)-9-----|
|--------7-(7)------|-(7)-------------|---------------0-0--0----0-0-(0)-0-9-7-|
|--0-0-0------------|-----------------|-----------------------------------0-0-|
|
|-12-----7-(7)------|-(7)-------------|-12------12--------12--------12--------|
|--------7-(7)------|-(7)-------------|---------------------------------------|
|--9-----7-(7)------|-(7)-------------|--9-------9---------9---------9--------|
|--------6-(6)------|-(6)-------------|---------------------------------------|
|-------------------|-----------------|---------------------------------------|
|-------------------|-----------------|---------------------------------------|
|
|-------------------|-----------------|---------------------------------------|
|-------------------|-----------------|---------------------------------------|
|-------------------|-----------------|---------------------------------------|
|-------------------|--0h2------------|---------------------------------------|
|-------------------|-----------------|---------------------------------------|
|-------------------|------0-(0)------|---------------------------------------|


  E                  A5
|-----------------------------------|
|-----------------------------------|
|-----------------------------------|
|-----------------------------------|
|--9s11-11-9-(9)-9-7------------5h7-|
|--0-----0-0-(0)-0-0--9--7--5h7-----|
|
|-12---------12------12----12-------|
|-----------------------------------|
|--9----------9-------9-----9-------|
|-----------------------------------|
|-----------------------------------|
|-----------------------------------|
|
|-----------------------------------|
|-----------------------------------|
|-------------------------------7h9-|
|--------------------11--9--7h9-----|
|-----------------------------------|
|-----------------------------------|


  E9
|--------7-(7)------|-(7)--------------------|
|--------7-(7)------|-(7)--------------------|
|--------7-(7)------|-(7)--------------------|
|--------6-(6)------|-(6)--------------------|
|--------7-(7)------|-(7)--------------------|
|--0-0-0------------|------------------------|
|
|-12-----7-(7)------|-(7)--------------------|
|--------7-(7)------|-(7)--------------------|
|--9-----7-(7)------|-(7)--------------------|
|--------6-(6)------|-(6)--------------------|
|-------------------|------------------------|
|-------------------|------------------------|
|
|-------------------|---------0---0----------|
|-------------------|-----3-3---3---3s5-(5)--|
|-------------------|------------------------|
|-------------------|------------------------|
|-------------------|------------------------|
|-------------------|------------------------|


  D                 A
|---------------------------------------|
|---------------------------------------|
|-12s11-9--9----------------9-(9)-9-----|
|--0----0-(0)-0-9-7--9s11---9-(9)-9-----|
|---------------0-0--0----0-0-(0)-0-9-7-|
|-----------------------------------0-0-|
|
|-12------12--------12--------12--------|
|---------------------------------------|
|--9-------9---------9---------9--------|
|---------------------------------------|
|---------------------------------------|
|---------------------------------------|
|
|---------------------------------------|
|---------------------------------------|
|---------------------------------------|
|---------------------------------------|
|---------------------------------------|
|---------------------------------------|


  E                  A5               E9
|-----------------------------------|--------7-(7)----|
|-----------------------------------|--------7-(7)----|
|-----------------------------------|--------7-(7)----|
|-----------------------------------|--------6-(6)----|
|--9s11-11-9-(9)-9-7------------5h7-|--------7-(7)----|
|--0-----0-0-(0)-0-0--9--7--5h7-----|--0-0-0----------|
|
|-12---------12------12----12-------|-12-----7-(7)----|
|-----------------------------------|--------7-(7)----|
|--9----------9-------9-----9-------|--9-----7-(7)----|
|-----------------------------------|--------6-(6)----|
|-----------------------------------|-----------------|
|-----------------------------------|-----------------|
|
|-----------------------------------|-----------------|
|-----------------------------------|-----------------|
|-------------------------------7h9-|-----------------|
|--------------------11--9--7h9-----|-----------------|
|-----------------------------------|-----------------|
|-----------------------------------|-----------------|


                       Verse
  E9                    E9                      E6
|-(7)----------------||-----------7-------------9-|
|-(7)----------------||-------7---7-------------9-|
|-(7)----------------||-------7---7-------------9-|
|-(6)----------------||-------6---6-------------7-|
|-(7)----------------||-------7---7---------------|
|--------------------||---0-0---------0-0-0-0-0---|
|
|-(7)----------------||-----7---7-----7---7---7s9-|
|-(7)----------------||-8h9---------9-------------|
|-(7)----------------||---------------------------|
|-(6)----------------||---------------------------|
|--------------------||---------------------------|
|--------------------||---------------------------|
|
|     TP TP   TP
|-----0-(0)--(0)-----||---------------------------|
|--------------------||---------------------------|
|------------------9-||---------------------------|
|--------------------||---------------------------|
|--------------------||---------------------------|
|--------------------||---------------------------|


  E9                     E6
|-------7--7-7-----------9----|
|-------7--7-7-----------9----|
|-------7--7-7-----------9----|
|-------6--6-6-----------7----|
|-------7--7-7----------------|
|-0-0-0--------0-0-0-0-0------|
|
|-----------------------------|
|-----------------------------|
|--------------------------9--|
|-----------------------------|
|-----------------------------|
|-----------------------------|
|
|-----------------------------|
|-----------------------------|
|-----------------------------|
|-----------------------------|
|-----------------------------|
|-----------------------------|


  E9                      E6  E9
|-----7---7---------------9-|-------7--7-7------------------|
|-----7---7---------------9-|-------7--7-7------------------|
|-----7---7---------------9-|-------7--7-7-----9h11-11-11-9-|
|-----6---6---------------7-|-------6--6-6-----9-----9--9-9-|
|-----7---7-----------------|-------7--7-7------------------|
|-0-0-----------0-0-0-0-0---|-0-0-0--------0-0--------------|
|
|---7---7---9---------------|-------------------------------|
|-9-----------7h8---8p7-----|-------------------------------|
|-----------------------9---|-----------------------------9-|
|---------------------------|-------------------------------|
|---------------------------|-------------------------------|
|---------------------------|-------------------------------|


  E9                      E6
|-----------7-------------9--|
|-------7---7-------------9--|
|-------7---7-------------9--|
|-------6---6-------------7--|
|-------7---7----------------|
|---0-0---------0-0-0-0-0----|
|
|-----7---7-----7---7---7s9--|
|-8h9---------9--------------|
|----------------------------|
|----------------------------|
|----------------------------|
|----------------------------|


  E9                                  E6  E9                      E6
|-----------7-----7-----7-------------9-|----------7--------------9----|
|-----------7-----7-----7-------------9-|------7---7--------------9----|
|-----------7-----7-----7-------------9-|------7---7--------------9----|
|-----------6-----6-----6-------------7-|------6---6--------------7----|
|-----------7-----7-----7---------------|------7---7-------------------|
|--0--0--0-----------------0--0-0-0-0---|--0-0---------0-0-0-0--0------|
|
|---------------------------------|-12-9---7---------------------|
|------------------------------|------------8-8---8-7---------|
|---------------------------------------|-----------------------9------|
|---------------------------------------|------------------------------|
|---------------------------------------|------------------------------|
|---------------------------------------|------------------------------|
|
| Gtr IV
|---------------------------------------|----------------------17------|
|---------------------------------------|---------------------------19-|
|---------------------------------------|------------------------------|
|---------------------------------------|------------------------------|
|---------------------------------------|------------------------------|
|---------------------------------------|------------------------------|


  E9
|---------7-------7--7---------------------||
|---------7-------7--7---------------------||
|---------7-------7--7--------9h11-11-11-9-||
|---------6-------6--6--------9-----9--9-9-||
|---------7-------7--7---------------------||
|--0-0--0---------------0--0---------------||
|
|------------------------------------------||
|------------------------------------------||
|------------------------------------------||
|------------------------------------------||
|------------------------------------------||
|------------------------------------------||
|
|-17-------------------19----19s21s19------||
|------19---(19)-19-17----17-17s19s17------||
|------------------------------------------||
|------------------------------------------||
|------------------------------------------||
|------------------------------------------||


 Verse Interlude
  N.C.
|----------------------------------|
|----------------------------------|
|----------------------------------|
|----------------------------------|
|----------------------------------|
|----------------------------------|
|
|----------------------------------|
|----------------------------------|
|----------------------------------|
|----------------------------------|
|----------------------------------|
|----------------------------------|
|
|------------()-12-7-12-7-|
|----------------------------------|
|----------------------------|
|----------------------------------|
|----------------------------------|
|----------------------------------|


                                      Verse Continues
                                       E9                      E6
|-----------------------------------||-----------7-------------9--|
|-----------------------------------||-------7---7-------------9--|
|-----------------------------------||-------7---7-------------9--|
|-----------------------------------||-------6---6-------------7--|
|-----------------------------------||-------7---7----------------|
|-----------------------------------||---0-0---------0-0-0-0-0----|
|
|-----------------------------------||-----7---7-----7---7---7s9--|
|-----------------------------------||-8h9---------9--------------|
|---------------------------------9-||----------------------------|
|-----------------------------------||----------------------------|
|-----------------------------------||----------------------------|
|-----------------------------------||----------------------------|
|
|----------------()-----||----------------------------|
|-----------------------------------||----------------------------|
|--------------------------||----------------------------|
|-----------------------------------||----------------------------|
|-----------------------------------||----------------------------|
|-----------------------------------||----------------------------|


  E9                                    E6
|---------7-----7------7----------------9---|
|---------7-----7------7----------------9---|
|---------7-----7------7----------------9---|
|---------6-----6------6----------------7---|
|---------7-----7------7--------------------|
|-0-0--0--------------------0---0-0-0-0-----|
|
|-------------------------------------------|
|-------------------------------------------|
|-----------------------------------------9-|
|-------------------------------------------|
|-------------------------------------------|
|-------------------------------------------|
|
|-------------------()-------------|
|-------------------------------------------|
|-------------------------------------|
|-------------------------------------------|
|-------------------------------------------|
|-------------------------------------------|


  E9                      E6  E9
|---------7---------------9-|-------7--7-7--------------------||
|-----7---7---------------9-|-------7--7-7--------------------||
|-----7---7---------------9-|-------7--7-7-----9h11-11-11-9---||
|-----6---6---------------7-|-------6--6-6-----9-----9--9-9---||
|-----7---7-----------------|-------7--7-7--------------------||
|-0-0-----------0-0-0-0-0---|-0-0-0--------0-0----------------||
|
|---7---7---7---------------|---------------------------------||
|-9-----------7h8---8p7-----|---------------------------------||
|-----------------------9---|---------------------------------||
|---------------------------|---------------------------------||
|---------------------------|---------------------------------||
|---------------------------|---------------------------------||
|
|---------------------------|---------------------------------||
|---------------------------|---------------------------------||
|---------------------------|---------------------------------||
|---------------------------|---------------------------------||
|---------------------------|---------------------------------||
|---------------------------|---------------------------------||


 Chorus
  D                 A
|---------------------------------------|
|---------------------------------------|
|-12s11-9--9----------------9-(9)-9-----|
|--0----0-(0)-0-9-7--9s11---9-(9)-9-----|
|---------------0-0--0----0-0-(0)-0-9-7-|
|-----------------------------------0-0-|
|
|-12------12--------12--------12--------|
|---------------------------------------|
|--9-------9---------9---------9--------|
|---------------------------------------|
|---------------------------------------|
|---------------------------------------|
|
|---------------------------------------|
|---------------------------------------|
|---------------------------------------|
|---------------------------------------|
|---------------------------------------|
|---------------------------------------|


  E                  A5               E9
|-----------------------------------|--------7-(7)----|
|-----------------------------------|--------7-(7)----|
|-----------------------------------|--------7-(7)----|
|-----------------------------------|--------6-(6)----|
|--9s11-11-9-(9)-9-7------------5h7-|--------7-(7)----|
|--0-----0-0-(0)-0-0--9--7--5h7-----|--0-0-0----------|
|
|-12---------12------12----12-------|-12-----7-(7)----|
|-----------------------------------|--------7-(7)----|
|--9----------9-------9-----9-------|--9-----7-(7)----|
|-----------------------------------|--------6-(6)----|
|-----------------------------------|-----------------|
|-----------------------------------|-----------------|
|
|-----------------------------------|-----------------|
|-----------------------------------|-----------------|
|-------------------------------7h9-|-----------------|
|--------------------11--9--7h9-----|-----------------|
|-----------------------------------|-----------------|
|-----------------------------------|-----------------|


  E9                  D                 A
|-(7)---------------|---------------------------------------|
|-(7)---------------|---------------------------------------|
|-(7)---------------|-12s11-9--9----------------9-(9)-9-----|
|-(6)---------------|--0----0-(0)-0-9-7--9s11---9-(9)-9-----|
|-(7)---------------|---------------0-0--0----0-0-(0)-0-9-7-|
|-------------------|-----------------------------------0-0-|
|
|-------------------|-12------12--------12--------12--------|
|-------------------|---------------------------------------|
|-------------------|--9-------9---------9---------9--------|
|--2-----0-2--------|---------------------------------------|
|-------------------|---------------------------------------|
|------------0-(0)--|---------------------------------------|
|
|-------------------|---------------------------------------|
|-------------------|---------------------------------------|
|-------------------|---------------------------------------|
|-------------------|---------------------------------------|
|-------------------|---------------------------------------|
|-------------------|---------------------------------------|


  E                  A5
|-----------------------------------|
|-----------------------------------|
|-----------------------------------|
|-----------------------------------|
|--9s11-11-9-(9)-9-7------------5h7-|
|--0-----0-0-(0)-0-0--9--7--5h7-----|
|
|-12---------12------12----12-------|
|-----------------------------------|
|--9----------9-------9-----9-------|
|-----------------------------------|
|-----------------------------------|
|-----------------------------------|
|
|-----------------------------------|
|-----------------------------------|
|-------------------------------7h9-|
|--------------------11--9--7h9-----|
|-----------------------------------|
|-----------------------------------|


  E9                                   D                 A
|--------7-(7)------|-(7)------------|---------------------------------------|
|--------7-(7)------|-(7)------------|---------------------------------------|
|--------7-(7)------|-(7)------------|-12s11-9--9----------------9-(9)-9-----|
|--------6-(6)------|-(6)------------|--0----0-(0)-0-9-7--9s11---9-(9)-9-----|
|--------7-(7)------|-(7)------------|---------------0-0--0----0-0-(0)-0-9-7-|
|--0-0-0------------|----------------|-----------------------------------0-0-|
|
|-12-----7-(7)------|----------------|-12------12--------12--------12--------|
|--------7-(7)------|------------3---|---------------------------------------|
|--9-----7-(7)------|--0-------------|--9-------9---------9---------9--------|
|--------6-(6)------|-----0--0-2-----|---------------------------------------|
|-------------------|----------------|---------------------------------------|
|-------------------|----------------|---------------------------------------|
|
|-------------------|----------------|---------------------------------------|
|-------------------|----------------|---------------------------------------|
|-------------------|----------------|---------------------------------------|
|-------------------|----------------|---------------------------------------|
|-------------------|----------------|---------------------------------------|
|-------------------|----------------|---------------------------------------|


  E                  A5
|--------------------------------------|
|--------------------------------------|
|--------------------------------------|
|--------------------------------------|
|--9s11-11-9-(9)-9-7------------5h7----|
|--0-----0-0-(0)-0-0--9--7--5h7--------|
|
|-12---------12------12----12----------|
|--------------------------------------|
|--9----------9-------9-----9----------|
|--------------------------------------|
|--------------------------------------|
|--------------------------------------|
|
|--------------------------------------|
|--------------------------------------|
|-------------------------------7h9----|
|--------------------11--9--7h9--------|
|--------------------------------------|
|--------------------------------------|


  E9
|--------7-(7)------|-(7)--------------|
|--------7-(7)------|-(7)--------------|
|--------7-(7)------|-(7)--------------|
|--------6-(6)------|-(6)--------------|
|--------7-(7)------|-(7)--------------|
|--0-0-0------------|------------------|
|
|-12-----7-(7)------|--0---------------|
|--------7-(7)------|---------0-(0)----|
|--9-----7-(7)------|------------------|
|--------6-(6)------|-----2-2----------|
|-------------------|------------------|
|-------------------|------------------|


  D                 A
|----------------------------------------|
|----------------------------------------|
|-12s11-9--9----------------9-(9)-9------|
|--0----0-(0)-0-9-7--9s11---9-(9)-9------|
|---------------0-0--0----0-0-(0)-0-9-7--|
|-----------------------------------0-0--|
|
|-12------12--------12--------12---------|
|----------------------------------------|
|--9-------9---------9---------9---------|
|----------------------------------------|
|----------------------------------------|
|----------------------------------------|


  E                  A5               E9
|-----------------------------------|--------7-(7)------|-(7)----||
|-----------------------------------|--------7-(7)------|-(7)----||
|-----------------------------------|--------7-(7)------|-(7)----||
|-----------------------------------|--------6-(6)------|-(6)----||
|--9s11-11-9-(9)-9-7------------5h7-|--------7-(7)------|-(7)----||
|--0-----0-0-(0)-0-0--9--7--5h7-----|--0-0-0------------|--------||
|
|-12---------12------12----12-------|-12-----7-(7)------|-(7)----||
|-----------------------------------|--------7-(7)------|-(7)----||
|--9----------9-------9-----9-------|--9-----7-(7)------|-(7)----||
|-----------------------------------|--------6-(6)------|-(6)----||
|-----------------------------------|-------------------|--------||
|-----------------------------------|-------------------|--------||
|
| Gtr IV
|-----------------------------------|-------------------|--------||
|-----------------------------------|-------------------|--------||
|-------------------------------7h9-|-------------------|--------||
|--------------------11--9--7h9-----|-------------------|--------||
|-----------------------------------|-------------------|--------||
|-----------------------------------|-------------------|--------||


   Interlude
    A7      A7sus4  A7      A9
||----------------------------------|
||o-------2-------3-------2---2---0-|
||----0-------0-------0-------------|
||--2---2---2---2---2---2---2---2---|
||o---------------------------------|
||----------------------------------|
|
||--------0-------2-------0---------|
||o---------------------------0-----|
||----0-------0-------0-----------0-|
||--2---2---2---2---2---2---2---2---|
||o---------------------------------|
||----------------------------------|


                                     1.
                A7                    A7sus4
|-------------------3---3-----3-----|----------------------------------|
|-------0-------------------------0-|-------3-(3)-2-3-(3)-2-0-2s3-3-3--|
|---0-------0-----------------------|-0-----2-(2)-2-2-(2)-2------------|
|-2---2---2---2-------2----2----0---|---2------------------------------|
|----------------0------------------|-----0----------------------------|
|-----------------------------------|----------------------------------|
|
|-0-------------(0)-3---3-(3)-3-----|-3-----5-(5)----------------------|
|-----------------------------------|----------------------------------|
|-----------------------------------|----------------------------------|
|-----------------------------------|----------------------------------|
|-----------------------------------|----------------------------------|
|-----------------------------------|----------------------------------|


  A7
|----------------------------------||
|-3s5-5-5-5-5-5-5-5s7-7-7-7-7-0-0-o||
|-0---0-----0---0-------------0-0--||
|-----------------------------0-0--||
|---------------------------------o||
|----------------------------------||
|
|---------------------------0------||
|-3s5-5-5-5-5-5-5-5s7-7-7-7-------o||
|-----------------------------0----||
|----------------------------------||
|---------------------------------o||
|----------------------------------||


 2.
  A7sus4                           A7
|--------------------------------|-------0---0---0-3s5-5-5-5-5-5-5--||
|-------3-(3)-2-3-(3)-2-0--0-0-0-|-3s5-5---5---5--------------------||
|-0-----2-(2)-2-2-(2)-2-0--0-0-0-|----------------------------------||
|---2----------------------------|----------------------------------||
|-----0--------------------------|----------------------------------||
|--------------------------------|----------------------------------||
|
|-5----------------3-------------|-------0---0---0-3s5-5-5-5-5-5-5--||
|--------------------------------|-3s5-5---5---5--------------------||
|--------------------------------|----------------------------------||
|--------------------------------|----------------------------------||
|--------------------------------|----------------------------------||
|--------------------------------|----------------------------------||


 Verse
  E9                      E6  E9                     E6
|-----------7-------------9-|-------7--7-7-----------9---|
|-------7---7-------------9-|-------7--7-7-----------9---|
|-------7---7-------------9-|-------7--7-7-----------9---|
|-------6---6-------------7-|-------6--6-6-----------7---|
|-------7---7---------------|-------7--7-7---------------|
|---0-0---------0-0-0-0-0---|-0-0-0--------0-0-0-0-0-----|
|
|-----7---7-----7---7---7s9-|----------------------------|
|-8h9---------9-------------|----------------------------|
|---------------------------|--------------------------9-|
|---------------------------|----------------------------|
|---------------------------|----------------------------|
|---------------------------|----------------------------|


  E9                      E6
|---------7---------------9-|
|-----7---7---------------9-|
|-----7---7---------------9-|
|-----6---6---------------7-|
|-----7---7-----------------|
|-0-0-----------0-0-0-0-0---|
|
|---7---7---9---------------|
|-9-----------7h8---8p7-----|
|-----------------------9---|
|---------------------------|
|---------------------------|
|---------------------------|
|
| Gtr IV
|---------------------------|
|---------------------------|
|---------------------------|
|---------------------------|
|---------------------------|
|---------------------------|


  E9                                   E9                      E6
|-------7-----7---7------------------|-----------7-------------9-|
|-------7-----7---7------------------|-------7---7-------------9-|
|-------7-----7---7-----9h11-11-11-9-|-------7---7-------------9-|
|-------6-----6---6-----9-----9--9-9-|-------6---6-------------7-|
|-------7-----7---7------------------|-------7---7---------------|
|-0-0-0-------------0-0--------------|---0-0---------0-0-0-0-0---|
|
|------------------------------------|-----7---7-----7---7---7s9-|
|------------------------------------|-8h9---------9-------------|
|----------------------------------9-|---------------------------|
|------------------------------------|---------------------------|
|------------------------------------|---------------------------|
|------------------------------------|---------------------------|
|
|------------------------------------|---------------------------|
|------------------------------------|---------------------------|
|-9-------(9)-9-9-9-9-9-9--9--9--9-9-|---------------------------|
|------------------------------------|---------------------------|
|------------------------------------|---------------------------|
|------------------------------------|---------------------------|


  E9                     E6  E9                     E6
|-------7--7-7-----------9-|----------7-------------9-|
|-------7--7-7-----------9-|------7---7-------------9-|
|-------7--7-7-----------9-|------7---7-------------9-|
|-------6--6-6-----------7-|------6---6-------------7-|
|-------7--7-7-------------|------7---7---------------|
|-0-0-0--------0-0-0-0-0---|--0-0---------0-0-0-0-0---|
|
|--------------------------|-12-9---7-----------------|
|--------------------------|------------8-8---8p7-----|
|--------------------------|----------------------9---|
|--------------------------|--------------------------|
|--------------------------|--------------------------|
|--------------------------|--------------------------|


  E9
|-------7--7-7--------------------||
|-------7--7-7--------------------||
|-------7--7-7-----9h11-11-11-9---||
|-------6--6-6-----9-----9--9-9---||
|-------7--7-7--------------------||
|-0-0-0--------0-0----------------||
|
|---------------------------------||
|---------------------------------||
|---------------------------------||
|---------------------------------||
|---------------------------------||
|---------------------------------||


 Verse Interlude                                 Verse Continues
  N.C.                                            E9                      E6
|---------|------------------------------------||-----------7-------------9-|
|---------|------------------------------------||-------7---7-------------9-|
|---------|------------------------------------||-------7---7-------------9-|
|---------|------------------------------------||-------6---6-------------7-|
|---------|------------------------------------||-------7---7---------------|
|---------|------------------------------------||---0-0---------0-0-0-0-0---|
|
|---------|------------------------------------||-----7---7-----7---7---7s9-|
|---------|------------------------------------||-8h9---------9-------------|
|---------|------------------------------------||---------------------------|
|---------|------------------------------------||---------------------------|
|---------|------------------------------------||---------------------------|
|---------|------------------------------------||---------------------------|
|
| Gtr IV
|---------|-----------------------7------------||---------------------------|
|---------|-3h5-5-5-3-3-2h3p2-0-0----()--||---------------------------|
|---------|------------------------------------||---------------------------|
|---------|------------------------------------||---------------------------|
|---------|------------------------------------||---------------------------|
|---------|------------------------------------||---------------------------|


  E9                     E6    E9                      E6
|-------7--7-7-----------9---|---------7---------------9-|
|-------7--7-7-----------9---|-----7---7---------------9-|
|-------7--7-7-----------9---|-----7---7---------------9-|
|-------6--6-6-----------7---|-----6---6---------------7-|
|-------7--7-7---------------|-----7---7-----------------|
|-0-0-0--------0-0-0-0-0-----|-0-0-----------0-0-0-0-0---|
|
|----------------------------|---7---7---7---------------|
|----------------------------|-9-----------7h8---8p7-----|
|--------------------------9-|-----------------------9---|
|----------------------------|---------------------------|
|----------------------------|---------------------------|
|----------------------------|---------------------------|
|
|----------------------------|---------------------------|
|----------------------------|---------------------------|
|----------------------------|---------------------------|
|----------------------------|---------------------------|
|----------------------------|---------------------------|
|----------------------------|---------------------------|


  E9
|-------7---7---7---------------------||
|-------7---7---7---------------------||
|-------7---7---7-----9h11-11--11-9---||
|-------6---6---6-----9-----9---9-9---||
|-------7---7---7---------------------||
|-0-0-0-----------0-0-----------------||
|
|-------------------------------------||
|-------------------------------------||
|-------------------------------------||
|-------------------------------------||
|-------------------------------------||
|-------------------------------------||
|
|-------------------------------------||
|-5---5-5-5-5-5-5-5-5-5--5-(5)--5-5---||
|-------------------------------------||
|-------------------------------------||
|-------------------------------------||
|-------------------------------------||


 Out-Chorus
  D                 A
|---------------------------------------|
|---------------------------------------|
|-12s11-9--9----------------9-(9)-9-----|
|--0----0-(0)-0-9-7--9s11---9-(9)-9-----|
|---------------0-0--0----0-0-(0)-0-9-7-|
|-----------------------------------0-0-|
|
|-12------12--------12--------12--------|
|---------------------------------------|
|--9-------9---------9---------9--------|
|---------------------------------------|
|---------------------------------------|
|---------------------------------------|
|
|---------------------------------------|
|---------------------------------------|
|---------------------------------------|
|---------------------------------------|
|---------------------------------------|
|---------------------------------------|


  E                  A5               E9
|-----------------------------------|--------7-(7)----------|
|-----------------------------------|--------7-(7)----------|
|-----------------------------------|--------7-(7)----------|
|-----------------------------------|--------6-(6)----------|
|--9s11-11-9-(9)-9-7------------5h7-|--------7-(7)----------|
|--0-----0-0-(0)-0-0--9--7--5h7-----|--0-0-0----------------|
|
|-12---------12------12----12-------|-12-----7-(7)----------|
|-----------------------------------|--------7-(7)----------|
|--9----------9-------9-----9-------|--9-----7-(7)----------|
|-----------------------------------|--------6-(6)----------|
|-----------------------------------|-----------------------|
|-----------------------------------|-----------------------|
|
|-----------------------------------|-----------------------|
|-----------------------------------|-----------------------|
|-------------------------------7h9-|-----------------------|
|--------------------11--9--7h9-----|--------------------2--|
|-----------------------------------|-----------------------|
|-----------------------------------|------------------0----|


  E9              D                 A
|-(7)-----------|---------------------------------------|
|-(7)-----------|---------------------------------------|
|-(7)-----------|-12s11-9--9----------------9-(9)-9-----|
|-(6)-----------|--0----0-(0)-0-9-7--9s11---9-(9)-9-----|
|-(7)-----------|---------------0-0--0----0-0-(0)-0-9-7-|
|---------------|-----------------------------------0-0-|
|
|-(7)-----------|-12------12--------12--------12--------|
|-(7)-----------|---------------------------------------|
|-(7)-----------|--9-------9---------9---------9--------|
|-(6)-----------|---------------------------------------|
|---------------|---------------------------------------|
|---------------|---------------------------------------|
|
|---------------|---------------------------------------|
|---------------|---------------------------------------|
|---------------|---------------------------------------|
|-(2)--2-4-2----|---------------------------------------|
|---------------|---------------------------------------|
|---------------|---------------------------------------|


  E                  A5
|------------------------------------|
|------------------------------------|
|------------------------------------|
|------------------------------------|
|--9s11-11-9-(9)-9-7------------5h7--|
|--0-----0-0-(0)-0-0--9--7--5h7------|
|
|-12---------12------12----12--------|
|------------------------------------|
|--9----------9-------9-----9--------|
|------------------------------------|
|------------------------------------|
|------------------------------------|
|
|------------------------------------|
|------------------------------------|
|-------------------------------7h9--|
|--------------------11--9--7h9------|
|------------------------------------|
|------------------------------------|


  E9
|--------7-(7)-------|-(7)---------------|
|--------7-(7)-------|-(7)---------------|
|--------7-(7)-------|-(7)---------------|
|--------6-(6)-------|-(6)---------------|
|--------7-(7)-------|-(7)---------------|
|--0-0-0-------------|-------------------|
|
|-12-----7-(7)-------|-(7)---------------|
|--------7-(7)-------|-(7)---------------|
|--9-----7-(7)-------|-(7)---------------|
|--------6-(6)-------|-(6)---------------|
|--------------------|-------------------|
|--------------------|-------------------|
|
|--------------------|-------------------|
|------------------5-|--5---3h5----------|
|--------------------|-------------------|
|--------------------|----------2-(2)----|
|--------------------|-------------------|
|--------------------|-------------------|


  D                 A
|---------------------------------------|
|---------------------------------------|
|-12s11-9--9----------------9-(9)-9-----|
|--0----0-(0)-0-9-7--9s11---9-(9)-9-----|
|---------------0-0--0----0-0-(0)-0-9-7-|
|-----------------------------------0-0-|
|
|-12------12--------12--------12--------|
|---------------------------------------|
|--9-------9---------9---------9--------|
|---------------------------------------|
|---------------------------------------|
|---------------------------------------|
|
|---------------------------------------|
|---------------------------------------|
|---------------------------------------|
|---------------------------------------|
|---------------------------------------|
|---------------------------------------|


  E                  A5
|-----------------------------------|
|-----------------------------------|
|-----------------------------------|
|-----------------------------------|
|--9s11-11-9-(9)-9-7------------5h7-|
|--0-----0-0-(0)-0-0--9--7--5h7-----|
|
|-12---------12------12----12-------|
|-----------------------------------|
|--9----------9-------9-----9-------|
|-----------------------------------|
|-----------------------------------|
|-----------------------------------|
|
|-----------------------------------|
|-----------------------------------|
|-------------------------------7h9-|
|--------------------11--9--7h9-----|
|-----------------------------------|
|-----------------------------------|


  E9
|--------7-(7)------|-(7)-------------------------------|
|--------7-(7)------|-(7)-------------------------------|
|--------7-(7)------|-(7)-------------------------------|
|--------6-(6)------|-(6)-------------------------------|
|--------7-(7)------|-(7)-------------------------------|
|--0-0-0------------|-----------------------------------|
|
|-12-----7-(7)------|-(7)-------------------------------|
|--------7-(7)------|-(7)-------------------------------|
|--9-----7-(7)------|-(7)-------------------------------|
|--------6-(6)------|-(6)-------------------------------|
|-------------------|-----------------------------------|
|-------------------|-----------------------------------|
|
|-------------------|----------------------0------------|
|-------------------|--5h7-7-5-7-7-7h10-10---10-10-10---|
|-------------------|---------------------------------0-|
|-------------------|-----------------------------------|
|-------------------|-----------------------------------|
|-------------------|-----------------------------------|


  D                 A
|---------------------------------------|
|---------------------------------------|
|-12s11-9--9----------------9-(9)-9-----|
|--0----0-(0)-0-9-7--9s11---9-(9)-9-----|
|---------------0-0--0----0-0-(0)-0-9-7-|
|-----------------------------------0-0-|
|
|-12------12--------12--------12--------|
|---------------------------------------|
|--9-------9---------9---------9--------|
|---------------------------------------|
|---------------------------------------|
|---------------------------------------|
|
|---------------------------------------|
|---------------------------------------|
|---------------------------------------|
|---------------------------------------|
|---------------------------------------|
|---------------------------------------|


  E                  A5               E9
|-----------------------------------|--------7-(7)------|-(7)----*|
|-----------------------------------|--------7-(7)------|-(7)----*|
|-----------------------------------|--------7-(7)------|-(7)----*|
|-----------------------------------|--------6-(6)------|-(6)----*|
|--9s11-11-9-(9)-9-7------------5h7-|--------7-(7)------|-(7)----*|
|--0-----0-0-(0)-0-0--9--7--5h7-----|--0-0-0------------|--------*|
|
|-12---------12------12----12-------|-12-----7-(7)------|-(7)----*|
|-----------------------------------|--------7-(7)------|-(7)----*|
|--9----------9-------9-----9-------|--9-----7-(7)------|-(7)----*|
|-----------------------------------|--------6-(6)------|-(6)----*|
|-----------------------------------|-------------------|--------*|
|-----------------------------------|------0------------|--------*|
|
|-----------------------------------|-------------------|--------*|
|-----------------------------------|-------------------|--------*|
|-------------------------------7h9-|-------------------|--------*|
|--------------------11--9--7h9-----|-------------------|--------*|
|-----------------------------------|-------------------|--------*|
|-----------------------------------|-------------------|--------*|
Вверх

Behind The Sun (2 вариант)

Intro
E |-----------------------------------------------------------------
B |--8-/-7--5-------------------------------------------------------
G |--7---------7----------------------------------------------------
D |--0------------9--7----9/11---9--7------------------------------
A |---------------0--0----0------0---0---9---7---9/11--9--9--7-----
E |------------------------------------------0---0-----0--0---0-----


E |---------------------------------7----
B |---------------------------------0----
G |-------------------7-h-9---------7----
D |--9/11--9---7-h-9----------------0----
A |--0-----0------------------------7----
E |----------------------------0--0------

E |----------------------------------------
B |----------------------------------------
G |----------------------------------------
D |----------------------------------------
A |----7-----------------------------------
E |--0-------------------------------------

E |-----------------------------------------------------------------
B |--8-/-7--5-------------------------------------------------------
G |--7---------7----------------------------------------------------
D |--0------------9--7----9/11---9--7------------------------------
A |---------------0--0----0------0---0---9---7---9/11--9--9--7-----
E |------------------------------------------0---0-----0--0---0-----

E |---------------------------------7----
B |---------------------------------0----
G |-------------------7-h-9---------7----
D |--9/11--9---7-h-9----------------0----
A |--0-----0------------------------7----
E |----------------------------0--0------

E |---0------------------------------------
B |-----0----------------------------------
G |----------------------------------------
D |----------------------------------------
A |----------------------------------------
E |----------------------------------------

Verse 1
   (Guitar 1)-Repeat
E |---------7-----7-7-----9----------7-----7-7------9----------7-----
B |---------7-----7-7-----9----------7-----7-7------9----------7-----
G |---------7-----7-7-----9----------7-----7-7------9----------7-----
D |------------------------------------------------------------------
A |------------------------------------------------------------------
E |--0--0--------------0-------0--0--------------0--------0--0-------

E |7-7-----9-------7-----7-7---9--
B |7-7-----9-------7-----7-7---9--
G |7-7-----9-------7-----7-7---9--
D |-------------------------------
A |-------------------------------
E |------0----0--0------------0---


Verse 1
(Guitar2)
e--0---0---0---0---0---0---0---0-------------0---0---0---0---0---0----
B------9---12--12--9---12-12--14-----------------9---12-12--14--------
G--9-----------------------------------------9-------------------11---
D---------------------------------------------------------------------
A---------------------------------------------------------------------
E---------------------------------------------------------------------
                full___
e---0---0---------------------
B-------------9-h-11b-r-9-----
G--11r--9-----9---------------
D-----------------------------
A-----------------------------
E-----------------------------

e--0---0---0---0---0---0---0---0-------------0---0---0---0---0---0----
B------9---12--12-9---12-12--14--------------14-17--14---12--14-------
G-9-------------------------------------------------------------------
D---------------------------------------------------------------------
A---------------------------------------------------------------------
E---------------------------------------------------------------------
half__        full___
e-0---0-----------------------
B-----------9-h-11b-r-9-------
G-11r-9-----9-----------------
D-----------------------------
A-----------------------------
E-----------------------------


Chorus
E |-------------------------------------------------------------------
B |--8-/-7--5---------------------------------------------------------
G |--7---------7------------------------------------------------------
D |--0------------9--7----9/11---9--7--------------------------------
A |---------------0--0----0------0---0---9---7---9/11--9--9--7-------
E |------------------------------------------0---0-----0--0---0-------


E |---------------------------------7----
B |---------------------------------0----
G |-------------------7-h-9---------7----
D |--9/11--9---7-h-9----------------0----
A |--0-----0------------------------7----
E |----------------------------0--0------


1st Chorus Fills (Repeat after each chorus)
    Fill 1
E |----(7)---------------------------------
B |----(0)---------------------------------
G |----(7)---------------------------------
D |----(0)---------------------------------
A |----(7)---------------------------------
E |----(0)---------------------------------
    Fill 2
E |----------------------------------------
B |----------------------------------------
G |----------------------------------------
D |----------------------------------------
A |--5-/-7---------------------------------
E |--0-------------------------------------
    Fill3
E |------0----0--0--------0----0-----------
B |---3----3-----3/5--5----5---------------
G |----------------------------------------
D |----------------------------------------
A |----------------------------------------
E |----------------------------------------


    Fill 4
E |------0---------------------------------
B |----------------------------------------
G |----------------------------------------
D |----------------------------------------
A |----------------------------------------
E |----------------------------------------

Verse Bridge
E------------19------------19----19----------19------------19----19---
B-------17---------17-17----17----------17--------17-17----17---------
G---19---------19---------------------19--------19--------------------
D---------------------------------------------------------------------
A---------------------------------------------------------------------
E---------------------------------------------------------------------

2nd Chorus Fills
    Fill 5
E |---------------------------------------------------
B |------0--------------------------------------------
G |------2--------------------------------------------
D |-----------0--h--2---------------------------------
A |---------------------------------------------------
E |---------------------------------------------------
    Fill 6                           Trill_________
E |---------------------------------------------------
B |------------------------------------------------3--
G |------2-p-0----------------------------------------
D |--------------2-p-0---(2p0)------------------------
A |---------------------------------------------------
E |---------------------------------------------------
    Fill 7
E |---0-----------------------------------------------
B |----------0----------------------------------------
G |---------------------------------------------------
D |-------2-----2-------------------------------------
A |---------------------------------------------------
E |---------------------------------------------------
    Fill 8
E |---------------------------------------------------
B |---------------------------------------------------
G |---------------------------------------------------
D |---------------------------------------------------
A |---------------------------------------------------
E |---------------------------------------------------
Interlude
E |-------------------------------3----3--------------3---------3-----
B |-------2---3---2---0-----0-------2----2---------------2------3-----
G |--------0---0---0----0-----0-------0----0---------------0----------
D |----2----2----2---2----2-----2-------------------2-----------------
A |--0----------------------------------------------0-----------------
E |-------------------------------------------------------------------

E |3--3--3---0----0--0-----0---0--0--
B |2--0--2---3/5----5--5---5/7--7--7-
G |----------------------------------
D |----------------------------------
A |----------------------------------
E |----------------------------------

E |-------------------------------3----3--------------3---------3-----
B |-------2---3---2---0-----0-------2----2---------------2------3-----
G |--------0---0---0----0-----0-------0----0---------------0----------
D |----2----2----2---2----2-----2-------------------2-----------------
A |--0----------------------------------------------0-----------------
E |-------------------------------------------------------------------

E |3--3--3---0------0--0-0----0--0---
B |2--0--2---3/5--5--5---8/10--10-10-
G |----------------------------------
D |----------------------------------
A |----------------------------------
E |----------------------------------

Verse Bridge 2
E |--0----0---0--0--0---------------------------------
B |--3/5--5--3--2--0-h-2-----------------------------
G |---------------------------------------------------
D |---------------------------------------------------
A |---------------------------------------------------
E |---------------------------------------------------

Fills For 3rd Chorus
    Fill 9
E |-------------------------------------------
B |-------------------------------------------
G |-------------------------------------------
D |-------------------------------------------
A |-------7-/-9-7----------------------------
E |-------0-----------------------------------
    Fill 10
E |--------0----------------------------------
B |-----0----0--------------------------------
G |-------------------------------------------
D |--2----------2-----------------------------
A |-------------------------------------------
E |-------------------------------------------
     Fill 11
E |-----0-h-2---2----5---5---5----------------
B |--0--------0----0---0----0-----------------
G |-------------------------------------------
D |-------------------------------------------
A |-------------------------------------------
E |-------------------------------------------
Вверх

Behind The Sun (3 вариант)

	*INTRO

    TTTT
G:|------|
D:|------|this block is 8 times long
A:|------|
E:|-19/2-|

U have to go way AT THE SAME SPEED always, u have to catch out the Tapping, but it's not so hard

	*POST-INTRO

	I don't really know this, but try to play with this positions:

G:|-----|-----|-------|-----|
D:|-----|-----|-------|-----|
A:|-(5)-|-----|-(5h7)-|-----|
E:|-----|-(0)-|-------|-(7)-|

	U have to play around with those positions, and try to catch the rithm

	*VERSE

    T  T T T  TTTT
G:|----------------|
D:|----------------|
A:|----------------|
E:|-0--0-0-0--0000-|
Вверх

Behind The Sun (4 вариант)

Intro part & chorus
e |-------------------|-------------------|----------------------|
B |-------------------|-------------------|----------------------|
G |-14----14----------|-------------------|----------------------|
D |-14h16-14----------|-14----14----------|-------------14----14-|
A |----------16-14-16-|-14h16-14----------|-14----------14h16-14-|
E |-------------------|----------16-14-16-|-14h16-1412----------|


e |-----------------0-|
B |-----------------0-|
G |-----------------9-|
D |-------12h14-----9-|
A |-12h14-------------|
E |-------------0-----|

Verse
e |-0-0-0--0--0-0--0--0--|-0-0-0--0--0---0--0-0-|
B |-5-9-12-12-9-12-12-14-|-5-9-12-12-14-b7-r7-5-|
G |----------------------|----------------------|
D |----------------------|----------------------|
A |----------------------|----------------------|
E |----------------------|----------------------|

e |-0-0-0--0--0-0--0--0--|-0--0--0--0--0---0--0-0-|
B |-5-9-12-12-9-12-12-14-|-12-17-14-12-14-b7-r7-5-|
G |----------------------|------------------------|
D |----------------------|------------------------|
A |----------------------|------------------------|
E |----------------------|------------------------|

Interlude
e |----------------3-3-3-|-----------0-0-0-0-0-0-0-0-0-0-|
B |--2-3-2-0--2--3-------|---2-3-2-0-5-5-5-5-5-7-7-7-7-7-|
G |---2-2-2----2---------|----2-2-2----------------------|
D |----------------------|-------------------------------|
A |-0-------0------------|-0-----------------------------|
E |----------------------|-------------------------------|

e |----------------3-3-3-|-----------0-0-0-0-0--0--0--0-0--0--|
B |--2-3-2-0--2--3-------|---2-3-2-0-5-5-5-5-5-10-10-10-10-10-|
G |---2-2-2----2---------|----2-2-2---------------------------|
D |----------------------|------------------------------------|
A |-0-------0------------|-0----------------------------------|
E |----------------------|------------------------------------|
Вверх

Blackeyed Blonde

                            T P T P T P T P T P T P T P T P
                         G]---x---x---x---x----------------]
                         D]-------------------x---x---x---x]
                         A]-x---x---x---x------------------]
                         E]-----------------x---x---x---x--]

(FLEA has tone maxed at this point)

Intro:
G]-----------------------------------------------5-5----------------]
D]------------------------------------------------------------------]
A]---3-5--3-5-------3-5--3-5-------3-5--3-5------------3-5--3-5-----]
E]------------------------------------------------------------------]

(Ok now depending on how many pickups u have just drop the tone on
all of them)

Verse:
Pumpin' the...  ...of New Orleans, She's the...    ...street dream
    T   T P  T    T P   T TP TP   P T   T P  T    T P  T  P  T P  P
G]--------x---------x------5--7---5-------x---------x-----5----5--4-]
D]------------------------------------------------------------------]
A]--3h5-x----3h5--x-----0hx--x------3h5-x----3h5--x----0hx---x------]
E]------------------------------------------------------------------]

She's just... ...and bones,                 You better leave her alone
    T   T P  T    T P   T TP TP   P  T
G]--------x---------x------5--7---5---------------------------------]
D]------------------------------------------------------------------]
A]--3h5-x----3h5--x-----0hx--x-------5------------------------------]
E]------------------------------------------------------------------]

    T   T P  T    T P   T TP TP   P T   T P  T    T P  T  P  T P  P
G]--------x---------x------5--7---5-------x---------x-----5----7--5-]
D]------------------------------------------------------------------]
A]--3h5-x----3h5--x-----0hx--x------3h5-x----3h5--x----0hx---x------]
E]------------------------------------------------------------------]

    T   T P  T    T P   T TP TP   P T   T P  T    T P  T  P  T P  P
G]--------x---------x------5--7---5-------x---------x-----5----7--5-]
D]------------------------------------------------------------------]
A]--3h5-x----3h5--x-----0hx--x------3h5-x----3h5--x----0hx---x------]
E]------------------------------------------------------------------]

Leroy Brown thought he was bad too, 'Till she left...  ...old bayou

    T   T P  T    T P   T TP TP   P T   T P  T    T P  T  P  T P  P
G]--------x---------x------5--7---5-------x---------x-----5----7--5-]
D]------------------------------------------------------------------]
A]--3h5-x----3h5--x-----0hx--x------3h5-x----3h5--x----0hx---x------]
E]------------------------------------------------------------------]

She's the...            ...a bomb,      She's the...  ...Get down !
    T   T P  T    T P   T TP TP   P T   T P  T    T P  T  P  T
G]--------x---------x------5--7---5-------x---------x-----5---------]
D]------------------------------------------------------------------]
A]--3h5-x----3h5--x-----0hx--x------3h5-x----3h5--x----0hx---x------]
E]------------------------------------------------------------------]

Chorus:

(ahhhhhh the good ole chorus...to match the funky-ass guitar
a envelope filter goes well in here)

G]------------------------------------------------------------------]
D]-------5h7--------------------5h7---5--5----5h7-------------------]
A]-------------7-5--------------------------7---------7-5-----------]
E]--3h5------------8-5-----3h5----------------------------8-5-------]

G]------------------------------------------------------------------]
D]-------5h7--------------------5h7---5--5----5h7-------------------]
A]-------------7-5--------------------------7------7-5--------------]
E]--3h5------------8-5-----3h5-------------------------8-5----5--7--]

Okay then
that should fix u up good
now repeeat the verse
there is not much variation
after that do the chorus without the last 2 notes

Interlude:

    T   T P  T    T P   T TP TP   P T   T P  T    T P  T  P  T P  P
G]--------x---------x------5--7---5-------x---------x-----5----7--5-]
D]------------------------------------------------------------------]
A]--3h5-x----3h5--x-----0hx--x------3h5-x----3h5--x----0hx---x------]
E]------------------------------------------------------------------]

    T   T P  T    T P   T TP TP   P T   T P  T    T P  T  P  T P  P
G]--------x---------x------5--7---5-------x---------x-----5----7--5-]
D]------------------------------------------------------------------]
A]--3h5-x----3h5--x-----0hx--x------3h5-x----3h5--x----0hx---x------]
E]------------------------------------------------------------------]

    T   T P  T    T P   T TP TP   P T   T P  T    T P  T  P  T P  P
G]--------x---------x------5--7---5-------x---------x-----5----7--5-]
D]------------------------------------------------------------------]
A]--3h5-x----3h5--x-----0hx--x------3h5-x----3h5--x----0hx---x------]
E]------------------------------------------------------------------]

    T   T P  T    T P   T TP TP   P           T   T   T   T   T   T
G]--------x---------x------5--7---5---------------------------------]
D]------------------------------------------------------------------]
A]--3h5-x----3h5--x-----0hx--x----------------5---5---5---5---5---5-]
E]------------------------------------------------------------------]

Guitar Solo:
    T   T P  T    T P   T TP TP   P T   T P  T    T P  T  P  T P  P
G]--------x---------x------5--7---5-------x---------x-----5----5--4-]
D]------------------------------------------------------------------]
A]--3h5-x----3h5--x-----0hx--x------3h5-x----3h5--x----0hx---x------]
E]------------------------------------------------------------------]
    T   T P  T    T P   T TP TP   P T   T P  T    T P  T  P  T P  P
G]--------x---------x------5--7---5-------x---------x-----5----5--4-]
D]------------------------------------------------------------------]
A]--3h5-x----3h5--x-----0hx--x------3h5-x----3h5--x----0hx---x------]
E]------------------------------------------------------------------]
    T   T P  T    T P   T TP TP   P T   T P  T    T P  T  P  T P  P
G]--------x---------x------5--7---5-------x---------x-----5----5--4-]
D]------------------------------------------------------------------]
A]--3h5-x----3h5--x-----0hx--x------3h5-x----3h5--x----0hx---x------]
E]------------------------------------------------------------------]
    T   T P  T    T P   T TP TP   P T   T P  T    T P  T  P  T P  P
G]--------x---------x------5--7---5-------x---------x-----5----5--4-]
D]------------------------------------------------------------------]
A]--3h5-x----3h5--x-----0hx--x------3h5-x----3h5--x----0hx---x------]
E]------------------------------------------------------------------]

Now play this second chorus

G]------------------------------------------------------------------]
D]------8h10-----------------8h10--8-8----8-10----------------------]
A]------------10-8---------------------10--------10--8--------------]
E] -6h8------------11-8--6h8----------------------------11--8-------]

G]------------------------------------------------------------------]
D]------8h10-----------------8h10--8-8----8-10----------------------]
A]------------10-8---------------------10--------10--8--------------]
E] -6h8------------11-8--6h8----------------------------11--8-------]

now play the verse

and that should go through and then there will be an extra last line:
    T   T P  T    T P   T TP TP   P T   T
G]--------x---------x---------x---------x---------------------------]
D]------------------------------------------------------------------]
A]-3h5--x----3h5--x----3h5--x----3h5--x----------3-5------3-5-------]
E]------------------------------------------------------------------]
Вверх

Blackeyed Blonde (2 вариант)

Intro
G|--------------------------------55----------|
D|--------------------------------------------|
A|-3h5-3h5----3h5-3h5----3h5-3h5----3h5-3h5---|
E|--------------------------------------------|

Verse (slap and pop)
G|-------x------7-5--7-5---------x------7-5--4-5--|
D|------------------------------------------------|
A|-3h5-x--3h5-x------------3h5-x--3h5-x-----------|
E|---------------x-xx-x------------------x-xx-x---|

Chorus
G|------------------------------------------------|
D|-----5h7---------------5h7--5-5---5h7-----------|
A|---------7-5--------------------7-----7-5-------|
E|-3h5---------8-5---3h5--------------------8-5---|

Bass and Guitar Solo (Slap and Pop)
G|-------x------7-5--7-5---------x------7-5--4-5--|
D|------------------------------------------------|
A|-3h5-x--3h5-x------------3h5-x--3h5-x-----------|
E|---------------x-xx-x------------------x-xx-x---|

Chorus Variation
G|-------------------------------------------------------|
D|-----8h10-----------------8h10--8-8----8h10------------|
A|----------10-8----------------------10------10-8-------|
E|-6h8-----------11-8---6h8------------------------11-8--|

Ending
G|-----------|
D|-----------|
A|-3h5--3h5--|
E|-----------|
Вверх

Blackeyed Blonde (3 вариант)

   Verse:                   Chorus:

-||-----------------------||-------------------------|----------------------|
-||----6-6--x-6-6--x-6----||-----)-------------------|----------------------|
-||-*--5-5--x-5-5--x-5--*-||----5---x-----x----------|--x-x-------x-x-x-x---|
-||-*--4-4--x-4-4--x-4--*-||--------x--5--x--7~~~----|--x-x--5-5--x-x-x-x---|
-||----5-5--x-5-5--x-5----||-------------------------|----------------------|
-||-----------------------||-------------------------|----------------------|
       > >    > >    >


-|-------------------|--------------------|-----------------------|----------------------|
-|-------------------|---------------)----|-----)-----------------|----------------------|
-|-------------------|--------------7-----|----5---x----x---------|--x-x-------x-x-x-x---|
-|----5-5-----5h7----|----5-5-5-5---------|--------x--5-x--7~~----|--x-x--5-5--x-x-x-x---|
-|---------7---------|--------------------|-----------------------|----------------------|
-|-------------------|--------------------|-----------------------|----------------------|

                                                   Verse 2:

-|-------------------|-----------|--------------||--------------------------|-|
-|-------------------|-----------|--------------||-----6---6--x-6-6--x-6----|-|
-|-------------------|-----------|--------------||-*---5---5--x-5-5--x-5--*-|-|
-|----5-5-----5h7----|--5-5-5-5--|--------------||-*---4---4--x-4-4--x-4--*-|-|
-|---------7---------|-----------|----3----4----||-----5---5--x-5-5--x-5----|-|
-|-------------------|-----------|--------------||--------------------------|-|

Chorus 2:

-||-------------------------|---------------------|---------------|-------------------|
-||-----)-------------------|---------------------|---------------|---------------)---|
-||----5---x-----x----------|--x-x-------x-x-x-x--|---------------|--------------7----|
-||--------x--5--x--7~~~----|--x-x--5-5--x-x-x-x--|--5-5-----5h7--|----5-5-5-5--------|
-||-------------------------|---------------------|-------7-------|-------------------|
-||-------------------------|---------------------|---------------|-------------------|

-||-------------------------|---------------------|---------------|---------------------|
-||-----)-------------------|---------------------|---------------|---------------------|
-||----5---x-----x----------|---------------------|---------------|---------------------|
-||--------x--5--x--7~~~----|--(7)--(7)-----------|--5-5-----5h7--|----5-5-5-5----------|
-||-------------------------|---------------------|-------7-------|---------------------|
-||-------------------------|---------------------|---------------|---------------------|
                                >    >

Interlude 1: With shouting, Bass plays but Guitar is quiet until
the last bar, when this is played:

-|--------------------------|
-|----6--6--6---6---6-6-----|
-|----5--5--5---5---5-5-----|
-|----4--4--4---4---4-4-----|
-|----5--5--5---5---5-5-----|
-|--------------------------|

Guitar Solo: A strange sound and a strange solo

Interlude 2:

-|------------------------|------------------|-------------------|----------------------|
-|------------------------|--------)---------|-------------------|----------------)-----|
-|------------------------|--x-x--8----------|-------------------|--------------10------|
-|----8--(8)-(8)-(8)-(8)--|--x-x-----8-------|--8-8------8h10----|----8-8-8-8-----------|
-|----8--(8)-(8)-(8)-(8)--|------------------|-------10----------|----------------------|
-|----6--(6)-(6)-(6)-(6)--|------------------|-------------------|----------------------|
      >   >   >   >   >

-|------------------------|-----------------------------------------|----------------------|
-|------------------------|--------)--------------------------------|----------------------|
-|------------------------|--x-x--8-----x-------8----8--10--8~~~~---|----------------------|
-|----8--(8)-(8)-(8)-(8)--|--x-x-----8--x--8h10---10----------------|----8-8------8h10-----|
-|----8--(8)-(8)-(8)-(8)--|-----------------------------------------|---------10-----------|
-|----6--(6)-(6)-(6)-(6)--|-----------------------------------------|----------------------|
      >   >   >   >   >

-|-------------------------|
-|----------------)--------|
-|--------------10---------|
-|----8-8-8-8--------------|
-|-------------------------|
-|-------------------------|

Then play the 3rd verse like the first and end like this:

-|-------------------------|
-|----6-6----6-6-----------|
-|----5-5----5-5-----------|
-|----4-4----4-4-----------|
-|----5-5----5-5-----------|
-|-------------------------|

This is the bass main riff.


-|-------x----------7---5----7--5--|-------x----------7--5-----4-5---|
-|---------------------------------|---------------------------------|
-|--3h5-----3h5--x--------x--------|--3h5-----3h5--x--------x--------|
-|---------------------------------|---------------------------------|
Вверх

Blood Sugar Sex Magik

-------------------------------------------------------------------|
---10-12(h)14-10(h)12-----------------9-10(h)12-9(h)10-------------|
12--------------------10(h)12-XXXX-12------------------9(h)10-XXXX-|
-------------------------------------------------------------------|

Verse: ** Same as intro 4 Times also


Chorus: ** 4 times

------------------------------7--------------------------------------------------|
----------------------------------9--8(p)7--5------------------------------------|
-----------7--5--7----------------------------------------7--5--7-----------4--5-|
-0--0-0-----------------------------------------0--0-0---------------3--5--------|


Interlude: **Once

--------------------------------------|
--------------------------------------|
--------------------------------------|
0--0--0--0--0--0--0--0--2--2--2--2--2-|

Interlude:
During Guitar Solo:
** 3 Times
--------------------------------------------------|
--------------------------------------------------|
3--3--3--X-3--0-3--0-3-0-5--5--5--X-5--0-5--0-5-0-|
--------------------------------------------------|

** 4 Time, Do this:

-------------------------------------------------|
-------------------------------------------------|
3--3--3--X-3--0-3--0-3-0-5--5--5--5-0-6--6--6--6-|
-------------------------------------------------|


Ending:
Hold Note:
--|
--|
--|
0-|
Вверх

Blood Sugar Sex Magik (2 вариант)

Intro

 .   .    .   .   .           .   .   .   .   .
-------------------------------------------------------------------------------
-------------------------------------------------------------------------------
-2---5------------------------2---4--------------------------------------------
-2---5------------------------2---4--------------------------------------------
-0---3--5/7-3/5-1/3-X-X-X-X-X-0---2-3/5-2/3-----X-X-X-X-X----------------------
--------------------------------------------2/3--------------------------------

Section: Fill


-------------------------------------------------------------------------------
-------8-----------------8-10-8------------------------------------------------
-9-7-9---9-7-9-----9-7-9--------9-7-9------------------------------------------
-------------------------------------------------------------------------------
-------------------------------------------------------------------------------
-------------------------------------------------------------------------------
Вверх

Blood Sugar Sex Magik (3 вариант)

intro
------------------------------------------
------------------------------------------
-9---12-14/16-12/14-7/9---Palm mute-------
-7---10-12/14-10/12-5/7-7-7-7-7-----------
------------------------------------------
------------------------------------------

------------------------------------------
------------------------------------------
-9---11-12/14-11/12-6/7-------------------
-7---9--10/12--9/10-4/5-5-5-5-5-----------
------------------------------------------
------------------------------------------

verse

A-0-0-0-0-0-0-0-0-0-0-0-0-0-0-0-0-0

with wah, stress 3th 7th, 11th notes etc.

Riff

--------------------------------------------
--------------------------------------------
--------------------------7-----------------
-----------------------------9-8-7----------
-----------7---5--7~~~~~~-----------10------
-0---0--0-----------------------------------

--------------------------------------------
--------------------------------------------
--------------------------------------------
--------------------------------------------
-----------7---5--7--~~---------4---5------
-0---0--0------------------3--5-------------

substitute:

--------------------
--------------------
---------13---11--13
---------14---12--14
--------------------
0---0--0------------

-----------------13---------------------------
-----9--9--9--9--13 trem. -----12-12-12-12-12-
----10-10-10-10--13       -----12-12-12-12-12-
----10-10-10-10----------------12-12-12-12-12-
-----8--8--8--8----------------10-10-10-10-10-
----------------------------------------------

G----------12---------------------12h14-12----------
D-14-12-14-----14-12-14---14-12-14---------14-12-14-

ending of interlude:

G------12b(13)----------- wah-wah!!!!
D--------------14-12-14--
Вверх

Blues For Meister

Intro:
G|----12--------11--------10-------9-
D|-12-----12-11-----11-10-----10-9---
A|-----------------------------------
E|-----------------------------------

Verse: (Repeat 3x)
G|-----------------------------------------------------
D|---5---4-5----5---4-5---------5---4-5----7-------5-4-
A|-7---7------7---7-----------7---7------7---4-5-7-----
E|-----------------------5-5---------------------------

Chorus:
G|----------------------7-8-------------------------------------------7-8-
D|-9--9-7-9-7----9--9-7------9--9-7-9-7----------9--9-7-9-7----9--9-7-----
A|------------9-------------------------9--9--7-------------9-------------
E|------------------------------------------------------------------------

G|-------------------------------------------------7-8--------------------
D|-9--9-7-9-7------9---9---9--9--9-7-9-7----9--9-7-----9--9-7-9-7---------
A|------------9--7---8---9---------------9------------------------9--9--7-
E|------------------------------------------------------------------------

G|----------------------7-8----------------------
D|-9--9-7-9-7----9--9-7-------9--9-7-9-7---------
A|------------9--------------------------789-7-5-
E|-----------------------------------------------

Instrumental: (Repeat 3x)
G|-----------------------------------------------------
D|-----------------------------------------------------
A|---3---2-3----3---2-3--5-5----3---2-3----5-------3-2-
E|-5---5------5---5-----------5---5------5---2-3-5-----

G|-----------------------------------------------------------
D|-----------------------------------------------------------
A|-3--3-3--3----2--2-2--2----3--3-3--3---5--5-5--5----5----5-
E|-----------------------------------------------------------

Ending:
G|---------6-------------7-------------6-----8--5----------
D|------5-----7-------5-----7-------5-----7--------7--5----
A|----7-------------7-------------7------------------------
E|-5-------------5-------------5-------------------------5-
Вверх

Body Of Water

  Verse Part 1

E|------------------------------------|-----------------|
B|------------------------------------|-----------------|
G|-3-3-3----------------------8-8-8-8-|-5-5-5-5-5-5-5-5-|
D|-3-3-3-5-5-5--3-3-3--6-6-6--8-8-8-8-|-5-5-5-5-5-5-5-5-|
A|-1-1-1-5-5-5--3-3-3--6-6-6--6-6-6-6-|-3-3-3-3-3-3-3-3-|
E|-------3-3-3--1-1-1--4-4-4----------|-----------------|

  Verse Part 2

E|-------10--------------------|-----------------|
B|----11------------11-13------|-----------------|
G|-12-------12---12------------|-5-5-5-5-5-5-5-5-|
D|------------------------11b--|-5-5-5-5-5-5-5-5-|
A|-----------------------------|-3-3-3-3-3-3-3-3-|
E|-----------------------------|-----------------|

  Chorus (Not Exact)
				     Sometimes G# is thrown in
E|-8-8-8-8-8-10108-8-8-8-8-81010-8-|-4-4-4-4-|
B|-8-8-8-8-8-8-8-8-8-8-8-8-8-8-8-8-|-4-4-4-4-|
G|-8-8-8-8-8-8-8-8-8-8-8-8-8-8-8-8-|-5-5-5-5-|
D|---------------------------------|---------|
A|---------------------------------|---------|
E|---------------------------------|---------|

  Bridge (Downstrokes 16th Notes for 2 Bars)

E|---|---|---|----|----|
B|---|---|---|----|----|
G|-5-|-7-|-9-|-12-|-15-|
D|-5-|-7-|-9-|-12-|-15-|
A|-3-|-5-|-7-|-10-|-13-|
E|---|---|---|----|----|
Вверх

Breaking The Girl

CAPO 4TH- Chord names relevant to capo.

Chord names-
E      022100
E6#11  044300
Em7-   055400
E6sus4 077600
Emaj9  099800
E*     079990
G      320033
D      000232
Em     022000
C      032010
D/F#   000230
Am     002210
B      0244XX
B/A    0044XX
B/G    3044XX
B/F#   2044XX
C7     032310
B7     012100
Esus2  022003


Intro
E, E6#11, Em7, E6sus4, Emaj9, E*    x4

Verse
E       E6#11 Em7
I am a man
E6sus4       Emaj9 E*
Cut from the know
E         E6#11 Em7
Rarely do friends
E6sus4        Emaj9 E*
Come and then go
E         E6#11 Em7
She was a girl
E6sus4        Emaj9 E*
Soft but estranged
E         E6#11 Em7
We were the two
E6sus4        Emaj9 E*
Our lives rearranged


Pre Chorus
G          D         Em       G
Feeling so good that day
             D         C
A feeling of love that day

Chorus
Em           D/F#
Twisting and turning
     G            Am
Your feelings are burning
       B            B/A  B/G  B/F#
You're breaking the girl
Em  D/F#  G   Am C
She meant you no harm
Em              D/F#
Think you're so clever
    G            Am
But now you must sever
       B            B/A  B/G  B/F#
You're breaking the girl
Em D/F#  G  Am  C    C7
He loves no one else


Verse
E            E6#11 Em7
Raised by my dad
E6sus4      Emaj9 E*
Girl of the day
E         E6#11 Em7
He was my man
E6sus4      Emaj9 E*
That was the way
E           E6#11 Em7
She was the girl
E6sus4 Emaj9 E*
Left alone
E           E6#11 Em7
Feeling the need
E6sus4         Emaj9 E*
To make me her home

Pre Chorus
G       D                 Em
I don't know what when or why
G               D        C
The twilight of love had arrived

Chorus
Em           D/F#
Twisting and turning
     G            Am
Your feelings are burning
       B            B/A  B/G  B/F#
You're breaking the girl
Em  D/F#  G   Am C
She meant you no harm
Em              D/F#
Think you're so clever
    G            Am
But now you must sever
       B            B/A  B/G  B/F#
You're breaking the girl
Em D/F#  G  Am  C       C7  B7
He loves no one else


Em Esus2 Em GGG x8  (Strum down hard on the bass note of the G)

Chorus
Em           D/F#
Twisting and turning
     G            Am
Your feelings are burning
       B            B/A  B/G  B/F#
You're breaking the girl
Em  D/F#  G   Am C
She meant you no harm
Em              D/F#
Think you're so clever
    G            Am
But now you must sever
       B            B/A  B/G  B/F#
You're breaking the girl
Em D/F#  G  Am  C       C7
He loves no one else

Am C x6 to fade or

e---11------------------------------------------------
----12---12---11---12---11---12---11---12---11---12---x6 to fade
---------13---12---13---12---13---12---13---12---13---
------------------------------------------------------
------------------------------------------------------
E-----------------------------------------------------
Вверх

Breaking The Girl (2 вариант)

Verse 1
+-----------+---------+---------+---------+-----------+-------+
|3:---6---6-|-----4-6-|---6---6-|---6-4---|---6---6---|---4-6-|
|4:-----6---|---6-----|-----6---|-------6-|-----6-----|-6-----|
+---4-------+-4-------+-4-------+-4-------+-4-------4-+-------+
[Play time 1-3	][Play on the forth time through		]
+---------+---------+---------+---------+---------+---------+
|---6---6-|---6---6-|---6---6-|---6---6-|---6---6-|---6---6-|
|-----6---|-----6---|-----6---|-----6---|-----6---|-----6---|
+-4-------+-4-------+-4-------+-4-------+-4-------+-4-------+

Bridge 1

+--------+-------+--------+-------+---------+--------+-------+-------+--------+-------+
|--------|-1-2-4-|--------|-------|---6---6-|------4-|-6-6-6-|-6-4---|--------|---1-4-|
|-2—-2-2-|-------|--------|-4-----|-----6---|---456--|-------|-----6-|-2--2-2-|-2-----|
+--------+-------+-2--2-2-+---2/6-+-4-------+-4------+-------+-------+--------+-------+

+--------+-------+-------+-------+-------+-------+
|--------|-------|-------|-------|-2-2-2-|-2---2/|
|--------|-------|-------|-----2-|-------|---2---|
+-2--2-2-+-2-2-6-+-0-0-0-+-0-0---+-------+-------+

Chorus1

+-------+-------+-------+-------+-------+-------+-------+-------+
|-------|-------|-------|-------|-------|-------|-------|-------|
|-------|-------|-------|-4-4-4-|-6-6-6-|-4-4-4-|-------|-------|
+-4-4-4-+-6-6-6-+-7-7-7-+-------+-------+-------+-7-7-7-+-6-6-6-+


+-------+-------+-------+-------+-------+-------+-------+-------+
|-------|-------|-------|-------|-------|---8-6-|-8-6-8-|-9-8-6|
|-------|-------|-------|-4-4-4-|/7-7-7-|-7-----|-------|-------|
+-4-4-4-+-6-6-6-+-7-7-7-+-------+-------+-------+-------+-------+


+-------+-------+-------+-------+-------+-------+-------+-------+
|-------|-------|-------|-------|-------|-------|-------|-------|
|-------|-------|-------|-4-4-4-|-6-6-6-|-4-4-4-|-------|-------|
+-4-4-4-+-6-6-6-+-7-7-7-+-------+-------+-------+-7-7-7-+-6-6-6-+

+-------+-------+-------+-------+-------+-------+-------+-------+
|-------|-------|-------|-------|-------|-------|-------|-------|
|-------|-------|-------|-4-4-4-|/7-7-7-|-7-7-7-|-7-7-7-|-6-6-6-|
+-4-4-4-+-6-6-6-+-7-7-7-+-------+-------+-------+-------+-------+

Verse 2

+-----------+---------+---------+---------+-----------+-------+
|3:---6---6-|-----4-6-|---6---6-|---6-4---|---6-------|---4-6-|
|4:-----6---|---6-----|-----6---|-------6-|-----------|-6-----|
+---4-------+-4-------+-4-------+-4-------+-4-------4-+-------+
[Play time 1-3	][Play on the forth time through		]
+---------+---------+---------+---------+---------+---------+
|---6---6-|---6---6-|---6---6-|---6---6-|---6---6-|---6---6-|
|-----6---|-----6---|-----6---|-----6---|-----6---|-----6---|
+-4-------+-4-------+-4-------+-4-------+-4-------+-4-------+

Bridge 2

+--------+-------+--------+-------+---------+-------+-------+-------+--------+-------+
|--------|-1-2-4-|--------|-------|---6---6-|-----4-|-6-6-6-|-464---|--------|-1-2-4-|
|-2—-2-2-|-------|--------|-4-----|-----6---|---6---|-------|-----6-|-2--2-2-|-------|
+--------+-------+-2--2-2-+---2/6-+-4-------+-4-----+-------+-------+--------+-------+

+--------+-------+-------+-------+-------+---------+
|--------|-------|-------|-------|-------|---------|
|--------|-------|-------|-------|/7-7-7-|-7---7/-|
+-2--2-2-+-2-2-6-+-0-0-0-+-0-0-7-+-------+---7-----+

Chorus 2

+-------+-------+-------+-------+-------+-------+-------+-------+
|-------|-------|-------|-------|-------|-------|-------|-------|
|-------|-------|-------|-4-4-4-|-6-6-6-|-4-4-4-|-------|-------|
+-4-4-4-+-6-6-6-+-7-7-7-+-------+-------+-------+-7-7-7-+-6-6-6-+


+-------+-------+-------+-------+-------+-------+-----6-+-------+
|-------|-------|-------|-------|-------|---8-6-|-8-9---|-9-8-6|
|-------|-------|-------|-4-4-4-|/7-7-7-|-7-----|-------|-------|
+-4-4-4-+-6-6-6-+-7-7-7-+-------+-------+-------+-------+-------+


+-------+-------+-------+-------+-------+-------+-------+-------+
|-------|-------|-------|-------|-------|-------|-------|-------|
|-------|-------|-------|-4-4-4-|-6-6-6-|-4-4-4-|-------|-------|
+-4-4-4-+-6-6-6-+-7-7-7-+-------+-------+-------+-7-7-7-+-6-6-6-+

+-------+-------+-------+-------+-------+-------+-------+-------+
|-------|-------|-------|-------|-------|-------|-------|-------|
|-------|-------|-------|-4-4-4-|/7-7-7-|-7-7-7-|-7-7-7-|-6-6-6-|
+-4-4-4-+-6-6-6-+-7-7-7-+-------+-------+-------+-------+-------+

Interlude
				    X8
+-------+-------+-------+-------+
|-------|-------|-------|-------|
|-------|-------|-------|-2-2-2-|
+-4-424-+---024-+---424-+-------+









Final Chorus/Outro

+-------+-------+-------+-------+-------+-------+-------+-------+
|-------|-------|-------|-------|-------|-------|-------|-------|
|-------|-------|-------|-4-4-4-|-6-6-6-|-4-4-4-|-------|-------|
+-4-4-4-+-6-6-6-+-7-7-7-+-------+-------+-------+-7-7-7-+-6-6-6-+


+-------+-------+-------+-------+-------+-------+---6---+-------+
|-------|-------|-------|-------|-------|---6-8-|-9---9-|-8-9-8|
|-------|-------|-------|-4-4-4-|/7-7-7-|-7-----|-------|-------|
+-4-4-4-+-6-6-6-+-7-7-7-+-------+-------+-------+-------+-------+

+-------+-------+-------+-------+-------+-------+-------+----------+
|-------|-------|-------|-------|-------|-6-6-6-|-8-8-8-|-11-11-11|
|-------|-------|-------|-4-4-4-|-6-6-6-|-------|-------|----------|
+-4-4-4-+-6-6-6-+-7-7-7-+-------+-------+-------+-------+----------+
                                                hammer most of these
+-------+-------+-------+-------+-------+--------+--------+--------+
|-------|-------|-------|-------|-------|---6-68-|-898686-|--68986-|
|-------|-------|-------|-4-4-4-|/7-7-7-|-7--7---|--------|--------|
+-4-4-4-+-6-6-6-+-7-7-7-+-------+-------+--------+--------+--------+

+-------+-------+-------+-------+-------+-------+-------+----------+
|-------|-------|-------|-------|-------|-6-6-6-|-8-8-8-|-11-11-11/|
|-------|-------|-------|-4-4-4-|-6-6-6-|-------|-------|----------|
+-4-4-4-+-6-6-6-+-7-7-7-+-------+-------+-------+-------+----------+

+-13-13-13-+-13-13-13-+----------+----------+----------+----------+----------+
|----------|----------|-13-13-13-|-11-11-11-|-14-14-14-|-14-14-14-|-14-13-11-|
|----------|----------|----------|----------|----------|----------|----------|
+----------+----------+----------+----------+----------+----------+----------+
   H  P
+------------+
|-9-11-9-----|
|--------11-|
+------------+

+-------+-------+-------+-------+-------+-------+-------+-------+
|-------|-------|-------|-------|-------|-------|-------|-------|
|-------|-------|-------|-4-4-4-|-6-6-6-|-4-4-4-|-------|-------|
+-4-4-4-+-6-6-6-+-7-7-7-+-------+-------+-------+-7-7-7-+-6-6-6-+

+-------+-------+-------+-------+-------+-------+-------+-6-----+
|-------|-------|-------|-------|-------|---6-8-|-9-8-9-|---9-8|
|-------|-------|-------|-4-4-4-|/7-7-7-|-7-----|-------|-------|
+-4-4-4-+-6-6-6-+-7-7-7-+-------+-------+-------+-------+-------+

+-------+-------+-------+-------+-------+-------+-------+----------+
|-------|-------|-------|-------|-------|-6-6-6-|-8-8-8-|-11-11-11/|
|-------|-------|-------|-4-4-4-|-6-6-6-|-------|-------|----------|
+-4-4-4-+-6-6-6-+-7-7-7-+-------+-------+-------+-------+----------+

+-------+-------+-------+-------+-------+-------+-------+-------+
|-------|-------|-------|-------|-------|-------|-------|-------|
|-------|-------|-------|-4-4-4-|/7-7-7-|-4-5-7-|-4-5-7-|-5-4/--|
+-4-4-4-+-6-6-6-+-7-7-7-+-------+-------+-------+-------+-------+
Вверх

Buckle Down

Intro

e-|-------------|------------|
B-|-------------|------------|
G-|-------------|------------|
D-|-------------|--5--4--3---|
A-|------2--3---|------------|
E-|--5----------|------------|


e|---- -------------------|-------------|------------|
B|---- -------------------|-------------|------------|
G|-14- -------------------|-------------|------------|
D|-14- -7-6-5-------------|-------------|--5--4--3---|
A|-12- --------3--0--2--3-|------2--3---|------------|
E|---- -------------------|--5----------|------------|


e|----------------|
B|----------------|
G|------------12--|
D|------------12--|
A|--5-4-3-2---10--|
E|----------------|

Bridge :

e|---------------------|--------------- ------|
B|---------------------|-x-x-x-x-x-x--- ------|
G|---------9--9--7--9--|-x-x-x-x-x-x-9- -12---|
D|---------9--9--7--9--|-x-x-x-x-x-x-9- -12---|
A|--7-6-5--7--7--5--7--|-x-x-x-x-x-x-7- -10---|
E|---------------------|--------------- ------|


End :


e-|-------------|-----------------------|
B-|-------------|-----------------------|
G-|-------------|-----------------------|
D-|-------------|--5--4--3--------------|
A-|------2--3---|-----------------------|
E-|--5----------|-----------3--2--1--0--|
Вверх

Buckle Down (2 вариант)

Main
G |---------------------------------------------------------------------
D |---------------------------------------------------------------------
A |-0-2-3---0-2-3---0-2-3-----------------------------------------------
E |------------------------1/0--1/0-------------------------------------
                           S    S
Verse 2
G |---------------------------------------------------------------------
D |--5-4-2---------3----------3-*-2-3-------------------/6-5-4h5p0------
A |---------5--2-3-----5--2-3----------5--2-3---5--2-3------------------
E |---------------------------------------------------------------------

Verse 3
G |---------------------------------------------------------------------
D |---------------------------------------------------------------------
A |---------------------------------------------------------------------
E |--3-2-1-0--0--0-0-0--3-----------------------------------------------

Slap part
G |----------------------------------------------------------0-0-0-0-0--
D |-----2-2p0-----0--2-0-2--2-2p0---0-2-0-2--2-2p0---0-2-0-2------------
A |------------4------------------4----------------4--------------------
E |-0-0-----------------------------------------------------------------
Вверх

Bullet Proof

Intro: (4x)
G-|--------------------------------------------|
D-|-------------5------------------------------|
A-|--7--5-5--7-----7--5--7-----------2---------|
E-|-------------------------5--3--5-----3--0---|

Main part: (12x)
G-|------------------4--5--------|
D-|------------7--7--------7-5---|
A-|--7--7-7--7-------------------|
E-|------------------------------|

Ending: (3x)
G-|--------------------------------------------|
D-|-------------5------------------------------|
A-|--7--5-5--7-----7--5--7-----------2---------|
E-|-------------------------5--3--5-----3--0---|

and than play this:
G-|-------------------------------------------------|
D-|-------------5-----------7--5--7--8--9--12--14---|
A-|--7--5-5--7-----7--5--7--------------------------|
E-|-------------------------------------------------|
Вверх

By The Way

Вступление на басу
1|-17-17-17-17-17-17-17-17-------------------------------------|
2|-15-15-15-15-15-15-15-15--17-17-17-17-17-17-17-17--14-14-14--|
3|--------------15-15-15-15-15-15-15-15--12-12-12-12-12-12-12--|
4|-------------------------------------------------------------|

1|----------------|
2|-14-14-14-14-14-|
3|-12-------------|
4|----------------|

Вместе с басом играется партия на гитаре (без перегруза)
E|-------------------------------------------------------------|
B|-5-5-5-5-5--5--5--5------------------------------------------|
G|-5-5-5-5-5--5--5--5--5-5-5-5-5--5--5--5----------------------|
D|-3-3-3-3-3--3--3--3--5-5-5-5-5--5--5--5---7--7--7--7-7-7-7-7-|
A|----------3--3--3--3-3-3-3-3--7--7--7--7--7--7--7--7---------|
E|------------------------------5--5--5--5--5--5--5--5---------|

1|----------------------------------|
2|---------5------------------5-----|
3|-----5h7---7-5h7p5------5h7---7-5-|
4|-5-5----------------5-5-----------|

E|-7-7----------------7-7--|
B|-7-7----------------7-7--|
G|-7-7----------------7-7--|
D|-------------------------|
A|-------------------------|
E|-------------------------|

Standing in line to see the show tonight
and there's a light of
heavy glow
by the way I tried to say
I'd be there waiting for
Dani's the girl is
singing songs to me
beneath the marquee
overload

steak knife
card shark
con job
boot cut

Skin that flick
she's such a little DJ
to get there quick by street but not the freeway
turn that trick
to make a little leeway
beat that nic
but not the way that we play

dogtown
blood bath
rib cage
soft tal

Standing in line to
see the show tonight
and there's a light on
heavy glow
by the way I tried to say
I'd be there waiting for

black jack
dope dick
pawn shop
quick pick

kiss that dyke
i know you want to hold one
not on strike
but I'm about to bowl one
bite that mic
I know you never stole one
girls that like
a story, so I told one

song bird
main line
cash back
hard top

Standing in line to
see the show tonight
and there's a light on
heavy glow
by the way I tried to say
I'd be there waiting for
Dani's the girl is
singing songs to me
beneath the marquee
overload
Вверх

Cabron

  G            Em          G            Em
 4/4
  Gtr I
|-^10--------|-^7--------|-^10--------|-^7----|
|-^12--------|-^8--------|-^12--------|-^8----|
|-^-0--------|-^0--------|-^-0--------|-^0----|
|-^-0--------|-----------|-^-0--------|-------|
|------------|-----------|------------|-------|
|------------|-^0--------|------------|-^0----|


  Q=105                               Q=114
  C                                D
                                           Gtrs I, II
|---0-----0-----0---0-----0------|-^2--------------||
|-----1-----1---------1-----1-0--|-^3--------------||
|-------------0---------------0--|-^2------4-2-0---||
|-------2---------------2--------|-^0------------4-||
|-3---------------3--------------|-----------------||
|--------------------------------|-----------------||


  $
  G                           Em
|-----3-3-3-(3)---3---------|-----0-0-0-(0)---0---------|
|-----0-0-0-(0)---0---------|-----0-0-0-(0)---0---------|
|-0-0-0-0-0-(0)-0-0-2-0-----|---0-0-0-0-(0)-0-0-4-2-0---|
|---0-0-0-0-(0)-0-0-----4-0-|---2-2-2-2-(2)-2-2-------4-|
|---2-2-2-2-(2)-2-2---------|-2-2-2-2-2-(2)-2-2---------|
|---3-3-3-3-(3)-3-3---------|---0-0-0-0-(0)-0-0---------|


  G                           Em
|-----3-3-3-(3)---3---------|-----0-0-0-(0)---0---------||
|-----0-0-0-(0)---0---------|-----0-0-0-(0)---0---------||
|-0-0-0-0-0-(0)-0-0-2-0-----|---0-0-0-0-(0)-0-0-4-2-0---||
|---0-0-0-0-(0)-0-0-----4-0-|---2-2-2-2-(2)-2-2-------4-||
|---2-2-2-2-(2)-2-2---------|-2-2-2-2-2-(2)-2-2---------||
|---3-3-3-3-(3)-3-3---------|---0-0-0-0-(0)-0-0---------||


 Chorus
  G                           Em
|-----3-3-3-(3)---3---------|-----0-0-0-(0)---0---------|
|-----0-0-0-(0)---0---------|-----0-0-0-(0)---0---------|
|-0-0-0-0-0-(0)-0-0-2-0-----|---0-0-0-0-(0)-0-0-4-2-0---|
|---0-0-0-0-(0)-0-0-----4-0-|---2-2-2-2-(2)-2-2-------4-|
|---2-2-2-2-(2)-2-2---------|-2-2-2-2-2-(2)-2-2---------|
|---3-3-3-3-(3)-3-3---------|---0-0-0-0-(0)-0-0---------|


  G                           Em
|-----3-3-3-(3)---3---------|-----0-0-0-(0)---0---------||
|-----0-0-0-(0)---0---------|-----0-0-0-(0)---0---------||
|-0-0-0-0-0-(0)-0-0-2-0-----|---0-0-0-0-(0)-0-0-4-2-0---||
|---0-0-0-0-(0)-0-0-----4-0-|---2-2-2-2-(2)-2-2-------4-||
|---2-2-2-2-(2)-2-2---------|-2-2-2-2-2-(2)-2-2---------||
|---3-3-3-3-(3)-3-3---------|---0-0-0-0-(0)-0-0---------||


   Verse
    G
||------3-3-3-(3)---3---------|
||o-----0-0-0-(0)---0---------|
||--0-0-0-0-0-(0)-0-0-2-0-----|
||----0-0-0-0-(0)-0-0-----4-0-|
||o---2-2-2-2-(2)-2-2---------|
||----3-3-3-3-(3)-3-3---------|


  1.                            2.
  Em                            Em
|-----0-0-0-(0)---0----------||-----0-0-0-(0)---0-0-0-0-|
|-----0-0-0-(0)---0---------o||-----0-0-0-(0)---0-0-0-0-|
|---0-0-0-0-(0)-0-0-4-2-0----||---0-0-0-0-(0)-0-0-0-0-0-|
|---2-2-2-2-(2)-2-2-------4--||---2-2-2-2-(2)-2-2-2-2-2-|
|-2-2-2-2-2-(2)-2-2---------o||-2-2-2-2-2-(2)-2-2-2-2-2-|
|---0-0-0-0-(0)-0-0----------||---0-0-0-0-(0)-0-0-0-0-0-|


  C                               D
|---0-0-(0)-0-0---0-0-(0)-0-0---|---2-2-(2)-2-2---2-2-(2)-2-2---||
|---1-1-(1)-1-1---1-1-(1)-1-1---|---3-3-(3)-3-3---3-3-(3)-3-3---||
|---0-0-(0)-0-0---0-0-(0)-0-0-0-|---2-2-(2)-2-2---2-2-(2)-2-2-2-||
|---2-2-(2)-2-2---2-2-(2)-2-2-2-|-0-0-0-(0)-0-0-0-0-0-(0)-0-0-0-||
|-3-3-3-(3)-3-3-3-3-3-(3)-3-3-3-|-------------------------------||
|-------------------------------|-------------------------------||


   Bridge
    G                                       Em
    Gtr I
||--10-10-(10)-10-10-(10)-10-10-10-8-7----|-7-7--7--7-7-(7)-7-7-----------||
||o-12-12-(12)-12-12-(12)-12-12--------10-|-8-8--8--8-8-(8)-8-8-10-8-7---o||
||---0--0--(0)--0--0--(0)--0--0-----------|-0-0-(0)-0-0-(0)-0-0--------9--||
||---0--0--(0)--0--0--(0)--0--0-----------|-------------------------------||
||o---------------------------------------|------------------------------o||
||----------------------------------------|-------------------------------||
|
|   Gtr II
||---3------3---3--3--(3)-----3--3---3--3-|-0----0--0-0-(0)---0--0---0-0--||
||o--0--3---0---0--0--(0)-----0--0---0--0-|-0----0--0-0-(0)---0--0---0-0-o||
||---0--0---0---0--0--(0)--0--0--0---0--0-|-0-0--0--0-0-(0)-0-0--0---0-0--||
||---0--0---0---0--0--(0)--0--0--0---0--0-|-2-2--2--2-2-(2)-2-2--2---2-2--||
||o--2--2---2---2--2--(2)--2--2--2---2--2-|-2-2--2--2-2-(2)-2-2--2---2-2-o||
||---3--3---3---3--3--(3)--3--3--3---3--3-|-0-0--0--0-0-(0)-0-0--0---0-0--||


  C                               D
  Gtrs I, II
|---0-0-(0)-0-0---0-0-(0)-0-0---|---2-2-(2)-2-2---2-2-(2)-2-2---|
|---1-1-(1)-1-1---1-1-(1)-1-1---|---3-3-(3)-3-3---3-3-(3)-3-3---|
|---0-0-(0)-0-0---0-0-(0)-0-0-0-|---2-2-(2)-2-2---2-2-(2)-2-2-2-|
|---2-2-(2)-2-2---2-2-(2)-2-2-2-|-0-0-0-(0)-0-0-0-0-0-(0)-0-0-0-|
|-3-3-3-(3)-3-3-3-3-3-(3)-3-3-3-|-------------------------------|
|-------------------------------|-------------------------------|


    G
    Gtr I
||--10-10-10-(10)-10-10---12----12-14-(14)-14-14---|
||o-12-12-12-(12)-12-12---12----12-12-(12)-12-12---|
||---0--0--0--(0)--0--0----0-----0--0--(0)--0--0---|
||-------------------------------------------------|
||o------------------------------------------------|
||-------------------------------------------------|
|
|   Gtr II
||---3---------3---3----3-(3)----3------3------3-3-|
||o--0--3------0---0----0-(0)----0------0------0-0-|
||---0--0------0---0----0-(0)-0--0------0------0-0-|
||---0--0------0---0----0-(0)-0--0------0------0-0-|
||o--2--2------2---2----2-(2)-2--2------2------2-2-|
||---3--3------3---3----3-(3)-3--3------3------3-3-|


  Em
|-12-12-12-(12)-12-12----7----7-7-(7)-7-7-----||
|-12-12-12-(12)-12-12----8----8-8-(8)-8-8----o||
|--0--0--0--(0)--0--0----0----0-0-(0)-0-0-----||
|---------------------------------------------||
|--------------------------------------------o||
|---------------------------------------------||
|
|--0---------0---0----0-(0)---0----0----0-0---||
|--0---------0---0----0-(0)---0----0----0-0--o||
|--0--0------0---0----0-(0)-0-0----0----0-0---||
|--2--2------2---2----2-(2)-2-2----2----2-2---||
|--2--2------2---2----2-(2)-2-2----2----2-2--o||
|--0--0------0---0----0-(0)-0-0----0----0-0---||


  C                               D
  Gtrs I, II
|---0-0-(0)-0-0---0-0-(0)-0-0---|---2-2-(2)-2-2---2-2-(2)-2-2---|
|---1-1-(1)-1-1---1-1-(1)-1-1---|---3-3-(3)-3-3---3-3-(3)-3-3---|
|---0-0-(0)-0-0---0-0-(0)-0-0-0-|---2-2-(2)-2-2---2-2-(2)-2-2-2-|
|---2-2-(2)-2-2---2-2-(2)-2-2-2-|-0-0-0-(0)-0-0-0-0-0-(0)-0-0-0-|
|-3-3-3-(3)-3-3-3-3-3-(3)-3-3-3-|-------------------------------|
|-------------------------------|-------------------------------|



  C                               D
|---0-0-(0)-0-0---0-0-(0)-0-0---|---2-2-(2)-2-2---2-2-(2)-2-2----||
|---1-1-(1)-1-1---1-1-(1)-1-1---|---3-3-(3)-3-3---3-3-(3)-3-3----||
|---0-0-(0)-0-0---0-0-(0)-0-0-0-|---2-2-(2)-2-2---2-2-(2)-2-2-2--||
|---2-2-(2)-2-2---2-2-(2)-2-2-2-|-0-0-0-(0)-0-0-0-0-0-(0)-0-0-0--||
|-3-3-3-(3)-3-3-3-3-3-(3)-3-3-3-|--------------------------------||
|-------------------------------|--------------------------------||


  &
  D
|---2-2-(2)-2-2---2-2-(2)-2--2----||
|---3-3-(3)-3-3---3-3-(3)-3--3----||
|---2-2-(2)-2-2---2-2-(2)-2--2--2-||
|-0-0-0-(0)-0-0-0-0-0-(0)-0--0--0-||
|---------------------------------||
|---------------------------------||
|
| Gtr III
|----------------------7----(7)s==||
|---------------------------------||
|---------------------------------||
|---------------------------------||
|---------------------------------||
|---------------------------------||


 Guitar Solo
  G                                Em
|------3-3-3-(3)---3-------------|------0-0-0-(0)---0-------------|
|------0-0-0-(0)---0-------------|------0-0-0-(0)---0-------------|
|--0-0-0-0-0-(0)-0-0--2-0--------|----0-0-0-0-(0)-0-0-4-2--0------|
|----0-0-0-0-(0)-0-0--------4--0-|----2-2-2-2-(2)-2-2---------4---|
|----2-2-2-2-(2)-2-2-------------|--2-2-2-2-2-(2)-2-2-------------|
|----3-3-3-3-(3)-3-3-------------|----0-0-0-0-(0)-0-0-------------|
|
|-14-----------------------------|--------------------7---(7)s====|
|--------------------14---(14)s==|=12-----------------------------|
|--------------------------------|--------------------------------|
|--------------------------------|--------------------------------|
|--------------------------------|--------------------------------|
|--------------------------------|--------------------------------|


  G
|------3-3-3-(3)---3-------------|
|------0-0-0-(0)---0-------------|
|--0-0-0-0-0-(0)-0-0--2-0--------|
|----0-0-0-0-(0)-0-0--------4--0-|
|----2-2-2-2-(2)-2-2-------------|
|----3-3-3-3-(3)-3-3-------------|
|
|-14-----------------------------|
|--------------------14---(14)s==|
|--------------------------------|
|--------------------------------|
|--------------------------------|
|--------------------------------|
|
| Gtr IV
|--------------------------------|
|--------------------------------|
|--------------------------------|
|--------------------------------|
|--------------------------------|
|--------------------------------|


  Em                             G
|------0-0-0-(0)---0-----------|------3-3-3-(3)---3--------------|
|------0-0-0-(0)---0-----------|------0-0-0-(0)---0--------------|
|----0-0-0-0-(0)-0-0-4-2--0----|--0-0-0-0-0-(0)-0-0---2-0--------|
|----2-2-2-2-(2)-2-2---------4-|----0-0-0-0-(0)-0-0---------4--0-|
|--2-2-2-2-2-(2)-2-2-----------|----2-2-2-2-(2)-2-2--------------|
|----0-0-0-0-(0)-0-0-----------|----3-3-3-3-(3)-3-3--------------|
|
|--------------------7---(7)s==|=14------------------------------|
|-12---------------------------|---------------------14---(14)s==|
|------------------------------|---------------------------------|
|------------------------------|---------------------------------|
|------------------------------|---------------------------------|
|------------------------------|---------------------------------|
|
|------------------------------|---------------------------------|
|--------------------7---(7)s==|=10-----------------/10---(10)s==|
|------------------------------|---------------------------------|
|------------------------------|---------------------------------|
|------------------------------|---------------------------------|
|------------------------------|---------------------------------|


  Em                             G
|------0-0-0-(0)---0-----------|------3-3-3-(3)---3--------------|
|------0-0-0-(0)---0-----------|------0-0-0-(0)---0--------------|
|----0-0-0-0-(0)-0-0-4-2--0----|--0-0-0-0-0-(0)-0-0---2-0--------|
|----2-2-2-2-(2)-2-2---------4-|----0-0-0-0-(0)-0-0---------4--0-|
|--2-2-2-2-2-(2)-2-2-----------|----2-2-2-2-(2)-2-2--------------|
|----0-0-0-0-(0)-0-0-----------|----3-3-3-3-(3)-3-3--------------|
|
|--------------------7---(7)s==|=14------------------------------|
|-12---------------------------|---------------------14---(14)s==|
|------------------------------|---------------------------------|
|------------------------------|---------------------------------|
|------------------------------|---------------------------------|
|------------------------------|---------------------------------|
|
|------------------------------|---------------------------------|
|--7-----------------7---(7)s==|=10-----------------/10---(10)s==|
|------------------------------|---------------------------------|
|------------------------------|---------------------------------|
|------------------------------|---------------------------------|
|------------------------------|---------------------------------|


  Em
|------0-0-0-(0)---0--0---0--0--||
|------0-0-0-(0)---0--0---0--0--||
|----0-0-0-0-(0)-0-0--0---0--0--||
|----2-2-2-2-(2)-2-2--2---2--2--||
|--2-2-2-2-2-(2)-2-2--2---2--2--||
|----0-0-0-0-(0)-0-0--0---0--0--||
|
|-------------------------------||
|-12-----------------12-(12)s===||
|-------------------------------||
|-------------------------------||
|-------------------------------||
|-------------------------------||
|
|-------------------------------||
|--7------------------7--(7)s===||
|-------------------------------||
|-------------------------------||
|-------------------------------||
|-------------------------------||


 Bridge
  C                               D
|---0-0-(0)-0-0---0-0-(0)-0-0---|---2-2-(2)-2-2---2-2-(2)-2-2---|
|---1-1-(1)-1-1---1-1-(1)-1-1---|---3-3-(3)-3-3---3-3-(3)-3-3---|
|---0-0-(0)-0-0---0-0-(0)-0-0-0-|---2-2-(2)-2-2---2-2-(2)-2-2-2-|
|---2-2-(2)-2-2---2-2-(2)-2-2-2-|-0-0-0-(0)-0-0-0-0-0-(0)-0-0-0-|
|-3-3-3-(3)-3-3-3-3-3-(3)-3-3-3-|-------------------------------|
|-------------------------------|-------------------------------|
|
|-------------------------------|-------------------------------|
|-8-----------------------------|-------------------------------|
|-------------------------------|-------------------------------|
|-------------------------------|-------------------------------|
|-------------------------------|-------------------------------|
|-------------------------------|-------------------------------|
|
|-------------------------------|-------------------------------|
|-3-----------------------------|-------------------------------|
|-------------------------------|-------------------------------|
|-------------------------------|-------------------------------|
|-------------------------------|-------------------------------|
|-------------------------------|-------------------------------|


  C                               D
|---0-0-(0)-0-0---0-0-(0)-0-0---|---2-2-(2)-2-2---2-2-(2)-2-2------||
|---1-1-(1)-1-1---1-1-(1)-1-1---|---3-3-(3)-3-3---3-3-(3)-3-3------||
|---0-0-(0)-0-0---0-0-(0)-0-0-0-|---2-2-(2)-2-2---2-2-(2)-2-2-2----||
|---2-2-(2)-2-2---2-2-(2)-2-2-2-|-0-0-0-(0)-0-0-0-0-0-(0)-0-0-0----||
|-3-3-3-(3)-3-3-3-3-3-(3)-3-3-3-|----------------------------------||
|-------------------------------|----------------------------------||
|
|-------------------------------|----------------------------------||
|-------------------------------|----------------------------------||
|-------------------------------|----------------------------------||
|-------------------------------|----------------------------------||
|-------------------------------|----------------------------------||
|-------------------------------|----------------------------------||
|
|-------------------------------|----------------------------------||
|-------------------------------|----------------------------------||
|-------------------------------|----------------------------------||
|-------------------------------|----------------------------------||
|-------------------------------|----------------------------------||
|-------------------------------|----------------------------------||


   Chorus
    G
||--3-3---3-3---3-3---3-3---|
||o-0-0---0-0-0-0-0---0-0-0-|
||--0-0-0-0-0-0-0-0-0-0-0-0-|
||--0-0-0-0-0-0-0-0-0-0-0-0-|
||o-2-2-2-2-2-2-2-2-2-2-2-2-|
||--3-3-3-3-3-3-3-3-3-3-3-3-|


  Em                        G
|-0-0---0-0---0-0---0-0---|-3-3---3-3---3-3---3-3-----|
|-0-0---0-0-0-0-0---0-0-0-|-0-0---0-0-0-0-0---0-0-0---|
|-0-0-0-0-0-0-0-0-0-0-0-0-|-0-0-0-0-0-0-0-0-0-0-0-0---|
|-2-2-2-2-2-2-2-2-2-2-2-2-|-0-0-0-0-0-0-0-0-0-0-0-0---|
|-2-2-2-2-2-2-2-2-2-2-2-2-|-2-2-2-2-2-2-2-2-2-2-2-2---|
|-0-0-0-0-0-0-0-0-0-0-0-0-|-3-3-3-3-3-3-3-3-3-3-3-3---|


  1.                          2.
  Em                          Em
|-0-0---0-0---0-0---0-0----||-0-0---0-0---0-0---0--0----||
|-0-0---0-0-0-0-0---0-0-0-o||-0-0---0-0-0-0-0---0--0--0-||
|-0-0-0-0-0-0-0-0-0-0-0-0--||-0-0-0-0-0-0-0-0-0-0--0--0-||
|-2-2-2-2-2-2-2-2-2-2-2-2--||-2-2-2-2-2-2-2-2-2-2--2--2-||
|-2-2-2-2-2-2-2-2-2-2-2-2-o||-2-2-2-2-2-2-2-2-2-2--2--2-||
|-0-0-0-0-0-0-0-0-0-0-0-0--||-0-0-0-0-0-0-0-0-0-0--0--0-||
|
| Gtr III
|--------------------------||-------------------7-(7)s==||
|-------------------------o||---------------------------||
|--------------------------||---------------------------||
|--------------------------||---------------------------||
|-------------------------o||---------------------------||
|--------------------------||---------------------------||
|
| Gtr IV
|--------------------------||---------------------------||
|-------------------------o||-------------------7-(7)s==||
|--------------------------||---------------------------||
|--------------------------||---------------------------||
|-------------------------o||---------------------------||
|--------------------------||---------------------------||


   Outro
    G                               Em
                                                                4x
||---3-3---3-3---3-3-----3---3----|--0-0---0-0---0-0---0--0-----||
||o--0-0---0-0-0-0-0-----0---0--0-|--0-0---0-0-0-0-0---0--0--0-o||
||---0-0-0-0-0-0-0-0-0---0---0--0-|--0-0-0-0-0-0-0-0-0-0--0--0--||
||---0-0-0-0-0-0-0-0-0---0---0--0-|--2-2-2-2-2-2-2-2-2-2--2--2--||
||o--2-2-2-2-2-2-2-2-2---2---2--2-|--2-2-2-2-2-2-2-2-2-2--2--2-o||
||---3-3-3-3-3-3-3-3-3---3---3--3-|--0-0-0-0-0-0-0-0-0-0--0--0--||
|
|                                                               4x
||--14----------------------------|--------------------7-(7)----||
||o---------------------14-(14)s==|=12-------------------------o||
||--------------------------------|-----------------------------||
||--------------------------------|-----------------------------||
||o-------------------------------|----------------------------o||
||--------------------------------|-----------------------------||
|
|                                                               4x
||--------------------------------|-----------------------------||
||o-10-----------------/10-(10)s==|==7-----------------7-(7)---o||
||--------------------------------|-----------------------------||
||--------------------------------|-----------------------------||
||o-------------------------------|----------------------------o||
||--------------------------------|-----------------------------||


    G                               Em
                                                                4x
||---3-3---3-3---3-3-----3---3----|--0-0---0-0---0-0---0--0-----||
||o--0-0---0-0-0-0-0-----0---0--0-|--0-0---0-0-0-0-0---0--0--0-o||
||---0-0-0-0-0-0-0-0-0---0---0--0-|--0-0-0-0-0-0-0-0-0-0--0--0--||
||---0-0-0-0-0-0-0-0-0---0---0--0-|--2-2-2-2-2-2-2-2-2-2--2--2--||
||o--2-2-2-2-2-2-2-2-2---2---2--2-|--2-2-2-2-2-2-2-2-2-2--2--2-o||
||---3-3-3-3-3-3-3-3-3---3---3--3-|--0-0-0-0-0-0-0-0-0-0--0--0--||
|
|                                                               4x
||--14----------------------------|--------------------7-(7)s===||
||o---------------------14-(14)s==|=12-------------------------o||
||--------------------------------|-----------------------------||
||--------------------------------|-----------------------------||
||o-------------------------------|----------------------------o||
||--------------------------------|-----------------------------||
|
|                                                               4x
||--------------------------------|-----------------------------||
||o-10-----------------/10-(10)s==|==7-----------------7-(7)s==o||
||--------------------------------|-----------------------------||
||--------------------------------|-----------------------------||
||o-------------------------------|----------------------------o||
||--------------------------------|-----------------------------||


  G
|--3--------|--(3)----*|
|--0--------|--(0)----*|
|--0--------|--(0)----*|
|--0--------|--(0)----*|
|--2--------|--(2)----*|
|--3--------|--(3)----*|
|
|-14--------|-(14)----*|
|-----------|---------*|
|-----------|---------*|
|-----------|---------*|
|-----------|---------*|
|-----------|---------*|
|
|-----------|---------*|
|-10--------|-(10)----*|
|-----------|---------*|
|-----------|---------*|
|-----------|---------*|
|-----------|---------*|
Вверх

Cabron (2 вариант)

Introduction: 	G	Em	(Strummed lightly twice)

G       Em      G       Em
Cabron, Cabron, Cabron, Cabron.
G                             Em
I see you in the park, you're always wearing dodger blue
G                     Em
Mad doggin' me and anyone from any other crew.
C                   D
I am small but I am strong. I'll get it on with you.
G              Em   G               Em
If you want me to … what else can I do
C                     D
Everyone would take a cue from anything you do
G                Em   G                  Em
If you want them to … what else can they do.
C                       D
I don't want to fight I want to get along with you
C                               D
This time of nights for singing songs about the local news

G       Em      G       Em
Cabron, Cabron, Cabron, Cabron.

G                                Em
I'll come around and make peace, get down have a barbeque
G                             Em
Let's keep the moon awake and do electric boogiloo
C                   D
I am small but I am strong, you see I am just like you
G           Em     G                  Em
If you only knew … that I'm just like you.
C                          D
All the world would take a cue from anything you do
G           Em     G                      Em
If you only knew … that they're just like you.
    C                       D
(*) I don't want to fight I want to get along with you
C                                D
This time of night’s for singing songs about the local news

G       Em      G       Em
Cabron, Cabron, Cabron, Cabron (x2)		REPEAT (*)

G               Em   G              Em
What else can I do … if you want me to
G                   Em    G           Em
Cause I'm just like you … if you only knew

G       Em      G       Em
Cabron, Cabron, Cabron, Cabron (x2)
Вверх

Californication

Main Part, 1st guitar:
   Am             F               Am            F
E|----------------|--------------|-------------|---------------|
B|---------0-1----|--------------|-------0-1---|---------------|
G|----------------|---------0-2--|-------------|----------0--2-|
D|-----2----------|--------------|-----2-------|---------------|
A|-0--------------|-----2--------|-0-----------|------2--------|
E|----------------|-1------------|-------------|--1------------|

Main part, 2nd guitar (instead of bass guitar):

…          ^                             ^
D|----2--2-0-2--|----0--0-----|-----2--2-0-2-----|-----3--3--0-|
A|-0----------3-|----------3--|--0------------3--|-------------|
E|--------------|--1----------|------------------|--1----------|

Riff.1 1st & 2nd guitars:
    C              G              F                  Dm
E|---------0--------------------|----------------------------2-|
B|------------------------0-----|-------------------------3----|
G|------0-----0-----------------|----------2-------------------|
D|---------------------0-----0--|---------------------0--------|
A|--3---------------------------|-------3------3---------------|
E|-----------------3------------|---1--------------------------|


Solo( 1st guitar, 2nd g.-accompaniment):
  F#m           D/F# F#m           D/F#     Bm       D
E|-----9-------|----|----9--------|--------|-------------------|
B|--10-----^---^----|-10-------^--^--------|---^---------------|
G|-------11-13-|11--|-------11-13-|-11--11-|-11-9--------------|
D|-------------|----|-------------|--------|-------11-11--9-11-|
…
   A     E/G#      F#m            ^ D/F#  F#m            ^ D/F#
E|------^---------|-----9--12---14-|-14--|-----9--12--16-|-14--|
B|-9--12-14---9---|--10------------|-----|-10------------|-----|
G|-------------11-|----------------|-----|---------------|-----|
D|----------------|----------------|-----|---------------|-----|
…
   Bm         D              A      E/G#    Bm        D
E|-17-16-14---14------------|-------------|--------------14(16)|
B|---------17----17-14-17-14|14-----14----|-17-----17-14-------|
G|--------------------------|16(18)-16(18)|-16(18)-------------|
…
   A               E/G#               Main part
E|-14--------------------------------|---------|
B|----17-14-17-14----------17-15--14-|---------|
G|----------------16-14--------------|-14------|  End of solo
…


Lyrics:

Verse 1.
[main part]
Psychic spies from China
Try to steal your mind elation
Little girl from Sweden
Dream of silver screen quotations
[Riff. 1]
And if you want these kind of dreams
It’s Californication.
[main part]

It’s the edge of the world
And all of western civilization
The sun may rise in the East
At least it settles in the final location
It’s understood that Hollywood
Sells Californication

 Am, F, Am, F.
Am
Pay your surgeon very well
     F
To break the spell of aging
Am
Celebrity skin is this your chin
   F
Or is that war your waging

Chorus:
Am
First born unicorn
F
Hard core soft porn
C             G    Dm     Am
Dream of Californication
C             G    Dm
Dream of Californication

Verse 2:
Marry me girl be my fairy to the world
Be my very own constellation
A teenage bridge with a baby inside
Getting high on information
And buy me a star on the boulevard
It’s Californication

Space may be the final frontier
But it’s made in a Hollywood basement
Cobain can you hear the spheres
Singing songs off station to station
And Alderon’s not far away
It’s Californication

Born and raised by those who praise
Control of population everybody’s been there and
I don’t mean on vacation

Chorus.

Verse 3:

Destruction leads to a very rough road
But it also breeds creation
And earthquakes are to a girl’s guitar
They’re just another good vibration
And tidal waves couldn’t save the world
From Californication

Pay your surgeon very well
To break the spell of aging
Sicker than rest
There is no test
But this is what you’re craving

Chorus.

Chords for SOLO:
  F#m   D/F#     E/G#
E|-2-----2-------4---
B|-2-----3-------5---
G|-2-----2-------4---
D|-4-----4-------6---
A|-X-----X-------X---
E|-X-----X-------X---
Вверх

Cant Stop

Intro
G-----------------------|
D-----------------------|
A-----------------------|
E--777777777777777777777
   N....................


Verse
Repeat x
G-----7-9-------7-9---------7-9-------7-9------|
D----------------------------------------------|
A-7-7-----7-7-7-----7-7-7-5-----5-5-5----------|
E----------------------------------------------|
  S S P P S S S P P S S S S P P S S S P P

G---------4-4-------4-4---------5-5-------5-5--|
D----------------------------------------------|
A-5-5-5-2-----2-2-2-----2-2-2-3-----3-3-3------|
E----------------------------------------------|
  S S S S P P S S S P P S S S S P P S S S P P

Chorus
G---------------------------------------------------------9-7----|
D----7-9-10-12--9-9-7-9-10--12-----7-9-10-12--9--9-7-9-10-----9--|
A-10----------------------------10-------------------------------|
E----------------------------------------------------------------|
  N..............................................................

G----------------12-------------------------|
D----7-9-10-12-9----9-10-10-12----7-9-10-12-|
A-10---------------------------10-----------|
E-------------------------------------------|
  N.........................................

Pre Solo
G-----9-----14-------------------7-------|
D--------------12-0-------9--------10----|
A-7-7---7--------------------------------|
E---------------------7-7---7---------8--|
  N......................................

G-----9-----14-------------------7----------------|
D--------------12-0-0------9-------10---10--------|
A-7-7---7-----------------------------------------|
E----------------------7-7---7--------8----8--10--|
  N...............................................

G-----9-----14-------------------7----------------|
D--------------12-0-0------9-------10----5h7------|
A-7-7---7------------------------------------5h7--|
E----------------------7-7---7--------8-----------|
  N...............................................

G-----9-----14--------------------7---------------|
D--------------12-0-0------9--------10------------|
A-7-7---7-----------------------------------------|
E----------------------7-7---7---------8-8--------|
  N...............................................
Вверх

Cant Stop (2 вариант)

 Intro
e|----------------------|
B|----------------------|
G|----------------------|
D|----------------------|
A|--5-7-5-7-5-7-5-7-5-7-| Just repeat
E|----------------------|


 Main/kick ass riff how i play it   REPEAT x5
e|-----------------------------------------------------------|
B|-----------------------------------------------------------|
G|----79-----79-----79---------79-----79-----79-----79----79-|
D|----------------0------000---------------------------------|
A|-77----777-----7----------------5--------------------------|
E|---------------------------------7-----777----778----888---|


 Little guitar part before Chorus
e|--------|
B|-888888-|
G|--------| Played by 2nd guitar
D|--------|
A|--------|
E|--------|

 Chorus x 2
e|-------|-------|-------|----------|
B|-8-8-8-|-7-7-7-|-------|----------|
G|-9-9-9-|-7-7-7-|-7-7-7-|-9--9--9--|  ^=STANDS 4 UP STROKE
D|-9-9-9-|-7-7-7-|-9-9-9-|-10-10-10-|    REST ARE DOWNSTROKES
A|-7-7-7-|-5-5-5-|-9-9-9-|-10-10-10-|
E|-------|-------|-7-7-7-|-8--8--8--|
     ^       ^       ^        ^
THEN DO THIS

 MAIN RIFF x 4


 GUITAR 2 PLAYS RIFF SAME AGAIN


 CHORUS x 2



 Inturlude X2
e|-12-12-12-12--7-7-7-7--9-9-9-9--8-8-8-8-|
B|-12-12-12-12--7-7-7-7--9-9-9-9--8-8-8-8-|
G|-12-12-12-12-----------9-9-9-9--9-9-9-9-|
D|----------------------------------------|
A|----------------------------------------|
E|----------------------------------------|

 Inturlude Part 2  x2
e|-12-12-12-12--10-10-10-10--7-7-7-7------------|
B|-12-12-12-12--10-10-10-10--7-7-7-7--8-8-8-8-8-|
G|-12-12-12-12----------------------------------|
D|----------------------------------------------|
A|----------------------------------------------|
E|----------------------------------------------|


 Solo x1
e|--12--12--10--10----------------12--15--12--12--10--10--------------|
B|-------------------12--12--8--8-------------------------12--12--8--8|
G|--------------------------------------------------------------------|
D|--------------------------------------------------------------------|
A|--------------------------------------------------------------------|
E|--------------------------------------------------------------------|

 MAIN RIFF x4
Вверх

Cant Stop (3 вариант)

e----------------------
b----------------------
g----------------------     x 4
d--0h2-0h2-0h2-0h2-----
a----------------------
e----------------------

e----------------------
b----------------------
g----------------------     x 1
d--0h2-0h2-0h2-0---0h2-
a---------------0h2----
e----------------------

e----------------------
b----------------------
g----------------------     x 3
d--0h2-0h2-0h2-0h2-----
a----------------------
e----------------------


e------------------------------------------------------------
b-----3-5-------3-5---------3-5-------3-5--------------------
g------------------------------------------------------------
d-2-2-----2-2-2-----2-2-2-0-----0-0-0------------------------
a------------------------------------------------------------
e------------------------------------------------------------

e------------------------------------------------------------
b---------3-5-------3-5---------3-5-------3-5----------------
g------------------------------------------------------------
d-0-0-0--------------------------------------------2---------
a-------2-----2-2-2-----2-2-2-3-----3-3-3-----3-3-3----------
e------------------------------------------------------------
this is the intro one, where its only the gutiar playing. a drum role comes
in on the last note then you play this 3 times.

e------------------------------------------------------------
b--3-5-------3-5---------3-5-------3-5-----------------------
g------------------------------------------------------------
d------2-2-2-----2-2-2-0-----0-0-0---------------------------
a------------------------------------------------------------
e------------------------------------------------------------

e------------------------------------------------------------
b---------3-5-------3-5---------3-5-------3-5----------------
g------------------------------------------------------------
d-0-0-0--------------------------------------------2---------
a-------2-----2-2-2-----2-2-2-3-----3-3-3-----3-3-3----------
e------------------------------------------------------------

on the forth it changes a bit
e------------------------------------------------------------
b--3-5-------3-5---------3-5-------3-5-----------------------
g------------------------------------------------------------
d------2-2-2-----2-2-2-0-----0-0-0---------------------------
a------------------------------------------------------------
e------------------------------------------------------------

e---------------------------------------------------------------
b---------3-5-------3-5---12-12--12-12-12-12--12-12--12-12-12-12
g-----------------------16-----14-----------11-----12-----------
d-0-0-0---------------------------------------------------------
a-------2-----2-2-2---------------------------------------------
e---------------------------------------------------------------
(i dont think that last part of the forth bit is right. so if anyone can
correct me so i can alter it, please do.)
then theres the chorus.

e-7-----7--7--------------
b-8--7--7--8--------------
g-7--7--9--9--------------
d----7--9--10-------------
a-------------------------
e-------------------------
strum these chords

second verse
e------------------------------------------------------------
b-----3-5-------3-5---------3-5-------3-5--------------------
g------------------------------------------------------------
d-2-2-----2-2-2-----2-2-2-0-----0-0-0------------------------
a------------------------------------------------------------
e------------------------------------------------------------

e------------------------------------------------------------
b---------3-5-------3-5---------3-5-------3-5----------------
g------------------------------------------------------------
d-0-0-0--------------------------------------------2--------- x 3
a-------2-----2-2-2-----2-2-2-3-----3-3-3-----3-3-3----------
e------------------------------------------------------------

then
e------------------------------------------------------------
b--3-5-------3-5---------3-5-------3-5-----------------------
g------------------------------------------------------------
d------2-2-2-----2-2-2-0-----0-0-0---------------------------
a------------------------------------------------------------
e------------------------------------------------------------

e---------------------------------------------------------------
b---------3-5-------3-5---12-12--12-12-12-12--12-12--12-12-12-12
g-----------------------16-----14-----------11-----12-----------
d-0-0-0---------------------------------------------------------
a-------2-----2-2-2---------------------------------------------
e---------------------------------------------------------------

then chorus

e-7-----7--7--------------
b-8--7--7--8--------------
g-7--7--9--9--------------
d----7--9--10-------------
a-------------------------
e-------------------------
strum these chords


then bridge/interlude type thing

(so far i havent got a clue!!!!!)


then a little solo

e-12-12/10-10-7-7-3---12-14-10-12-7-10-5-3-------
b------------------------------------------------
g------------------------------------------------
d------------------------------------------------
a------------------------------------------------
e------------------------------------------------


then start this again

e------------------------------------------------------------
b-----3-5-------3-5---------3-5-------3-5--------------------
g------------------------------------------------------------
d-2-2-----2-2-2-----2-2-2-0-----0-0-0------------------------
a------------------------------------------------------------
e------------------------------------------------------------

e------------------------------------------------------------
b---------3-5-------3-5---------3-5-------3-5----------------
g------------------------------------------------------------
d-0-0-0--------------------------------------------2--------- x4
a-------2-----2-2-2-----2-2-2-3-----3-3-3-----3-3-3----------
e------------------------------------------------------------
doing it four times.
Вверх

Castles Made Of Sand

Chorus and Intro
G----------------------------------------------------
D-(5)----------------/7------------------------------
A--------------2-5-2----5-5-2-3-5-5----3-3-3h5p3-1-3-
E----3-3---3-3----------------------3h5--------------

G---------------------------------
D---------5-----3-3------5-5------
A-----3-----3h5------5h7-----1h3--
E-3h5---3-----------------------3-
Verse
G----------------------------------------------
D-----------------------2--2-2-2-2-3---5---3-5-
A------------0--0-0-0-0--------------3---------
E-1--1-1-1-1-----------------------------------
Guitar solo
G------------------3-------------------3--------------
D-5-5-3-5-3-5-------5-3-5-3-5-3-5-------5-3-5-3-5-3-5-
A-------------4-5-----------------4-5-----------------
E-----------------------------------------------------

G-----3-----------7-7/9/12-10-------
D-------5-5/7-7/9-------------12-10-
A-4-5-------------------------------
E-----------------------------------
Вверх

Catholic School Girls Rule

Riff 1

e-|---------------------------------------------------------------|
B-|----------x-x-x----------x-x-x--------------------------x-x-x--|
G-|----------x-x-x----------x-x-x--------------------------x-x-x--|
D-|----------x-x-x----------x-x-x--------------------------x-x-x--|
A-|----------x-x-x----------x-x-x----------3---------------x-x-x--|
E-|--3--5-5---------3--5-5---------3--5-5-----5-5--3--5-5---------|

e-|---------------------------------------------------------------|
B-|----------x-x-x----------x-x-x--------------------------x-x-x--|
G-|----------x-x-x----------x-x-x--------------------------x-x-x--|
D-|----------x-x-x----------x-x-x--------------------------x-x-x--|
A-|----------x-x-x----------x-x-x----------5---------------x-x-x--|
E-|--3--5-5---------3--5-5---------3--5-5-----5-5--3--5-5---------|


just mute the strings.

Riff 2

e-|----------------|-------------------|
B-|----------------|-------------------|
G-|-----2---5-4----|------2-----5-4----|
D-|-----2---5-4----|------2-----5-4----|
A-|-----0---3-2----|------0-----3-2----|
E-|----------------|-------------------|

Riff 3

e-|---------------------------|---------------------------|
B-|---------------------------|---------------------------|
G-|---------------------------|---------------------------|
D-|--3--4--5--5-5--x--5--5-5--|--3--4--5--5-5--x--5--5-5--|
A-|--3--4--5--5-5--x--5--5-5--|--3--4--5--5-5--x--5--5-5--|
E-|--1--2--3--3-3--x--3--3-3--|--1--2--3--3-3--x--3--3-3--|

e-|---------------------------|---------------------------|
B-|---------------------------|---------------------------|
G-|---------------------------|---------------------------|
D-|--5--6--7--7-7--x--7--7-7--|--5--6--7--7-7--x--7--7-7--|
A-|--5--6--7--7-7--x--7--7-7--|--5--6--7--7-7--x--7--7-7--|
E-|--3--4--5--5-5--x--5--5-5--|--3--4--5--5-5--x--5--5-5--|

Riff 4

Gtr. 1
e-|----------------------------|-----------------------------------|
B-|----------------------------|-----------------------------------|
G-|----------------------------|-----------------------------------|
D-|--3--0-0-0-0----5--0-0-0-0--|--3--0--0-0--5--0--0-0--7--0--0-0--|
A-|----------------------------|-----------------------------------|
E-|----------------------------|-----------------------------------|

e-|----------------------------|-----------------------------------|
B-|----------------------------|-----------------------------------|
G-|----------------------------|-----------------------------------|
D-|--3--0-0-0-0----5--0-0-0-0--|--3--0--0-0--5--0--0-0--7--0--0-0--|
A-|----------------------------|-----------------------------------|
E-|----------------------------|-----------------------------------|

Gtr. 2
e-|-----------------|--------------------|
B-|-----------------|--------------------|
G-|--3-----5-----5--|--3------5------12--|
D-|--3-----5-----5--|--3------5------12--|
A-|-----------------|--------------------|
E-|-----------------|--------------------|


Riff 5

e-|--------------------------------------|
B-|--------------------------------------|
G-|--9--9----9--9----9-9--9-9--9-9--9-9--|
D-|--9--9----9--9----9-9--9-9--9-9--9-9--|
A-|--7--7----7--7----7-7--7-7--7-7--7-7--|
E-|--------------------------------------|

Riff 6

e-|--------------|
B-|--------------|
G-|--------------|
D-|--------------|
A-|--------------|
E-|----3--5-5----|

Riff Order:

Riff 1 2x
Riff 2 2x
Riff 1 2x
Riff 2 2x
Riff 3 1x
Riff 4 1x
Riff 5 1x
Riff 1 2x
Riff 2 2x
Riff 6 1x
Вверх

Catholic School Girls Rule (2 вариант)

e-------------------------------------------------------
b----------------------5-5-5-------------------------7--
g-------4-4------------5-5-5-----------------------5-7-5
d-------4-4------------5-5-5-----------------------5-7-5
a-------4-4--------------5-5--------3----------------7--
e-5-5-0-4-4-x-3--5-5-0-------3--5-5---5-5-3--5-5-0------

e-----------------------------------------------
b-----------------------------------------12-7-7
g-----------5---------------4--4-------------7-7
D-----------5-5-5-----------4--4-------------7-7
A-------------5-5-----------4--4----------------
E-(3)-5-5-0-------3---5-5-0-4--4-x-5-5-0--------
Вверх

City Of Angels

     E     B     C#m   G#m    A
e|---7-----7------4-----4-----5----------------------------|
B|---9-----7------5-----4-----5----------------------------|
G|---9-----8------6-----4-----6----------------------------|
D|---9-----9------6-----6-----7----------------------------|
A|---7-----9------4-----6-----7----------------------------|
E|---x-----7------x-----4-----5----------------------------|

The chord progression is like this:

     E     B    C#m     G#m    A


     E     B    C#m      A     E
Вверх

City Of Angels (2 вариант)

Intro

E----------------------------------------------------------------------------|
B-----------1-------------------------------1H3P1----------------------------|
G-------0------0----------------------1----------------------0---------------|
D-----2---2-----------------------2------2---2-0--------2------2----------24-|
A---3---------------2-0---------2---2-------------3-2-3---3---------------35-|
E------------------------3-2-0-----------------------------------------------|

E----------------------------------------------------------------------------------------|
B--------------------------------1-------------------------------------------------1H3P1-|
G----------1-----------------0-----0-----------------------1-------------------0---------|
D-----2------2---2-0-------2---2----------------------2------2---2-0-------2-----2-------|
A---2---2------------3-2-3---------------2-0--------2---2------------3-2-3---3-----------|
E-0-------------------------------------------3-2-0--------------------------------------|

E------------------------------|
B------------------------------|
G-------------------1-----1----|
D---24---------2------2----2---|
A---35-------2---2-----------2-|
E-----------0------------------|

After that it goes into the verse and the chords are:

E---7----7----4----4----------
B---9----7----5----4----------
G---9----8----6----5----------
D---9----9----6----6----------
A---7----9----4----6----------
E---7----7----4----4----------
Вверх

Coffee Shop

Theme :

1st guitar :
E-|---------------------------------------------------------------------|
B-|---------------------------------------------------------------------|
G-|---------------------------------------------------------------------|
D-|-2--x--x--x--x--2--x--x--x--x--2--2--2--x--x--x--x--2--x--x--x--2--2-|
A-|-2--x--x--x--x--2--x--x--x--x--2--2--2--x--x--x--x--2--x--x--x--2--2-|
E-|-0--x--x--x--x--0--x--x--x--x--0--0--0--x--x--x--x--0--x--x--x--0--0-|


2nd guitar :
E-|----------------------------------------------------------xxxx//12-12|
B-|----------------------------------------------------------xxxx//12-12|
G-|-------------------------------4--3~~~~~~~~~~~~~~~~~~~~~~~xxxx//12-12|
D-|---------------------------------------------------------------------|
A-|---------------------------------------------------------------------|
E-|---------------------------------------------------------------------|

I am just a lousy bum
Searching for the unknow crumb, the crumb, the crumb
Something of someone to come
Come along illumate my lust, combust
Confucing might have been confused
And buddha might have blown a face, booze the muse


Chorus :
E-|---------------------------------------------------------------------------|
B-|---------------------------------------------------------------------------|
G-|---------------------------------------------------------------------------|
D-|---------------------------------------------------------------------------|
A-|-7----7----5-----5-----2----------2-------------2----------2---------------|
E-|-5----5----3-----3-----0----------0-------------0----------0---------------|
    Meet me   at    the       Coffee shop

    Where we  can dance like Iggy Pop

E-|---------------------------------------------------------------------------|
B-|---------------------------------------------------------------------------|
G-|---------------------------------------------------------------------------|
D-|---------------------------------------------------------------------------|
A-|-7--7--7-7-5----5---4----------------------------5----4-------4--4---------|
E-|-5--5--5-5-3----3---2----------------------------3----2-------2--2---------|
      Another go   in  the    porking  lot
Frewak the


E-|--------------------------------------|
B-|--------------------------------------|
G-|--------------------------------------|
D-|-5------5---------9----10---12----14-|
A-|-3------3---7-------------------------|
E-|------------5-----7----8----10----12-|
    cheek  on  your  hotspo-ot
Вверх

Coffee Shop (2 вариант)

Bass figure 1:
G-|----------------------------|-----------------2---------|
D-|------2--2-------2--2---2---|------2--2-------------5---|
A-|----------------------------|---------------------------|
E-|-0--x-------0--x------0---0-|-0--x-------0--x---x-3---3-|
    T  T P  P  T  T P  P T P T   T  T P  P  T  T P T T P T

Chorus:
G-|-----------------------|---------------------------|
D-|-----------------------|-----2---------------------|
A-|-----------------------|-----------0h2p0---0h2p0---|
E-|-5---5--x-x-3--3--x--0-|--0--------------3-------3-|
    T   T  T T T  T  T  T    T  P     T     T T     T

G-|-----------------------|-------------------------|
D-|-----------------------|----2--------------------|
A-|------------3--3-------|---------0h2p0---0h2p0---|
E-|-5---5--x-x-------x--0-|--0------------3-------3-|
    T   T  T T T  T  T  T    T T    T     T T     T

G-|-----------------------|-----------------------|---------------------|
D-|-----------------------|----------4------------|---------------------|
A-|-----------------------|-----------------------|-----------3--3------|
E-|-5---5--x-x-3--3--0--2-|--2--2--2---3--3--0--2-|--2--2-x-x--------5--|
    T   T  T T T  T  T  T    T  T  T P T  T  T  T    T  T T T T  T   T


G-|-----------------------|
D-|-----------------------|
A-|-----------------------|
E-|--5--5--5--5--5--5--5--|
     T  T  T  T  T  T  T

Interlude: (With Auto-wah)
G-|-------------------------------|-------------------------------------|
D-|----14-14--------x-------------|-------------12p11h12p11h12p11h12p11-|
A-|----------12h14-x--------------|--------10---------------------------|
E-|-0-x---------------x-10h12-x-x-|-10h12-x---x-------------------------|
    T TP  P  T     TP T T     T T   T     TP  T P

G-|------------------------12h14------|-14---12--12p11--------|
D-|-----14-14--------x-----------12-x-|----------------12--12-|
A-|-----------12h14-x-----------------|-----------------------|
E-|-0-x----------------x-x------------|-----------------------|
    T T P  P  T     TP T T P     T  T   P    P   P     T   T

G-|--------------------------------------------------|
D-|-12h14P12h14-11h12p11h12--------------------------|
A-|-------------------------10h12p10h12--------------|
E-|--------------------------------------10h12p10h12-|
    T           T           T            T

G-|-----------------------------|-----------------------------------|
D-|-----x-x---------x-----------|----------------12--x-------12-----|
A-|---------------x---x-x-------|-------x-10h12-x---x--x-x-10-------|
E-|-0-x-----10h12---------10h12-|-10h12-------------------------x-x-|
    T T P P T     T P T T T       T     T T     TP  TP T T T P  T T

G-|------------------------------|
D-|-------x-x---x----------x-----|
A-|-----------x---x-12h14----x-x-|
E-|-10h12------------------------|
    T     P P T P T T      P T T

G-|---9--7--6----x-------|------------------|---9--7--6---x--------|
D-|----------------------|----5--7----9/17-|----------------------|
A-|-7----------x---x-x-5-|-7--------x-------|-7---------x---x-x-4--|
E-|----------------------|------------------|----------------------|
    T P  P  P  T P T T T   T  P  P  T P       T P  P  P T P T T T

G-|--------7----6---------|---9--7--6----X-------|----------12/14----14-|
D-|-----6-----------7P5P0-|----------------------|----------11/12----12-|
A-|--5--------X---X-------|-7----------X---X-X---|-X-X------------------|
E-|-----------------------|--------------------3-|-----0-----------0----|
     T  T  P  T P T T       T P  P  P  T P T T T   T T T    P      T P

G-|---9--7--6---X-------|-------------------|
D-|---------------------|-------------------|
A-|-7---------X---X-X---|-/11---10---9---8--|
E-|-------------------3-|-------------------|
    T P  P  P T P T T T    T    T    T   T

G-|-------------------------|-------------------------|
D-|-------------------------|-------------------------|
A-|-------------------------|-------------------------|
E-|-0--0--0--0--0--0-0-0--0-|-0--0--0--0--0--0-0-0--0-|
    T  T  T  T  T  T T T  T   T  T  T  T  T  T T T  T
Reapet two times

Bass solo:
G-|-----------------------------|-------------------------|
D-|----------5------------------|----------5--------5-7-5-|
A-|-----5h7-7---7--7-5h7-5h7--5-|-----5h7-7---7--7-7------|
E-|-0--0------------------------|-0--0--------------------|

G-|---------------------7--7h9-7--|-7h9--7-7-9-9-9-/12--12-12--12-12----|
D-|-7/9-7-5-7-5-----7/9--9------9-|-------9--------------------------12-|
A-|-------------7-5---------------|-------------------------------------|
E-|-------------------------------|-------------------------------------|

               B(1/2) B  B   B
G-|------12---14--14-14--14--14-----12--12-|
D-|-12h14--14-------------------------14---|
A-|----------------------------------------|
E-|----------------------------------------|

    B   B   B   B   B
G-|-14--14--14--14--14-12---------------|--------------------------12----|
D-|----------------------14-12-14-14-14-|-12h14-14-14-12--------------14-|
A-|-------------------------------------|---------------14-15-15-15------|
E-|-------------------------------------|--------------------------------|

G-|-------------12----------------------------|
D-|------14-------16-14--------------------12-|
A-|-14h15--14h15-------12-15-15-12-14-14-14---|
E-|-------------------------------------------|

G-|------------------------12-----------|
D-|------------12--12-13-14--14-12-14---|
A-|-14-12-13-14--14---------------------|
E-|-------------------------------------|

G-|------------------------12-----------|
D-|------------12--12-13-14--14-12-14---|
A-|-14-12-13-14--14---------------------|
E-|-------------------------------------|

G-|---------------------12h14-14-14--14-14-|
D-|---------12--12-13-14-------------------|
A-|-12-13-14--14---------------------------|
E-|----------------------------------------|

G-|-/19--19--18-18-16--16--------------------|
D-|-----------------------17--17-16-16-14-14-|
A-|------------------------------------------|
E-|------------------------------------------|

G-|----------------------------|-----------------2---------|
D-|------2--2-------2--2---2---|------2--2-------------5---|
A-|----------------------------|---------------------------|
E-|-0--0-------0--0------0---0-|-0--0-------0--0---0-3---3-|
    T  T P  P  T  T P  P T P T   T  T P  P  T  T P T T P T

G-|----------------------------|-----------------2---------|
D-|------2--2-------2--2---2---|------2--2-------------5---|
A-|----------------------------|---------------------------|
E-|-0--0-------0--0------0---0-|-0--0-------0--0---0-3---3-|
    T  T P  P  T  T P  P T P T   T  T P  P  T  T P T T P T

G-|-----|
D-|-----|
A-|-----|
E-|-0---|
    T
Вверх

Crosstown Traffic

Intro
G|--------------------------------------------------------|
D|-6h8-6h8-6h8-6h8-6h8--6h8-6h8-6h8-6h8-6h8---------------|
A|--------------------------------------------------------|
E|--------------------------------------------------------|

Chorus
G|------------------------------5-------------------------|
D|------------5------3-3--3-5h7---7-5---------------------|
A|-3-3--3-5h7---7-5---------------------------------------|
E|--------------------------------------------------------|

Last time on chorus
G|------------------------------5-------------------------|
D|------------5------3-3--3-5h7---7-5---------------------|
A|-3-3--3-5h7---7-5---------------------------------------|
E|--------------------------------------------------------|

G|--------------------------------------------------------|
D|-6h8-6h8-6h8-6h8-6h8--6h8-6h8-6h8-6h8-6h8---------------|
A|--------------------------------------------------------|
E|--------------------------------------------------------|

Verse
G|--------------------------------------------------------|
D|------3-3-------3-3--------------------1-1-1-1-1-1-1-1--|
A|-3-3-------3-3-------1-1-1-1-1-1-1-1-1------------------|
E|--------------------------------------------------------|

G|--------------------------------------------------------|
D|--------------------------------------------------------|
A|--------------------------------------------------------|
E|-4-4-4-4-4-4-4-4-33-33-33-33-33-3-----------------------|

Solo
G|-----------------------------------------6--------------|
D|-3h5-555-55--3h5-555-55--3h5-555-55--6-8---8-6----------|
A|-----------------------------------------------8-6------|
E|--------------------------------------------------------|

G|--------------------------------------------------------|
D|-3h5-555-55--3h5-555-55--3h5-3--------------------------|
A|-------------------------------5-3----------------------|
E|-----------------------------------5-3-1-0--------------|

Last chorus (do this bit a few times)
G|------------------------------5-------------------------|
D|------------5------3-3--3-5h7---7-5---------------------|
A|-3-3--3-5h7---7-5---------------------------------------|
E|--------------------------------------------------------|

G|--------------------------------------------------------|
D|-6h8-6h8-6h8-6h8-6h8--6h8-6h8-6h8-6h8-6h8---------------|
A|--------------------------------------------------------|
E|--------------------------------------------------------|

G|------------------------------5-------------------------|
D|------------5------3-3--3-5h7---7-5---------------------|
A|-3-3--3-5h7---7-5---------------------------------------|
E|--------------------------------------------------------|

G|--------------------------------------------------------|
D|-6h8-6h8-6h8-6h8-6h8------------------------------------|
A|--------------------------------------------------------|
E|--------------------------------------------------------|

Outro
G|------------------------------5-------------------------|
D|------------5------3-3--3-5h7---7-5---------------------|
A|-3-3--3-5h7---7-5---------------------------------------|
E|--------------------------------------------------------|

G|--------------------------------------------------------|
D|-6h8-6h8-6h8-6h8-6h8--6h8-6h8-6h8-6h8-6h8---------------|
A|--------------------------------------------3-----------|
E|--------------------------------------------------------|

G|-------------------3-4-5~-------------------------------|
D|-----2-2-3-3-4-4-5--------------------------------------|
A|-3-3----------------------------------------------------|
E|--------------------------------------------------------|
Вверх

Dani California

Am                    G
Getting born in the state of Mississippi,
Dm                              Am 
Her Poppa was a copper and her Momma was a hippy,
Am           G
In Alabama she will swing a hammer,
Dm                     Am  
Price you got to pay when you break the panorama,
Am          G                  Dm                 Am
She never knew that there was anything more than all,
Am               G           Dm               Am
     Well in the war your comfort to take me for,
 Am               G    
Black bandanna, sweet Louisiana,
 Dm                        Am 
Robbing on a bank in the state of Indiana,
 Am                 G
She's a runner, Rebel and a stunner,
 Dm                       Am
Come to Mirawais saying "Baby watcha gona?",
 Am          G                     Dm       Am      
    Looking down the barrell of a hot bell 45,
 Am              G          Dm
   Just another way to survive

Chorus:

     F        C       Dm  
California, Rest In Peace,
     F     C     Dm
Simultaneous release,
     F       C         Dm
California, show your teeth,
            F         C          Dm
She's my priestess, I'm your priest,
Dm 
Yeah, yeah

Verse 2:
          Am      G               
She's a lover, Baby and a fighter,
    Dm                         Am
Shoulda seen it coming when I got a little brighter,
Am                      G 
    With a name like "Dani California",
 Dm                    Am
Day was gona come when I was gona mourn ya,
Am             G  
    A little low,
                Dm              Am
That she was stealing another bread,
  Am
I love my baby to death


Chorus:

     F        C       Dm  
California, Rest In Peace,
     F     C     Dm
Simultaneous release,
     F       C         Dm
California, show your teeth,
            F         C          Dm
She's my priestess, I'm your priest,
Dm 
Yeah, yeah


Bridge:

 Bm             G     F#
Who knew the hardest side of you?
 Bm             G     F#
Who knew the hardest time to prove?
 Bm          G      F#
Too true to say goodbye to you
 Bm            
Too true to say, say, say

Verse 3:
 
   Am               G
Pushed the fader, Gifted animator,
 Dm                   Am 
One for the now, And eleven for the later,
  Am          G                                  
Never made it up to Minnesota,
 Dm                      Am 
Off the coated man, Was gona fill the quota,
 Am              G             Dm       Am
Down in the Badlands she was saving the best for last,
 Am
It only hurts when I laugh,
         G
Gone to fade


Chorus:


     F        C       Dm  
California, Rest In Peace,
     F     C     Dm
Simultaneous release,
     F       C         Dm
California, show your teeth,
            F         C          Dm
She's my priestess, I'm your priest,
Dm 
Yeah, yeah


     F        C       Dm  
California, Rest In Peace,
     F     C     Dm
Simultaneous release,
     F       C         Dm
California, show your teeth,
            F         C          Dm
She's my priestess, I'm your priest,
Dm 
Yeah, yeah

Вверх

Deep Kick

Intro: (Repeat 6 times)
G-|---------------------------|---------------------|--------------------|
D-|------------11----------12-|---------------------|--------11-------12-|
A-|--------10-----------------|--10---12---10-------|------10----10------|
E-|-0--12-----------10--12----|-----12--------10-12-|-0--12---------12---|


G-|----------------------------|
D-|----------------------------|
A-|--10----12--10--8h10p9------|
E-|-----12---------------10--9-|


Repeat 4 times
G-|--------------------------|----12---------------12-------|
D-|-14--14--12/14-14--14--14-|-14----14-14--14--14---14--14-|
A-|--------------------------|------------------------------|
E-|--------------------------|------------------------------|


Bass figure 1:
G-|-----------------------|----------------------|
D-|-----------------------|----------------------|
A-|-7--5--7--5-7--7--5--7-|---7--5-7--7--5-7---7-|
E-|--0-----0----0---------|-0-------0--------0---|


Variations:
G-|--------------------------|--------------------------|
D-|--------------------------|----------------------7---|
A-|---5--7--7-7/-10-9--7-5-7-|--5--7------10-9-7--9---7-|
E-|-0------0-----------------|-0-----0-0----------------|


Chorus:
G-|-------------------------------|----------------------------|
D-|-------------17----------------|----17---------17-----------|
A-|-15--15--15-----15--15--15--15-|-15----15--15------15--15--|
E-|-------------------------------|----------------------------|


G-|-------------------------------|------------------------------|
D-|-------------14----------------|----14-------------14---------|
A-|-12--12--12-----12--12--12--12-|-12----12--12--12-----12--12--|
E-|-------------------------------|------------------------------|


Interlude:
G-|-------------------------|--------------------|----------------------|
D-|----------------------12-|----------12-----12-|----------------14----|
A-|-10--10--10--10---10-----|-10---10------10----|-12--12--12--12----12-|
E-|-------------------------|--------------------|----------------------|


G-|---------------------------|
D-|-----------------14-14-----|
A-|-12--12--12--12--------12--|
E-|---------------------------|
Repeat 2 times


G-|---------------------------|-----------------------------|
D-|-----------------17--------|-----------------------------|
A-|-15--15--15--15-----15--15-|-15--15--15-15---15--15--15--|
E-|---------------------------|-----------------------------|


G-|-----------------------|--------------------------|
D-|-----------------------|--------------------------|
A-|-17--17--17-17--17--17-|-17--17--17-18--18--18-18-|
E-|-----------------------|--------------------------|


                  B(1/4)            B(1/4)
G-|------------------------------------|
D-|-19-17--19-17--17-------------------|
A-|------19-----19----19-17--19-17--17-|
E-|-----------------------19-----19----|
Repeat bar 3 times


G-|--------------------------------|-------------------------------|
D-|-19-17--19-17--19-17--17-19--19-|-17--19-17--19-17--19-17-------|
A-|------19-----19-----19-----19---|---19-----19-----19------19 --|
E-|--------------------------------|-------------------------------|


Outro: Repeat till end w/variations
G-|--------------------|-------------------|------------------|----------|
D-|--------------------|-------------------|------------------|----------|
A-|-0----0--0---0--0-2-|-4---4---4-4---0-2-|-5---5-5--5---4-5-|-7--7-----|
E-|--------------------|-------------------|------------------|----------|
Вверх

Dont Forget Me

Am            F
 I?m an ocean in your bedroom
C
 Make you feel warm
  G
 Make you want to re-assume
Am       F      C         G
 Now we know it all for sure

Am              F
 I?m a Dancehall dirty Breakbeat
C
 Make the snow fall
 G
 Up from underneath your feet
Am     F     C
 Not alone, I?ll be there
  G
 Tell me when you want to go

 I?m a Meth lab first Rehab
 Take it all off
 And step inside the running cab
 There?s a love that knows the way

 I?m the Rainbow in your jail cell
 All the memories of
 Everything you?ve ever smelled
 Not alone, I?ll be there
 Tell me when you want to go

CHORUS:
  Am        F
 Sideways falling
 C              G
 All will be revealed my friend
Am                F
 Don?t forget me I can?t hide it
C                G
 Come again get reignited


I?m an inbred and a pothead
Two legs that you spread
Inside the tool shed
Now we know it all for sure

I could show you
To the free field
Overcome and more
Will always be revealed
Not alone, I?ll be there
Tell me when you want to go

CHORUS:

Sideways falling
All will be revealed my friend
Don?t forget me I can?t hide it
Come again get reignited


I?m the bloodstain
On your shirt sleeve
Coming down and more are coming to believe
Now we know it all for sure

Make the hair stand
Up on your arm
Teach you how to dance
Inside the funny farm
Not alone, I?ll be there
Tell me when you want to go

соло в куплете:
   T   T   T   T   T     T     T     T     T
1|-7-5-7-5-7-5-7-5-8-5h0-8-5h0-8-5h0-8-5h0-8-5h0
2|5-5-5-5-5-5-5--5--5

   T   T   T   T   T     T     T     T     T
1|-7-5-7-5-7-5-7-5-8-5h0-8-5h0-8-5h0-8-5h0-8-5h0
2|

соло:
1|
2|8-6-  8-6   8-6-  8-6
3|    7     7     7     7
Вверх

Dont Forget Me (2 вариант)

Bass Verse
G--9-X-X-X-X-5-X-X-X-X-12-X-X-X-X-7-X-X-|-|-REPEAT-----------------
D--7-X-X-X-X-3-X-X-X-X-10-X-X-X-X-5-X-X-|-|-THROUGHOUT-------------
A----X-X-X-X---X-X-X-X----X-X-X-X---X-X-|-|------------------------
E---------------------------------------|-|------------------------

Guitar Verse (W/DELAY)
(open e -stacatto phrasing=pick notes with great intensity)
E-0-0-0-0-0-0-0-0-0-0-0-0-0-0-0-0-0-0-0-0-0-0-0-0-0-0-0-0-0-0-0-0---
B-------------------------------------------------------------------
G-------------------------------------------------------------------
D-------------------------------------------------------------------
A-------------------------------------------------------------------
E-------------------------------------------------------------------

     T   T   T   T   T   T   T   T   T   T   T   T   T   T   T   T
E-5--7-5-7-5-7-5-7-5-7-5-7-5-7-5-7-5-7-5-7-5-7-5-7-5-7-5-7-5-7-5-7--
B-------------------------------------------------------------------
G-------------------------------------------------------------------
D-------------------------------------------------------------------
A-------------------------------------------------------------------
E-------------------------------------------------------------------
     T     T     T     T     T     T     T     T     T     T     T
E-5--8-5p0-8-5p0-8-5p0-8-5p0-8-5p0-8-5p0-8-5p0-8-5p0-8-5p0-8-5p0-8-5
B-------------------------------------------------------------------
G-------------------------------------------------------------------
D-------------------------------------------------------------------
A-------------------------------------------------------------------
E-------------------------------------------------------------------

Guitar Chorus
E---------------------------------------|-R---|--15-15-15-15-15-15-15-
B---------------------------------------|-E---|--15-15-15-15-15-15-15-
G---------------------------------------|-P-X2|--17*17*17*17*17*17*17*
D--A5----------F5--------C5--------G5---|-E---|-----------------------
A---------------------------------------|-A---|-----------------------
E---------------------------------------|-T---|-----------------------

Bass Chorus  (DISTORTION)
G--14----14--------------17----17--12---14--14-
D--14--14------15----15--17--17----12-14--14---
A--12----------15--15----15--------10----------
E--------------13------------------------------

G--14----14--------------------------------12------------------
D--14--14------15----15-----14-12-----12/14--14-12-14-12-------
A--12----------15--15----15------15-12------------------15-12--
E--------------13----------------------------------------------

Guitar interlude (Bass play Verse)
e---------------------------------------------------------------
B-17-17-17-17---------------------------------------------------
G-------------12-12-12-12--14-14-14-14--14-14-14-14--14-14-14-14
D---------------------------------------------------------------
A---------------------------------------------------------------
E---------------------------------------------------------------

E--------------------------15-h-17------------------------------
B-------------17-17-17-17---------------------------------------
G-14-14-14-14---------------------------------------------------
D---------------------------------------------------------------
A---------------------------------------------------------------
E---------------------------------------------------------------

e---------------------------------------------------------------
B-17-17-17-17---------------------------------------------------
G-------------12-12-12-12--14-14-14-14--14-14-14-14--14-14-14-14
D---------------------------------------------------------------
A---------------------------------------------------------------
E---------------------------------------------------------------

e-----------------------------------
B-----------------------------------
G-14*(14)-*14--14-12----14---12-----
D--------------------14---------14--
A-----------------------------------
E-----------------------------------

Solo (Bass Play Chorus)
E-----------------------------------------------------------
B-----------------------------------------------------------
G--14-12-----14-12-------14-12----14---12-------------------
D--------14--------14-14-------14----------14---------------
A-----------------------------------------------------------
E-----------------------------------------------------------
Вверх

Dosed

C     D   Bm       Em
I--- got dosed by you and
C   D        Bm      Em
closer than most to you and
 C     Dб      Bmб      Em
what am I supposed to do and
C		    G            Em
Take it away, I never had it anyway.
C		     G		   Em
Take it away and ev'rything will be okay.

In you a star is born and
You cut a perfect form and
Someone forever warm and
Lay on, lay on, lay on, lay on.
Lay on, lay on, lay on, lay on.

CRS:
G		 D		        Em   C
Way upon the mountain where she di - ed,
G	     D               Em   C
all I ever wanted was your li - fe.
G	          D              Em   C
Deep inside the canyon I can't hi---de,
G          D               Em   C
all I ever wanted was your li - fe.


Show love with no remorse and,
climb onto your seahorse and,
this ride is right on course and
this is the way I wanted it to be with you
this is the way I knew it would be with you
Вверх

Dosed (2 вариант)

Intro
----------------------------------------------------------|
-------8--------------8--------------8------------8-10----|
---9-9---9-9------9-9---9-9------9-9---9-9----9-9------9--|
----------------------------------------------------------|
----------------------------------------------------------|
----------------------------------------------------------|

John plays something at the end of each line but i'm not sure what.
Heres what he plays before the end of the verse

----12-11-9-7-9---------12-11-9-7---|
----------------------------------9-|
------------------------------------|
------------------------------------|
------------------------------------|
------------------------------------|

Chorus
This is the chord pattern I use but you can make up your own
----------------------------------------------------------------------
------------7-7-7-7-8-8-8-8----------------------------7-7-7-7-8-8-8-8
----4-4-4-4-7-7-7-7-9-9-9-9-9--9--12-11-9-7----4-4-4-4-7-7-7-7-9-9-9-9
----5-5-5-5-7-7-7-7-9-9-9-9-10-10--------------5-5-5-5-7-7-7-7-9-9-9-9
----5-5-5-5-5-5-5-5-7-7-7-7-10-10--------------5-5-5-5-5-5-5-5-7-7-7-7
----3-3-3-3-----------------8--8---------------3-3-3-3----------------

-------7---|       the second time you play the chorus dont play the
-8-8-8---8-|       5,6 at the end just play this chord about X8
-9-9-9-----|  X2               |-12-|
-9-9-9-----|                   |-12-|
-7-7-7-----|       Im not too  |-14-|
-----------|       sure if this|-14-|
                   is the right|-12-|
                   chord but it|-12-|
                   sounds alright

solo

------------------------------------------------------------------
------------------------------------------------------------------
----11-9-11-9-11-9-11-9-11-9-------------11-9-11-9-11-9-11-9-11-9-
-----------------------------11-11-11-11--------------------------
------------------------------------------------------------------
------------------------------------------------------------------

-------------------------------------------------------------------
-------------------------------------------------------------------
--------------------------------------8-9-8-9-8-9------11-9-11-9---
-11-11-11-11--9-9-9-9-9-8-8-8-8---------------------9-9------------
-----------------------/--------9-9-9------------------------------
----------------------/--------------------------------------------
 I'm not sure if this/part is right but it sounds alright
------------------------------------------------------------------
------------------------------------------------------------------
-11-9-11-9-11-9--------------11-9-11-9-11-9-11-9-11-9-------------
----------------11-11-11-11---------------------------11-11-11-11-
------------------------------------------------------------------
------------------------------------------------------------------

-------------------------------------------------|
-12-12-12-12-12-10-10-10-10-10-9-9-9-9-9---------|
-----------------------------------------9^-9-12-|
-------------------------------------------------|
-------------------------------------------------|
-------------------------------------------------|
Вверх

Dosed (3 вариант)

Intro (picked part, before/including when bass comes in)
E-12-------12-------12-------12-------|-10-------10-----7-----7-------|-
B-------12-------12-------12-------12-|-------10------8-----8------12-|-
G----12-------12-------12-------12----|----11-------9------9----12----|-
D-------------------------------------|-------------------------------|-
A-------------------------------------|-------------------------------|-
E-------------------------------------|-------------------------------|-

Repeat twice, or til whenever... this is where my chords start

Verse-

C        D        Em

I--- got dosed by you
Closer than most to you
What am I supposed to do
Take it away I never had it anyway
Take it away everything will be okay

C        D       Em

In you a star is born
You cut a perfect form
Someone forever warm
Lay on lay on lay on lay on
Lay on lay on lay on lay on

Chorus 1-

G             D                  Em C

Way up on the mountain where she died
All I ever wanted was your life
Deep inside the canyon I can't hide
All I ever wanted was your life


Verse-

C              D    Em

Show love with no remorse
Climb onto your seahorse
This ride is right on course
This is the way I wanted it to be with you
This is the way I knew that it would be with you
Lay on lay on lay on lay on
Lay on lay on lay on lay on

Chorus 2-

G             D                  Em C

Way up on the mountain where she died
All I ever wanted was your life
Deep inside the canyon I can't hide
G          D               Em/G (i think) ------ C2
All I ever wanted was your life

Verse- (it sounds good doing the picked part [from the beginning] here during this verse)

I--- got dosed by you
Closer than most to you
What am I supposed to do
(resume chords if you want, this is when the drums start again and we get
background vocals, Flea resumes the normal bass line)
G              D            Em
Take it away I never had it anyways
Take it away and everything will be okay

Chorus-

G             D                  Em C

Way up on the mountain where she died
All I ever wanted was your life
Deep inside the canyon I can't hide
G          D               Em/G (i think) ------ C2
All I ever wanted was your life

Solo - either verse chords or picked part will work here

Last 4 chords of song-
C Em/G Am G


Chords:
C-x32010
D-x00232
Em-022000
G-320003
Em/G-322000
Am-002210
Вверх

Easily

Intro:

G|--------------------5----------------------------------------------|
D|-----------5------7---0-3-5-7-------5-7p5--------------------------|
A|---------7---5------------------5p7-------7------------------------|
E|---5---------------------------------------------------------------|

Main Verse:

X3

G|--------------------------5-----------------------------------------|
D|--------------5---------7---0-3-3-3h3-5-7-7-7-----5-7-5-------------|
A|------------7---5-5-5h5-----------------------5h7-------------------|
E|---5-5-5h5----------------------------------------------------------|

G|--------------------------5-----------------------------------------|
D|--------------5---------7---0-3-3-3h3-5-7-7-7-7-7-7-7-7-7-----------|
A|------------7---5-5-5h5---------------------------------------------|
E|---5-5-5h5----------------------------------------------------------|

Chorus:

X2

G|-----9---------------------------------------------------------------|
D|-------10-------10---------5--------3--------------------------------|
A|----------10-10----10----5--------3----------------------------------|
E|---8-------------------3-----3--1-----1------------------------------|

G|-----9---------------------------------------------------------------|
D|-------10-------10-------5------3------------------------------------|
A|----------10-10----10------5------3---3------------------------------|
E|---8-------------------3-----3------1--------------------------------|

G|-------------4------------------------4-5-4--------------------------|
D|-------7---5---5----------3-----------------5----------3-------------|
A|-----7-----------5------3---3----7-7----------5------3---------------|
E|---5---------------3--1--------5----------------3--1-----1-----------|

Play this bit on the 1st solo

G|-------------------------5-------------------------------------------|
D|-------------5---------7---0-3-3-3h3-5-7-7-7-/14-14------------------|
A|-----------7---5-5-5h5-----------------------------------------------|
E|---5-5-5h5-----------------------------------------------------------|

That's pretty much the whole structure of the song.
It also wouldn't hurt to put some of your own variations in:

G|-------------------------5-------------------------------------------|
D|-------------5---------7---0-3-3-3h3-5-7-/8-9-10-11-10-9-8-----------|
A|-----------7---5-5-5h5-----------------------------------------------|
E|---5-5-5h5-----------------------------------------------------------|

G|-------------------------5-----------------------7-9p7---------------|
D|-------------5---------7---0-3-3-3h3-5-7-7-7-7p9-------9-------------|
A|-----------7---5-5-5h5-----------------------------------------------|
E|---5-5-5h5-----------------------------------------------------------|

G|-------------------------5---------------/15p13----15p13----15p13----|
D|-------------5---------7---0-3-3-3h3-5-7-------14-------14--------14|
A|-----------7---5-5-5h5-----------------------------------------------|
E|---5-5-5h5-----------------------------------------------------------|
Вверх

Easily (2 вариант)

интро

   A D F C A
   ----------------------------------------------------------|
   ----------------------------------------------------------|
   --------7-----------------------5-------------------------|
   |-------7-----------7----------3------------5---7---------------------|
   |-------7-----------5----------3------------3---7---------------------|
   |-------5----------------------1----------------5---------------------|
   A D
   --------------------------------------------------|
   --------------------------------------------------|
   --------------------------------------------------|
   --------------7-7-7-7-7-7-7-7-7-------------------|
   |---7--7--7--7--7-7-7-7---7-7-7-7-7-7-7-7-7-------------------|
   |---7--7--7--7--7-7-7-7---5-5-5-5-5-5-5-5-5-------------------|
   |---5--5--5--5--5-5-5-5---------------------------------------|

   F C A
   ----------------|
   ----------------|
   -5--------------|
   |--3--3--3-3-5-7--7--7-7-7--|
   |--3--3--3-3-3-7--7--7-7-7--|
   |--1--1--1-1---5--5--5-5-5--|

chorus: C G F

   ------------------------------------|
   |------1-----------3--------1-------------------|
   |------0-----------4--------2-------------------|
   |------2-----------5--------3-------------------|
   |------3----------------------------------------|
   ------------------------------------|

C G F
The story of a woman on the morning of a war C G F
remind me if you will exactly what we?re fighting for

   A G F
   ------------------------------------|
   |------5-----------3--------1-------------------|
   |------6-----------4--------2-------------------|
   |------7-----------5--------3-------------------|
   ------------------------------------|
   ------------------------------------|


A G F
calling calling for something in the air calling calling i know you must be there

solo 1:

|-----17---17-15-17-19/17--13----17-13----------|

   |-----13--13-12-13-15-13--17--17-12-13----------|

solo 2:

   |-----15--13-12-13-12-------12------------------|
   ----------13-12----13---------------|
   ------------------------------------|
   ------------------------------------|
   ------------------------------------|
   ------------------------------------|
   |-----17--15-12-15-12----15--12-----------------|
   ----------15------------------------|
   ------------------------------------|
   ------------------------------------|
   ------------------------------------|
   ------------------------------------|



Easily let?s get carried away
Easily let?s get married today
Shao Lin shouted a rose
From his throat
Everything must go
A lickin? stick is thicker
When you break it to show
Everything must go

The story of a woman on the morning of a war
Remind me if you will exactly what we?re fighting for

Calling calling for something in the air
Calling calling I know you must be there

Easily let?s get caught in a wave
Easily we won?t get caught in a cage
Shao Lin shakin? for the sake
Of his soul — Everything must go
Lookin? mighty tired of
All the things that you own
Everything must go

I can?t tell you who to idolize
You think it?s almost over
But it?s only on the rise
Calling calling
For something in the air
Calling calling I know you must be there

The story of a woman on the morning of a war
Remind me if you will exactly what we?re fighting for

Throw me to the wolves because
Because there?s order in the pack
Throw me to the sky
Because I know I?m coming back

Shao Lin shakin? for the sake
Of his soul — Everything must go
Lookin? mighty tired of
All the things that you own
Everything must go

The story of a woman on the morning of a war
Remind me if you will exactly what we?re fighting for

Calling calling for something in the air
Calling calling I know you must be there

I don?t want to be your little research monkey boy
The creature that I am is only going to destroy

Throw me to the wolves
Because there?s order in the pack
Throw me to the sky
Because I know I?m coming back
Вверх

Easily (3 вариант)

 Main Riff
  Am          F            Dm     Am
e|5-5-55-55-5---5-5-555-55-5-5-55-5-5-5-555-55-|
B|5-5-55-55-5^6-6-6-666-66-6-6-66-5-5-5-555-55-|
G|5-5-55-55-5---5-5-555-55-7-7-77-5-5-5-555-55-|
D|7-7-77-77-7---7-7-777-77-7-7-77-7-7-7-777-77-|
A----------------------------------|
E----------------------------------|

Easily let?s get carried away
Easily let?s get married today
Shao Lin shouted a rose
From his throat
Everything must go
A lickin? stick is thicker
When you break it to show
Everything must go

The story of a woman on the morning of a war
Remind me if you will exactly what we?re fighting for

Calling calling for something in the air
Calling calling I know you must be there

Easily let?s get caught in a wave
Easily we won?t get caught in a cage
Shao Lin shakin? for the sake
Of his soul — Everything must go
Lookin? mighty tired of
All the things that you own
Everything must go

I can?t tell you who to idolize
You think it?s almost over
But it?s only on the rise
Calling calling
For something in the air
Calling calling I know you must be there

The story of a woman on the morning of a war
Remind me if you will exactly what we?re fighting for

Throw me to the wolves because
Because there?s order in the pack
Throw me to the sky
Because I know I?m coming back

Shao Lin shakin? for the sake
Of his soul — Everything must go
Lookin? mighty tired of
All the things that you own
Everything must go

The story of a woman on the morning of a war
Remind me if you will exactly what we?re fighting for

Calling calling for something in the air
Calling calling I know you must be there

I don?t want to be your little research monkey boy
The creature that I am is only going to destroy

Throw me to the wolves
Because there?s order in the pack
Throw me to the sky
Because I know I?m coming back
Вверх

Easily Live

Intro/Verse

     Asus2         A open     A17       Fmaj7          Asus2
e:-0-0-0-0-0--0-0-0-0-0-0-0-0-0-0-x-x-0-0-0-0-0-x-0-0-0-0-0-0-0-|
B:-0-0-0-0-0--0-0-0-0-0-0-0-0-0-0-x-x-1-1-1-1-1-x-0-0-0-0-0-0-0-|
G:-2-2-2-2-2b-2-2-2-2-2-2-2p0-0-0-x-x-2-2-2-2-2-x-2-2-2-2-2-2-2-|
D:-2-2-2-2-0--0-0-0-0-0-0-0-0-0-0-x-x-3-3-3-3-3-x-2-2-2-2-2-2-2-|
A:-0-0-0-0-0--0-0-0-0-0-0-0-0-0-0-x-x-3-3-3-3-3-x-0-0-0-0-0-0-0-|
E:-x-x-x-x-x--x-x-x-x-x-x-x-x-x-x-x-x-x-x-x-x-x-x-x-x-x-x-x-x-x-|


Chorus - If you observe the DVD you will clearly see that GOD (JOHN)
         differentiates between open and barrи chords during the chorus.

   OPEN CHORDS   |  BARRE CHORDS
   C    G  Fmaj7 | C    G    F
e:-0----3----0---|-3----3----1---|
B:-1----3----1---|-3----3----1---|
G:-0----0----2---|-5----4----2---|
D:-2----0----3---|-5----5----3---|
A:-3----2----3---|-3----5----3---|
E:-x----3----x---|-3----3----1---|

SOLO 1

e:----------------------------------------------------------|
B:-8-8-8p6-----8-8-8-8-8p6-----8p6-----8p6---8-8-8-12-10-12-|
G:---------7-7-------------7-7-----7-7-----7----------------|
D:----------------------------------------------------------|
A:----------------------------------------------------------|
E:----------------------------------------------------------|

e:-------------------------------------------|
B:-15-15h17-17-17-17-17----------------------|
G:----------------------12-14-14-14-14-14-14-|
Вверх

Emit Remmus

Riff 1 (allow as much feedback as possible, and bend with whammy bar)
e-----------------------|-----------------------|
b--11~~~~~~~~~~~~~~~~~~-|-9~~~~~~~~~~~~~~~~~~~~-|
g-----------------------|-----------------------|
d-----------------------|-----------------------|
a-----------------------|-----------------------|
e-----------------------|-----------------------|

Riff 2
e------------------------------------------------------------|
b------------------------------------------------------13--|
g--8--10-10-10--13-13------------8--10-10-10--13--13---13--|
d--8--10-10-10-/13-13--x-x--x-x--8--10-10-10-/13--13---13--|
a--6--8--8--8--/11-11--x-x--x-x--6--8--8--8--/11--11---------|
e------------------------------------------------------------|

e---------------------------------------------------------------------------|
b------------------------------------------------------13-13-13-13-13-13-13-|
g--8--10-10-10--13-13------------8--10-10-10--13--13---13-13-13-13-13-13-13-|
d--8--10-10-10-/13-13--x-x--x-x--8--10-10-10-/13--13---13-13-13-13-13-13-13-|
a--6--8--8--8--/11-11--x-x--x-x--6--8--8--8--/11--11------------------------|
e---------------------------------------------------------------------------|

Riff 1 (with variations)
e-------------10--------|-----------------------|
b--11~~~~~~~~----11~~~~-|-9~~~~~~~~~~~~~~~~~~~~-|
g-----------------------|-----------------------|
d-----------------------|-----------------------|
a-----------------------|-----------------------|
e-----------------------|-----------------------|

Riff 3
e-------------------------------------------------------------------|
b-------------------------------------------------------------------|
g-------------------------------------------------------------------|
d--1--1--1--1-1------------------------------------3-3-3--3--3-3----|
a--3--3--3--3-3-0--3--3--3--3-3-0--5--5--5--5-5-0--3-3-3--3--3-3-0--|
e--3--3--3--3-3-0--4--4--4--4-4-0--6--6--6--6-6-0--1-1-1--1--1-1-0--|

e--------------------------------------------------------------------------|
b-------------------------------------------------13-13-13-13-13-13-13-13--|
g-------------------------------------------------13-13-13-13-13-13-13-13--|
d--1--1--1--1-1-----------------------------------13-13-13-13-13-13-13-13--|
a--3--3--3--3-3-0--3--3--3--3-3-0--5--5--5--5-5-0--------------------------|
e--3--3--3--3-3-0--4--4--4--4-4-0--6--6--6--6-6-0--------------------------|
Вверх

Emit Remmus (2 вариант)

Guitar Intro/Verse
|---------|---------|---------|---------|
|---------|---------|---------|---------|
|--15~~~--|---~~~---|--13~~~--|---~~~---|
|---------|---------|---------|---------|
|---------|---------|---------|---------|
|---------|---------|---------|---------|

Guitar Chorus
|--6/8--8--8--11-11-11-(11)--|
|--8/10-10-10-13-13-13-(13)--|
|--8/10-10-10-13-13-13-(13)--|
|--8/10-10-10-13-13-13-(13)--|
|--6/8--8--8--11-11-11-(11)--|
|----------------------------|

Guitar Bridge
|--3--3-3--3-3-3--|--4--4-4--4-4-4--|
|--5--5-5--5-5-5--|--4--4-4--4-4-4--|
|--5--5-5--5-5-5--|--5--5-5--5-5-5--|
|--5--5-5--5-5-5--|--6--6-6--6-6-6--|
|--3--3-3--3-3-3--|--6--6-6--6-6-6--|
|-----------------|--4--4-4--4-4-4--|

|--6--6-6--6-6-6--|--/8--8--8--8--8--8--8--8---|
|--6--6-6--6-6-6--|--/10-10-10-10-10-10-10-10--|
|--7--7-7--7-7-7--|--/10-10-10-10-10-10-10-10--|
|--8--8-8--8-8-8--|--/10-10-10-10-10-10-10-10--|
|--8--8-8--8-8-8--|--/8--8--8--8--8--8--8--8---|
|--6--6-6--6-6-6--|----------------------------|
Вверх

Falling Into Grace

Verse
Here's the Bass tab, the guitar uses some strange studio effects that make
figuring it out really tough.

G-|----------------------------------|-------------------------------------|
D-|----------------------------------|-------------------------------------|
A-|----------------2---3--2----------|------------------2---3--------------|
E-|-0h2-2-2-2-5----------------------|-2-2---2-2-2-5-----------------------|

    What ever never knew that I              A smile in your eyes
    could feel so good

G-|----------------------------------|-------------------------------------|
D-|----------------------------------|-------------------------------------|
A-|----------------2---3--2----------|------------------2------------------|
E-|-0h2-2-2-2-5----------------------|-2-2---2-2-2-5--------2--------------|

    What ever never knew that I              I guess I never tried
    could walk through wood


Chorus
Bass
G-|----------------------------------|-------------------------------------|
D-|----------------------------------|-------------------------------------|
A-|----------------------------------|-------------------------------------|
E-|-8--------------7-----------------|-0-----------------------------------|

Guitar
                                   e-|---------3-3-3-3-----3-3-3-3---------|
                                   B-|---------3-3-3-3-----3-3 3-3---------|
                                   G-|-------------------------------------|
                                   D-|-------------------------------------|
                                   A-|-------------------------------------|
                                   E-|-------------------------------------|

    I'm falling into grace with you


The bass plays this little riff at the end of the chorus
G-|----------------------------------|-------------------------------------|
D-|----------------------------------|-------------------------------------|
A-|----------------------------------|-5----------4---------3--------------|
E-|-8--------------7-----------------|-------------------------------------|


Solo
e-|-2-------------------------3-2-3--|----------------6-------------3------|
B-|----------------------------------|-------------------------------------|
G-|----------------------------------|-------------------------------------|
D-|----------------------------------|-------------------------------------|
A-|----------------------------------|-------------------------------------|
E-|----------------------------------|-------------------------------------|


e-|-2h3p2p0h2------------------------|-------------------------------------|
B-|------------------5-4--------5----|-4----------------4------------------|
G-|----------------------------------|---5----------------------------5----|
D-|----------------------------------|-------------------------------------|
A-|----------------------------------|-------------------------------------|
E-|----------------------------------|-------------------------------------|


e-|----------------------------------|-------------------------------------|
B-|-4--------------------4---5---4---|-5/8-------7----------5---------4b5b-|
G-|---5p4p2h4--------5---------------|-------------------------------------|
D-|----------------------------------|-------------------------------------|
A-|----------------------------------|-------------------------------------|
E-|----------------------------------|-------------------------------------|


e-|---------------------------------|--------------------------------------|
B-|-4-------------------------------|--------------------------------------|
G-|---------------------------------|--------------------------------------|
D-|---------------------------------|--------------------------------------|
A-|---------------------------------|-7-------------6----------5----/15---|
E-|---------------------------------|--------------------------------------|
Вверх

Felas Cock

Fig.1
                                           End
E-|---------------------------------------|------------------------------------|
B-|---------------------------------------|------------------------------------|
G-|--*---------------------------------*--|------------------------------------|
D-|--*---------------------------------*--|------------------------------------|
A-|----10--10--10--10--10--10--10--10-----|--10--10--10--10--10--10--10--10----|
E-|---------------------------------------|------------------------------------|
       |P.M.-------------------------------------------------------------------|

Instead of playing the G on the 10th fret on the A-string, you could
play the G on 5th fret on the D-string if you think that sounds better.


Fig. 2

E-|--17-15--------------------------------------|--17-15----------------------------18-18---|
B-|--17-15-x-x-15-x-x-17-x-x-15-x-x--17---------|--17-15-x-x-15-x-x-17-x-x-15--x-x--18-18---|
G-|--15-15-x-x-15-x-x-17-x-x-15-x-x--17---------|--15-15-x-x-15-x-x-17-x-x-15--x-x----------|
D-|------------15-x-x-17-x-x-15-x-x--17--x------|--------x-x-15-x-x-17-x-x-15--x-x----------|
A-|--------------------------------------x------|-------------------------------------------|
E-|-----------------------------------------15--|-------------------------------------------|

E-|--17-15--------------------------------------|--17-15-------------------------------------|
B-|--17-15-x-x-15-x-x-17-x-x-15-x-x--17---------|--17-15-x-x-15-x-x-17-x-x-15--x-x-x-x-x-x---|
G-|--15-15-x-x-15-x-x-17-x-x-15-x-x--17---------|--15-15-x-x-15-x-x-17-x-x-15--x-x-x-x-x-x---|
D-|------------15-x-x-17-x-x-15-x-x--17--x------|--------x-x-15-x-x-17-x-x-15--x-x-x-x-x-x---|
A-|--------------------------------------x------|--------------------------------------------|
E-|-----------------------------------------15--|--------------------------------------------| x2


I don?t know if you should play the the notes on the A and D-string
in this part, but I think it sounds good both ways.

Fig. 3                                   End

       G9         F9        C9                    G9
E-|----10----|----8----|----3----|----15----|----10-----------|
B-|----10----|----8----|----3----|----15----|----10-----------|
G-|----10----|----8----|----3----|----15----|----10-----------|
D-|-----9----|----7----|----2----|-----------|-----9-----------|
A-|----10----|----8----|----3----|-----------|----10-----------|
E-|----------|---------|---------|-----------|-----------------|

Sometimes it ends with the G9 chord and sometimes not...but anyway
go back to Fig.1 and palm-mute after this bit wich I called Fig.3

Last thing is:

E-|-------------------------------------|
B-|---------8-------8----11--8----------|
G-|----10b-----10b--------------10b-----|
D-|-------------------------------------|
A-|-------------------------------------|
E-|-------------------------------------|

This could be the Bass part for Fig. 1 & 2

G-|-----------------------------|------------------------------|
D-|--5----3-3-3-3---------------|--5----3-3-3-3----------------|
A-|----------------5-5-5-3------|----------------5-5-5-3-------|
E-|------------------------5-3--|------------------------5-3---|

...or like this.

G-|-------------------------------|--------------------------------|
D-|--5----3-3-3-3-----------------|--5----3-3-3-3------------------|
A-|----------------5-5-5-3-(0)----|----------------5-5-5-3-(0)-----|
E-|----------------------------3--|----------------------------3---|

This for Fig. 3

       G         F         C
G-|---------|---------|---------|----5-----|
D-|----5----|----3----|---------|----------|
A-|---------|---------|----3----|----------|
E-|---------|---------|---------|----------|
Вверх

Fight Like A Brave

E||----------------------------------------------------------------------|
B||------------------------------------------------5~--------------------|
G||--------------------------------------5---------5~--------------------|
D||-7777777--7777777--7777777---777777-5-5-777777-5-7777777--------------|
A||-0000000--0000000--0000000---000000-0---000000-0-0000000--------------|
E||----------------------------------------------------------------------|
                  RRRROCK!!

E||----------------------------------------------------------------------|
B||---------5~--------------------5~-----------------5~------------------|
G||---------5~--------5-----------5~-----------------5~--------5---------|
D||-777777-5-777777-5-5--777777-5--7777777-7777777-5--777777-5-5---------|
A||-000000-0-000000-0----000000-0--0000000-0000000-0--000000-0-----------|
E||----------------------------------------------------------------------|


E||----------------------------------------------------------------------|
B||----------5~-----------------5~---------------------------------------|
G||----------5~-----------------5~---------5-----------------------------|
D||-777777-5---7777777-777777-5---777777-5-5-----------------------------|
A||-000000-0---0000000-000000-0---000000-0-------------------------------|
E||----------------------------------------------------------------------|

Chorus (0:40)

E||----------------------------------------------------------------------|
B||----------7~--------99~---------7~------------------------------------|
G||----------7~--------99~---------7~------------------------------------|
D||-999999-7---999999-----999999-7---9999999---7-5-(LET RING)------------|
A||-000000-0---000000-----000000-0---0000000---0-5-----------------------|
E||----------------------------------------------------------------------|
    FIGHT LIKE A BRAVE......

E||----------------------------------------------------------------------|
B||----------------------------------------------------------------------|
G||-----------------------------------------5^---------------------------|
D||-7777777--7777777--7777777--777777-5h6h7---7~---------------------------|
A||-0000000--0000000--0000000--000000------------------------------------|
E||----------------------------------------------------------------------|

THEN BASICALLY PLAY INTRO UNTILL YOU GET TO THE PART JUST BEFORE THE BASS INTERLUDE.
(1:43)
D||--77-55-77-55-(LET RING)---------|
A||--00-55-00-55--------------------|
E||---------------------------------|

BASS INTERLUDE

SOLO 1
(2:05)
E||--------------------------10^-10^--8-10-8-10-8-10-8-10-8-----10--------|
B||--------------7~------------------------------------------10^---10-8~--|
G||--------------7~-------------------------------------------------------|
D||-5/9999995/9-----X2---------------------------------------------------|
A||-0/000000 /0----------------------------------------------------------|
E||-----------------------------------------------------------------------|

E||----------------------------------------------------------------------|
B||-10-8---12-12------------------12------------------12-12--------------|
G||--------12-12--10-12-10--------12--10-12-10--------12-12--------10----|
D||--------12-12-----------12-10--12-----------12-10--12-12--10-12----12-|
A||----------------------------------------------------------------------|
E||----------------------------------------------------------------------|

E||-----------------18^-18^-18^-18^*--18-17----|
B||-----------------------------------------20-|
G||--------12----------------------------------|
D||-10-----12----------------------------------|
A||----12--12----------------------------------|
E||---------9----------------------------------|

THEN HILLEL DOES SOMETHING CRAZY WICH I CAN'T TAB OUT...

PLAY INTRO BIT AGAIN WITH A LITTLE BIT OF ADLIBING.

0UTRO(SOLO 2)
(03:19)
E||---------------------------------------------------------------5-7-----|
B||-7-------------------5-------------------------------------5-7-----5-7-|
G||---5-7^--------5-6-7---7-5-----------------------5-7^(9)---------------|
D||-------7-5-6-7-------------7-5-4-5-4-5-4-----5-7--------7--------------|
A||-----------------------------------------5/7---------------------------|
E||-----------------------------------------------------------------------|

E||-5-7----5-7-----5-7-7^>-7^>-7^>-7^>-7^>-7^>5-----5-7-----5-7-7^>-------|
B||-----5-7----5-7------------------------------5-7-----5-7---------------|
G||-----------------------------------------------------------------------|
D||-----------------------------------------------------------------------|
A||-----------------------------------------------------------------------|
E||-----------------------------------------------------------------------|

G||-7-5--------------------|
D||-----77-55-7(LET RING)--|
A||-----00-00-0------------|
Вверх

Fight Like A Brave (2 вариант)

G |------------5h6------------------------------------------------------
D |----5h7-*------------------------------------------------------------
A |--0-------0----------------------------------------------------------
E |---------------------------------------------------------------------

variation 1
G |------------9---6----------------------------------------------------
D |----5h7-*------------------------------------------------------------
A |--0-------0---0------------------------------------------------------
E |---------------------------------------------------------------------

Chorus
G |---------------------------------------------------------------------
D |---9-9-9-7-----------9-9-9-7---------9-9-9-7----------9-9------------
A |------------9-8-7------------9-8-------------9-8-7-------------------
E |------------------5--------------5-6---------------5------5-0--------

Variation 2 ( second riff)
G |----------6h7------------6h7-----------------------------------------
D |---6h7-6---------6h7-*-------7-7p6-----------------------------------
A |-0------0------0-------0---------------------------------------------
E |---------------------------------------------------------------------
Вверх

Fight Like A Brave (3 вариант)

G--------7--------I------------7-------------------------------------|
D--6-----------7--I------6-----------6-----7-----7-------------------|
A----7-----7------I--------7-----7-----5-----5-----4-----------------|    x 10
E------0-----0----I----0-----0-----0-----0-----0---------------------|
   P S S P S S P       S P S S P S S P S S P S S P S


At the end of the 1st part in the 3rd time you go:

---------------|
---------------|
---10---------|
---------------|
Вверх

Fire

  Bass fig.1 (Intro)
G--------------------------------------------------------------------
D--6--5----3--5--0-0---6--5----0--3--5--0-0--------------------------
A--------------------------------------------0--3--5-5----0--3--5-5--
E--------------------------------------------------------------------

  Bass fig.2 (Verse)
G------------------------------------------------------------------
D------------------------------------------------------------------
A--0--3--5-5----0--3--5-5----0--3--5-5----0--3--5-5----------------
E------------------------------------------------------------------

  Bass fig.3 (Chorus)
G-------------------------------------------------------------
D-------------------------------------------------------------
A--5-5-----------2-2-3-3-4-4--5-5----------2-2-3-3-4-4-5-5-5-
E------3-3-4-5-5------------------3-3-4-5-5-------------------

  Bass fig.4 (Interlude 1)
G--------------------------------------------------------------------
D--------------------------------------------------------------------
A-5--5-5-5--5--5-5-5--3--3-3-3--3--3-3-3-----------------------------
E----------------------------------------5-0-3-5--0-3-5--0-3-5--0-3-5

G----------------------------------------------------
D----------------------------------------------------
A-3-3-3-3-3/15-15-15-15--15-15-15-15-----------------
E----------------------------------------------------

G---------------------------------------------------------------------
D---------------------------------------------------------------------
A--7-7---------4-4-5-5-6-6--7-7---------4-4-5-5-6-6-------------------
E-----5-5-6-7-7----------------5-5-6-7-7------------------------------

G---------------------------------------------------------------------
D---------------------------------------------------------------------
A--7-7---------4-4-5-5-6-6--7-7---------4-4-5-5-6-6-------------------
E-----5-5-6-7-7----------------5-5-6-7-7------------------------------

  Bass fig.5 (Interlude 2)
G---------------------------------------------------------------------
D---------------------------------------------------------------------
A--7-7---------4-4-5-5-6-6--7-7---------4-4-5-5-6-6-------------------
E-----5-5-6-7-7----------------5-5-6-7-7------------------------------

G---------------------------------------------------------------------
D---------------------------------------------------------------------
A--5-5-----------2-2-3-3-4-4--5-5----------2-2-3-3-4-4-5-5-5----------
E------3-3-4-5-5------------------3-3-4-5-5---------------------------

G---------------------------------------------------------------------
D---------------------------------------------------------------------
A--7-7---------4-4-5-5-6-6--7-7--5-5-5-5--3-3-3-3--5-5-5-5--3-3-3-3---
E-----5-5-6-7-7-------------------------------------------------------

 Bass fig.6 (Outro)
G--------------------------------------------------------
D--6--5----3--5--0-0---6--5----0--3--5--0-0--------------
A--------------------------------------------0--3--5-5---
E--------------------------------------------------------
Вверх

Fire (2 вариант)

Intro:

-|-----------|--------------|--------------|--------------|------------------|-
-|-----------|--------------|--------------|--------------|------------------|-
-|-----------|--------------|--------------|--------------|------------------|-
-|--------6--|--5----3--5--|-----------6--|--5----3--5--|------------------|-
-|-----------|--------------|--5-5---------|--------------|--5-5-------3--5--|-
-|-----------|--------------|--------------|--------------|--------/5--------|-

                                   Live during the Californication
                                   Tour, an octave higher

-|-----------|-------------|-    -|-----------------|------------|-
-|-----------|-------------|-    -|-----------------|------------|-
-|-----------|-------------|-    -|-----------------|------------|-
-|-----------|-------------|-    -|---------10--12--|--12--------|-
-|--5--------|-------3--5--|-    -|----/12----------|------------|-
-|-----------|----5--------|-    -|-----------------|------------|-

Verse:

-|-------|-------------|-------|-------------|-------|-------------|-------|-
-|-------|-------------|-------|-------------|-------|-------------|-------|-
-|-------|-------------|-------|-------------|-------|-------------|-------|-
-|-------|-------------|-------|-------------|-------|-------------|-------|-
-|--5----|-------3--5--|--5----|-------3--5--|--5----|-------3--5--|--5----|-
-|-------|----5--------|-------|----5--------|-------|----5--------|-------|-


-|-------------|-------|-----------------------|-
-|-------------|-------|----13)~~~-------------|-
-|-------------|-------|----12-------10tr11----|-
-|-------------|-------|-----------------------|-
-|-------3--5--|--5----|-----------------------|-
-|----5--------|-------|-----------------------|-

Chorus: Play Chorus, then back to verse again

-|---------------------|-------------------|---------------------|-------------------|-
-|---------------------|-------------------|---------------------|-------------------|-
-|----7-----7--7----5--|-------------------|----7-----7--7----5--|-------------------|-
-|----7-----7--7----5--|-------------------|----7-----7--7----5--|-------------------|-
-|----5-----5--5----3--|----2-2--3-3--4-4--|----5-----5--5----3--|----2-2--3-3--4-4--|-
-|---------------------|-------------------|---------------------|-------------------|-

-|---------------------|-------------------|---------------------|-------------------|-
-|---------------------|-------------------|---------------------|-------------------|-
-|----7-----7--7----5--|-------------------|----7-----7--7----5--|-------------------|-
-|----7-----7--7----5--|-------------------|----7-----7--7----5--|-------------------|-
-|----5-----5--5----3--|----2-2--3-3--4-4--|----5-----5--5----3--|----2-2--3-3--4-4--|-
-|---------------------|-------------------|---------------------|-------------------|-

Chorus: The Live one

-|-------10-10--12-10----10--|----------------------------------|-
-|-------10-10--10-10-----8--|----------------------------------|-
-|-------11-11--11-11-----9--|----------------------------------|-
-|-------12-12-----------10--|------10-10-10-------12-14p12-----|-
-|---------------------------|--/12----------12/14----------14--|-
-|--10-----------------------|----------------------------------|-

Last time end like this:

-|------10-10--12-10----10----|-------------------|--------------|-
-|------10-10--10-10-----8----|-------------------|--------------|-
-|------11-11--11-11-----9----|-------------------|--------------|-
-|------12-12-----------10----|------------10-12--|--12----------|-
-|----------------------------|--------/12--------|--------------|-
-|--10------------------------|-------------------|--------------|-

Solo:

-|----)------)----------|---------------|----)---------)--|----)---------------------|-
-|--15--15-15----12~~~~--|----12--15p12--|--15----15--15----|--15----15-15~~~~--15-15--|-
-|-----------------------|---------------|------------------|--------------------------|-
-|-----------------------|---------------|------------------|--------------------------|-
-|-----------------------|---------------|------------------|--------------------------|-
-|-----------------------|---------------|------------------|--------------------------|-

-|----)------)----------|---------------|----)----------)----|-------------------|-
-|--15--15-15----12~~~~--|----12--15-15--|--15---15-15-15------|-------------------|-
-|-----------------------|---------------|---------------------|--12~~~~~~---------|-
-|-----------------------|---------------|---------------------|-------------------|-
-|-----------------------|---------------|---------------------|-------------------|-
-|-----------------------|---------------|---------------------|-------------------|-

Solo 2: Improvise around this scale

-|--------------------------------12-15--|-
-|--------------------------12-15--------|-
-|--------------------12-14--------------|-
-|--------------12-14--------------------|-
-|--------12-14--------------------------|-
-|--12-15--------------------------------|-

Interlude:

-|-------------------|-------------------|-
-|-------------------|-------------------|-
-|--7-7-7-7-7-7-7-7--|--5-5-5-5-5-5-5-5--|-
-|--7-7-7-7-7-7-7-7--|--5-5-5-5-5-5-5-5--|-
-|--5-5-5-5-5-5-5-5--|--3-3-3-3-3-3-3-3--|-
-|-------------------|-------------------|-

-|-------------------|-------------------|-
-|-------------------|-------------------|-
-|--7-7-7-7-7-7-7-7--|--5-5-5-5-5-5-5-5--|-
-|--7-7-7-7-7-7-7-7--|--5-5-5-5-5-5-5-5--|-
-|--5-5-5-5-5-5-5-5--|--3-3-3-3-3-3-3-3--|-
-|-------------------|-------------------|-
Вверх

Flea From Rhcp

0:00   x2
G|---9---|----------------------5h7-|-------------------5-|
D|*--7--*|----------------5-5-------|-------------5-5-----|
A|*-----*|----------5-5-7-----7-----|-------5-5-7-----7---|
E|-------|12-0-x-x-----------------|-0-x-x---------------|

0:11
G|-------------------5h7-|-------------------|
D|-------------5-5-------|-------------------|
A|-------5-5-7-----7-----|-----------5-5-5h7-|
E|-0-x-x-----------------|-0-x-x-x-x---------|

0:15
G|-------------------5h7-|-------------------5-|
D|-------------5-5-------|-------------5-5-----|
A|-------5-5-7-----7-----|-------5-5-7-----7---|
E|-0-x-x-----------------|-0-x-x---------------|

0:18
G|-------------------5h7-|---------------------|
D|-------------5-5-------|---------------------|
A|-------5-5-7-----7-----|-----------5-5-5-5-5-|
E|-0-x-x-----------------|-0-x-x-x-x-----------|

0:22                    x3
G|-----------------------|-----------|
D|---------------7---7h9-|---10---12-|
A|-----------7h9---9-----|-----------|
E|-7-7-7-7-7-------------|-x----x----|

0:29                             x7
G|--------------------------------|-----------------------|
D|-----12-10----------10----10h12-|-----12-10----------10-|
A|-----------10-10h12----12-------|-----------10-10h12----|
E|-0-x----------------------------|-0-x-------------------|

0:43
G|--------------------------------|--------------------------|
D|-----13-11----------11----11h13-|-----13-11----------13-11-|
A|-----------11-11h13----13-------|-----------11-11h13-------|
E|-0-x----------------------------|-0-x----------------------|

0:46
G|--------------------------------|-----------------------|
D|-----13-11----------11----11h13-|-----13-11----------11-|
A|-----------11-11h13----13-------|-----------11-11h13----|
E|-0-x----------------------------|-0-x-------------------|

0:50                             x3
G|--------------------------------|-----------------------|
D|-----12-10----------10----10h12-|-----12-10----------10-|
A|-----------10-10h12----12-------|-----------10-10h12----|
E|-0-x----------------------------|-0-x-------------------|

0:58                                         x3
G|--5/7-9-7-9-10-9-10-12-10-12-14--|--14b(1)-----|
D|*-------------------------------*|*-----------*|
A|*-------------------------------*|*--------12-*|
E|---------------------------------|-------------|

1:15
G|--------------------------------|-----------------------|
D|-----12-10----------10----10h12-|-----12-10----------10-|
A|-----------10-10h12----12-------|-----------10-10h12----|
E|-0-x----------------------------|-0-x-------------------|

1:19
G|--------------------------------|------------------------------|
D|-----12-10----------10----10h12-|-----12-10--------------10h12-|
A|-----------10-10h12----12-------|-----------10-10h12-----------|
E|-0-x----------------------------|-0-x----------------0-0-------|

1:22                             x3
G|--------------------------------|---------------------------|
D|-----12-10----------10----10h12-|-----12-10----------10b(1)-|
A|-----------10-10h12----12-------|-----------10-10h12--------|
E|-0-x----------------------------|-0-x-----------------------|

1:33
G|--5h7---------2-0-3---7-5-----0-3-2-----------7-0-3---3-2-0-7-5--------|
D|*-----0-2-3-0-------0-----2-3-------0-3-5-3-0-------0-----------3-2-0-*|
A|*---------------------------------------------------------------------*|
E|-----------------------------------------------------------------------|

1:54
G|----3-2-0-7-5-2-3-------7-5-2-3-2---7-5-2-0-3-2-0-------3-2-0-7-5-3-2-0--------|
D|*-0---------------0-3-2-----------0---------------3-2-0-----------------3-2-0-*|
A|*-----------------------------------------------------------------------------*|
E|-------------------------------------------------------------------------------|

2:07 x?
G|-----|---------|--9---|
D|-----|*-------*|*-7-*-|
A|-----|*-7b(1)-*|*---*-|
E|-0-0-|---------|------|

2:22                                          x3
G|-------------------5h7-|-------------------5-|
D|-------------5-5-------|-------------5-5-----|
A|-------5-5-7-----7-----|-------5-5-7-----7---|
E|-0-x-x-----------------|-0-x-x---------------|

2:32
G|-------------------5h7-|-----------------|
D|-------------5-5-------|-----------------|
A|-------5-5-7-----7-----|---------5-5h7---|
E|-0-x-x-----------------|-0-x-x-x-------5-|
Вверх

Freaky Styley

Bass

Intro:
G-|---5-------5-5------|
D-|---5-------5-5------|
A-|--------------------|
E-|--------------------|
      P       P P
Repeat two times

Verse & Chours & ...(whole song):
G-|---------5-----------5-5--|
D-|---------5-----------5-5--|
A-|---8-0---------8-0--------|
E-|--------------------------|
      S S   P     S S   P P
Вверх

Freaky Styley (2 вариант)

G----------5----------5-5------------5----------5-5-
D--7-------5----7-----5-5----7-------5----7-----5-5-
A----0------------0------------0------------0-------
E---------------------------------------------------

G----------5----------5-5------------5----------5-5-
D--7-------5----7-----5-5----7-------5----7-----5-5-
A----0------------0------------0------------0-------
E---------------------------------------------------

G----------5----------5-5------------5----------5-5-
D--7-------5----7-----5-5----7-------5----7-----5-5-
A----0------------0------------0------------0-------
E---------------------------------------------------

G----------5----------5-5------------5----------5-5-
D--7-------5----7-----5-5----7-------5----7-----5-5-
A----0------------0------------0------------0-------
E---------------------------------------------------

G----------5----------5-5------------5----------5-5-
D--7-------5----7-----5-5----7-------5----7-----5-5-Repeat many times.
A----0------------0------------0------------0-------
E---------------------------------------------------
Вверх

F U

e-|---------------------------------------------------|
B-|---------------------------------------------------|
G-|---------------------------------------------------|
D-|-----5------------5--3--2--0--0--------------------|
A-|--5------------5-----------------3--3--2--2--------|
E-|---------------------------------------------2--3--|
Вверх

Funky Crime

Bass

Intro:
G-|--------|--------|--------|--------|--------|----|
D-|--------|--------|--------|--------|--------|----|
A-|--------|--------|-2------|--------|--------|-4--|
E-|-5------|-1------|--------|-3------|-6------|----|

Verse bass figure 1:
G-|----------------------|-------------------------|
D-|----------------------|---------------------5-5-|
A-|-5-5-5-5-5-5-6-7--3-4-|-5-5-5-5-5-5-6-7---------|
E-|----------------------|-----------------x-4-----|

Chorus:
G-|--------------------|---------------------------|
D-|--------------------|---------------------------|
A-|--------------------|---------------------------|
E-|-9/10-x-7/9-6-5--4--|-9/10-x-7/9--6--5--4-4-4-4-|

Verse bass figure 2:
G-|--------------------|-----------------------------|
D-|--------------------|------------------------4--4-|
A-|--------------------|-7-7-7-7-7-7-8-9-------------|
E-|-2-2-2-2-2-2-2-2----|------------------x-2-2------|

Interlude:
G-|-------------2---|------|---------------|------------2----|
D-|-4----4--2-----4-|-2----|---------------|-4---4--2-----4--|
A-|-----------4-----|------|---------------|----------4------|
E-|-----------------|------|-0--2--5--2----|-----------------|
    P    P  P T P T   P      T  T  T  T      P   P  P T P P

G-|------|-6--4-------|------------2----|------|------------|
D-|-2----|------7--4--|-4---4--2-----4--|-2----|------------|
A-|------|------------|----------4------|------|------------|
E-|------|------------|-----------------|------|-0h2--5--2--|

    P      P  P P  P    P   P  P T P P    P      T    T  T

G-|------------2----|------|------------|-2--1--0----|-----------|------|
D-|-4---4--2-----4--|-2----|-1--2--3--4-|----------4-|-3--2--1---|-0----|
A-|----------4------|------|------------|------------|-----------|------|
E-|-----------------|------|------------|------------|-----------|------|
    P   P  P T P P    P      P  P  P  P   P  P  P  P   P  P  P     P
Вверх

Funky Monks

----------------|--------------------------------------------------
---3f---3-3-3---|-----3f---------5b(6)--5--------------------------
---3f---3-3-3---|-----3f---------5b(6)--5-(3)/53----------------
------5-------5-|-3/5----53-------------------------------------
----------------|--------------------------------------------------
-3--------------|--------------------------------------------------

----------------------|-----------------------0-------------------
-----3f---3-3-3-------|-----------------5b(6)-1-3-----------------
-----3f---3-3-3/53----|-----------------5b(6)---3b(4)-------------
--------5-----------5-|-3/53-------------------------------------
----------------------|-------5--31------------------------------
-1/3------------------|-------------------------------------------
Вверх

Funky Monks (2 вариант)

5-string bass

Bass figure 1:
G-|------------|------------|------------|------------|
D-|------------|------------|------------|------------|
A-|------------|------------|------------|------------|
E-|-3--3--3-x3-|-3--3--3-x3-|-3--3--3-x3-|-3--3--3-x3-|
B-|------------|------------|------------|------------|

Verse variations:
G-|-----------------|-----------------|----------------|
D-|-----------------|-----------------|----------------|
A-|---------1--1----|---------3--1----|--------1-1-0-0-|
E-|-3--3-x3--3--3-1-|-3--3-x3--3--3-1-|-3--x3-3--------|
B-|-----------------|-----------------|----------------|

End of verse:
G-|---------------|----------------|
D-|---------------|----------------|
A-|---------------|----------------|
E-|--3--3--3-x3-3-|-3-3-1-1--------|
B-|---------------|---------3-2-1/-|

Chorus:
G-|-------------------|-------------------|------------------|
D-|-------------------|-------------------|------------------|
A-|-0-0---------------|-------------------|-0-0--------------|
E-|-----3-3-1-1--0-x1-|-1-1-1--0-0--------|-----3-3-1-1-0-x1-|
B-|-------------------|------------3-3-1/-|------------------|

G-|--------------------|-------------------|--------------------|
D-|--------------------|-------------------|--------------------|
A-|------------3-3-2-2-|-0-0---------------|--------------------|
E-|-1-1-1--0-0---------|-----3-3-1-1--0-x1-|-1-1-1--0-0---------|
B-|--------------------|-------------------|------------3-3--1/-|

G-|----------------|-------------------|-----|
D-|----------------|-------------------|-----|
A-|-0-0------------|-5-3---5/6-5p3-----|-----|
E-|-----3-3-1-1--0-|-----5---------5-3-|-5---|
B-|----------------|-------------------|-----|

Interlude:
G-|-------------------|--------------------|-------------------|
D-|-----6-5-7-----7-6-|-----6-5-7----------|-----6-5-7-----7-6-|
A-|-------------------|-----------5-8-7--5-|-------------------|
E-|-5h7-------5-7-----|-5h7----------------|-5h7-------5-7-----|
B-|-------------------|--------------------|-------------------|

G-|----------------------|-------------------|-------------------|
D-|-----6-5-7------------|-----6-5-7-----7-6-|-----6-5-7---------|
A-|-----------7h8p7--8-7-|-------------------|-----------5-8-7-5-|
E-|-5h7------------------|-5h7-------5-7-----|-5h7---------------|
B-|----------------------|-------------------|-------------------|

G-|-------------------|-------------------|
D-|-----6-5-7-----7-6-|-----6-5-7---------|
A-|-------------------|-----------5-8-7-5-|
E-|-5h7-------5-7-----|-5h7---------------|
B-|-------------------|-------------------|

Guitar solo:
G-|---------------------|--------------------|--------------------|
D-|---------------------|--------------------|--------------------|
A-|-----2--1-3-----3-2--|-----2--1-3---------|-----2--1-3-----3-2-|
E-|---------------------|------------1-4-3-1-|--------------------|
B-|-1h3--------1-3------|-1h3----------------|-1h3--------1-3-----|

G-|--------------------|--------------------|---------------------|
D-|--------------------|--------------------|---------------------|
A-|-----2--1-3---------|-----2--1-3-----3-2-|-----2-1-3h5-3-1-4-3-|
E-|------------1-4-3-1-|--------------------|---------------------|
B-|-1h3----------------|-1h3--------1-3-----|-1h3-----------------|

G-|--------------------|--------------------|
D-|--------------------|--------------------|
A-|-----2--1-3-----3-2-|-----2--1-3---------|
E-|--------------------|------------1-4-3-1-|
B-|-1h3--------1-3-----|-1h3----------------|

Outro:
G-|-1h2-------------x4-2-1-|-2-----------4-2-1-|-1h2------------x4-2-1-|
D-|-----0-2-2--4-----------|--2-3-4------------|-----0-2-2--4----------|
A-|--------------2---------|--------0h2--------|--------------2--------|
E-|------------------------|-------------------|-----------------------|
B-|------------------------|-------------------|-----------------------|

G-|-2-----------4-2-1-|-1h2---------------------4-2-1-|-2---------4-2-1-|
D-|--2-3-4------------|-----0-2-0-3-0-4---------------|--2-3-4----------|
A-|--------0h2--------|-----------------0-2-0-2-------|---------2-------|
E-|-------------------|-------------------------------|-----------------|
B-|-------------------|-------------------------------|-----------------|

G-|-1h2-----------x4-2-1-|-2---------------------4-2-1-|
D-|-----0-2-3-4----------|---2h3h4-2h3h4-2h3h4---------|
A-|-------------2--------|---------------------2-------|
E-|----------------------|-----------------------------|
B-|----------------------|-----------------------------|

G-|-1h2-----------x4-x7-8-|-4---2-------2-1-2-1-|-2--------------------4-|
D-|-----0-2-3-4-----------|---3-------4---------|--2h3h4-2h3h4-2h3h4-----|
A-|-------------2---------|-------0-2-----------|--------------------2---|
E-|-----------------------|---------------------|------------------------|
B-|-----------------------|---------------------|------------------------|

G-|-2----------4-2-|-1--2---2-x2-|-2--4---|-1--2---2-x2-|-7--4----1-|
D-|--2-3-4---------|-------------|--------|-------------|-----------|
A-|--------0h2-----|-------------|--------|-------------|-----------|
E-|----------------|-------------|--------|-------------|-----------|
B-|----------------|-------------|--------|-------------|-----------|

G-|-1h2-------------x4-2-1-|-2-----------4-2-1-|-1h2------------x4-2-1-|
D-|-----0-2-2--4-----------|--2-3-4------------|-----0-2-2--4----------|
A-|--------------2---------|--------0h2--------|--------------2--------|
E-|------------------------|-------------------|-----------------------|
B-|------------------------|-------------------|-----------------------|

G-|-2-----------4-2-1-|-1h2---------------------4-2-1-|-2---------4-2-1-|
D-|--2-3-4------------|-----0-2-0-3-0-4---------------|--2-3-4----------|
A-|--------0h2--------|-----------------0-2-0-2-------|---------2-------|
E-|-------------------|-------------------------------|-----------------|
B-|-------------------|-------------------------------|-----------------|
Вверх

Get On Top

Intro & Verse
E--------------------------------------------
B--------------------------------------------
G--------------------------------------------
D--------------------------------------------
A--7-7-7-7-10-10-10-10---7-7-7-10-10-10-10---
E--------------------------------------------

Chorus
E--------------------------------------------
B--------------------------------------------
G--------------------------------------------
D--7-7-10-10---7-7--10-10--------------------
A--------------------------------------------
E--------------------------------------------

Riff (played right after chorus)
   E5
E--12--12--12----12--------------------------
B--12--12--12----12--------------------------
G--------------------------------------------
D--------------------------------------------
A--------------------------------------------
E--------------------------------------------

Play this 2 times.
E--5---8----
B--6---5----
G-----------
D-----------
A-----------
E-----------

Play this 2 times.
E-----------
B--6---5----
G--7---5----
D-----------
A-----------
E-----------


E---------------------------------------------------
B---------------------------------------------------
G--------------------------5-----5--5p7h5--7--------
D--5h7-7--7p5-7--------5/7---7----------------5/7---
A---------------5-----------------------------------
E---------------------------------------------------

Bass
E---------------------------------------------------
B---------------------------------------------------
G---------------------------------------------------
D---------------------------5-----------------------
A---------3-3-5-5-5/7---8-------7-------------------
E--5-5-5--------------------------------------------

   A5
E--------------
B--------------
G--7-7-7-------
D--7-7-7-------
A--5-5-5-------
E--------------
Вверх

Get On Top (2 вариант)

Intro (wait for guitar)
G]--------------------------------------------------------------------------]
D]--------------------------------------------------------------------------]
A]-------------19-19-17-19-----------------------19-19-17-19----------------]
E]-0--0----0-------------0---0-X-3p0-3p0-0-0-0-0-----------0--6p5-0-3p0-3p0-]

G]--------------------------------------------------------------------------]
D]--------------------------------------------------------------------------]
A]------19-19-17-19-----------------------19--19-17-19----------------------]
E]0-0-0-----------0-3-0-0-3p0-3p0-0-0-0-0------------0-17-17-17-18-18-19-19-]

Verse
G]--------------------------------------------------------------------------]
D]--------------------------------------------------------------------------]
A]--------19-19--17-19-------------------------19-19-17-19------------------]
E]-0--0-0------------0--0--X-3p0-3p0---0-0--0-0----------0---6p5-0-5p0-3p0--]

G]--------------------------------------------------------------------------]
D]--------------------------------------------------------------------------]
A]--------19-19-17-19I)----------I)----------19-19-17-19--------------------]
E]-0-0-0-----------0-3p0-0-10-X-10-0-0-0-0-0-----------0--17-17-17-18-18-19-]

G]--------------------------------------------------------------------------]
D]--------------------------------------------------------------------------]
A]--------19-19-17-19-------------------------19-19-17-19-------------------]
E]-0--0-0-----------0--0--X-3~0--3p0--0-0-0-0-----------0-0-0-0-5p0---3h5---]

G]--------------------------------------------------------------------------]
D]--------------------------------------------------------------------------]
A]--------19-19-17-19----------------------19-19-17-19----------------12-14-]
E]-0--0-0-----------0--0-X-3p0-3p0-0-0-0-0-----------0-18-17p5-0-15-12------]

Chorus
G]--------------------------------------------------------------------------]
D]--------17h19---------17h19--------------17h19-------17h19----------------]
A]--------------------------------------------------------------------------]
E]--15h17--------15h17--------15h17--15h17--------15h17--------15h17h15h17--]

G]--------------------------------------------------------------------------]
D]---------17h19--------17h19--------------17h19-------17h19----------------]
A]--------------------------------------------------------------------------]
E]---15h17--------15h17--------15h17-15h17--------15h17--------15h17p15h17--]

G]--------------------------------------------------------------------------]
D]--------17h19-------17h19--------------17h19-------17h19-------------BEND!]
A]--------------------------------------------------------------------17--17]
E]--15h17-------15h17-------15h17--15h17-------15h17-------15h17p15h17------]

G]--------------------------------------------------------------------------]
D]---------17h19--------17h19--------------17h19-------17h19----------------]
A]--------------------------------------------------------------------------]
E]---15h17--------15h17--------15h17-15h17--------15h17--------15h17p15h17--]

G]--------------------------------------------------------------------------]
D]-------17h19--------17h19-------------------------------------------------]
A]-----------------------------------------------19--19--19-------------19--]
E]-15h17--------15h17---------15h17-----------------------------------------]

G]--------------------------------------------------------------------------]
D]--------------------------------------------------------------------------]
A]--------19-19--17-19-------------------------19-19-17-19------------------]
E]-0--0-0------------0--0--X-3p0-3p0---0-0--0-0----------0---6p5-0-3p0-3p0--]

G]--------------------------------------------------------------------------]
D]--------------------------------------------------------------------------]
A]------19-19--17-19---------------------19-19-17-19----I)-U)---------------]
E]-0-0-0-----------0-3-0-3p0-3p0--0-0-0-0----------0-17-17-17-15-0-15-17h18-]

Verse2
G]--------------------------------------------------------------------------]
D]--------------------------------------------------------------------------]
A]-------19-19-17-19--------------------------19-19-17-19----I)(U-----------]
E]-0--0-0----------0--0--X-3p0-3p0--0---0--0-0----------0--0-5--5-10p0-10p0-]

G]--------------------------------------------------------------------------]
D]--------------------------------------------------------------------------]
A]-------19-19-17-19----------------------19-19-17-19----I)-U)--------------]
E]-0--0-0----------0-3-0-0-3p0-3p0-0-0-0-0----------0-17-17-17-17-0-17-18-19]

G]--------------------------------------------------------------------------]
D]--------------------------------------------------------------------------]
A]-------19-19-17-19--------------------------19-19-17-19-------------------]
E]-0-0-0-----------0-----0--X--3p0-3p0-0-0-0-0----------0---0-0--0-15p0-15p0]

G]--------------------------------------------------------------------------]
D]--------------------------------------------------------------------------]
A]------19-19-17-19--------------------19-19-17-19--------------------------]
E]-0-0-0----------0-0-X-3p0-3p0-0-0-0-0----------0-17-18-17-17-17-0-17-18-19]

Chorus2
G]--------------------------------------------------------------------------]
D]--------17h19---------17h19--------------17h19-------17h19----------------]
A]--------------------------------------------------------------------------]
E]--15h17--------15h17--------15h17--15h17--------15h17--------15h17h15h17--]

G]--------------------------------------------------------------------------]
D]--------17h19---------17h19--------------17h19-------17h19----------------]
A]--------------------------------------------------------------------------]
E]--15h17--------15h17--------15h17--15h17--------15h17--------15h17h15h17--]

G]--------------------------------------------------------------------------]
D]--------17h19---------17h19--------------17h19-------17h19----------------]
A]--------------------------------------------------------------------------]
E]--15h17--------15h17--------15h17--15h17--------15h17--------15h17h15h17--]

G]--------------------------------------------------------------------------]
D]--------17h19---------17h19--------------17h19-------17h19----I)---U)-----]
A]-------------------------------------------------------------17-----17----]
E]--15h17--------15h17--------15h17--15h17--------15h17---------------------]

G]--------------------------------------------------------------------------]
D]--------17h19---------17h19-----------------------------------------------]
A]-------------------------------------19-----19----19-----------19---------]
E]--15h17--------15h17--------15h17-----------------------------------------]

Interlude
   T   T P T P T T  P T   T  P     T   T  T P  T P T  T  P T    T T P   T
G]-------7---7------7--------7--------------7----7-------7----------7-------]
D]--------------------------------------------------------------------------]
A]-5---X---X---7-7----7h8-8--------7---5--X----X---7--7----7h8--8-8-----7---]
E]--------------------------------------------------------------------------]

   T   T P T P T T  P T   T  P     T   T  T P  T P T  T  P T    T T P   T
G]-------7---7------7--------7--------------7----7-------7----------7-------]
D]--------------------------------------------------------------------------]
A]-5---X---X---7-7----7h8-8--------7---5--X----X---7--7----7h8--8-8-----7---]
E]--------------------------------------------------------------------------]
    T T PTP T TP TP T T P  T   TP PT T TP TPT TPT  P TPT TP   T
G]--------------------------------------------------------------------------]
D]------8-8----8--8-----87-----7--7----7--7---7---8--8---8-----10-/-13----]
A]--------------------------------------------------------------------------]
E]--6-6--6--6-6--6--6-6----6/5-5--5--5-5--5-5-5-5/6--6-6-6----6--8-/-10----]

   T  P T PT  T TP T T  P  T     T     T  T  P T P T  T   P T   T  P  T
G]-------------------------------------------7---7--------7--------7--------]
D]----7---7------7------7---------------------------------------------------]
A]-------------------------------------5--X----X---7--7-----7/8-8-----7-----]
E]-5----5--5--5-5--5-5-----5-----X------------------------------------------]

    T  T  P T P T  T   P T   T  P  T     T   T P T P  T   T P  TP  T  T  P
G]--------7---7--------7--------7-------------------------------------------]
D]---------------------------------------------8---8--------8---8--------8--]
A]--5--X----X---7--7-----7/8-8-----7----------------------------------------]
E]---------------------------------------6---6---6----6---6----6---6--6-----]

    T   T P  T P T  T P   T P  T TP  T    T P  T P T   T P  T  P  T   T  P
G]--------------------------------------------------------------------------]
D]--------10---10-----10----10----10--------12---12------12----12--------12-]
A]--------------------------------------------------------------------------]
E]--6/8-8----8---8--8-----8----8-8---8/10-10---10--10--10---10----10--10----]

    T     T  P T P  T   T P T P  T  T T  T  T PT P T   T P T P T    T  P
G]--------------------------------------------------------------------------]
D]-----------14--14-------14--14--------------8--8-------8---8---------8----]
A]--------------------------------------------------------------------------]
E]--10/12-12---12---12--12--12---12-X-X--6--6--6---6---6---6---6----6-------]

   T   TP  T{  T T P  TP  T  TP  T T P T PT TP T P T T T T T T T      T
G]--------------------------------------------------------------------------]
D]------10--10-----10--10-----10-----7---7---7---7--------------------------]
A]--------------------------------------------------------------------------]
E]-6/8-8---8---8-8----8---8--8---5-5---5--5-5--5---5-5-5-5-7-7-7------7-----]

Pre-Verse
wah-wah I= toe down  O= toe up
  I 0             I O                 I O                   I O
G]--------------------------------------------------------------------------]
D]--------17171717----------17171717------------17171717------------17171717]
A]19-------------19191919------------19191919--------------19191919--------]
E]--------------------------------------------------------------------------]
  I O             I O                 I O                   I O
G]--------------------------------------------------------------------------]
D]--------17171717----------17171717------------17171717------------17171717]
A]19191919--------19191919------------19191919--------------19191919--------]
E]--------------------------------------------------------------------------]

Verse
G]--------------------------------------------------------------------------]
D]--------------------------------------------------------------------------]
A]--------19-19--17-19-------------------------19-19-17-19------------------]
E]-0--0-0------------0--0--X-3p0-3p0---0-0--0-0----------0---6p5-0-5p0-3p0--]

G]--------------------------------------------------------------------------]
D]--------------------------------------------------------------------------]
A]-------19-19-17-19----------------------19-19-17-19----I)-U)--------------]
E]-0--0-0----------0-3-0-0-3p0-3p0-0-0-0-0----------0-17-17-17-15-0-17-18-19]

G]--------------------------------------------------------------------------]
D]--------------------------------------------------------------------------]
A]-------19-19-17-19----------------------19-19-17-19-----------------------]
E]-0--0-0----------0-3-0-0-3p0-3p0-0-0-0-0----------0----0----X--10 ---10--]

G]--------------------------------------------------------------------------]
D]--------------------------------------------------------------------------]
A]-------19-19-17-19----------------------19-19-17-19-----------------------]
E]-0--0-0----------0-3-0-0-3p0-3p0-0-0-0-0----------0-17171717171718181919--]

G]--------------------------------------------------------------------------]
D]--------------------------------------------------------------------------]
A]-------19-19-17-19----------------------19-19-17-19------------I)---------]
E]-0--0-0----------0-3-0-0-3p0-3p0-0-0-0-0----------0-----0--0--17-----17---]

G]--------------------------------------------------------------------------]
D]--------------------------------------------------------------------------]
A]-------19-19-17-19----------------------19-19-17-19-----------------------]
E]-0--0-0----------0-3-0-0-3p0-3p0-0-0-0-0----------0--15-17-17-17-15 -15-]

Outro
wah-wah I= toe down  O= toe up
  I 0             I O                 I O                   I O
G]--------------------------------------------------------------------------]
D]--------17171717----------17171717------------17171717------------17171717]
A]19191919--------19191919------------19191919--------------19191919--------]
E]--------------------------------------------------------------------------]x2
Вверх

Get Up And Jump

e-|------|------------------|
B-|--14--|------------------|
G-|--14--|--9/6-6-----6-9---|
D-|--14--|--------6/9-------|
A-|------|------------------|
E-|------|------------------|
Вверх

Get Up And Jump (2 вариант)

Main Riffs
----3------XX-------XX-------XX-------XX-------------------
-----------------------------------------------------------------
------5--------3---------5--------3---------3h5-------------
-----------------------------------------------------------------

----3------XX-------XX-------XX-------XX-------------------
-----------------------------------------------------------------
------5--------3---------5--------3---------------------------
------------------------------------------------3h4------------

----3------XX-------XX-------XX-------XX-------------------
-----------------------------------------------------------------
------5-------------------5--------------------------------------
----------------3--------------------3---------3h4-------------
Verieations
----3------XX-------XX-------XX-------XX-------------------
---------------------------3-------------------------------------
------5--------3-------------------3---------3h5-------------
-----------------------------------------------------------------

----3------XX-------XX-------XX-------X-------------------
-----------------------------------------------------------------
------5-------------------5------------------3h5-------------
----------------3--------------------3h4---------------------
Вверх

Give It Away

part1
--5-5-5/-----8-------118-118-118-118-118---------
--5-5-5/-----8----------------------------------------
-------------10^--------------------------------------
------------------------------------------------------
------------------------------------------------------

part2
-5-5-5/-----8-----------------------------------------
-5-5-5/-----8-----------------------------------------
------------10^---------------------------------------
------------------------------------------------------
------------------------------------------------------------------------------------------------------------

alright...so there's the intro...most of the other stuff on this site is right(the verse riffs)....
but for the chorus goes something like this

(and this is partially an adaption of how john frusciante plays it live)
-----------------8-7-5------------------8-------------
-----------------8-7-5------------------8-------------
-----------------8-7-5------------------10^-----------
-7-7-7-7-5-7-7----------7-7-7-7-5-7-7-----------------
-0-0-0-0-0-0-0----------0-0-0-0-0-0-0-----------------
------------------------------------------------------

on the second chorus, you play this.
  you will hit these two fret positions
               several times quickly... v    v
-----------------8----------------------17--20--------
-----------------8----------------------17--20--------
-----------------10^--------------------17--20--------
-7-7-7-7-5-7-7----------7-7-7-7-5-7-7-----------------
-0-0-0-0-0-0-0----------0-0-0-0-0-0-0-----------------
------------------------------------------------------
Вверх

Give It Away (2 вариант)

Intro:
G----|
D----|
A-|--0/14-1/12-|
E----|


Main bass figure:
G---------------|
D-|-------17---------|-------17-------|
A-|-0-x/19----x03-x03-|-0-x/19------x03-|
E---------------|

Guitarsolo:
G-------------------|
D-------------------|
A-|----------10-------|----------10-------|
E-|-0-x-10h12----03-x3-|-0-x-10h12----x3-x3-|

Ending of Guitarsolo 1:
G----------------------|
D----------------------|
A----------------------|
E-|-0-10p0-9p0-7p0-5p0-4p0-3p0-2p0-|

Ending of Guitarsolo 2:
G--------------------|
D--------------------|
A--------------------|
E-|-0-10p0-9p0-7p0-6p0-5p0-6p0-4-|

Припев
G------------------------|
D-|-------17----19--17--17-|-------17---7-5-4--|
A-|-0-x/19----19--19--19----|-0-x/19---x-0-6-6-5-|
E------------------------|
What I?ve got you?ve got to give it to your mamma
What I?ve got you?ve got to give it to your pappa
What I?ve got you?ve got to give it to your daughter
You do a little dance and then you drink a little water

What I?ve got you?ve got to get it put it in you
What I?ve got you?ve got to get it put it in you
What I?ve got you?ve got to get it put it in you
Reeling with the feeling don?t stop continue

Realize I don?t want to be a miser
Confide w/sly you?ll be the wiser
Young blood is the lovin? upriser
How come everybody wanna keep it like the kaiser

Give it away give it away give it away give it away now
Give it away give it away give it away give it away now
Give it away give it away give it away give it away now
I can?t tell if I?m a kingpin or a pauper

Greedy little people in a sea of distress
Keep your more to receive your less
Unimpressed by material excess
Love is free love me say hell yes

I?m a low brow but I rock a little know how
No time for the piggies or the hoosegow
Get smart get down with the pow wow
Never been a better time than right now

Bob Marley poet and a prophet
Bob Marley taught me how to off it
Bob Marley walkin? like he talk it
Goodness me can?t you see I?m gonna cough it

Give it away give it away give it away give it away now
Give it away give it away give it away give it away now
Give it away give it away give it away give it away now
I can?t tell if I?m a kingpin or a pauper

Lucky me swimmin? in my ability
Dancin? down on life with agility
Come and drink it up from my fertility
Blessed with a bucket of lucky mobility

My mom I love her ?cause she love me
Long gone are the times when she scrub me
Feelin? good my brother gonna hug me
Drink my juice young love chug-a-lug me

There?s a river born to be a giver
Keep you warm won?t let you shiver
His heart is never gonna wither
Come on everybody time to deliver

Give it away give it away give it away give it away now
Give it away give it away give it away give it away now
Give it away give it away give it away give it away now
I can?t tell if I?m a kingpin or a pauper
Вверх

Give It Away (3 вариант)

    Intro



E|--------8---------10-----10-----10-----10-----10-|
B|--------7/8---9p8----9p8----9p8----9p8----9p8----|
C|-------------------------------------------------|
D|7-7-7-7------------------------------------------|
A|0-0-0-0------------------------------------------|
E|-------------------------------------------------|

E|--------8---|
B|--------7/8-|
C|------------|
D|7-7-7-7-----|
A|0-0-0-0-----|
E|------------|

    Riff

E|----------------------------------------------|
B|---------------------5------------------------|
C|--7-6-5----------7-8-----7-6-5----------7-5---|
D|7-------5-5-7--7-------7-------5-5-7--7-----5-|
A|----------------------------------------------|
E|----------------------------------------------|

    Chorus

E|--------------------------------8-8---7-75-|
B|--------------------------------8-8---7-75-|
C|--------------------------------8-8---7-75-|
D|7-7-7-7-7-7-7-7-7-7-7-7-7-7-7-7-7-7-7-7-7-7-|
A|0-0-0-0-0-0-0-0-0-0-0-0-0-0-0-0-0-0-0-0-0-0-|
E|--------------------------------------------|

    First solo

E|---------------------------------------------------|
B|---------------------------------------------------|
C|108-8-(8)-10/12-13-108-10/13-15-17-1513-13-15/17|
D|---------------------------------------------------|
A|---------------------------------------------------|
E|---------------------------------------------------|

E|-------------------------------------17-17-17-1715|
B|---------1513-13-13/16-15-16/18-18--16-16-16-1614|
C|16-15-15-------------------------------------------|
D|---------------------------------------------------|
A|---------------------------------------------------|
E|---------------------------------------------------|

E|15-15-1513-13-13-1311-11-11-11-11-11-|
B|14-14-1412-12-12-1210-10-10-10-10-10-|
C|---------------------------------------|
D|---------------------------------------|
A|---------------------------------------|
E|---------------------------------------|

    Before the Second Solo play this

E|--------------------------------------------|
B|--------------------------------------------|
C|--------------------------------------------|
D|--7-7------------7-7----------------7-7-7-7-|
A|--------------------------------------------|
E|--------------------------------------------|

    Second Solo

E|----------------------------------------------|
B|----------------------------------------------|
C|6/8-9p8-9/13-15h16-15-(12)--15h16p15-15h16p15-|
D|----------------------------------------------|
A|----------------------------------------------|
E|----------------------------------------------|

E|--------------------------------|
B|--------------------------------|
C|12h13p12-12h13p12-9h10p9-9h10p9-|
D|--------------------------------|
A|--------------------------------|
E|--------------------------------|

    The last chorus is played like the intro.

    The first bridge

E|------------------------------10-9-8------------|
B|------------------------------------------------|
C|--7-6-5----------7-6-5--------------------7-6-5-|
D|7--------------7------------7-----------7-------|
A|------------------------------------------------|
E|------------------------------------------------|
Вверх

Give It Away (4 вариант)

intro


g-------------------------------------------------------
d--Guitar Intro-----------------------------------------
a-------------------------------------------------------
e----------------------------------6/18-----5/11------


g------------12----------------------12---------------
d------0/14--------------------0/14-------------------*
a-0-x-------------x3--x3-0--x------------------x3-0---*
e-----------------------------------------------------
what you got you gotta give it to your mama
whay you got you gotta give it to your papa


Chourus

g------------------
d------------------*
a------------------*
e-3/5--------3/5---
  t          t
give it away   give it away   give it away now


Guitar solos

g------------------------------------------------
d------------------------------------------------*
a-----------10-------------------10--------------*
e-0x--0/12------0-3-0--x--0/12------------0-3-0--


listen to the song you'll figure out the order.

Outro
                                         |----place this fast---|
g------------12----------------------12------14----12----12-10--
d------0/14--------------------0/14-------14----14----10--------
a-0-x-------------x3--x3-0--x-----------------------------------
e---------------------------------------------------------------

g------------12----------------------12----------------
d------0/14--------------------0/14--------------------*
a-0-x-------------x3--x3-0--x-------------0-3----------*
e----------------------------------------------0--3--0-
Вверх

Gong Li

------------------------0-0-----
----------2----------2------2---
--------2----------2------------
---3--3------3---3--------------
--------------------------------
--------------------------------

------------------------4-4-2-2-0---
----------2----------2--------------
--------2----------2----------------
---3--3------3---3------------------
------------------------------------
------------------------------------

----------------------0-0-----
----------2--------2------2---
--------2--------2------------
---3--3-----3---3-------------
------------------------------
------------------------------

-----------------------7-7-4-2-0---
----------2---------2--------------
--------2---------2----------------
---3--3-----3---3------------------
-----------------------------------
-----------------------------------
Вверх

Good Time Boys

e-1010--1010-1010-10--10-----------|
B----------------------------------|
G-7-7---7-7--7-7--7^9-9------------|
D----------------------------------|
A----------------------------------|
E-------------------------0-3>-----|

e-1212--1212-1212-12--12-------------5-5-5-5----|
B------------------------------------5-5-5-5----|
G-7-7---7-7--7-7--7^9-9-------------------------|
D-----------------------------------------------|
A-----------------------------------------------|
E-------------------------0-3>--0---------------|

Verse
p.m- -                         - -
e--------------------------------------------55-55-5-5---|
B------2^0-------------------------2^0-------55-55-5-5---|
G------2^0-------------------------2^0-------------------|
D----------2-0-2------0----------------2-0-2-------------|
A----------------0-1-2-2-1-0-----------------------------|
E--0-0----------------------3--0-0-----------------------|


p.m- -                         - -
e--------------------------------------------55-55-5-5---|
B------2^0-------------------------2^0-------55-55-5-5---|
G------2^0-------------------------2^0-------------------|
D----------2-0-2------0-2^0---------------2-0-2----------|
A----------------0-1-2-----0-----------------------------|
E--0-0-----------------------3-0-0-----------------------|

p.m- -                         - -
e--------------------------------------------------------|
B------2^0-------------------------2^0-------------------|
G------2^0-------------------------2^0-------------------|
D----------2-0-2------0-2^0-------------0^2^0------------|
A----------------0-1-2-----0------------------2-1-0------|
E--0-0-----------------------3-0-0------------------3>---|

p.m- -
e--------------------5-----------|
B------2^0-----------5-----------|
G------2^0-----------------------|
D----------2-0-2-----------------|
A--------------------------------|
E--0-0---------------------------|

Verse pt.2
p.m- -
e-----------------------------------------------|
B------2-2^0----------------8-8-----------------|
G------2-2^0--0-6-7--0-6-7--7-7--0-6-7----------|
D---------------------------6-6-------7-5-------|
A---------------------------7-------------------|
E--0-0------------------------------------------|

p.m- -
e--------------------------------55-55-5-5------|
B------2-2^0----------------8-8--55-55-5-5------|
G------2-2^0--0-6-7--0-6-7--7-7-----------------|
D---------------------------6-6-----------------|
A---------------------------7-------------------|
E--0-0------------------------------------------|

Verse pt.3
e-----------3--------55|-----------3--------55|
B-----------3--------55|-----------3--------55|
G----------------------|----------------------|
D-0-222-0-2---0-22-0---|-0-222-0-2---0-22-0---|
A----------------------|----------------------|
E----------------------|----------------------|

e-----------3--------55|-----------3----------|
B-----------3--------55|-----------3----------|
G----------------------|----------------------|
D-0-222-0-2---0-22-0---|-0-222-0-2---0-2-0----|
A----------------------|------------------2-0-|
E----------------------|---------------------3|

Repeat Verse pt.2

Verse pt.4
p.m- -       - - - -    - -       - - -
e---------------3---33------------------5-5--|
B------3-2^0----3---33------3-2^0-------5-5--|
G------3-2^0----------------3-2^0------------|
D--------------------------------------------|
A--------------------------------------------|
E--0-0-------0-0-0-0----0-0-------0-0-0------|

p.m- -       - - - -
e---------------3---33-------3--3--3--3--|
B------3-2^0----3---33-------3--3--3--3--|
G------3-2^0-----------------------------|
D-----------------------0-222-22-22-22---|
A----------------------------------------|
E--0-0-------0-0-0-0---------------------|

Chorus
e---7777------------------------7777--------------------|
B---7777------------------------7777--------------------|
G---7777--7-9---9-9-7-9---------7777---7-9--xx----------|
D-9-----9-7-9---9-9-7-9-------9------9-7-9--xx-5555-5555|
A-9-----9-5-7---7-7-5-7-------9------9-5-7--xx-5555-5555|
E-7-----7----------------5>---7------7---------3333-3333|

e---7777------------------------7777--------------------|
B---7777------------------------7777--------------------|
G---7777--7-9---9-9-7-9---------7777---7-9--xx----------|
D-9-----9-7-9---9-9-7-9-------9------9-7-9--xx-5555-5555|
A-9-----9-5-7---7-7-5-7-------9------9-5-7--xx-5555-5555|
E-7-----7----------------5>---7------7---------3333-3333|

Fill
p.m
e----------------------5-3-----------------------------------|
B------2^0---------------------------2^0---------------------|
G------2^0---------0^2---------------2^0---------------------|
D----------2-0---------------------------2-0---0^2^0---------|
A---------------------------------------------------2-1-0----|
E--3/5--------3>0-----------------3/5-------3>0-----------3>-|

p.m                            - -
e-------------------------------------------5----------------|
B------2^0------------------75---2^0-------5----------------|
G------2^0-----------64----------2^0------------------------|
D----------2-0----5/7----7/9----------2-0-2------------------|
A------------------------------------------------------------|
E--3/5--------3>0--------------0-0---------------------------|

Repeat Verse pt.2

Repeat Verse pt.3

p.m- -                         - -
e--------------------------------------------55-55-5-5---|
B------2^0-------------------------2^0-------55-55-5-5---|
G------2^0-------------------------2^0-------------------|
D----------2-0-2------0----------------2-0-2-------------|
A----------------0-1-2-2-1-0-----------------------------|
E--0-0----------------------3--0-0-----------------------|

p.m- -
e-----------------------------------3--3--3--3-----------|
B------2^0--------------------------3--3--3--3-----------|
G------2^0-----------------------------------------------|
D----------2-0-2------0-2^0----0-222-22-22-22------------|
A----------------0-1-2-----0-----------------------------|
E--0-0-----------------------3---------------------------|

Repeat Chorus

Fill
p.m- -                      - -
e-----------------------------------------------|
B------2-2^0-------------------2-2^0------------|
G------2-2^0--0-6-7--0-6-7-----2-2^0-0-6-7------|
D-----------------------------------------7-5---|
A-----------------------------------------------|
E--0-0----------------------0-0-----------------|

p.m- -
e-------------------------|
B------2-2^0--------------|
G------2-2^0--------------|
D-------------------5>----|
A-----------------5---7---|
E--0-0--------5^7--7------|

Skip that anoying part where it skips....

e-12-12-12----------------------------------------------------------|
B-11-11-11----------------------------------------------------------|
G-14->(14)--12--12+(12)-----------------------------------------14+(14)^12-|
D-------------------------------------------------------------------------------|
A-------------------------------------------------------------------------------|
E-------------------------------------------------------------------------------|

e-----------------------------------------------15-12---------------------------|
B---------------15----------------------------------15-12-----------------------|
G----------12---14>--14+(14)^12-------12-12^14-12-------14-12-------------------|
D-14--12^14--14---------------14-12^14----------------------14-13-12------------|
A-------------------------------------------------------------------14-13-12----|
E--------------------------------------------------------------------------15>0-|

e---------------12---12-----12---14>---|
B-15-15-15---15+--15+--+15--15+--14>---|
G-14>14>14>----------------------------|
D--------------------------------------|
A--------------------------------------|
E--------------------------------------|

e------------------------------------------------------------|
B------------------------------------------------------------|
G---------12~------------------------------------------------|
D--14^12-----11---11-12--------------------------------------|
A-------14------14------12-10-12-10-12>(12)-10^12^12---------|
E---------------------------------------------------12-10-12-|
Вверх

Grand Pappy Do Plenty

Intro seulement :

e-|-------------------------------------|
B-|-------------------------------------|
G-|------2-------2--2-------12----------|
D-|--4-4-2---4-4-2--2-2-4-7-----4-4--7--|
A-|--4-4-----4-4------2-4-7-----4-4--7--|
E-|--2-2-----2-2--------2-5-----2-2--5--|


e|--------------------------------------|
B|--------------------------------------|
G|--------------------------------------|
D|--7-7-7-7---77777--7-7---4------------|
A|--7-7-7-7---77777--7-7---4------------|
E|--5-5-5-5---55555--5-5---2------------|
Вверх

Green Heaven

     Em7(#9)

E-|-------------------------------------------------|
B-|---7777xxx-----------red-hot-chili-peppers-------|
G-|---6666xxx---------------------------------------|
D-|---7777xxx6--x5------main-riff-from--------------|
A-|---8888xxx---x-------green-heaven----------------|
E-|-0--------4--x3----------------------------------|
Вверх

Greeting Song

intro& most of the song

g----------------------------------
d----------------------------------
a-0-0-0-0------3-3-3-3-------
e-----------------------------------

then play this
g-----------------------------------
d-----------------------------------
a-0----3---0--0---0-0-0-0----
e------------------------------------

chorus
this is repeated 3 times then goes to the next line
g--------------------------------------
d-------0--2--2-3-4----------------
a--2-x-------------------------------
e--------------------------------------

g-------------------------------------------------
d--5h7-7-7-7--7-7-5h7-7-7-7---7-7-----
a-------------------------------------------------
e-------------------------------------------------
Вверх

Havana Affair

Intro:
|-----------|-----7-------|
|-----9-----|---7-------7-|
|---9---9---|-5-------7---| X2
|-7-------9-|-------5-----|

Verse:
|-----------|-----------|-----------|-------------|
|-----9-----|-----5---5-|-----7-----|-----4---4---|
|---9---9---|---5---5---|---7---7---|---4---4---4-| X2
|-7-------7-|-3---------|-5-------5-|-2-----------|

Chorus:
|-------------|---------|    |---------------|
|-----5---5---|---------|    |---------------|
|---5---5---5-|---------| X2 |---------------| X2
|-3-----------|--2--2~--|    |--7~---3-3-2-2-|

Interlude:
|-------------------|-------------------|
|-------------------|-------------------|
|--------------5--7-|--------------5----| X4
|-5/7-7-7--7-7------|-5/7-7-7--7-7----5-|

End:
|--------|
|--------|
|--------|
|---7~---|
Вверх

Havana Affair (2 вариант)

INTRO
 Dm          Bm         A
E---------1-------------------------------
B-------3----------3----------2-----------
G----2-----------4----------2-------------X2
D-0------------4----------2---------------
A-----------------------------------------
E-----------------------------------------
VERSE (STARTS STRUMING CHORDS BUT SEC TIME PLUCKING LIKE BELOW)
Dm,Bm,C,A
 Dm          Bm          C           A
E--------1-----------2----------------------0---
B------3---3-------3---3--------1---------2---2-
G---2-----------4-------------0---0-----2-------
D-0-----------4-------------2---------2---------X2
A-------------------------3---------------------
E-----------------------------------------------
INTRO AGAIN
VERSE AGAIN

INTERLUDE
E-----------------------------------------------
B-----------------------------------------------
G-----------------------------------------------X4
D-8/10-10-10-10-10--12--14----------------------
A-8/10-10-10-10-10--12--14----------------------
E-6/8--8--8--8--8---10--12----------------------
Вверх

Higher Ground

intro
e-|------------------------------------|---------------------------------|
B-|----12-----12--x--x--x--------------|-12-----12-----------------------|
G-|.---12-----12--x--x--x----14p12-----|-12-----12--------12---------12--|
D-|.---12-----12--x--x--x-----------14-|-12-----12--------12---------12--|
A-|-x------x------x--x--x--------------|-----x------12h14-----12h14------|
E-|------------------------------------|---------------------------------|

e-|------------------------------------|-15-15-15-15-15-15-15-15-15-15-15|
B-|--x--12----12--x--x--x------------x-|-15-15-15-15-15-15-15-15-15-15-15|
G-|--x--12----12--x--x--x--14p12-----x-|--------------------------------.|
D-|--x-----14-----x--x--x--------14----|--------------------------------.|
A-|---------------x--x--x--------------|---------------------------------|
E-|------------------------------------|---------------------------------|

rhythm fill

   p.m.--------|     p.m.--------|
e-|------------------------------------|---------------------------------|
B-|------------------------------------|---------------------------------|
G-|-------------4--6--------------4--6-|---------------------------------|
D-|-------------5--7--------------5--7-|------repeat a few times---------|
A-|-------------5--7--------------5--7-|---------------------------------|
E-|-0-0-0-0-0-0-3--5--0-0-0-0-0-0-3--5-|---------------------------------|


e-|--------------------------------------------|
B-|--9----9--x-x-x--------9----9--x-x-x--------|
G-|--9----9--x-x-x--9-----9----9--x-x-x--9-----|
D-|--9----9--x-x-x--9h11--9----9--x-x-x--9h11--|
A-|----11----x-x-x----------11----x-x-x--------|
E-|--------------------------------------------|


e-|---------------------15-15-15-15-15-15-15-15-|
B-|-9----9--x-x-x-------15-15-15-15-15-15-15-15-|
G-|-9----9--x-x-x--9----------------------------|
D-|-9----9--x-x-x--9h11-------------------------|
A-|---11----x-x-x-------------------------------|
E-|---------------------------------------------|


e-|----------------------------------------|--------------------------------|
B-|-17-x-17-x-17-17-17-x-------------------|--------------------------------|
G-|-17-x-17-x-17-17-17-x-------------------|--------------------------------|
D-|-17-x-17-x-17-17-17-x--5-x-5---5--5--5--|----repeat last measure once----|
A-|-15-x-15-x-15-15-15-x--5-x-5---5--5--5--|--------------------------------|
E-|-----------------------3-x-3---3--3--3--|--------------------------------|

e-|----------------------------------------|--------------------------------|
B-|----------------------------------------|--5-----------------------------|
G-|----------------------------------------|--5-----------------------------|
D-|--7-------------------------------------|--5-----------------------------|
A-|--7-------------------------------------|--3-----------------------------|
E-|--5-------------------------------------|--------------------------------|


e-|-----------------------|-----------------------|-----------------------|
B-|-----------------------|-----------------------|-----------------------|
G-|-9-9-9-9-12-9-12-14-12-|-9-9-9-9-12-9-12-14-12-|-9-9-12-9-12-14-12-9-9-|
D-|-9-9-9-9-12-9-12-14-12-|-9-9-9-9-12-9-12-14-12-|-9-9-12-9-12-14-12-9-9-|
A-|-----------------------|-----------------------|-----------------------|
E-|-----------------------|-----------------------|-----------------------|


At Woodsctock while Anthony Keidis is telling everyone to wave thier shirt
in the air just before playing Higher Ground this is what they play.

e-|--------------------------|------------------------|
B-|--------------------------|------------------------|
G-|.----4--3--4--3--4--4/11--|--11--10--10--11--3--4-.|
D-|.----4--3--4--3--4--4/11--|--11--10--10--11--3--4-.|
A-|-----2--1--2--1--2--2/9---|--9---8---8---8---1--2--|
E-|--0-----------------------|------------------------|
Вверх

Higher Ground (2 вариант)

Intro:
e|------7--7--x----------|---7--7--x--------------|
B|------8--8--x--10p8----|---8--8--x--------------|
G|------9--9--x-------9--|---9--9--x--------------|
D|-----------------------|-----------7p5---7p5----|
A|-----------------------|---------------7-----7--|
E|-----------------------|------------------------|

e|------7--7--x----------|---7-7-7-7-7--9--9--9--9--9--9--|
B|------8--8--x--10p8----|---8-8-8-8-8-10-10-10-10-10-10--|
G|------9--9--x-------9--|---9-9-9-9-9--9--9--9--9--9--9--| Play twice
D|-----------------------|--------------------------------|
A|-----------------------|--------------------------------|
E|-----------------------|--------------------------------|

Verse:
    E5          G5  A5     E5          G5  A5
e|----------------------|----------------------|
B|----------------------|----------------------|
G|----------------------|----------------------|
D|---------------5--7---|---------------5--7---|
A|---------------5--7---|---------------5--7---|
E|--0-0-0-0-0-0--3--5---|--0-0-0-0-0-0--3--5---|

People...............................keep on learnin’
Soldiers.............................keep on warrin’

    F#    A B   F#    A B     A         G
e|-------------------------|------------15-15-15-15-15///---|
B|-------------------------|------------15-15-15-15-15///---|
G|-------------------------|------------16-16-16-16-16///---|
D|----7-----9-----7-----9--|--7-7-7-7-7---------------------|
A|--9---9-7-9---9---9-7-9--|--7-7-7-7-7---------------------|
E|----------7-----------7--|--5-5-5-5-5---------------------|
World.................keep on turnin’.......Cause it won’t be too long.

Repeat intro (the second part is a little different):
e|------7--7--x----------|---7--7--x---10-10-10--9--9--9--|
B|------8--8--x--10p8----|---8--8--x---10-10-10-10-10-10--|
G|------9--9--x-------9--|---9--9--x---11-11-11--9--9--9--| Play twice
D|-----------------------|--------------------------------|
A|-----------------------|--------------------------------|
E|-----------------------|--------------------------------|

Repeat verse
In some parts a 2nd guitar plays:
    E5        G5  A5            E5        G5  A5      E5        G5  A5
e|----------------15-15-15--|----------------------|----------------15-15-15-|
B|----------------15-15-15--|----------------------|----------------15-15-15-|
G|--------------------------|----------------------|-------------------------|
D|--------------------------|----------------------|-------------------------|
A|--------------------------|----------------------|-------------------------|
E--------------------------------------------------|-------------------------|
    Powers................................keep on     lyin’
    While your people.....................keep on dyin’

    F#    A B   F#    A B     A         G
e|-------------------------|------------15-15-15-15-15///---|
B|-------------------------|------------15-15-15-15-15///---|
G|-------------------------|------------16-16-16-16-16///---|
D|----7-----9-----7-----9--|--7-7-7-7-7---------------------|
A|--9---9-7-9---9---9-7-9--|--7-7-7-7-7---------------------|
E|----------7-----------7--|--5-5-5-5-5---------------------|
World.................keep on turnin’.......cause it won’t be too long


Chorus:
        A            E      G  E      G
e|---------------------------------------|
B|---------------------------------------|
G|---------------------------------------| Play X 3
D|------7—-7p5-7p5----------5---------5--|
A|------7----------7--------5---------5--|
E|------5------------0-0-0--3--0-0-0--3--|
  I’m so darn glad he let me try it again,
  ‘cause my last time on earth I lived a whole world of sin
  I’m so glad that I know more than I knew then

e|---------------------------------------------------|
B|----------------------x--x--x--x--x----------------|
G|-----11--------------14-14-14-14-14////------------|
D|-----11--------------14-14-14-14-14////------------|
A|------9--------------12-12-12-12-12////------------|
E|------9---------------x--x--x--x--x----------------|
  Gonna keep on tryin’ till I reach the highest ground

Outro:
e|--0-0-0-0-0-3-5-3--|
B|--0-0-0-0-0-3-5-3--|
G|-------------------| repeat several times
D|-------------------|
A|-------------------|
E|-------------------|
Вверх

Higher Ground (3 вариант)

Intro (the bass starts it up then the drums and the guitar come in.)
       He uses mostly octives.
g--------------------------------------------------------------- || I think you repeat
d-----2-----------5----------7----------2-----------5---------7-*|| it Four times then,
a---------------------------------------------------------------*||
e-0x-----0---3-3-------5-5---------0x------0---3-3------5-5----- ||
  TT  P  T   T T  P    T T   P     TT   P  T   T T  P   T T   P

g-------------------------------------------------------------------
d-----2-----------5--------7-------2-------2------------------------
a--------------------------------------------------------3----------
e-0x-----0---3-3------5-5------0x------0x-----0----3h5------3h5--3--
  TT  P  T   T T  P   T T  P   TT  P   TT  P  T

g--------------------------------------------------
d-----2----------5--------7----------2------------- then you go to the intro
a-----------------------------------------5-3------ and repeat god knows how many
e-0x-----0--3-3------5-5---------0x------------5-3- times. then ,
  TT  P  T  T T  P   T T  P      TT  P

g----------------------------- ||
d-----4--------7---------9----*|| repeat (?)of x's
a-----------------------------*||
e-2x------5-5------7-7-------- ||
  TT  P   T T  P   T T   P

g-----7-------6--------4-------3-- ||
d---------------------------------*|| then you go back to the intro
a-5-5----4-4-----2-2------1-1-----*||
e--------------------------------- ||
  T T P  T T  P  T T   P  T T  P



g--------------------------------------------------------------------------
d-----------------------5---------5----------------------------------------*
a-----------------777-------777------------------------555------555--------*
e-x5-5-3-5-3-5--------------------------x5-5-3-5-3-5-------5h7-------5h7---

I'm not so sure.

g----11h9----------------------------------
d----------x11h9---------9h7--------------- Then you go back to the intro
a-9----------------10h9-------9h7---5--7h8- and figure it out yourself on the
e------------------------------------------ order it goes.
Вверх

Hollywood

Intro:
G-|----------------|---------------------------|-----|-----|
D-|----------------|--7h8--10--8---------------|-----|-----|
A-|-10------10-10--|--------------10--8--------|-----|-----|
E-|----------------|-----------------------10--|--6--|--8--|

Verse:
G-|------------------|---------------|-----------------|----------------|
D-|------------------|---------------|-----------------|----------------|
A-|------------------|---------------|-----------------|----------------|
E-|-3-3----3-3---x-3-|-3-3----3-3--3-|-3-3----3-3--x-3-|-3-3---3-3--x-3-|

Chorus:
G-|-------------|-------------|---------------|-------------|
D-|-8-----------|-------------|--8------------|-------------|
A-|----8----10--|-------------|------8----10--|-------------|
E-|-------------|-3----3--3-3-|---------------|-3----3--3-3-|

Verse (2nd kind):
G-|--------------------------------|-----------------------------------|
D-|-----------8--------------------|------------8--10------------------|
A-|-8--10--8------8--10------------|--8--10--8---------8--10-----------|
E-|-------------------------3--3-3-|----------------------------3--3-3-|

Interlude:
G-|--------|--------------|---------------|------------10/12--10--12-|
D-|--------|--------------|---------------|--------------------------|
A-|-10-10--|-----8--10-10-|-----8---------|-----8--------------------|
E-|--------|-10-----------|-10--------3-3-|--10----------------------|

G-|--------|--------------|---------------|---------------10---12--|
D-|--------|--------------|---------------|---------10/12----------|
A-|-10-10--|-----8--10-10-|-----8---------|------8-----------------|
E-|--------|-10-----------|-10--------3-3-|--10--------------------|

G-|--------|--------------|---------------|-----------10/12--10--12--|
D-|--------|--------------|---------------|--------------------------|
A-|-10-10--|-----8--10-10-|-----8---------|------8-------------------|
E-|--------|-10-----------|-10--------3-3-|--10----------------------|

G-|--------|--------------|----------------|---------------10----12--|
D-|--------|--------------|----------------|---------10/12-----------|
A-|-10-10--|-----8--10-10-|------8---------|-----8-------------------|
E-|--------|-10-----------|--10-------3-3--|--10---------------------|

Silent interlude part:
G-|-------------------------------|----------------------------------|
D-|-----------8--------8h10-------|-----------10---------------------|
A-|-8--10--10---10-10-------8--10-|-10--10--8-----8--10--10----------|
E-|-------------------------------|---------------------------3--3-3-|

Last verses and outro:
G-|--------------------------------|-----------------------------------|
D-|-----------8--------------------|------------8--10------------------|
A-|-8--10--8------8--10------------|--8--10--8---------8--10-----------|
E-|------------------------3--x3-3-|----------------------------3--3-3-|
Вверх

My Friends

    G  ||--------------------------------|--------------------------------|
    D 4||--------------1517------17--15--|12----------12--15----------12--|
    A 4||--------------------------------|--------------------------------|
    E  ||--------------------------------|--------------------------------|


	|--------------------------------|--------------------------------|
	|----------------------------14--|12----------14--15----------15--|
	|10----------10--15--------------|--------------------------------|
	|--------------------------------|--------------------------------|


	|--------------------------------|--------------------------------|
	|--------------------------------|--------------------------------|
	|10--------------r2--------------|r2--------------15----------15--|
	|--------------------------------|--------------------------------|
					       My friends are so depressed

	|--------------------------------|--------------------------------|
	|17------------------------------|12----------14--15----------15--|
	|-------------12h16--------1215--|--------------------------------|
	|--------------------------------|--------------------------------|
		     I    feel      the   question of your loneli-ness

	|--------------------------------|--------------------------------|
	|17-----------15h17-h17-h17--15--|12----------12--15------------15|
	|--------------------------------|----------------------------17--|
	|--------------------------------|--------------------------------|
				   Con -  fide cause I'll be on your side

	|--------------------------------|--------------------------------|
	|17----------12------------------|12----------12--15--------------|
	|----------------15--------------|--------------------------------|
	|--------------------------------|--------------------------------|
		     you know I will		     you  know I will

	|--------------------------------|--------------------------------|
	|--------------------------------|----------------3-----------3---|
	|10------------------0---3---4---|5-----------5-----------------5-|
	|--------------------------------|--------------------------------|
					      X - girlfriend called me up

	|--------------------------------|--------------------------------|
	|--------------------------------|--------------------------------|
	|----------------3-r-3-------3-4-|5-----------7---8-----------8-9-|
	|3-----------3-----------r-5-----|--------------------------------|
		      A- lone       and   desperate on the prison phone

	|--------------------------------|--------------------------------|
	|----------------10---9----7-----|------------------------------3-|
	|10----------10------------------|5-----------5---8-----------5---|
	|--------------------------------|--------------------------------|
				   They   want to give her 7 years

	|--------------------------------|--------------------------------|
	|--------------------------------|----------------5---------------|
	|----------------3---------------|3-----------3-------------------|
	|3-----------3-------------------|--------------------------------|
		     For be-ing  sad		  I       love

	|--------------------------------|--------------------------------|
	|--------------------7-7-7-7-7-7-|--------------------------------|
	|0-------0-----------------------|3-----------3---5-------5---0---|
	|--------------------------------|--------------------------------|
	 all     of  you			  hurt    by      the co -

	|--------------------------------|--------------------------------|
	|----------------7-7-7-7-7-7-7---|----------------5---------------|
	|--------------0-----------------|3-----------3---------------3---|
	|--------------------------------|--------------------------------|
	  ld					  So  	  ha -rd  &

	|--------------------9---9------|--------------------------------|
	|--------------------------------|--------------------7-----------|
	|0-------------------------------|3-----------3---5-------5---0-lr|
	|--------------------------------|--------------------------------|
         lo- ne -ly too			  when    you     don't know

	|------------------------14141414|--------------------------------|
	|--------------------------------|------------2---3-----------3-4-|
	|(lr4)---------------------------|5-------5-----------------------|
	|--------------------------------|--------------------------------|
	 your - se - lf			       My friends are so distressed

	|--------------------------------|--------------------------------|
	|5-----------5-------------------|------------7-------------5-3---|
	|----------------3-----------3-4-|5-------5-------8-------------5-|
	|--------------------------------|--------------------------------|
		     and stand - ing      on the  brink of emptiness

	|--------------------------------|--------------------------------|
	|--------------------------------|----------------8---------------|
	|----------------3---3-5/9---7---|5-------5---7---------------3-5-|
	|3-----------3-------------------|--------------------------------|
				      No  words ...     I know of to ex -

	|--------------------------------|--------------------------------|
	|--------------------------------|----------------5---------------|
	|------------3---3---------------|3-----------3-------------------|
	|3-------------3-----------------|--------------------------------|
	 press this emptiness		  I	  love 		  all

	|--------------------------------|------------------------7-------|
	|--------------------------------|--------------------7-----------|
	|0-------0-0-0-0-0-0-0-0-0-0-0-0-|3-----------3---5-----------0-lr|
	|--------------------------------|--------------------------------|
	 of you				  Hurt    by      the   cold

	|--------141414--141414--141414--|--------------------------------|
	|--------------------------------|----------------5---------------|
	|(lr4)---------------------------|3-----------3---------------3---|
	|--------------5-------5-------5-|--------------------------------|
					  	So  	  ha -rd   &

	|--------------------------------|------------------------7-------|
	|------------------------g7g77--|--------------------7-----------|
	|0(lr3)--------------------------|3-------3-------5-----------0-lr|
	|--------------------------------|--------------------------------|
	 lo- ne -ly too			  When    you     don't know

	|--------------------------------|--------------------------------|
	|--------------------------------|--------------------------------|
	|(lr4)---------------------------|5-------5---7---8-----------8---|
	|--------------------------------|------------------------------12|
	 your  - self

	|--------------------------------|--------------------------------|
	|----------------9---10--107-----|--------------------------------|
	|10--------------------------108-|------------7---8-----------8---|
	|--------------------------------|10----------------------------10|


	|--------------------------------|--------------------------------|
	|--------9-------9---10--10------|--------------------------------|
	|10----10----1010----------0-3-4-|5-------5---7---8-----------8---|
	|--------------------------------|------------------------------10|


	|--------------------------------|--------------------------------|
	|----------------9-10101010------|--------------------------------|
	|10(lr2)-------10----------0-3-4-|5-------5---7---8-----------8---|
	|--------------------------------|------------------------------10|


	|--------------------------------|--------------------------------|
	|--------------------------------|--------------------------------|
	|10--------------8---------------|7---7---7---7---7---7---7---7---|
	|--------------------------------|--------------------------------|
					  I       -       ma  -   gine me

	|--------------------------------|--------------------------------|
	|--------------------------------|------------------------11------|
	|10--10--10--10--10--10--10--10--|9---9---9---9---9---9-------9---|
	|--------------------------------|--------------------------------|
					  taught  by      tra  -  gedy

	|--------------------------------|--------------------------------|
	|--------10----------10------10--|--------------------------------|
	|8---8-------8(lr1)------8-------|--------------------10----------|
	|--------------------------------|8---8---8---8---8-----------8---|
			         Re  -    lea		-     se	is

	|--------------------------------|--------------------------------|
	|--------------------------------|--------------------------------|
	|--------------------9(lr1)------|--------------------------------|
	|7---7---7---7---7-----------7---|1---1---1---1---1---1---1---1--|
	 pea		-		ce

	|--------------------------------|--------------------------------|
	|--------------------------------|--------------------------------|
	|--------------------15(lr1)-----|5-------5---7---8-------------8-|
	|13131313131313--14----------13--|----------------------------10--|
						I heard a little girl

	|--------------------------------|--------------------------------|
	|----------------10------9---7---|----------------------------3---|
	|10----------10------------------|5-----------7---8-------------5-|
	|--------------------------------|--------5-----------------------|
		     And wha  -   t  she  said was something beautiful

	|--------------------------------|--------------------------------|
	|--------------------------------|--------------------------------|
	|------------------5-8-5-5-1012--|------------7---8-------8-10-lr-|
	|3---------5-7-8-8-------------8-|10------10------------10--------|
				      To  give your love no matter what

	|--------------------5-------5---|--------------------------------|
	|----------------5-7-----5-7-----|--------------------------------|
	|(lr2)---------------------------|3-----------3---2-----------3---|
	|--------------------------------|--------------------------------|
		    And  what she said...	  I	  lo  -   ve

	|--------------------------------|--------------------------------|
	|--------------------7---7------|--------------------7-----------|
	|0-----------0---0---------------|3-----------3---5---------------|
	|--------------------------------|------------------------0---5---|
	 all	 of you				  Hurt    by      the  co -

	|----------------141414141414----|--------------------------------|
	|----------------------------12-|----------------5---------------|
	|--------------------------------|3-----------3-------------------|
	|--------------------------------|--------------------------------|
	 ld					  So      ha  - rd  & lone-

	|--------------------------------|--------------------------------|
	|--------------------------------|------------------------7-------|
	|0-----------0---0---------------|3-----------3---5-----------0-lr|
	|--------------------------------|--------------------------------|
	 ly too					 When     you     don't know

	|--------------------------------|--------------------------------|
	|--------------------------------|--------------------------------|
	|(lr4)---------------------------|5---5---5---5---8---8---8---8---|
	|--------------------------------|--------------------------------|
		 your	-    se   -    lf

	|--------------------------------|--------------------------------|
	|--------------------------------|--------------------------------|
	|10--10--10--10--10/151515151515-|5---5---5---5---8---8---8---8---|
	|--------------------------------|--------------------------------|


	|--------------------------------|----------------7-------7---7---|
	|--------------------------------|------------------107-10--10--10|
	|10--10--10--10--10/151515151515-|5---5-5-5---5-5-----------------|
	|--------------------------------|--------------------------------|


	|--------------------------------|--------------------------------|
	|9---9-109-109-10----------------|--------------------------------|
	|----------------7---7-9-5-9-7-9-|5-5-5-5-5---5-5-8-8-8-8-8---8-8-|
	|--------------------------------|--------------------------------|


	|--------------------------------|-------------------------------||
	|--------------------------------|-------------------------------||
	|1010101010--1010/151515151512---|5(lr4)-------------------------||
	|--------------------------------|-------------------------------||
Вверх

My Lovely Man

 Intro


e|---------------------------------------------------|
B|---------------------------------------------------|
G|--------------------7------------------------------|
D|------------7-5-7/9---7-5--------------------------|
A|7-5-7-5-7-5---------------7-5-7-5-7-5---------5----|
E|--------------------------------------5-3-5/7---5-3|

 Riff 1

e|---------------------------------------------------|
B|---------------------------------------------------|
G|--------------------7------------------------------|
D|------------7-5-7/9---7-5--------------------------|
A|7-5-7-5-7-5---------------7-5-7-5-7-5---------5----|
E|--------------------------------------5-3-5/7---5-3|

e|---------------------------------------------------|
B|------------------------15-------------------------|
G|------------14-12-14/16----14-12-------------------|
D|---------------------------------14-12-14-12-14-12-|
A|7-5-7-5-7-5----------------------------------------|
E|---------------------------------------------------|

e|-------------------|
B|-------------------|
G|-------------------|
D|-----------11------|
A|11-9-11/13----11-9-|
E|-------------------|

 Bridge (fast)

e|--------------------------------|
B|--------------------------------|
G|--------------------------------|
D|----------------7-5-7-5-7-5-7-5-|
A|7-5-7-5-7-5-7-5-----------------|
E|--------------------------------|

 Riff 2

e|---------------------------------------------------|
B|---------------------------------------------------|
G|-------------------7h9-----------------------------|
D|------------7-5-7/9---7p5--------------------------|
A|7-5-7-5-7-5---------------7-5-7-5-7-5---------5----|
E|--------------------------------------5-3-5/7---5-3|

e|---------------------------------------------------|
B|------------------------15-------------------------|
G|------------14-12-14/16----14-12-------------------|
D|---------------------------------14-12-14-12-14-12-|
A|7-5-7-5-7-5----------------------------------------|
E|---------------------------------------------------|

e|-------------------|
B|-------------------|
G|-------------------|
D|-----------11------|
A|11-9-11/13----11-9-|
E|-------------------|

 Chorus ( it sounds diferent so,get it by yourself)

e|5--3-5-3--X-5-5--7--5-7-5--X-7-7-|
B|5--3-5-3--X-5-5--7--5-7-5--X-7-7-|
G|---------------------------------|
D|---------------------------------|
A|---------------------------------|
E|---------------------------------|
 The final of the chorus it?s not to dificult, get it by yourself.

 Riff 1

 Solo

e|---------------------------10~~~~11-11~~~~~--------|
B|12~~~~~12-12-12~~~~~~12(12)----------------12~~~~~~|
G|---------------------------------------------------|
D|---------------------------------------------------|
A|---------------------------------------------------|
E|---------------------------------------------------|

e|---------------------------------------------------|
B|8~~~~~~~~--8-8-85~~~~~~~~~~~~~5-5-53~~~~3-3-3-3~~|
G|---------------------------------------------------|
D|---------------------------------------------------|
A|---------------------------------------------------|
E|---------------------------------------------------|
Вверх

Nevermind

Verse basic riff 1

G |--9---------|
D |------------|
A |----7-------|
E |-----(0)5p7-|


Variation this is played after first verse and under guitar solo

G |-------------|
D |-------------|
A |--7----------|
E |----0-5p7----|


Interlude with plenty of variations - NEVERMIND...

G |----------|
D |----------|
A |--9--9----|
E |----------|
Вверх

Nobody Weird Like Me

Bass Intro
Then the guitar breaks in with this rhythm:

    D5    F5    D5              F5    D5
e:----------------------------------------|
B:----------------------------------------|
G:--7--7--10----7---7-----7--7--10----7---|
D:--7--7--10----7---7-----7--7--10----7---|
A:--5--5---8----5---5-----5--5---8----5---|
E:----------------------------------------|


    D5    F5    D5              G5    D5
e:---------------------------------------|
B:---------------------------------------|
G:--7--7--10----7---7-----7--7--12---(7)-|
D:--7--7--10----7---7-----7--7--12---(7)-|
A:--5--5---8----5---5-----5--5--10---(5)-|
E:---------------------------------------|


Verse rhythm (variate a lot, I think Frusciante used a whammy bar for live
concerts on this song):

     D5                                 F5
e:-----------------------------------------------|
B:-----------------------------------------------|
G:---7-7-7-7-----7-7-7-7-----7-7-7-7----10--10---|
D:---7-7-7-7-----7-7-7-7-----7-7-7-7----10--10---|
A:---5-5-5-5-----5-5-5-5-----5-5-5-5-----8---8---|
E:-----------------------------------------------|


     D5                                  G5
e:------------------------------------------------|
B:------------------------------------------------|
G:---7-7-7-7-----7-7-7-7-----7-7-7-7-----12--12---|
D:---7-7-7-7-----7-7-7-7-----7-7-7-7-----12--12---|
A:---5-5-5-5-----5-5-5-5-----5-5-5-5-----10--10---|
E:------------------------------------------------|


     D5                                 F5
e:----------------------------------------------|
B:----------------------------------------------|
G:---7-7-7-7-----7-7-7-7-----7-7-7-7----10-10---|
D:---7-7-7-7-----7-7-7-7-----7-7-7-7----10-10---|
A:---5-5-5-5-----5-5-5-5-----5-5-5-5-----8--8---|
E:----------------------------------------------|


     D5                                  G5
e:----------------------------------------------|
B:----------------------------------------------|
G:---7-7-7-7-----7-7-7-7-----7-7-7-7-----12b----|
D:---7-7-7-7-----7-7-7-7-----7-7-7-7-----12b----|
A:---5-5-5-5-----5-5-5-5-----5-5-5-5-----10b----|
E:----------------------------------------------|

Chorus (strike each chord once):

C5
Bust my britches

E5
Bless my soul

D5
I'm a freak of nature

        C5
Walking totem pole

E5             G5
Look and see I think you'll agree

A5
Nobody Weird Like Me


After a while, he starts playing this little riff about 4 times:

    F5    C5
e:------------------|
B:------------------|
G:--------5-x-x-3--5|
D:--3--x--5-x-x-3--5|
A:--3--x--3-x-x-1--3|
E:--1--x------------|



The pattern is played again but up 2 whole steps near the end before
the big jam:

    A5  D5    C5  D5
e:------------------|
B:------------------|
G:------7----5---7-|
D:--7---7----5---7-|
A:--7---5----3---5-|
E:--5---------------|


Outro
One guitar strikes the D5 chord every now and then while another plays a solo
in Dm over top. Make a lot of noise :)
Try this progression:

      D5             D#5         F#5         G5
e:----------------------------------------------------|
B:----------------------------------------------------|
G:----7-----7--7--7/8----8--8--8/11-11-11-11/12--12-12|
D:----7-----7--7--7/8----8--8--8/11-11-11-11/12--10-10|
A:----5-----5--5--5/6----6--6--6/9---9--9--9/10--10-10|
E:----------------------------------------------------|
Вверх

Nobody Weird Like Me (2 вариант)

INTRO(Slap Bass):
G-----5h7-7-----5h7-7----5h7-7-5h7-7-5h7-7-)
D------------------------------------------)  X3
A-5-5-------5-5------5-5-------------------)
E------------------------------------------)

G-----5h7-7-----5h7-7-----12-12------------)
D------------------------------------------)
A-5-5-------5-5-------5-5------------------)
E------------------------------------------)

VERSE(Slap Bass):
G-------7-------5--------------------------)
D------------------------------------------)
A-5-5-5---5-5-5----------------------------)
E------------------------------------------)

CHORUS(Regular Finger-Picking):
G------------------------------------------)
D---5--------5-3---------------------------)
A-7---5-3--7-------------------------------)
E------------------------------------------)

I am sorry to inform you that i dont have the time to get the solo right now.
However, I will work on it for you when I get the time.

ORDER:
Intro X1
VerseX16
ChorusX1
VerseX16
ChorusX1
VerseX20 (guitar solo)
ChorusX1
Solo
Bridge (no bassline)
Вверх

Nobody Weird Like Me (3 вариант)

Verse 1
G |---5---7----5---7----5---7---5---*7-----5---7-----...--12-12^^-------
D |-0---0---0----0---0----0---0---*----*0----0---0---...----------------
A |--------------------------------------------------...----------------
E |--------------------------------------------------...----------------
chorus
G |---------------------------------------------------------------------
D |---------------------------------------------------------------------
A |-3----5---3----------------------------------------------------------
E |---0--------0---3---5------------------------------------------------
bridge
G |-------------7-7-9---------------------------------------------------
D |----7-7--9-9---------------------------------------------------------
A |--7------------------------------------------------------------------
E |---------------------------------------------------------------------
solo :
impossible to realize!  :o) I tab here the live part( taken in live box )
...that is the circus jingle

G |-12-11-10-11-10-9-8-7-6-7-8-7-6-7-6-5-4-3-2-3------------------------
D |---------------------------------------------------------------------
A |---------------------------------------------------------------------
E |---------------------------------------------------------------------
Вверх

No Chump Love Sucker

	Verse play eight times
G |--------8p9-|-------8p9-|--------8p9-|---11p12--------|
D |------------|-----------|------------|----------11p12-|
A |--7-7-7-7---|--7-7-7-7--|--7-7-7-7---|--10------------|
E |------------|-----------|------------|---------10-----|

	Interlude after two first verses
G |-------------|-------------|------------|------------------|
D |--7-7-7-5-7--|--7-7-7-5-7--|--5-5-5-4-5-|--10-10-10-10-10--|
A |-------------|-------------|------------|------------------|
E |-------------|-------------|------------|------------------|

	Interlude after third verse
G |--12-12-12-11-12--|--11-11-11-10-11--|--10-10-10-9-10--|
D |------------------|------------------|-----------------|
A |------------------|------------------|-----------------|
E |------------------|------------------|-----------------|

G |--9-9-9-8-9-9--|play		|---------|------------------|
D |---------------|two		|--12-11--|--10-10-10-10-10--|
A |---------------|times and	|---------|------------------|
E |---------------|then		|---------|------------------|

	Interlude after fourth verse
G |------------|-----------------|------------|-----------------|
D |--7-10-5-7--|--7-10-5-10-5-7--|--7-10-5-7--|--7-10-5-10-5-7--|
A |------------|-----------------|------------|-----------------|
E |------------|-----------------|------------|-----------------|

	Ending
G |------------------------|
D |------------------------|
A |--10---10---11---12--7--|
E |----10---10---11--------|
Вверх

One Big Mob

Bass

Bass figure 1:
G-|------------------------------|--------------------------|
D-|----------------4-4-2-2-2-4-4-|--------------------------|
A-|------------------------------|--------------------------|
E-|-2--2-0-0-2-2-----------------|-2--2-0-0-0--2-----x-0--0-|

G-|------------------------------|------------------------|
D-|----------------4-4-2-2-2-4-4-|------------------4---4-|
A-|------------------------------|------------------------|
E-|-2--2-0-0-2-2-----------------|-2--2-0-0-0--2--2---2---|
                                                  T P T P

Pre-verse:
G-|------------------|
D-|------------------|
A-|-7---6--7--6---4--|
E-|------------------|

Verse bass figure:
G-|------------------------|----------------------|----------------------|
D-|-------4-4--2-4-2--3--4-|------4-4--2-4--------|------4-4--2-4-2--3-4-|
A-|------------------------|---------------2--3-4-|----------------------|
E-|-0--2-------------------|-0--2-----------------|-0--2-----------------|

G-|------------------------|--------------------------|
D-|-------4-4--2-4------2--|---------------------/7---|
A-|----------------2--4----|-2--2-2-2-2-2-2-0--0------|
E-|-0--2-------------------|--------------------------|

Interlude: (slower)
G-|-------------|---|----------------|---|----------|
D-|--------9----|-5-|--------------7-|-3-|----------|
A-|-------------|-4-|--------7--9----|-4-|-7-----5--|
E-|-7-----------|---|----------------|---|----------|

           B(1/2)
G-|---|-------------|-----------|---|--------------|---|----------|
D-|-4-|-------------|---------9-|-5-|------------7-|-3-|----------|
A-|-4-|----7----5---|-----------|-4-|------7--9----|-4-|-7-----5--|
E-|---|-------------|-7---------|---|--------------|---|----------|

G-|---|----------------------|------------------|---|--------------|
D-|-4-|------7---------------|----------12-11-9-|-5-|------------7-|
A-|-4-|--7/9---97-5---------|-2----------------|-4-|------7--9----|
E-|---|--------------7--5--2-|------------------|---|--------------|

G-|---|---------|---|----------|-----------|---|---------------|
D-|-3-|---------|-4-|----------|--------9--|-5-|------------7--|
A-|-4-|-7----5--|-4-|-(5)------|-----------|-4-|------7--9-----|
E-|---|---------|---|----------|-7---------|---|---------------|

                       B(1)B(1)
G-|---|---------|---|----------|-----------------|---|---7---------|
D-|-3-|---------|-4-|----------|-----------7--9--|-5-|------9------|
A-|-4-|-7----5--|-4-|--7---7---|--------9--------|-4-|-------------|
E-|---|---------|---|----------|-7---------------|---|-------------|

G-|---|---------|---|-----------|--------------|---|----------------|
D-|-3-|---------|-4-|-----------|-----------9--|-5-|-------------7--|
A-|-4-|-7----5--|-4-|---4-------|--------------|-4-|-------7--9-----|
E-|---|---------|---|------0----|-7------------|---|----------------|

G-|---|---------|---|----------------------|-----------------|
D-|-3-|---------|-4-|----------------------|-----------7--9--|
A-|-4-|-7----5--|-4-|-7/97-5--7--5--------|------7--9-------|
E-|---|---------|---|----------------7--5--|-7---------------|

G-|---|--7--9/11----7-----|---|---------------|---|-----------7------|
D-|-5-|----------------9--|-3-|------9--7-----|-4-|------7--9---9----|
A-|-4-|-------------------|-4-|-7----------5--|-4-|--7/9----------0--|
E-|---|-------------------|---|---------------|---|------------------|

G-|----------9---7--6-|---|-------14h16-14--------14-|-16-------------14-|
D-|-------7-----------|-5-|-14h16----------14h16-----|-14--12--14h16--12-|
A-|----9--------------|-4-|--------------------------|-------------------|
E-|-7-----------------|---|--------------------------|-------------------|

G-|----------------------|
D-|-12----14-12----------|
A-|----14-------14--12--|
E-|----------------------|

G-|-------------|---|----------------|---|----------|---|---------|
D-|--------9----|-5-|--------------7-|-3-|----------|-4-|---------|
A-|-------------|-4-|--------7--9----|-4-|-7-----5--|-4-|----4----|
E-|-7-----------|---|----------------|---|----------|---|---------|

                                                            B(1)
G-|-------------|---|----------------|---|----------|---|--------------|
D-|--------9----|-5-|--------------7-|-3-|----------|-4-|--------------|
A-|-------------|-4-|--------7--9----|-4-|-7-----5--|-4-|---7---5------|
E-|-7-----------|---|----------------|---|----------|---|-----------5--|

G-|-------------|---|-------------|---|----------|---|------------------|
D-|--------9----|-5-|-(9)---------|-3-|----------|-4-|------------------|
A-|-------------|-4-|-------------|-4-|-7-----5--|-4-|------------------|
E-|-7-----------|---|-------------|---|----------|---|---5--5--5--6--6--|

G-|-------------|---|-------------|---|----------|---|-----------|
D-|--------9----|-5-|-(9)---------|-3-|----------|-4-|-----------|
A-|-------------|-4-|-------------|-4-|-7-----5--|-4-|--(5)------|
E-|-7-----------|---|-------------|---|----------|---|-----------|

G-|-----------|---|----------------|---|--------|---|--------|
D-|-----------|-5-|----------------|-3-|--------|-4-|--------|
A-|-----------|-4-|----------------|-4-|--------|-4-|--------|
E-|-7------7--|---|-(7)---------7--|---|------7-|---|-(7)----|
Reapet last four bars two times

G-|-------------------------|---|------------------------------|
D-|-------------------------|-5-|------------------------------|
A-|-------------------------|-4-|------------------------------|
E-|-7--7--7--7--7--7--7--7--|---|-7--7--7--7--7--7--7--7--7--7-|

G-|---|-------------------|---|-------------------------|
D-|-3-|-------------------|-4-|-------------------------|
A-|-4-|-------------------|-4-|-------------------------|
E-|---|-7--7--7--7--7--7--|---|-7--7--7--7--7--7--7--7--|
Reapet six times

G-|-------------------------|-------------------------|
D-|-------------------------|-------------------------|
A-|-------------------------|-------------------------|
E-|-7--7--7--7--7--7--7--7--|-7--7--7--7--7--7--7--7--|
Reapet two times

G-|-------------------------|-------|
D-|-------------------------|-------|
A-|-------------------------|-------|
E-|-7--7--7--7--7--7--7--7--|--7----|

Coda (faster)
G-|--------------------------|---------------------------|
D-|--------------------------|---------------------------|
A-|-7--7----------------5----|-7--7----------------5--6--|
E-|------0--0-3--0-5--0----0-|------0--0-3--0-5--0-------|

Outro: (slower)
G-|-----------------------|---|---------------------------|
D-|---------------------5-|-5-|---------------------------|
A-|-7---------7---------5-|-4-|-7---------7---------5--6--|
E-|---0--0--0---0--0--0---|---|---0--0--0---0--0--0-5--6--|
Вверх

One Big Mob (2 вариант)

Chords used- F#5, B5, E5, Eb5, C#5

Verse


I am you are me.  I am you are me.  Who?


Good woman said you gotta believe


Submerge into the urge of me.


Deliciously the mystery.


Chorus


One big mob aw yea aw yea X2


Ek bara mala aw yea aw yea X2


One big mob is...


**Keep same pattern as in the 1st verse and chorus**


Ooze into into my noodle
East or West shepard or poodle
Ladybug pinetree
To mingle with the bumblebee
A lover to the sun
And a brother to the cool breeze
One big mob is...

Chorus

We live in the city
We live in the jungle
It's time to be drinking
A thimble humble
Everything you ever see
Is never more than you and me
Give it on into the beauty of mystery

**After this, the song slows down and this riff is repeated over and over**

    B5
-----------------------------------------------------
-----------------------------------------------------
-----4------------------------------------------------
-----4------------------------------------------------
-----2---------------------------0---------------------
---------------------0-----2-----------0----------------

Well, that's basically it.  If you have any questions, comments,
corrections, ect. please send them to myrajpowell@abaco.coastalnet.com,
Attention:  Jonathan.
If someone could help me figure out the riff to Aeroplane, I wolud greatly
appreciate it.  I know the song is in the key of C major and is made of only
three chords.


 F5
e:----------------------------------------------|
B:------------------------
Вверх

One Hot Minute

Bass
Slowly

Intro:                       B(1/2)                    B
G-|-17---17---17---17---|-17----17----17----17----|-17-------0----17----|
D-|---15---15---15---15-|----15----15----15----15-|----15----0-------15-|
A-|---------------------|-------------------------|---------------------|
E-|---------------------|-------------------------|---------------------|

G-|-17----17---17----17----17----|-17----17----17----17------|
D-|---------------------15----15-|----15----15----15---------|
A-|------------------------------|---------------------------|
E-|------------------------------|---------------------------|

Bass figure 1:
G-|---------------------------------|---------------------------------|
D-|---------------------------------|-------------------------5-4-----|
A-|--------7--7-7-4-4h5-0---5-4-5-7-|--------7--7-7-4-5p4-0-------3-2-|
E-|-0--0-0----------------3---------|-0--0-0----------------3---------|

G-|---------------------------------|-----------------------------|
D-|---------------------------------|---------------4p5----7-5----|
A-|--------7--7-7-4-4h5-0---5-4-----|--------7--7-7-----7-5---5-4-|
E-|-0--0-0----------------3-----3-2-|-0--0-0----------------------|

Bass figure 2a:
G-|--------------------------------|----------------------------------|
D-|--------------------------------|----------------------------------|
A-|-3--3-3-3--3-3-3--3-3-3-3/5-5/7-|-0--0-0-12-12--12-0-15-15-0-15-15-|
E-|--------------------------------|----------------------------------|

Bass figure 2b:
G-|--------------------------------|----------2--2--2------|
D-|--------------------------------|-----------------------|
A-|-3--3-3-3--3-3-3--3-3-3-3/5-5/7-|-0--0-0--0--0--0--0--0-|
E-|--------------------------------|-----------------------|

G-|------------------------------|-2------|
D-|------5--5----------5-5-4-4-3-|-2------|
A-|-3--3--------3-3--3-----------|--------|
E-|------------------------------|--------|

Chorus: (2nd time played w/variations)
G-|-------------------------|------------------------------|
D-|-------------------------|-------------------------7----|
A-|-9--9-9-9--7--7-7-7-7----|---------------------7h9--9p7-|
E-|-----------------------7-|-7--7-7-7---7-5--57/9---------|

G-|-------------------------|-----------------------------|
D-|-------------------------|-----------------------------|
A-|-9--9-9-9--7--7-7-7-7----|---------------------7/9-----|
E-|-----------------------7-|-7--7-7-7---7-5--5-7/9----7h9-|

G-|-----------------------16----|-------------------------------|
D-|--------------------------14-|----------------------7--------|
A-|-9--9-9-9--7--7-7-7-7--------|-14--14-14--14-0---------9-8-7-|
E-|-----------------------------|------------------7-9----------|

G-|---------------------------|------------------|---------------------|
D-|---------------------------|------------------|---------------------|
A-|-9--9-9-9-7--7--7-7-7--7-7-|-3-3-3--3--3-3--3-|-5-5-5-5-5--5--4-5-6-|
E-|---------------------------|------------------|---------------------|

Bass figure 3:
G-|---------------------------|---------------------------|
D-|-----------------------5---|-----------------------5---|
A-|-7-----7-------------5---5-|-7-----7-------------5---5-|
E-|---0-0---0-0-0-0-0-0-------|---0-0---0-0-0-0-0-0-------|

Interlude:
G-|-----------------------------|-------------------------|
D-|-----------------------------|------------------5------|
A-|------7----4-4h5-0---5-4-----|------7-7--7-4h5--7--4-7-|
E-|-0-----------------3-----3-2-|-0-----------------------|

G-|----------------------------|-----------------------------|
D-|----------------------------|-------------5----5h7--5-----|
A-|-------7--7-4-5p4-----------|--------7--7---7-5-------5-4-|
E-|-0--0-------------3-2-1-2-1-|-0--0-0----------------------|

G-|------5-------------|--------12h14---12h14--|
D-|------------5-------|-----------------------|
A-|-3-------3----3--5--|-0---------------------|
E-|--------------------|-----------------------|

Repeat 3 times w/variations
G-|-------------------------------|-2--------|
D-|-----5--5-5--------5-5-5-4-4-3-|-2--------|
A-|-3----------3--3-3-------------|----------|
E-|-------------------------------|----------|

Outro:
    B(1/2)    B         B         B
G-|-------------------------------------------|
D-|-------------------------------------------|
A-|-15--15-15-15--15-15-15--15-15-15--15-15---|
E-|-------------------------------------------|

Reapeat 15 times
G-|-------------|
D-|-------------|
A-|-------------|
E-|-0-----------|
Вверх

On Mercury

Intro
e--7---X-7-7---X-7--|--3---3-3-3-X-X--|--5---X-5-5---X-5--|
B--7---X-7-7---X-7--|--3---3-3-3-X-X--|--5---X-5-5---X-5--|
G--7---X-7-7---X-7--|--4---4-4-4-X-X--|--6---X-6-6---X-6--|
D--9---X-9-9---X-9--|--5---5-5-5-X-X--|--7---X-7-7---X-7--|
A-------------------|-----------------|-------------------|
E-------------------|-----------------|-------------------|

e-----------------------|T
B-----------------------|O
G--6-----7-----6--X--X--|T
D--8-----9-----8--X--X--|A
A-----------------------|L
E-----------------------|2x

Verse
e--7---X-7-7---X-7--|--3---3-3-3-X-X--|--5---X-5-5---X-5--|
B--7---X-7-7---X-7--|--3---3-3-3-X-X--|--5---X-5-5---X-5--|
G--7---X-7-7---X-7--|--4---4-4-4-X-X--|--6---X-6-6---X-6--|
D--9---X-9-9---X-9--|--5---5-5-5-X-X--|--7---X-7-7---X-7--|
A-------------------|-----------------|-------------------|
E-------------------|-----------------|-------------------|

e-----------------------|T
B-----------------------|O
G--6-----7-----6--X--X--|T
D--8-----9-----8--X--X--|A
A-----------------------|L
E-----------------------|4x

Pre-Chorus
e-------------------------|--------------------|-------2-2---X-2---|
B--3----X--3--3----X---3--|---3-----5-----3----|-2---X-2-2---X-2---|
G--4----X--4--4----X---4--|---4-----6-----4----|-3---X-3-3---X-3---|
D--5----X--5--5----X---5--|---5-----5-----5----|-4---X-4-4---X-4---|
A-------------------------|--------------------|-------------------|
E-------------------------|--------------------|-------------------|

e---0----0--0--0--0--|-------------------|--------------------|
B---2----2--2--2--2--|--3---X-3-3---X-3--|---3-----5-----3----|
G---3----3--3--3--3--|--4---X-4-4---X-4--|---4-----6-----4----|
D---4----4--4--4--4--|--5---X-5-5---X-5--|---5-----5-----5----|
A--------------------|-------------------|--------------------|
E--------------------|-------------------|--------------------|

e--------2-2-2-2-|--0----0-0------0-0---|
B--2---X-2-2-2-2-|--2----2-2------2-2---|
G--3---X-3-3-3-3-|--3----3-3------3-3---|
D--4---X-4-4-4-4-|--4----4-4------4-4---|
A----------------|----------------------|
E----------------|----------------------|

Chorus
e---7--7--7----7--7--|-14--14--14----14--14|-12--12--12----12--12--|
B---7--7--7----7--7--|-15--15--15----15--15|-14--14--14----14--14--|
G---7--7--7----7--7--|-14--14--14----14--14|-14--14--14----14--14--|
D--------------------|--0---0---0-----0---0|-----------------------|
A--------------------|---------------------|-----------------------|
E--------------------|---------------------|-----------------------|

e---15--15--15-----15--15--|
B---17--17--17-----17--17--|
G---16--16--16-----16--16--|
D--------------------------|
A--------------------------|
E--------------------------|

e---7--7--7----7--7--|-14--14--14----14--14|-12--12--12----12--12--|
B---7--7--7----7--7--|-15--15--15----15--15|-14--14--14----14--14--|
G---7--7--7----7--7--|-14--14--14----14--14|-14--14--14----14--14--|
D--------------------|--0---0---0-----0---0|-----------------------|
A--------------------|---------------------|-----------------------|
E--------------------|---------------------|-----------------------|

e---9---9---9---9---9---9----|
B---11--11--11--11--11--11---|
G---9---9---9---9---9---9----|
D----------------------------|
A----------------------------|
E----------------------------|

e---7--7--7----7--7--|-14--14--14----14--14|-12--12--12----12--12--|
B---7--7--7----7--7--|-15--15--15----15--15|-14--14--14----14--14--|
G---7--7--7----7--7--|-14--14--14----14--14|-14--14--14----14--14--|
D--------------------|--0---0---0-----0---0|-----------------------|
A--------------------|---------------------|-----------------------|
E--------------------|---------------------|-----------------------|

e--15--15--15----15--15---|
B--17--17--17----17--17---|
G--16--16--16----16--16---|
D-------------------------|
A-------------------------|
E-------------------------|

e---7--7--7----7--7--|-14--14--14----14--14|-12-----9------|
B---7--7--7----7--7--|-15--15--15----15--15|-14-----11-----|
G---7--7--7----7--7--|-14--14--14----14--14|-14-----9------|
D--------------------|--0---0---0-----0---0|--------11-----|
A--------------------|---------------------|---------------|
E--------------------|---------------------|---------------|







Verse
e--7---X-7-7---X-7--|--3---3-3-3-X-X--|--5---X-5-5---X-5--|
B--7---X-7-7---X-7--|--3---3-3-3-X-X--|--5---X-5-5---X-5--|
G--7---X-7-7---X-7--|--4---4-4-4-X-X--|--6---X-6-6---X-6--|
D--9---X-9-9---X-9--|--5---5-5-5-X-X--|--7---X-7-7---X-7--|
A-------------------|-----------------|-------------------|
E-------------------|-----------------|-------------------|

e-----------------------|T
B-----------------------|O
G--6-----7-----6--X--X--|T
D--8-----9-----8--X--X--|A
A-----------------------|L
E-----------------------|4x

Pre-Chorus
e-------------------------|--------------------|-------2-2---X-2---|
B--3----X--3--3----X---3--|---3-----5-----3----|-2---X-2-2---X-2---|
G--4----X--4--4----X---4--|---4-----6-----4----|-3---X-3-3---X-3---|
D--5----X--5--5----X---5--|---5-----5-----5----|-4---X-4-4---X-4---|
A-------------------------|--------------------|-------------------|
E-------------------------|--------------------|-------------------|

e---0----0--0--0--0--|-------------------|--------------------|
B---2----2--2--2--2--|--3---X-3-3---X-3--|---3-----5-----3----|
G---3----3--3--3--3--|--4---X-4-4---X-4--|---4-----6-----4----|
D---4----4--4--4--4--|--5---X-5-5---X-5--|---5-----5-----5----|
A--------------------|-------------------|--------------------|
E--------------------|-------------------|--------------------|

e----------2--2-----X--2--|---0----0--0--0--0---|
B---2---X--2--2-----X--2--|---2----2--2--2--2---|
G---3---X--3--3-----X--3--|---3----3--3--3--3---|
D---4---X--4--4-----X--4--|---4----4--4--4--4---|
A-------------------------|---------------------|
E-------------------------|---------------------|

Pre-Chorus
e-------------------------|--------------------|-------2-2---X-2---|
B--3----X--3--3----X---3--|---3-----5-----3----|-2---X-2-2---X-2---|
G--4----X--4--4----X---4--|---4-----6-----4----|-3---X-3-3---X-3---|
D--5----X--5--5----X---5--|---5-----5-----5----|-4---X-4-4---X-4---|
A-------------------------|--------------------|-------------------|
E-------------------------|--------------------|-------------------|

e---0----0--0--0--0--|-------------------|--------------------|
B---2----2--2--2--2--|--3---X-3-3---X-3--|---3-----5-----3----|
G---3----3--3--3--3--|--4---X-4-4---X-4--|---4-----6-----4----|
D---4----4--4--4--4--|--5---X-5-5---X-5--|---5-----5-----5----|
A--------------------|-------------------|--------------------|
E--------------------|-------------------|--------------------|





e--------2-2-2-2-|--0----0-0------0-0---|
B--2---X-2-2-2-2-|--2----2-2------2-2---|
G--3---X-3-3-3-3-|--3----3-3------3-3---|
D--4---X-4-4-4-4-|--4----4-4------4-4---|
A----------------|----------------------|
E----------------|----------------------|

Chorus
e---7--7--7----7--7--|-14--14--14----14--14|-12--12--12----12--12--|
B---7--7--7----7--7--|-15--15--15----15--15|-14--14--14----14--14--|
G---7--7--7----7--7--|-14--14--14----14--14|-14--14--14----14--14--|
D--------------------|--0---0---0-----0---0|-----------------------|
A--------------------|---------------------|-----------------------|
E--------------------|---------------------|-----------------------|

e---15--15--15-----15--15--|
B---17--17--17-----17--17--|
G---16--16--16-----16--16--|
D--------------------------|
A--------------------------|
E--------------------------|

e---7--7--7----7--7--|-14--14--14----14--14|-12--12--12----12--12--|
B---7--7--7----7--7--|-15--15--15----15--15|-14--14--14----14--14--|
G---7--7--7----7--7--|-14--14--14----14--14|-14--14--14----14--14--|
D--------------------|--0---0---0-----0---0|-----------------------|
A--------------------|---------------------|-----------------------|
E--------------------|---------------------|-----------------------|

e---9---9---9---9---9---9----|
B---11--11--11--11--11--11---|
G---9---9---9---9---9---9----|
D----------------------------|
A----------------------------|
E----------------------------|

e---7--7--7----7--7--|-14--14--14----14--14|-12--12--12----12--12--|
B---7--7--7----7--7--|-15--15--15----15--15|-14--14--14----14--14--|
G---7--7--7----7--7--|-14--14--14----14--14|-14--14--14----14--14--|
D--------------------|--0---0---0-----0---0|-----------------------|
A--------------------|---------------------|-----------------------|
E--------------------|---------------------|-----------------------|

e--15--15--15----15--15---|
B--17--17--17----17--17---|
G--16--16--16----16--16---|
D-------------------------|
A-------------------------|
E-------------------------|

e---7--7--7----7--7--|-14--14--14----14--14|-12-----9------|
B---7--7--7----7--7--|-15--15--15----15--15|-14-----11-----|
G---7--7--7----7--7--|-14--14--14----14--14|-14-----9------|
D--------------------|--0---0---0-----0---0|--------11-----|
A--------------------|---------------------|---------------|
E--------------------|---------------------|---------------|
Interlude
e--7---X-7-7---X-7--|--3---3-3-3-X-X--|--5---X-5-5---X-5--|
B--7---X-7-7---X-7--|--3---3-3-3-X-X--|--5---X-5-5---X-5--|
G--7---X-7-7---X-7--|--4---4-4-4-X-X--|--6---X-6-6---X-6--|
D--9---X-9-9---X-9--|--5---5-5-5-X-X--|--7---X-7-7---X-7--|
A-------------------|-----------------|-------------------|
E-------------------|-----------------|-------------------|

e-----------------------|T
B-----------------------|O
G--6-----7-----6--X--X--|T
D--8-----9-----8--X--X--|A
A-----------------------|L
E-----------------------|2x

Verse
e--7---X-7-7---X-7--|--3---3-3-3-X-X--|--5---X-5-5---X-5--|
B--7---X-7-7---X-7--|--3---3-3-3-X-X--|--5---X-5-5---X-5--|
G--7---X-7-7---X-7--|--4---4-4-4-X-X--|--6---X-6-6---X-6--|
D--9---X-9-9---X-9--|--5---5-5-5-X-X--|--7---X-7-7---X-7--|
A-------------------|-----------------|-------------------|
E-------------------|-----------------|-------------------|

e-----------------------|T
B-----------------------|O
G--6-----7-----6--X--X--|T
D--8-----9-----8--X--X--|A
A-----------------------|L
E-----------------------|2x

Chorus
e--------7--------|----------14-----------|----------12-----------|
B------7---7------|-------15----15--------|-------14----14--------|
G----7-------7----|----14----------14-----|----14----------14-----|
D--9-----------9--|-16----------------16--|-14----------------14--|
A-----------------|-----------------------|-----------------------|
E-----------------|-----------------------|-----------------------|

e-----------15-----------|-------7--------|----------14-----------|
B--------17----17--------|-----7---7------|-------15----15--------|
G-----16----------16-----|---7-------7----|----14----------14-----|
D--17----------------17--|-9-----------9--|-16----------------16--|
A------------------------|----------------|-----------------------|
E------------------------|----------------|-----------------------|

e-----------12-----------|----------12-----------|-------7--------|
B--------14----14--------|-------14----14--------|-----7---7------|
G-----14----------14-----|----15----------15-----|---7-------7----|
D--14----------------14--|-16----------------16--|-9-----------9--|
A------------------------|-----------------------|----------------|
E------------------------|-----------------------|----------------|





e-----------14-----------|----------12-----------|
B--------15----15--------|-------14----14--------|
G-----14----------14-----|----14----------14-----|
D--16----------------16--|-14----------------14--|
A------------------------|-----------------------|
E------------------------|-----------------------|

e-----------15-----------|-------7--------|----------14-----------|
B--------17----17--------|-----7---7------|-------15----15--------|
G-----16----------16-----|---7-------7----|----14----------14-----|
D--17----------------17--|-9-----------9--|-16----------------16--|
A------------------------|----------------|-----------------------|
E------------------------|----------------|-----------------------|

e---12-----9----|---------------|T
B---14-----11---|---------------|O
G---14-----9----|---------------|T
D---------------|---------------|A
A---------------|---------------|L
E---------------|---------------|2x

e----(9)------||
B----(11)-----||
G----(9)------||
D-------------||
A-------------||
E-------------||
Вверх

On Mercury (2 вариант)

Intro : 	Bm, G, A, F#

Bm      	       G                A
I've got myself In a masochistic hold
F#		      Bm
Why don't you let go
   		        G                  A
Shake it off Just to redirect my flow
F#
Come on let's go
Bm 			G
Sit up straight I'm on a double date
                   A
I've got to find my way
             F#
Into the light, heavy, middle weight
Bm                            G
We don't stop rock around the clock
               A           		    F#
Motor mouthing off In front of every other road block

G			 		  F#
Come again and tell me what you're going thru
G				 F#
Like a girl who only knew her child was due

Bm              D 		            A                     G
Memories of everything Of lemon trees on mercury
Bm                        D  		       A                  F#
Come to me with remedies from five or six of seven seas
Bm                D                       A                      G
You always took me with a smile when I was down
Bm      		    D                 A        F#
Memories of everything that blew thru

Bm		      G		A
Looking up into a reverse vertigo
F#		Bm
What an undertow
Give it up another stubborn scorpio  come on, let's go

Sit up straight I'm on a double date  I've got to find my way
Into the light, heavy, middle weight
We don't stop rock around the clock motor mouthing off
In front of every other road block



G			 		  F#
Come again and tell me what you're going thru
G				 F#
Like a girl who only knew her child was due
To the moon she gave another good review
Turn around and look at me It's really really you

Bm              D 		            A                     G
Memories of everything Of lemon trees on mercury
Bm                        D  		       A                  F#
Come to me with remedies from five or six of seven seas
Bm                D                       A                      G
You always took me with a smile when I was down
Bm      		    D                 A        F#
Memories of everything that blew thru

Fill : Bm, G, A, F# x2

Bm 			G
Sit up straight I'm on a double date
                   A
I've got to find my way
             F#
Into the light, heavy, middle weight
Bm                            G
We don't stop rock around the clock
               A           		    F#
Motor mouthing off In front of every other road block

Bm              D 		            A                     G
Memories of everything Of lemon trees on mercury
Bm                        D  		       A                  F#
Come to me with remedies from five or six of seven seas
Bm                D                       A                      G
You always took me with a smile when I was down
Bm      		    D                 A        F#
Memories of everything that blew thru
Bm              D 		            A                     G
Memories of everything Of lemon trees on mercury
Bm                        D  		       A                  F#
Come to me with remedies from five or six of seven seas
Bm                D                       A                      G
You always took me with a smile when I was down
Bm      		    D                 A        F#
Memories of everything that blew thru……………..
Вверх

On Mercury (3 вариант)

Riff 1:
G------------------------------------------------------------|
D------------------------------------------------------------|
A-----99--9-10-10-9-9-7-7-9--121212--777----7-7-9-9-10-10-9--|
E--7---------------------------------------------------------|

Riff 2:
G------------------------------------------------------------|
D------------------------------------------------------------|
A--10---10------10-10--/12----9-10-9---9-9--9----------------|
E----------10--------------10-------------------9-1010-1212--|


G-------------------------------------------------|
D-------------------------------------------------|
A--10---10------10-/14-12--10----9---99--9-9-9-9--|
E----------10-----------------10------------------|

Riff 3:
G----------4--------------7---------------------------9----|
D------4-----4--------7-----7------------7--------9-----9--|
A--2-----------2--5-----------5------7-----7--7------------|
E--------------------------------5-------------------------|


G----------4--------------7----------------------------------|
D------4-----4--------7-----7------------7-------------------|
A--2-----------2--5-----------5------7-----7-----------------|
E--------------------------------5------------2-2---2--2--2--|


G----------4--------------7---------------------------9----|
D------4-----4--------7-----7------------7--------9-----9--|
A--2-----------2--5-----------5------7-----7--7------------|
E--------------------------------5-------------------------|


G----------4--------------7---------------|
D------4-----4--------7-----7-------------|
A--2-----------2--5--------------4--------|
E--------------------------------------6--|

Bridge:
G-----4----------------------------|
D----------2-4-4----------7-7-9----|
A--2-----2-------------7--------7--|
E-------------------5--------------|


At the end, play this:
G----------4--------------7-----------------|
D------4-----4--------7-----7---------------|
A--2-----------2--5-------------4--5--4-----|
E----------------------------------------6--|
Вверх

On Mercury (4 вариант)

Intro:

g--------------------------------------------------- ||Repeat(?)of x's
d---4-4-----55-44-22---777------7-------44-55-44----*||
a-2------2-------------------77------77-------------*||
e--------------------------------------------------- ||Then,

||g-------------------------------------
||d-5-5-x5-5-5-5-x5-x4-4-4-x4-4-4-4-x4--
||a-------------------------------------
||e-------------------------------------

g------------------------------------- || Repeat Two Times After the
d5-5-x5-5-5-5-x5-x4-4-x4-4-4-16-16----*|| According Solo.
a-------------------------------------*||
e------------------------------------- ||

Chorus

g--------4-----------7----------9-----------9--
d-----4----------7----------7------------9-----
a-x2---------x5---------x0----------x7---------
e----------------------------------------------

g--------4----------7--------- || Repeat and then go back to the
d-----4----------7------------*|| Intro and so on.
a-x2---------x5---------------*||
e------------------------x5~-- ||

Accordining Solo(I Don't Know How to spell that A word.)

g---------------------------------- ||
d-55-44-22------------44-55-44-----*||Then you go back to the Intro.
a------------------77--------------*||And end on the Chorus.
e---------------------------------- ||
Вверх

Organic Anti Beat Box Band

Intro and verse         T = slap note | P = pop note

G|---------------------|------------------------|
D|-----2-2-------------|-----2-2--------5-----7-|
A|-------------------5-|------------------------|
E|--0-------0--3--5----|--0-------0--3-----5----|
    T  P P  T  T  T  T    T  P P  T  T  P  T  P

G|---------------------|------------------------|
D|-----2-2-------------|-----2-2----------------|
A|-------------------5-|------------------------|
E|--0-------0--3--5----|--0------0--3--7--5--3--|
    T  P P  T  T  T  T    T  P P T  T  T  T  T

Chorus
x4             x2             x2
G|-----------|--------------|-------------------||
D|-------9-9-|--------12-12-|---------14-14-----||
A|-----------|--------------|-------------------||
E|--5/7------|--8/10--------|--10/12------------||
    T    P P    T     P  P     T      P  P            Flea ya later
Вверх

Organic Anti Beat Box Band (2 вариант)

Verse

     E5                  D5            E5                   G5     A5
e-|---------------------------------|---------------------------------|
B-|---------------------------------|---------------------------------|
G-|-/9-----9--x--9-------7--x-x--7--|-/9-----9--x--9------------------|
D-|-/9-----9--x--9-------7--x-x--7--|-/9-----9--x--9------------------|
A-|-/7-----7--x--7-------5--x-x--5--|-/7-----7--x--7-------5-5----7-7-|
E-|-----0--0-----0------------------|-----0--0-----0--0----3-3----5-5-|

   Welcome friends to my thoughts    The fax city 4 were four young men
   of when

     E5                  D5            E5                    A#5 A5 G5
e-|---------------------------------|---------------------------------|
B-|---------------------------------|---------------------------------|
G-|-/9-----9--x--9-------7--x-x--7--|-/9-----9--x--9------------------|
D-|-/9-----9--x--9-------7--x-x--7--|-/9-----9--x--9------------------|
A-|-/7-----7--x--7-------5--x-x--5--|-/7-----7--x--7----------8--7--5-|
E-|-----0--0-----0------------------|-----0--0-----0--0----0--6--5--3-|

   Time has come, now we jam         With the Uplift Mofo Party Plan


Chorus

B
We represent the Hollywood kids
B
Hollywood is where we live
D
We represent the Hollywood kids
E
Organic Anti-Beat Box Band


Here's the bass line under the solo:

G-|---------------------|--------------------|
D-|-/4--2---------------|--------------------|
A-|--------5----4--2----|------2-------------|
E-|-------------------5-|-5---------3--------|
Вверх

Otherside

The whole song is just a repeating of this riff.

Key:
(7)=notes played after the first time through the riff.

E|-------------------------------------|
B|-------------------------------------|
G|-------------------------------------|
D|--------7-7---10-9-7-----------------|
A|--7-7-7--------------7(7)(7)--5-5-5--|
E|-------------------------------------|

Version #2

Intro
   Am          F             C             G
e|---------------------------------------------------|
B|---------------------------------------------------|
G|-------------2---2--4-2-0--------------------------|
D|-2---2---2-----------------2-------------0---0--0--|
A|-0------0-0----------------3-----------------------|
E|-------------1---1-----------------------3---3--3--|

Chorus
   Am          F             C             G          2x
e|---------------------------------------------------|
B|---------------------------------------------------|
G|-------------2---2--4-2-0--------------------------|
D|-2---2---2-----------------2---2--2-2-2--0---0--0--|
A|-0------0-0----------------3---3--3-3-3------------|
E|-------------1---1-----------------------3---3--3--|

   Am          F             C             G         1:st chorus
e|---------------------------------------------------| ending
B|---------------------------5---5--5----------------|
G|-------------2---2--2--------------------4---4--4--|
D|-2---2--2------------------------------------------|
A|-0-----0-0-----------------3---3--3----------------|
E|-------------1---1--1--------------------3---3--3--|

   Am          F            C             G          2:nd chorus
e|-----------------------------------------3-3-3-3---| ending
B|---------------------------5---5--5----------------|
G|-------------2---2--2------------------------------|
D|-2---2--2------------------------------------------|
A|-0-----0-0-----------------3---3--3----------------|
E|-------------1---1--1--------------------3-3-3-3---|

   E                                                         2x
e|-------------------------------------------------------------|
B|-------------------------------------------------------------|
G|-9---9---9------9---9---9------12---9---9------9---9---9-----|
D|-9---9---9---------------------12---9---9--------------------|
A|-7---7---7--------------------------7---7--------------------|
E|-------------------------------------------------------------|
  Turn me on take me for a hard ride....

   Am            E
e|-------------------------------------------------------------|
B|-------------------------------------------------------------|
G|---------------9---9--9-9-9-12-9---9--9-9-9-12-9--12-9--12-9-|
D|-7--7--7-7-7-------------------------------------------------|
A|-------------------------------------------------------------|
E|-------------------------------------------------------------|

Chorus:
How long how long will I slide
Separate my side I don-t
I don-t believe it-s bad
Slit my throat
It-s all I ever

Verse:
Am                               E
I heard your voice through a photograph
Am                              E
I thought it up it brought up the past
Am                           E
Once you know you can never go back
             G                Am
I-ve got to take it on the otherside
Am                           E
Centuries are what it meant to me
Am                         E
A cemetery where I marry the sea
Am                                  E
Stranger things could never change my mind
             G                Am
I-ve got to take it on the otherside
G                Am
Take it on the otherside
G
Take it on
Am
Take it on

Chorus

Pour my life into a paper cup
The ashtray-s full and I-m spillin- my guts
She wants to know am I still a slut
I-ve got to take it on the otherside

Scarlet starlet and she-s in my bed
A candidate for my soul mate bled
Push the trigger and pull the thread
I-ve got to take it on the otherside
Take it on the otherside
Take it on
Take it on

Chorus

Turn me on take me for a hard ride
Burn me out leave me on the otherside
I yell and tell it that
It-s not my friend
I tear it down I tear it down
And then it-s born again

Chorus

How long I don-t believe it-s bad
Slit my throat
It-s all I ever
Вверх

Otherside (2 вариант)

intro*

G|----------------------------------------------|
D|----------------------------------------------|
A|------------------------3--3--3-3-------------|
E|-5--5--5-3--1--1--1-1------------0--3--3--3---|
*This can be played easier live while jumping by playing it
 on the first frets hehehe but its up to you!

chorus

G|----------------------------------------------|
D|----------------------------------------------|
A|------------------------3--3--3-3------3--2---|
E|-5--5--5-3--1--1--1-1------------0-3--------3-|

G|----------------------------------------------|
D|----------------------------------------5-----|
A|------------------------3--3--3-3-------------|
E|-5--5--5-3--1--1-1-1/3------------0-3-----3/4-|

G|----------------------------------------------|
D|----------------------------------------------|
A|-----------------------3--3--3-3--------------|
E|-5-5--5-3--1--1--1-1------------0-3-3-3--3-3-3|

Verse

G|----------------------------------------------|
D|-7----7--7----7--7--7--/14---14--14---14--14-*|
A|----------------------------------------------|
E|----------------------------------------------|
*you can also use lower open A instead of the octave higher
 7th fret on th D string to 19th fret on A string for this,
 I'm too sure.  And you can also play it from 2nd to 9th on
 G string, and you don't have to worry about hitting such a
 small fret
G|----------------------------------------------|
D|-7----7--7----7--7--7--/14--h15--------------*|
A|----------------------------------------------|
E|---------------------------------14h15--------|
*you can also use lower open A to 19th and use 20th on A
 string to 19th and 20th on E string to do the fill as well
G|----------------------------------------------|
D|-7---7--7----7--7--7--/14---14--14---14---14-*|
A|----------------------------------------------|
E|----------------------------------------------|
*again you can also use lower open A to 19th fret on A string
for this too I'm not too sure about that
G|----------------------------------------------|
D|----------------------------------------------|
A|------------------------------------------0000|
E|--3--------------------5----------------------|

G|------------------------------------------------|
D|-7----7--7----7--7--7--/14---14--14---14--14---*|
A|------------------------------------------------|
E|------------------------------------------------|
*again you can also use open A to 19th fret on A string here too
G|------------------------------------------------|
D|-7----7--7----7--7--7--/14---------------------*|
A|------------------------------------------------|
E|-------------------------------14-14------------|
*you can also use open A to 19th fret on A string then 19th on
 E string for this
G|------------------------------------------------|
D|-7----7--7----7--7--7--/14---14--14---14---14--*|
A|------------------------------------------------|
E|------------------------------------------------|
*again you can also use open A to 19th fret on A string here too
G|------------------------------------------------|
D|--------------------------5-----------5-5-------|
A|------------------------------------------------|
E|--3---5----3---5-------3----3---3-3-3-----3-3--3|

G|------------------------------------|
D|-----------7--7--7----7---7---7---7-|
A|--------------------7---7---7---7---|
E|--5---5-----------------------------|

Chorus

G|-------------------------------------------------------------|
D|-------------------------------------------------------------|
A|------------------------------3--3-3---3-3-------------------|
E|-5--5--5--3--1--1-1--1-1-1/3--------------0-3--3--3---3-4--4-|

G|-------------------------------------------------------------|
D|-------------------------------------------------------------|
A|------------------------------3--3-3--5-3-3-----3--2--2------|
E|-5-5-5-5-5-3-1--1-1--1-1-1/3----------------3----------3-3-4-|

G|-------------------------------------------------------------|
D|-------------------------------------------------------------|
A|-------------------------------3--3-3---3-3------------------|
E|-5-5-5-5-3-3-3-1--1-1--1-1-1/3--------------0--3--3--333--3-3|

Repeat Verse

Chorus

G|-------------------------------------------------------------|
D|-------------------------------------------------------------|
A|--------------------------------3--3-3--3-3------------3-2---|
E|-5--5-5-5-5-3--1--1-1--1-1-1/3-------------0--3--3--3-----3--|

G|-------------------------------------------------------------|
D|-------------------------------------------------------------|
A|------------------------------3--3-3---3-3--------3--3-2--2-5|
E|-5--5-5-5-5-3--1--1-1--1-1-1--------------0--3---------------|

G|-------------------------------------------------------------|
D|-------------------------------------------------5------5----|
A|--------------------------------3--3-3--3-3------------------|
E|-5-5-5--5-3-3-3-1--1-1--1-1-1/3-------------0--3---3--3---3-3|

Bridge
 *alternate fingerings here for better control for some people
G|-------------------------------------------------------------|
D|---(2-0-2)---(2-0-2)-----------------------------(5--4---0)--|
A|----7-5-7-----7-5-7----(0--2--3--3--2--3---3)-(5)10--9-------|
E|-0---------0---------0--5--7--8--8--7--8---8---10-------10---|

G|-------------------------------------------------------------|
D|----(2-0-2)---(2-0-2)-----------------------(5-4-2-4--5-2--)-|
A|-----7-5-7-----7-5-7----(0--2--3--3--2-3-3)-10-9-7-9-10-7(5)-|
E|-0-0--------0--------0-0-5--7--8--8--7-8-8---------------10--|

G|-------------------------------------------------------------|
D|----(2---0--2)---(2-0-2)--------------------------(5--4---0)-|
A|-----7---5--7-----7-5-7----(0-2-3--3--2--3--3)-(5)10--9------|
E|-0-0---0-------0---------0--5-7-8--8--7--8--8---10-------10--|

G|-------------------------------------------------------------|
D|---(2-0-2)--(2-2---0-2)----------------------------(5--4--0)-|
A|----7-5-7----7-7---5-7----(0-2--3--3--2--3--3)--(5)10--9-----|
E|-0---------0-----0------0--5-7--8--8--7--8--8---10-------10--|

Outro

G|-------------------------------------------------------------|
D|-------------------------------------------------------------|
A|-----------------------------3-3-3-3-3-3-3-------------2-3-2-|
E|-5-5-5-5-3-1-1-1-1-1-1-1-1----------------0--3--3-333------3-|

G|-------------------------------------------------------------|
D|-------------------------------------------------------------|
A|----------------------------3---3-3-3-3-3--------------------|
E|-5-5-5-5-3-1-1-1-1-1-1-1-1----------------0---3--3-3-3-3-3-3-|

G|-------------------------------------------------------------|
D|-------------3-3-3--3-5-3------------------------------------|
A|---------------------------3-3-3---5-3--------3--3-2--2------|
E|-5-5-5-5-5-5---------------------------0--3-------------3-3-3|

G|-------------------------------------------------------------|
D|--------------------------------------------------5-5-5------|
A|-------------------------------3---3-3---3-3-----------------|
E|-5-5-5-5-3-3-3-1-1-1-1-1-1/3----------------0--3-------3-3-3-|

G|-------------------------------------------------------------|
D|-------------------------------------------------------------|
A|----------------------------------3--3-3-3-3-3---------------|
E|-5-5-5-5-5-3--1--1--1--1---1-1/3--------------0--3-3-3-3-0-3-|

G|---------------------------------5-5-5-5-5-5-----------------|
D|---------------3-3-3-3-3-3-3-3-3-------------0-5-5-5-5-------|
A|-----------3-5-----------------------------------------0-3-0-|
E|-5-5-5-5-5---------------------------------------------------|
let open A ring at end
Вверх

Out In La

E-|---------------------------|
B-|-8888xxx-------------------|
G-|-7777xxx-------------------|
D-|-5555xxx6--x5x-------------|
Вверх

Out In La (2 вариант)

main part
G:----------------------------------------------------------
D:------------------------------------4---------------------
A:--7-5-----------5-7---5-5-4---4-5-7-----------------------
E:--------7-X-7---------------------------------------------


G:----------------------------------------------------------
D:----------------------------------------------------------
A:--7-5-----------5-7---5-5-4-5-----------------------------
E:--------7-X-7---------------------------------------------


bass solo*
G:------------7h9---------------7h9-------------------------
D:------------------------7h9-X-----------------------------
A:------5h7-X-------5h7-X-----------------------------------
E:--0-------------------------------------------------------


G:----9--7-7---------7--------------------------------------
D:-------------7h8h9---9------------------------------------
A:----------------------------------------------------------
E:--0-------------------------------------------------------

		  			         ^  ^  ^
G:--------------------7------10---------12-------12-13-14---
D:----------------------------------------------------------
A:--------------5h7-5------8----8----10----10---------------
E:--0-4-5-6-7-----------------------------------------------
Вверх

Parallel Universe

С Минор!!!
 |       |       |       |
---------------------|
|4-4-4-4-4-4-4-4-4-4-4-4-4-4-4-4-|
---------------------|
---------------------|
---------------------|
---------------------|

 |       |       |       |        |       |       |       |
------------------------------------------|
|4-4-4-4-4-4-4-4-4-4-4-4-4-4-4-4-|3-3-3-3-3-3-3-3-3-3-3-3-3-3-3-3-|
------------------------------------------|
------------------------------------------|
------------------------------------------|
------------------------------------------|

 |       |       |       |        |       |       |       |
------------------------------------------|
|3-3-3-3-3-3-3-3-3-3-3-3-3-3-3-3----------------------|
------------------------------------------|
---------------------|3-3-3-3-3-3-3-3-3-3-3-3-3-3-3-3-|
------------------------------------------|
------------------------------------------|

 |       |       |       |        |       |       |       |
------------------------------------------|
---------------------|1-1-1-1-1-1-1-1-1-1-1-1-1-1-1-1-|
|0-0-0-0-0-0-0-0-0-0-0-0-0-0-0-0----------------------|
------------------------------------------|
------------------------------------------|
------------------------------------------|

 |       |       |       |
---------------------|
|0-0-0-0-0-0-0-0-0-0-0-0-0-0-0-0-|
---------------------|
---------------------|
---------------------|
---------------------|


При переходе на припев последний такт куплета
играется так.

 |       |       |       |
-----6-6-6-6-7-7-7-7-|
|0-0-0-0-0-0-0-0-----------------|
---------------------|
---------------------|
---------------------|
---------------------|


Припев Distortion ;)

 Cm                           Ab  G               Eb
 |       |       |       |        |       |       |       |
------------------------------------------|
------------------------------------------|
|5------------------------------------8---------------|
|5---------------------------6---|5---------------8---------------|
|3---------------------------6---|5---------------6---------------|
-----------------4---|3-------------------------------|

 G                                G
 |       |       |       |        |       |       |       |
------------------------------------------|
------------------------------------------|
------------------------------------------|
|5-------------------------------|5-------------------------------|
|5-------------------------------|5-------------------------------|
|3-------------------------------|3-------------------------------|


Вставка после второго припева.

 |       |       |       |
-------------------------|
-------------------------|
|8-8-8-8-8-8-------------------------|
-8-8-8-8-8-8-10-10-10-10-|
-------------------------|
-------------------------|


Bass

Куплет
 |       |       |       |
|5-5-5-5-5-5-5-5-5-5-5-5-5-5-5-5-|
---------------------|
---------------------|
---------------------|

 |       |       |       |        |       |       |       |
|5-5-5-5-5-5-5-5-5-5-5-5-5-5-5-5-|3-3-3-3-3-3-3-3-3-3-3-3-3-3-3-3-|
------------------------------------------|
------------------------------------------|
------------------------------------------|

 |       |       |       |        |       |       |       |
|3-3-3-3-3-3-3-3-3-3-3-3-3-3-3-3-|7-7-7-7-7-7-7-7-7-7-7-7-7-7-7-7-|
------------------------------------------|
------------------------------------------|
------------------------------------------|

 |       |       |       |        |       |       |       |
|8-8-8-8-8-8-8-8-8-8-8-8-8-8-8-8-|0-0-0-0-0-0-0-0-0-0-0-0-0-0-0-0-|
------------------------------------------|
------------------------------------------|
------------------------------------------|

 |           |           |       |
|12-12-12-12-10-10-10-10-8-8-8-8-7-7-7-7-|
-----------------------------|
-----------------------------|
-----------------------------|


Припев
Ритмику сами снимайте.

 |       |       |       |        |       |       |       |
------------------------------------------|
------------------------------------------|
|3---------------------------4---|3---------------6---------------|
------------------------------------------|

 |       |       |       |        |       |       |       |
------------------------------------------|
------------------------------------------|
------------------------------------------|
|3-------------------------------|3-------------------------------|


А вот и Вставка.

 |       |       |       |
|5-5-5-5-0-0-0-0-1-1-1-1---------|
-------------3-3-3-3-|
---------------------|
---------------------|


Deep inside of a parallel universe
It?s getting harder and harder
To tell what came first

Under water where thoughts can breathe Easily

Far away you were made in a sea
Just like me

Christ Im a sidewinder Im a
California King
I swear its everywhere
Its everything

Staring straight up into the sky
Oh my my a solar system that fits
In your eye Microcosm

You could die but your never dead spider web
Take a look at the stars in
Your head fields of space kid

Psychic changes are born in your heart
Entertain
A nervous breakthrough that makes us the
same
Bless your heart girl

Kill the pressure its raining on
Salty Cheeks
When you hear the beloved song
I am with you
Вверх

Parallel Universe (2 вариант)

 INTRO
G-------------|-------------------------------------------------|
D-X-X-X-X-X-X-|-10-10-10-10-10-10-10-10-10-10-10-10-10-10-10-10-|
A-------------|-------------------------------------------------|
E-------------|-------------------------------------------------|


G-------------------------------------------------|--------------------------
D-10-10-10-10-10-10-10-10-10-10-10-10-10-10-10-10-|-8-8-8-8-8-8-8-8-8-8-8-8-8
A-------------------------------------------------|--------------------------
E-------------------------------------------------|--------------------------


G-------------------------------------------------|-------------------------
D-12-12-12-12-12-12-12-12-12-12-12-12-12-12-12-12-|-13-13-13-13-13-13-13-13-
A-------------------------------------------------|------------------------10
E-------------------------------------------------|--------------------------

                                                                ENDBASS NO.1
G------------------------------|12-12-12-12-12-10-10-10-10------------------
D------------------------------|--------------------------13-13-13-13-12-12-
A-10-10-10-10-10-10-10-10-10-10|--------------------------------------------
E------------------------------|--------------------------------------------

 DEEP IN - SIDE OF A PAR  -  AL-LEL     U  -  NI  -  VERSE




                                                      BASS FILL 1 1ST TIME
                                                      BASS FILL 2 2ND TIME
 iT'S GET-TING HARD-ER AND HARD - ER  WHAT CAME FIRST,


                                                      BASS FILL 1
UN - DER WA - TER WHERE THOUGHTS  CAN BREATH,


CHORUS
    Christ         i'm      a          side   -   wind  -  er,    i'm  a
G----------------------------------------------|-----------------------------
D-10-10-10-10-10-10-10-10-10-10-10-10-10-------|-----------------------13-13-
A----------------------------------------10-10-|11-11-11-11-11-11-11-11------
E----------------------------------------------|-----------------------------


     cal  -  i  -  for -  nia     king.
G------------------------------------------|--------------------------------
D------------------------------------------|--------------------------------
A-10-10-10-10-10-10-10-10-10-10-10-10-10-10|10-10-10-10-10-10-10-10-10-10-10-
E------------------------------------------|--------------------------------


     I     SWEAR   IT' S     EV   -       RY          WHERE

G---------------------------------------|----------------------------------|
D10-10-10-10-10-10-10-10-10-------------|------------------13-13-13-13-13--|
A---------------------------10-10-10-10-|11-11-11-11-11-11---------------10|
E---------------------------------------|----------------------------------|


 IT'S   EV   - EY     THING
                                          END BASS FIG.2
G-----------------------------|------------------------|------------------
D-----------------------------|------------------------|-------------------
A10-10-10-10-10-10-10-10-10-10|10-10-10-10-10-10-10-10-|10-10-10-10-10-10--
E-----------------------------|----------------------10|-----------------10



INTERLUDE

G-----------------------------------------
D10-10-10-10------------------------------  (SWITCH HIT)
A-----------10-10-10-10-11-11-11-11-8-8-8  BASS THEN GUITAR  X4
E-----------------------------------------





                                                BASS FILL 3 ,2ND TIME
                                                BASS FILL 4, 3RD TIME
                                                BASS FILL 5, 4TH TIME

G---------------------------------------|----------------------------|
D-10-10-10-10-10-10-10-10-10-10-10-10-10|8-8-8-8-8-8-8-8-8-8-8-8-8-8-8
A---------------------------------------|----------------------------|
E---------------------------------------|----------------------------|



G--------------------------------|-----------------------|12-12-10-10--------
D-13-13-13-13-13-13-13-13-13-13--|-----------------------|-----------13-13-12
A------------------------------10|10-10-10-10-10-10-10-10|-------------------
E--------------------------------|-----------------------|-------------------







BASS FILL 1
G-12-12-12-12-10-10-10-10-----------------------|
D------------------------13-13-13-13-12-12-13-13|
A-----------------------------------------------|
E-----------------------------------------------|


BASS FILL 2
G--------------------------------------------|
D---------------------13-13-13-13-12-12-12-12|
A-10-10-10-10-10-10-10-----------------------|
E--------------------------------------------|


BASS FILL 3
G---------------------------------------------------|
D-10-10-10-10-10-10-10-10-10-10-10-10-10-10-10-12-12|
A---------------------------------------------------|
E---------------------------------------------------|


BASS FILL 4
G--------------------------------------------|
D-10-10-10-10-10-10-10-10-10-8-8-8-----------|
A---------------------------------10-10-10-10|
E--------------------------------------------|


BASS FILL 5
G------------------------------------------------|
D-10-10-10-10-10-10-10-10-10-10-10-10-12-12-12-12|
A------------------------------------------------|
E------------------------------------------------|
Вверх

Parallel Universe (3 вариант)

Intro
G|---------------------------------|---------------------------------|---------------------------------|---------------------------------|
D|---------------------------------|---------------------------------|---------------------------------|---------------------------------|
A|-3-3-3-3-3-3-3-3-3-3-3-3-3-3-3-3-|-3-3-3-3-3-3-3-3-3-3-3-3-3-3-3-3-|---------------------------------|---------------------------------|
E|---------------------------------|---------------------------------|-6-6-6-6-6-6-6-6-6-6-6-6-6-6-6-6-|-6-6-6-6-6-6-6-6-6-6-6-6-6-6-6-6-|

G|---------------------------------|---------------------------------|---------------------------------|---------------------------------|
D|---------------------------------|---------------------------------|---------------------------------|-5-5-5-5-3-3-3-3-1-1-1-1-0-0-0-0-|
A|-5-5-5-5-5-5-5-5-5-5-5-5-5-5-5-5-|-6-6-6-6-6-6-6-6-6-6-6-6-6-6-6-6-|---------------------------------|---------------------------------|
E|---------------------------------|---------------------------------|-3-3-3-3-3-3-3-3-3-3-3-3-3-3-3-3-|---------------------------------|

Verse: Intro (x2)

Chorus: (x2)
G|---------------------------------|---------------------------------|---------------------------------|---------------------------------|
D|---------------------------------|---------------------------------|---------------------------------|---------------------------------|
A|-3-3-3-3-3-3-3-3-3-3-3-3---------|-----------------6-6-6-6-6-6-6-6-|---------------------------------|---------------------------------|
E|-------------------------3-3-3-3-|-4-4-4-4-4-4-4-4-----------------|-3-3-3-3-3-3-3-3-3-3-3-3-3-3-3-3-|-3-3-3-3-3-3-3-3-3-3-3-3-3-3-3-3-|

Verse: Intro (x2)

Chorus: (x4)

Interlude: (x4)
G|---------------------------------|
D|---------------------------------|
A|-3-3-3-3-------------------------|
E|---------3-3-3-3-4-4-4-4-1-1-1-1-|

Verse: Intro (x2)

Chorus: (x4)
Solo Part / Ending: Intro (x4)
Вверх

Pea

G|-------------|---------------|---------------|-------------|
D|-3--x-3-3--3-|---------------|---------------|-------------|
A|-------------|-4--x-4-4--x-4-|-3--x-3-3--x-3-|-1--1-1--x-1-|
E|-------------|---------------|---------------|-------------|

G|---------------|-------------|---------------|---------------|
D|-3--x-3-3--x-3-|-------------|---------------|---------------|
A|---------------|-4--x-4-4--4-|-3--x-3-3-x--3-|-1--x-1-1--x-1-|
E|---------------|-------------|---------------|---------------|

G|---------------|-------------|-------------|---------------|
D|-3--x-3-3--x-3-|-------------|-------------|---------------|
A|---------------|-4--x-4-4--4-|-3--x-3-3--3-|-1--x-1-1--x-1-|
E|---------------|-------------|-------------|---------------|

G|---------------|-------------|-------------|---------------|
D|-3--x-3-3--x-3-|-------------|-------------|---------------|
A|---------------|-4--x-4-4--4-|-3--x-3-3--3-|-1-x--1-1--x-1-|
E|---------------|-------------|-------------|---------------|

G|-----------------|-3--x-3-3--x-3-|---------------|------------------------|
D|-3/5--x-5-5--x-5-|---------------|-3--x-3-3--x-3-|-3-3--x-3--x-3--x---3-4-|
A|-----------------|---------------|---------------|------------------5-----|
E|-----------------|---------------|---------------|------------------------|

G|---------------|-3--3-3--x-3-|---------------|--------------|
D|-5--x-5-5--x-5-|-------------|-3--x-3-3--x-3-|-3-3--3--3--3-|
A|---------------|-------------|---------------|--------------|
E|---------------|-------------|---------------|--------------|

G|-------------|------------|-------------|------------|
D|-2--x-2-2--2-|----------3-|-2--x-2-2--2-|------------|
A|-------------|-3--x-3-5---|-------------|-3--x-3-5---|
E|-------------|------------|-------------|----------5-|

G|---------------|------------|---------------|----------------|
D|-2--x-2-2--x-2-|----------3-|-2--x-2-2--x-2-|-0--x-0-3-3-x-2-|
A|---------------|-3----3-5---|---------------|----------------|
E|---------------|------------|---------------|----------------|

G|---------------|----------------|----------------|-----------------|
D|-2-2--2-2-2--2-|-0--x-0-3-3-x-2-|--2-2-2-2-2-2-2-|-0-0-0-0-3-3-3-2-|
A|---------------|----------------|----------------|-----------------|
E|---------------|----------------|----------------|-----------------|

G|----------------|-----------------|--------|
D|--2-2-2-2-2-2-2-|-0-0-0-0-3-3-3-2-|--------|
A|----------------|-----------------|--------|
E|----------------|-----------------|--0-0-0-|
Вверх

Pea Live

g|--------------------------------------
d|-3-33-33-33-33-33-3------3-33-33-33-3-
a|-------------------4-44-4-------------
e|--------------------------------------

g|---------------------------------------------------
d|-3-33-3------------------3-33-3--------------------
a|-------4-44-43-33-31-11-1-------4-44-43-33-31-11-1-
e|---------------------------------------------------

g|---------------------------------------------------
d|-3-33-3------------------3-33-3--------------------
a|-------4-44-43-33-31-11-1-------4-44-43-33-31-11-1-
e|---------------------------------------------------

g|--------------------------------------
d|-3/5-55-58-88-83--3-3--3-3--33-33-023-
a|--------------------------------------
e|--------------------------------------

g|------------------------------
d|-5-55-58-88-83-33-3-33--3-3-3-
a|------------------------------
e|------------------------------

g|----------------------------------
d|-2-22-2------0-3--2-22-2------0-5-
a|--------3--3-------------3--3-----
e|----------------------------------

g|-------------------------------------
d|-2-22-2------0-3--2-22-2--0--0-3-3-2-
a|--------3--3-------------------------
e|-------------------------------------

g|------------------------------------------------------------
d|-2-2--22-2--2--0--3-3-3--2--2-2-2-2-2-2-2---0-0-0-0-3-3-3-3-
a|------------------------------------------------------------
e|------------------------------------------------------------

g|--------------------------------------------
d|-2--2-2-2-2-2-2---0-0-0-0-3-3-3-3---2-------
a|----------------------------------------000-
e|--------------------------------------------
Вверх

Phat Dance

Intro&Bridge                        1 ending  2 ending
G|----------------------------------|--------|-------
D|----------------------------------|--------|-------
A|-7-7-7-7-7-9/10-10-10-9-7-7-7-7-7-|-5-5-6/-|-5-5-5
E|----------------------------------|--------|-------

Verse
G|--------------------------------------------------------------------
D|--------------------------------------------------------------------
A|-0h2-0h2-33333333-0h2-0h2----------0h2-0h2-0X3---0h2-0h2-----5553---
E|--------------------------33333333-----------------------3333-------

Chorus
G|-----
D|-----
A|-----
E|-22-- Repeat 16 times then slide up to the 14th fret

Interlude
G|--------------------------------------------------
D|------------------12h14----------------12h14------
A|--19-17-16--12h14-------19-17-16--12h14-----12h14-
E|-0--0--0--0------0-----0--0--0--0-----------------

G|--------------------------------------------------
D|------------------10h12---------------10h12-------
A|--17-15-14--10h12-------17-15-14--10h12-----10h12-
E|-0--0--0--0------0-----0--0--0--0-----------------

G|---------------------------------------------
D|-----------------8h10---------------8h10-----
A|--15-13-12--8h10------15-13-12--8h10----8h10-
E|-0--0--0--0-----0----0--0--0--0--------------

G|--------------------------------------------------
D|------------------10h12---------------10h12-------
A|--17-15-14--10h12-------17-15-14--10h12-----10h12-
E|-0--0--0--0------0-----0--0--0--0-----------------

G|--------------------------------------------------
D|------------------12h14----------------12h14------
A|--19-17-16--12h14-------19-17-16--12h14-----12h14-
E|-0--0--0--0------0-----0--0--0--0-----------------

G|--------------------------------------------------
D|------------------10h12---------------10h12-------
A|--17-15-14--10h12-------17-15-14--10h12-----10h12-
E|-0--0--0--0------0-----0--0--0--0-----------------

G|---------------------------------------------
D|-----------------8h10---------------8h10-----
A|--15-13-12--8h10------15-13-12--8h10----8h10-
E|-0--0--0--0-----0----0--0--0--0--------------

G|--------------------------------
D|------------------10h12---------
A|--17-15-14--10h12---------------
E|-0--0--0--0------0-----12-12-12
Вверх

Police Helicopter

Verse 1
G |-----------|
D |-----5-5---|
A |-----------|
E |--3------3-|

Verse 2
G |----------------|
D |----5-------8-8-|
A |----------------|
E |--3---3-3/6-----|
Вверх

Porcelain

(0:10)
E-------------------------------
B---------------------------------------
G--6/--2--4/6--(2)--6/--(2)----2--------
D----------------------------2----------
A---------------------------------------
E---------------------------------------

(0:31)
E--2--2--2--4--5--0---------------------
B--------------------2------------------
G-----------------------4/--6-----------
D---------------------------------------
A---------------------------------------
E---------------------------------------

(0:41)
E--2--2--2--4--5--7--5--4--2--4--5--0---
B--------------------------------------2
G---------------------------------------
D---------------------------------------
A---------------------------------------
E---------------------------------------

(0:51)
E---------------------------------------
B---------------------------------------
G--4/--6--2--4------2------------------
D---------------------------------------
A---------------------------------------
E---------------------------------------

(1:01)
E---------------------------------------
B---------------------------------------
G--4/--6--2----------------------------
D---------------------------------------
A---------------------------------------
E---------------------------------------

(1:06)
E---------------------------------------
B--5--5--5--5--5--5--5--5--5--5--5--5---(triplets)
G---------------------------------------
D---------------------------------------
A---------------------------------------
E---------------------------------------

(1:11)
E---------------------------------------
B---------------------------------------
G--6--4/--6----2------------------------
D-------------------(4)-----------------
A---------------------------------------
E---------------------------------------

(1:31)
E--2--2--2--4--5--0---------------------
B--------------------2------------------
G-----------------------4/--6-----------
D---------------------------------------
A---------------------------------------
E---------------------------------------

(1:41)
E--2--2--2--4--5--7--5--4--2--4--5--0---
B--------------------------------------2
G---------------------------------------
D---------------------------------------
A---------------------------------------
E---------------------------------------

(1:51)
E---------------------------------------
B-------------5--2-----7--3-----5--2----
G--4/--6--2--------2--------2--------2-
D---------------------------------------
A---------------------------------------
E---------------------------------------

(2:01)
E---------------------------------------
B---------------------------------------
G--4/--6--2----------------------------
D---------------------------------------
A---------------------------------------
E---------------------------------------

(2:06)
E---------------------------------------
B-5--5--5--5--5--5--5--5--5--5--5--5----
G---------------------------------------
D---------------------------------------
A---------------------------------------
E---------------------------------------

(2:12)
E---------------------------5-----------
B------------------7--3--------5--------
G--4/--6--2--(4)--------2--------2-----
D---------------------------------------
A---------------------------------------
E---------------------------------------

(2:22)
E---------------------------------------
B---------------------------------------
G--4/--6--2----------------------------
D---------------------------------------
A---------------------------------------
E---------------------------------------

(2:27)
E---------------------------------------
B--5--5--5--5--5--5--5--5--5--5--5--5---
G---------------------------------------
D---------------------------------------
A---------------------------------------
E---------------------------------------

(2:32)
E---------------------------------------
B---------------------------------------
G--6(b)---------------------------------
D---------------------------------------
A---------------------------------------
E---------------------------------------
Вверх

Porcelain (2 вариант)

E--------|
B----2---|
G------2-|
D--------|
A--------|
E--------|

E------------0---------|
B----2-2-2-3-----------|
G--------------2-2-2-2-|
D----------------------|
A----------------------|
E----------------------|

E------------0---------|
B----2-2-2-3-----------|
G--------------2-2-2---|
D--------------------4-|
A----------------------|
E----------------------|

E-------------------------|
B-------------------0-2---|
G----2-----2------2-----2-|
D------4-2---4-2----------|
A-------------------------|
E-------------------------|

E----2--2--2--4--5---------------|
B-------------------5--2----0--2-|
G--------------------------------|
D--------------------------------|
A--------------------------------|
E--------------------------------|

E------------0---------|
B----2-2-2-3-----------|
G--------------2-2-2-2-|
D----------------------|
A----------------------|
E----------------------|

E----2--2--2--4--5--7--5--4--2--4—-5-|
B------------------------------------|
G------------------------------------|
D------------------------------------|
A------------------------------------|
E------------------------------------|

E-------------------------|
B-------------------0-2---|
G----2-----2------2-----2-|
D------4-2---4-2----------|
A-------------------------|
E-------------------------|

E-----------------------------|
B----0-2----0------0-2------0-|
G--------2----2--------2------|
D-----------------------------|
A-----------------------------|
E-----------------------------|
Вверх

Porcelain (3 вариант)

G|-----6---------------6-------|(x4)
D|-------7---------------7-----|
A|--5------5--------5----------|
E|-----------5----5--------2--|

G|---------------------------------|
D|---------------------------------|
A|--2----------2------------2------|
E|----2-5------------5--------2-5--|

G|--------------|
D|-----------2--|
A|--------2-----|
E|--0--4--------|

Repeat everything once then...

G|------------------------------|
D|------------------------------|
A|--2-----2--2/42-------2------|
E|----2-5----------5-------2-5--|

G|-----------9/119----------------|
D|---------------------------------|
A|--------2-----------5--let ring--|
E|--0--4---------------------------|
Вверх

Power Of Equality

Verse

      T T T T T  T T T T  T      T  T  T T  T T  T  T  T
Gb|------------------0-------||----------------------------|
Db|-------2---1--2-----4--3--||-------2---0--2----1--3--0--|
Ab|---0/2--------------------||---0/2----------------------|
Eb|---------0------0---------||---------0------0-----------|

      T  T T  T  T  T  T  T  T  T    All of that x3
  |--------------------0----------|
  |--------2-----0--2-----4--3----|
  |---0/2-------------------------|
  |-----------0-----------------0-|

Chorus

     T T   T  T   T   T   T  T     T T T T T  PT P T P T
  |----------------------------||-------------7--7--10---|
  |----------------------------||------------------------|
  |--6-6---6--6---6---6---6--6-||--4/5-5-5-5---5--/8---8-|
  |----------------------------||------------------------|

Continued
     T T  T     T P P T  T  T  T
  |---------||----x-x------------|
  |---------||-------------------|
  |---------||--------3--3--4--4-|
  |--0-5--4-||--3----------------|

      T T T T T PT P T PT T  T  T    T     P P T  T      X2
  |-------------7--7--10----------|--------x-x----------|
  |-------------------------------|---------------------|
  |---4/5-5-5-5--5--/8--8---------|------------3--4-----|
  |-----------------------0--5--4-|--3------------------|

 Then the bit above (just the first bit)
 Followed By
     T         T
  |-------------------|
  |-------------------|
  |-------------------|
  |--3---------3/15--|

Interlude (The hard bit)
    T  T P   P TP  P T P P T     T T P  P T P  P T P P  T
  |------8---x--6--x-1-8-----||------8--x---5--x-1-8-------|
  |-1--1-------4---------x---||--1-1------4----------x-----|
  |------------------------4-||-------------------------4--|
  |--------------------------||----------------------------|

    T  T P   P TP  P T P
  |------8---x--5--x-1-8--|
  |-1--1-------4----------|
  |-----------------------|
  |-----------------------|
               P
    T   T PT P T   TP TP T   T P   X2 T   TP TP T   TP TP
  |-------9--9------9--9-------9--|--------9--9------9--9--|
  |------------7/9-------5/7-7----|------------------------|
  |-5/7-7--7-------7--7-----------|---5/7-7--x--5/7-7--7---|
  |------------0------------------|------------------------|
Вверх

Power Of Equality (2 вариант)

			     DS
+-----+---+---+-------------+----------------+-----------------------+
|4:-R-|-R-|-R-|-R-R---------|*---------------|-----------------------|
|4:---|---|---|-----9-8-7--|*-----6---5-6-6-|-----6---5-6-6---9-8-7-|
+-----+---+---+-----------0-+--5/7---0-------+-5/7---0-------0-------+

+---------------------+-------------------------+---------------+
|---------------------|-------------R-----------|---------------|
|-----6---4-6---5-6-4-|-----6---4-6---9-8---7---|-----6---5-6-6-|
+-5/7---0-----0-------+-5/7---0---------------0-+-5/7---0-------+

+-----------------------+---------------------+-------------------------+
|-----------------------|---------------------|-------------R-----------|
|-----6---5-6-6---9-8-7-|-----6---4-6---5-6-4-|-----6---4-6---9-8---7---|
+-5/7---0-------0-------+-5/7---0-----0-------+-5/7---0---------------0-+

+---------------+-----------------------+---------------------+
|---------------|-----------------------|---------------------|
|-----6---5-6-6-|-----6---5-6-6---9-8-7-|-----6---4-6---5-6-4-|
+-5/7---0-------+-5/7---0-------0-------+-5/7---0-----0-------+

+-----------------+-------6---6-----9---------+-------x-x---------+
|-----------------|---------------------------|---R-R-------------|
|-5-5-5-5-5-5-5-5-|-3/4-4---4---X/7---7-------|-----------2-2-3-3-|
+-----------------+---------------------0-5-4-+-3-----------------+

+-------6---6-----9---------+-----0-0---------+-------6---6/X---9---------+
|---------------------------|-R-R-------R---R-|---------------------------|
|-3/4-4---4---X/7---7-------|---------2---3---|-3/4-4---4-----7---7-------|
+---------------------0-5-4-+-----------------+---------------------0-5-4-+
								  CC

+-------x-x---------+-------6---6-----9---------+------------------+
|---R-R-------------|---------------------------|---R-R-R----------|
|-----------2-2-3-3-|-3/4-4---4---X/7---7-------|------------------|
+-3-----------------+---------------------0-5-4-+-3-------(3/17X)-+
______________________________________________________________________
1
+---------------+-----------------------+-----------------------+
|---------------|-----------------------|-----------------------|
|-----6---5-6-6-|-----6---5-6-6---9-8-7-|-----6---4-6-6---5-6-4-|
+-5/7---0-------+-5/7---0-------0-------+-5/7---0-------0-------+

___________________________ ______________
			   |2
+--------------------------+-----7-R-x---5-R-x---7-R-x---+
|-------------R-----------*|-----------3-------5---------|
|-----6---4-6---9-8-8-7---*|-5-5-----------------------3-|
+-5/7---0---------------0--+-----------------------------+

+-----7---x---4---x---7---x---+-----7---x---5---x---7---x---+
|-------R---3---R---5---R-----|-------R---3---R---5---R-----|
|-5-5-----------------------3-|-5-5-----------------------3-|
+-----------------------------+-----------------------------+

+-----7---x---4---x---7---x---+-----7---x---5---x---7---x---+
|-------R---3---R---5---R-----|-------R---3---R---5---R-----|
|-5-5-----------------------3-|-5-5-----------------------3-|
+-----------------------------+-----------------------------+

								   D.S. al Coda
+-----7---x---5---x---7---x---+-----7---x---4---x---7---x---+-----7---x---4---++
|-------R---3---R---5---R-----|-------R---3---R---5---R-----|-------R---3---R-||
|-5-5-----------------------3-|-5-5-----------------------3-|-5-5-------------||
+-----------------------------+-----------------------------+-----------------++

Coda
+---------------+-----------------------+---------------------+---------------+
|---------------|-----------------------|---------------------|-------------R-|
|-----6---5-6-6-|-----6---5-6-6---9-8-7-|-----6---4-6---5-6-4-|-----6---5-6---|
+-5/7---0-------+-5/7---0-------0-------+-5/7---0-----0-------+-5/7---0-------+

+----------------+-----------------------+---------------------+--------------------------+
|*---------------|-----------------------|---------------------|-------------R-----------*|
|*-----6---5-6-6-|-----6---5-6-6---9-8-7-|-----6---4-6---5-6-4-|-----6---4-6---9-8-8-7---*|
+--5/7---0-------+-5/7---0-------0-------+-5/7---0-----0-------+-5/7---0---------------0--+

+-6/8---8---8-------8---8-------8-+-6/8---8---8-------8---8-------8-+
|-------------6/8---------4/6-6---|-------------6/8---------4/6-6---|
|-----6---6-------6---6-----------|-----6---6-------6---6-----------|
+-------------0-------------------+-------------0-------------------+

+--------8---8-------8---8-------8-+-------8---8-------8---8-------8--+
|*-------------------------4/6-6---|-------------------------4/6-----*|
|*-4/6-6---6---4/6-6---6-----------|-4/6-6---6---4/6-6---6-----------*|
+----------------------------------+-----------------------------7----+

+--------8---8-------8---8-------8-+-------8---8-------------+-+
|*-------------------------4/6-6---|-------------------------|||
|*-4/6-6---6---4/6-6---6-----------|-4/6-6---6---4/6-9-8-8-7-|||
+----------------------------------+-------------------------+-+
Вверх

Pretty Little Ditty

Bass fig.1
                P                         P
  T    T  P P   P      P  T  T    T  P P  P      P  P
G--------------10h12--12-----------------10h12--12-10----
D--------12-X--10--------10---------12-X-10--------------
A--------------------------------------------------------
E-8/10-X---------------------8/10-X----------------------

Bass fig.2
G-------------------------------------------------------------------
G-------------------------------------------------------------------
D------10---------------10--------------10--------------10----------
A---10----10---10----10----10---10---10----10---10---10----10---10--
E-8----------8-----8----------8----8----------8----8----------8-----

Bass fig.3
G---17-----16----14----14----14------17----17----17---19----19----19-
D-----14-----14----14----14----14------17----17---------19----19-----
A-0------0------0-----0-----0------15----15----15---17----17----17---
E--------------------------------------------------------------------

Bass fig.4
G---17-----16----14----14----14------14----14----14---16----16----16-
D-----14-----14----14----14----14------15----15---------17----17-----
A-0------0------0-----0-----0------15----15----15---17----17----17---
E--------------------------------------------------------------------

Bass fig.5
G---6----7----9----7----6---------9----11---12---11---9-----
D-----7----7----7----7----7----10--10----10---10---10--10---
A-0-----0----0----0----0----0---------0----0----0----0----0-
E-----------------------------------------------------------

G---11---12---14---12---11-------11----12---14---12--11-----
D-----12---12---12---12---12-------12----12---12---12--12---
A-0-----0----0----0----0----0---0-----0----0----0----0----0-
E-----------------------------------------------------------

Bass fig.6
G------------                        Order;Bass fig.1 x2
D-11---------                              Bass fig.2 x2
A-0----------                              Bass fig.1 x2
E------------                              Bass fig.3 x3
                                           Bass fig.4 x1
                                           Bass fig.5 x4
                                           Bass fig.6 x1
Вверх

Pretty Little Ditty (2 вариант)

  Dm7     C                   Dm7     C
 4/4
  Gtr I
|---------------------------|---------------------------|
|-6-6-x-x-5-(5)-5-5-5-5-x-x-|-6-6-x-x-5-(5)-5-5-5-5-x-x-|
|-5-5-x-x-5-(5)-5-5-5-5-x-x-|-5-5-x-x-5-(5)-5-5-5-5-x-x-|
|-7-7-x-x-5-(5)-5-5-5-5-----|-7-7-x-x-5-(5)-5-5-5-5-----|
|-5-5-x-x-3-(3)-3-3-3-3-----|-5-5-x-x-3-(3)-3-3-3-3-----|
|---------------------------|---------------------------|


  Dm7     C                   Dm7     C
|---------------------------|----------------------------|
|-6-6-x-x-5-(5)-5-5-5-5-x-x-|-6-6-x-x-5-(5)-5-5-5--x-x---|
|-5-5-x-x-5-(5)-5-5-5-5-x-x-|-5-5-x-x-5-(5)-5-5-5--x-x---|
|-7-7-x-x-5-(5)-5-5-5-5-----|-7-7-x-x-5-(5)-5-5-5--------|
|-5-5-x-x-3-(3)-3-3-3-3-----|-5-5-x-x-3-(3)-3-3-3--------|
|---------------------------|----------------------------|


 Breakdown
  slower Q=116
  C/G               F/A    G/B    C/G                 Dm/F/A
                                                           .5/
|----------|-------------|-----------------|----------------------|
|-5--------|-(5)----6----|-8--(8)S5-(5)----|-(5)----5-6--(6)------|
|-5--------|-(5)----5----|-7--(7)S5-(5)----|-(5)----5-7--(5)------|
|-5--------|-(5)----7----|-9--(9)S5-(5)----|-(5)----5-7--(7)------|
|----------|-------------|-----------------|----------------------|
|----------|-------------|-----------------|----------------------|


  C/G                 Dm/A         C/G
                           .5/
|----------|---------------------|----------|
|-5--------|-(5)----5-6--(6)-----|-5--------|
|-5--------|-(5)----5-7--(5)-----|-5--------|
|-5--------|-(5)----5-7--(7)-----|-5--------|
|----------|---------------------|----------|
|----------|---------------------|----------|


       G#/E      G#/E      F5/C
|------8---------8-----------------------|
|-(5)--9h10p8----9-----------------------|
|-(5)--9------10-9h10p9----10------------|
|-(5)-------------------10-10h12p10------|
|-----------------------------------12---|
|----------------------------------------|


 Verse
  faster Q=120
  C/D F/D   C                   C/D F/D   C
|-----------------------------|----------------------------|
|-5-6-6-x-x-5-(5)-5-5-5-5-x-x-|-5-6-6-x-x-5-(5)-5-5-5--x-x-|
|-5-5-5-x-x-5-(5)-5-5-5-5-x-x-|-5-5-5-x-x-5-(5)-5-5-5--x-x-|
|-5-7-7-x-x-5-(5)-5-5-5-5-----|-5-7-7-x-x-5-(5)-5-5-5------|
|-5-5-5-x-x-3-(3)-3-3-3-3-----|-5-5-5-x-x-3-(3)-3-3-3------|
|-----------------------------|----------------------------|


  C/D F/D   C                  C/D F/D   C
|----------------------------|-------------------------|
|-5-6-6-x-x-5-(5)-5-5-5--x-x-|-5-6-6-x-x-5-(5)-5-5-5---|
|-5-5-5-x-x-5-(5)-5-5-5--x-x-|-5-5-5-x-x-5-(5)-5-5-5---|
|-5-7-7-x-x-5-(5)-5-5-5------|-5-7-7-x-x-5-(5)-5-5-5---|
|-5-5-5-x-x-3-(3)-3-3-3------|-5-5-5-x-x-3-(3)-3-3-3---|
|----------------------------|-------------------------|


 Interlude
  slower Q=102
   ~~~~~~~~~~                    ~~~~~~~~~~~~~~~~~~~~~~~~~      ~~~
|-------------|-(12)-------------------|------------|------------------------|
|---------13--|----------15b17r(15)----|------------|------------------------|
|-14----------|------------------------|-14---------|-12----14---------------|
|-------------|------------------------|------------|----------12------------|
|-------------|------------------------|------------|------------------------|
|-------------|------------------------|------------|------------------------|
|
| Gtr II
|-------------|------------------------|------------|------------------------|
|-------------|------------------------|------------|------------------------|
|----------2--|--(2)-2-2--2-----(2)----|-(2)--------|-(2)------(2)-2b4r2-0---|
|-------------|------------------------|------------|------------------------|
|-------------|------------------------|------------|------------------------|
|-------------|------------------------|------------|------------------------|


   ~~~~~~~~~~~            ~~~~~~~~~~~~~~~~~~~~~~~~~~~~~~~~~~~~~~~~~
|--------------|-12---15----------------|------------|--------------------|
|----------13--|---------15-------------|------------|----------13--------|
|-14-----------|------------------------|-14---------|-12-----------------|
|--------------|------------------------|------------|--------------------|
|--------------|------------------------|------------|--------------------|
|--------------|------------------------|------------|--------------------|
|
|--------------|------------------------|------------|--------------------|
|--------------|------------------------|------------|--------------------|
|-(0)----------|--0---------------------|------------|------5b7------(5)--|
|--------------|----------------------7-|-(7)--------|-(7)----------------|
|--------------|----------5b7-(5)-(5)---|------------|--------------------|
|--------------|------------------------|------------|--------------------|


 Outro
  A   A/C#E5/C#               D5/A
|-----5-5-7p=5----------------------|
|-----5-5-5-(5)-----7p5-------------|
|--6--6-6-6-(6)-----------7p6-7p=6--|
|--7------------7-7-----7-----7-(7)-|
|-----------------------------------|
|-----------------------------------|
|
|---------0-------------------------|
|-----------------------------------|
|-(5)-------------------------------|
|-----------------------------------|
|-----------------------------------|
|-----------------------------------|


  A   C  C/E G5/E   C
|--------8-8-10p=8-----------------------------|
|--------8-8--8-(8)--8--8-10p8-----------------|
|--6S==9-9-9--9-(9)--9--9------9-10p9----10p9--|
|--7S=10------------10-10-------------10-------|
|----------------------------------------------|
|----------------------------------------------|
|
|-(0)------------------------------------------|
|----------------------------------------------|
|----------------------------------------------|
|----------------------------------------------|
|----------------------------------------------|
|----------------------------------------------|


  C   D  D5/A        B5/F#
|--------10-10-12p10---------------------------|
|--------10-10-------12p=10--------------------|
|--9S=11-------------11-(11)-11-12p11----12p11-|
|-10S=12------------------------------12-------|
|----------------------------------------------|
|----------------------------------------------|
|
|-(0)------------------------------------------|
|----------------------------------------------|
|----------------------------------------------|
|----------------------------------------------|
|----------------------------------------------|
|----------------------------------------------|


  D         Bm/D    D        A5/B5/Bm
|----------------------------------10-----|
|-10--10-10-12--10--10-10-10-10-12-12-----|
|-11--11-11-11-(11)-11-11-11--9-11----11--|
|-12--12-12-12-(12)-12-12-12--------------|
|-----------------------------------------|
|-----------------------------------------|
|
|-(0)-------------------------------------|
|-----------------------------------------|
|-----------------------------------------|
|-----------------------------------------|
|-----------------------------------------|
|-----------------------------------------|


  A A/C#E5/C# A         D5/A          A C  C/E G5/E              A5/B5/Bm
|---5-5-7p=5------------------------|------8-8-10p=8-------------------10-10---|
|---5-5-5-(5)-----7p5---------------|------8-8--8-(8)-----10p8---10S12-12-12---|
|-6-6-6-6-(6)-6-6-----6-7p=6----7p6-|-6S=9-9-9--9-(9)-------------9S11---------|
|-7-----------7-7-----7-7-(7)-7-----|-7S10-------------------------------------|
|-----------------------------------|------------------------------------------|
|-----------------------------------|------------------------------------------|
|
|-----------------------------------|------------------------------------------|
|-----------------------------------|------------------------------------------|
|---------------------2-2--2--2-2-2-|-2--2-2-2--2--2--2-2--2-2-2--2--2--2--2-2-|
|-----------------------------------|------------------------------------------|
|-----------------------------------|------------------------------------------|
|-----------------------------------|------------------------------------------|


  C  D  D5/A  A5            B5/F#
|-------10----12p=10----------------------------------|
|-------10----10-(10)-------12p=10--------------------|
|--9S11---------------------11-(11)----12p11----12p11-|
|-10S12----12---------12-12---------12-------12-------|
|-----------------------------------------------------|
|-----------------------------------------------------|
|
|-----------------------------------------------------|
|-----------------------------------------------------|
|--2--2--2--2--2---2---2--2--2---2---2--2--2--2--2--2-|
|-----------------------------------------------------|
|-----------------------------------------------------|
|-----------------------------------------------------|


  D                  Bm/F#                                    B5/F#       D
|--------------------10---(10)------------------------------------------------------|
|--------------------12----10---------------------------------12p===10--------------|
|-11-------11---11---11---(11)--------11---11---11---11-------11---(11)---11--------|
|-12-------12---12---------------12---------------------------------------12--------|
|-----------------------------------------------------------------------------------|
|-----------------------------------------------------------------------------------|
|
|-----------------------------------------------------------------------------------|
|-----------------------------------------------------------------------------------|
|--2-4-2-4--2-4--2-4--2-4---2--4--2-4--2-4--2-4--2-4--2-4-2-4--2-4---2--4--2-4-2-4--|
|-----------------------------------------------------------------------------------|
|-----------------------------------------------------------------------------------|
|-----------------------------------------------------------------------------------|


  A     E5                          A C  C5/GG5
|---5---7p=5----------------------|------8---10p=8---------------------------|
|-------5-(5)-----7p5-------------|------8----8-(8)-----10p8-----------------|
|-6---6-------6-6-----6-7p6---7p6-|-6S=9---9--------9-9---------10p9----10p9-|
|-7---7---------------------7-----|-7S10---------------------10------10------|
|---------------------------------|------------------------------------------|
|---------------------------------|------------------------------------------|
|
|---------------------------------|------------------------------------------|
|---------------------------------|------------------------------------------|
|-2-------------------------------|-7--------------------9-------------------|
|-----------------------------5S7-|-----------------5S7------------------5S7-|
|---------------------------------|------------------------------------------|
|---------------------------------|------------------------------------------|


  C  D     Bm/A5      D
|-------10----12p=10---------------------------------|
|----------12-10-(10)-------12p=10-------------------|
|--9S11----11---------11-11--------11-12p11----12p11-|
|-10S12----12---------12-12--------12-------12-------|
|----------------------------------------------------|
|----------------------------------------------------|
|
|----------------------------------------------------|
|----------------------------------------------------|
|--7------------------------(7)-----------------9S=7-|
|----------------------------------------------------|
|----------------------------------------------------|
|----------------------------------------------------|


  D        A5/D# D                Bm/D    D
|----------12------------------------------------|
|----------10----10-(10)-10-10-10-12p=10---------|
|-11-11-11-11-11-11-(11)-11-11-11-11-(11)-11-11--|
|-12-12-12----12-12-(12)-12-12-12-12-(12)-12-12--|
|------------------------------------------------|
|------------------------------------------------|
|
|------------------------------------------------|
|------------------------------------------------|
|--7---------------------------------------------|
|------------------------------------------------|
|------------------------------------------------|
|------------------------------------------------|


  A A5/EE5
|---5-5-7p=5----------------------|
|---5-5-5-(5)-----7p5-------------|
|-6-----------6-6-----6-7p6---7p6-|
|-7-------------------------7-----|
|---------------------------------|
|---------------------------------|
|
|---------------------------------|
|---------------------------------|
|---2------2------2-----2-----2-2-|
|---------------------------------|
|---------------------------------|
|---------------------------------|


  A C  C5/GG5     C              A5/B5/Bm B5/F#
|------8-8-10p=8-----------------------10------|
|------8-8--8-(8)----------------10S12-12-12---|
|-6S=9-------------9--9--9--9--9--9S11----11---|
|-7S10------------10-10-10-10-10---------------|
|----------------------------------------------|
|----------------------------------------------|
|
|----------------------------------------------|
|----------------------------------------------|
|-2----2-------2---------2--------2--------2-2-|
|----------------------------------------------|
|----------------------------------------------|
|----------------------------------------------|


  C  D  D5/A  A5       D
|-------10-10-12p==10--------------------------------|
|-------10-10-10--(10)-------12p=10------------------|
|--9S11----------------11-11-----------12p11----11---|
|-10S12----------------12-12--------12-------12------|
|----------------------------------------------------|
|----------------------------------------------------|
|
|----------------------------------------------------|
|----------------------------------------------------|
|-----2--2----(2)---2---2----(2)--2--2--2--2-----2-2-|
|----------------------------------------------------|
|----------------------------------------------------|
|----------------------------------------------------|


  D     D5/D                  D         A          A
|-------10---------------10-----------|----------|--------*|
|-------10--------------------10---10-|-5--------|-(5)----*|
|-11-11----11---11-10S11------11---11-|-6--------|-(6)----*|
|-12-12----12---12------------12---12-|-7--------|-(7)----*|
|-------------------------------------|----------|--------*|
|-------------------------------------|----------|--------*|
|
|-------------------------------------|----------|--------*|
|-------------------------------------|----------|--------*|
|--2-----2----2--2--2-------2----2--2-|----------|--------*|
|-------------------------------------|-2--------|-(2)----*|
|-------------------------------------|----------|--------*|
|-------------------------------------|----------|--------*|
Вверх

Pretty Little Ditty (3 вариант)

Bass figure 1:
G-|-------------------|----------------------------|
D-|---------x--10~~~~-|---x---------10~~~~12~~10~~-|
A-|-5h7---------------|-----5h7--------------------|
E-|-------x-----------|-x-------x------------------|
    T     T P  P        T P T   T   P     P   P

Bass figure 2:
G-|--------5---5---|--------5---5---|
D-|-----5----5---5-|-----5----5---5-|
A-|-3--------------|-3--------------|
E-|----------------|----------------|

Bass figure 3:
G-|-----17-------16-------14------14------|----13-----------13-------|
D-|--------14-------14-------14------14---|-------14-----------14----|
A-|-0---------0--------0--------0-------0-|-14-------14--14-------14-|
E-|---------------------------------------|--------------------------|

G-|----16-----------16------------|
D-|-------17-----------17---------|
A-|-17-------17--17-------17-17--|
E-|-------------------------------|

G-|-----17-------16-------14------14------|----17-----------17-------|
D-|--------14-------14-------14------14---|-------17-----------17----|
A-|-0---------0--------0--------0-------0-|-15-------15--15-------15-|
E-|---------------------------------------|--------------------------|

G-|----19-----------19-----------|
D-|-------17-----------17--------|
A-|-17-------17--17-------17-17-|
E-|------------------------------|

Bass figure 4:
G-|-------9----12----10---7---|-------9----12---10--9---|
D-|----7----7-----10----7---7-|----7----7-----7---7---7-|
A-|-0-------------------------|-0-----------------------|
E-|---------------------------|-------------------------|

Ending:
G-|-------|
D-|-------|
A-|--0----|
E-|-------|
Вверх

Punk Rock Classic

Verse
G|------------7---9--|------------7---9--|------------7---9--|
D|-------------------|-------------------|-------------------|
A|--0-0-0-0-5---7----|--0-0-0-0-5---7----|--0-0-0-0-5---7----|
E|-------------------|-------------------|-------------------|

G|------------7---9--|
D|-------------------|
A|--0-0-0-0-5---7----|
E|-------------------|

Chorus
G|------------|------------|------------|------------|
D|------------|------------|------------|------------|
A|--10-9-3-5--|--10-9-3-5--|--10-9-3-5--|--10-9-3-5--|
E|------------|------------|------------|------------|

Interlude 			Guitar Solo
G|------------------------------||-----------|
D|------------------------------||-----------|
A|--10-9-7-6-5-4-3-2-0----------||---(7)-(7)-|
E|---------------------4-3-2-0--||--0-0-0-0--|
Вверх

Punk Rock Classic (2 вариант)

verse:

-----------------------------------------------------
-----------------------------------------------------
--------7--------8-------9--9--9--9--9--9--9--9------
-7------7--------8-------9--9--9--9--9--9--9--9------
-7------5--------6-------7--7--7--7--7--7--7--7------
-5---------------------------------------------------

Chorus:

G--12------11-------5------7-------------------------
D--12------11-------5------7--------7--------//------
A--10-------9-------3------5--------7--------//------
E-----------------------------------5--------//------

Part after Chorus:

G-----12---11---9---8---7---5---------------------------
D-----x----x----x---x---x---x---9---8---7---5---4---3---
A-----10---9----7---6---5---3---x---x---x---x---x---x---
E-------------------------------7---6---5---3---2---1--0

Guitarsolo (in Em)

Start with trill at 2/3 speed on b-string: --12h15p12h15p12 and so on.

Then just fool around with Minor Pent. scale around 12th fret, and use
tremolo-bar.

Outro: (Sweet child o'mine)

------------------15-----14-----
------15------------------------
----------14--12------14-----14-
-12-----------------------------
--------------------------------
--------------------------------
Вверх

Purple Stain

Verse 1

G|-------------------------------------
D|------12----------------------------
A|------------------------3--5---------
E |--x0-------10----0---5------4--2----

G|--------------------------------------
D|------12-----------------------------
A|-----------------------4--3-----------
E |--x0-------10----0---2------4--5-----

G|-------------------------------------
D|------12----------------------------
A|-----------------------10b8b6b-----
E |--x0-------10----0------------------

G|------------------------------------
D|------12---------------------------
A|------------------------------4-----
E |--x0-------10----0---2--3--4-------


Chorus 1

G|------------------------------------
D|----5-7-7---5-7-7---5-7-7---5-7-7---
A|--7-------7-------7-------7---------
E|------------------------------------

G|--------------------------5---------
D|----5-7-7---5-7-7---5-7-7---7-5-----
A|--7-------7-------7-----------------
E|------------------------------------  (x2)


Verse 2

G|-------------------------------------
D|------12----------------------------
A|------------------------4--5---------
E |--x0-------10----0---5------4--3----

G|-------------------------------------
D|------12----------------------------
A|------------------------3--4--5------
E |--x0-------10----0---2---------4----

G|-------------------------------------
D|------12----------------------------
A|-------------------------10b8b6b---
E |--x0-------10----0------------------

G|-------------------------------------
D|------12----------------------------
A|-------------------------------4-----
E |--x0-------10----0---2--3--5--------


Chorus 2

G|--------------------------5---------
D|----5-7-7---5-7-7---5-7-7---7-5-----
A|--7-------7-------7-----------------
E|------------------------------------  (x4)


No Name 1

G|-------------------------
D|-------------0--2----2---
A|---------0h2-------------
E|--3--3-------------0-----   (x8)


Verse 3

G|----------
D|----------
A|----------
E|--0--10--

G|------------------------------------
D|------12---------------------------
A|------------------------3--5--------
E |--x0-------10----0---5------4--3---

G|------------------------------------
D|------12---------------------------
A|---------------------------------1--
E |--x0-------10----0---2--3--4--5----

G|------------------------------------
D|------12---------------------------
A|------------------------10b8b6b---
E |--x0-------10----0-----------------

G|------------------------------------
D|------12---------------------------
A|------------------------------------
E |--x0-------10----0---2--3--4-------


Chorus 3

G|------------------------------------
D|----5-7-7---5-7-7---5-7-7---5-7-7---
A|--7-------7-------7-------7---------
E|------------------------------------

G|--------------------------5---------  (x4)
D|----5-7-7---5-7-7---5-7-7---7-5-----
A|--7-------7-------7-----------------
E|------------------------------------


No name 2

G|-------------------------
D|-------------0--2----2---
A|---------0h2-------------
E|--3--3-------------0-----   (x8)


Outro

G|------------------------------------
D|----14---14---14---14--------12-----
A|-----------------------12/14----14--
E|--12---12---12---12-----------------
Вверх

Purple Stain (2 вариант)

 Verse:
 G|---------------------------------|
 D|----14--------------------------|
 A|----------6/9 ---------5--------|
 E|-0------0--------0-0--0---3-5----|

 G|---------------------------------|
 D|----14--------------------------|
 A|----------6/9 ---------5-----3--|
 E|-0------0--------0-0--0---3-5----|

 G|---------------------------------|
 D|----14--------------------------|
 A|----------6/9 ---------6-5-3----|
 E|-0------0--------0-0--0-------5--|

 G|---------------------------------|
 D|----14--------------------------|
 A|----------6/9 ---------3/5------|
 E|-0------0--------0-0--0-----3-4--|


 Chorus:	           |______ 1|______ 2|_______ 3|
 G|------------------------|--------|-7------|-7-------|
 D|---5-77----5-77----5-77-|---5-77-|--7-5---|--7-5-55-|
 A|-7-------7-------7------|-7------|--------|---------|
 E|------------------------|--------|--------|---------|

 Another (easy) way to play|______ 1|______ 2|_______ 3|
 G|------------------------|--------|--------|---------|
 D|------------------------|--------|--------|---------|
 A|------------------------|--------|-3------|-3-------|
 E|-0-3-55--0-3-55--0-3-55-|-0-3-55-|--5-3---|--5-3-33-|


 Bridge: (play with variaton)
 G|-----------------| 8x |---|
 D|---------0-2--2--| 8x |---|
 A|-----0-2---------| 8x |---|
 E|--33---------0---| 8x |-0-|


 Outro: (+another way witch is easyer to play)
 G|---------------------------------| G|----------------------------------| 39x
 D|---14---14---14---14------12-----| D|----------------------------------| 39x
 A|---------------------12/14---14--| A|---7----7----7----7------5--------| 39x
 E|-12---12---12---12---------------| E|-0----0----0----0----5/7---7------| 39x


 End:
 G|------|
 D|------|
 A|-10p9-|
 E|------|
Вверх

Purple Stain (3 вариант)

   e:----------------------------------------------------------|
   B:----------------------------------------------------------|
   G:----------------------------------------------------------|
   D:-----------------------5-5---5-5--------------------------|
   A:----------------------------------------------------------|
   E:----------------12(0)------------------------------------|

   THE PRE_CHORUS RIFF

   e:-------------------------------|
   B:-------------------------------|
   G:-------------------------------|PLAY THIS TWICE I BELIEVE
   D:-------5--7--7-------5--7--7---|
   A:----7-------------7------------|

   G:-------------------------------|
   D:-------5--7--7-------5--7--7---|THEN PLAY THIS TWICE....ITS WEIRD BUT I THINK
   IT WORKS
   A:----7-------------7------------|



   PLAY THIS CHORUS RIFF TWICE


   e:------------8--8------------8--8--|------------8--8-----------------|
   B:------------8--8------------8--8--|------------8--8-----------------|
   G:----------------------------------|---------------------5-----------|
   D:------5--7------------5--7--------|------5--7--------------7--5-----|
   A:---7---------------7--------------|---7-----------------------------|
   E:----------------------------------|---------------------------------|



   SOMETIMES YOU HEAR SOMETHING CRAZY LIKE THIS

   e:-----------------------------------|
   B:----------------8-----------------|
   G:----------------7-----------------|
   D:---5------------6------------5----|
   A:-----7-7-7-5-7--7----5-7-7-7---7-7|
   E:-----------------------------------|
Вверх

Rare Bass

0:00   x2
G|---9---|----------------------5h7-|-------------------5-|
D|*--7--*|----------------5-5-------|-------------5-5-----|
A|*-----*|----------5-5-7-----7-----|-------5-5-7-----7---|
E|-------|12-0-x-x-----------------|-0-x-x---------------|

0:11
G|-------------------5h7-|-------------------|
D|-------------5-5-------|-------------------|
A|-------5-5-7-----7-----|-----------5-5-5h7-|
E|-0-x-x-----------------|-0-x-x-x-x---------|

0:15
G|-------------------5h7-|-------------------5-|
D|-------------5-5-------|-------------5-5-----|
A|-------5-5-7-----7-----|-------5-5-7-----7---|
E|-0-x-x-----------------|-0-x-x---------------|

0:18
G|-------------------5h7-|---------------------|
D|-------------5-5-------|---------------------|
A|-------5-5-7-----7-----|-----------5-5-5-5-5-|
E|-0-x-x-----------------|-0-x-x-x-x-----------|

0:22                    x3
G|-----------------------|-----------|
D|---------------7---7h9-|---10---12-|
A|-----------7h9---9-----|-----------|
E|-7-7-7-7-7-------------|-x----x----|

0:29                             x7
G|--------------------------------|-----------------------|
D|-----12-10----------10----10h12-|-----12-10----------10-|
A|-----------10-10h12----12-------|-----------10-10h12----|
E|-0-x----------------------------|-0-x-------------------|

0:43
G|--------------------------------|--------------------------|
D|-----13-11----------11----11h13-|-----13-11----------13-11-|
A|-----------11-11h13----13-------|-----------11-11h13-------|
E|-0-x----------------------------|-0-x----------------------|

0:46
G|--------------------------------|-----------------------|
D|-----13-11----------11----11h13-|-----13-11----------11-|
A|-----------11-11h13----13-------|-----------11-11h13----|
E|-0-x----------------------------|-0-x-------------------|

0:50                             x3
G|--------------------------------|-----------------------|
D|-----12-10----------10----10h12-|-----12-10----------10-|
A|-----------10-10h12----12-------|-----------10-10h12----|
E|-0-x----------------------------|-0-x-------------------|

0:58                                         x3
G|--5/7-9-7-9-10-9-10-12-10-12-14--|--14b(1)-----|
D|*-------------------------------*|*-----------*|
A|*-------------------------------*|*--------12-*|
E|---------------------------------|-------------|

1:15
G|--------------------------------|-----------------------|
D|-----12-10----------10----10h12-|-----12-10----------10-|
A|-----------10-10h12----12-------|-----------10-10h12----|
E|-0-x----------------------------|-0-x-------------------|

1:19
G|--------------------------------|------------------------------|
D|-----12-10----------10----10h12-|-----12-10--------------10h12-|
A|-----------10-10h12----12-------|-----------10-10h12-----------|
E|-0-x----------------------------|-0-x----------------0-0-------|

1:22                             x3
G|--------------------------------|---------------------------|
D|-----12-10----------10----10h12-|-----12-10----------10b(1)-|
A|-----------10-10h12----12-------|-----------10-10h12--------|
E|-0-x----------------------------|-0-x-----------------------|

1:33
G|--5h7---------2-0-3---7-5-----0-3-2-----------7-0-3---3-2-0-7-5--------|
D|*-----0-2-3-0-------0-----2-3-------0-3-5-3-0-------0-----------3-2-0-*|
A|*---------------------------------------------------------------------*|
E|-----------------------------------------------------------------------|

1:54
G|----3-2-0-7-5-2-3-------7-5-2-3-2---7-5-2-0-3-2-0-------3-2-0-7-5-3-2-0--------|
D|*-0---------------0-3-2-----------0---------------3-2-0-----------------3-2-0-*|
A|*-----------------------------------------------------------------------------*|
E|-------------------------------------------------------------------------------|

2:07 x?
G|-----|---------|--9---|
D|-----|*-------*|*-7-*-|
A|-----|*-7b(1)-*|*---*-|
E|-0-0-|---------|------|

2:22                                          x3(todo)
G|-------------------5h7-|-------------------5-|
D|-------------5-5-------|-------------5-5-----|
A|-------5-5-7-----7-----|-------5-5-7-----7---|
E|-0-x-x-----------------|-0-x-x---------------|

2:32
G|-------------------5h7-|-----------------|
D|-------------5-5-------|-----------------|
A|-------5-5-7-----7-----|---------5-5h7---|
E|-0-x-x-----------------|-0-x-x-x-------5-|
Вверх

Religion

     Verse
G|------------------
D|-------------------
A|-------------------
E|--6--8-8--11--4--4-

           bridge

G|----------------------------
D|-----------------------------
A|-----------------------------
E|-10-11-12-14-14--8-9-10-12-12-


Verse 20X
Bridge 4X
Verse  5X
Вверх

Righteous And The Wicked

Intro

w/ bar					(slowly depress bar)
---------------9-7----8-----9---10--6------------------------------------------------------|
-----5/-7--------9---10---11--12--8--------------------------------------------------------|
-----7/-9----------------------------------------------------------------------------------|
-----------------------------------------------0-------------------------------------------|
-------------------------------------------------------------------------------------------|
-x-----------------------------------------------------------------------------------------|


Verse
--14-------------------------14-------7-----7------------------------------------------|
--15-------------------------15------10----9-------------------------------------------|
--14-------------------------14-------9-----9------------------------------------------|
--x------7-----9--------------x--------------------------------------------------------|
--14-------------------------14--------------------------------------------------------|
---------------------------------------------------------------------------------------|

Chorus
---------------------------------------------------------------------------------------|
-----------------------7------------------7---------------7------11---11---11-----7----|
-----------------------7------------------7---------------7-------9-----9----9------7--|
-------9-------9-------------9----9----------9-----9-----------10---10---10------------|
---------------------------------------------------------------------------------------|
---------------------------------------------------------------------------------------|


Bridge

-7----7-------4--------6------------------------------------------------------------|
-7----6-------3--------5------------------------------------------------------------|
-7----7-------4--------6------------------------------------------------------------|
------------------------------------------------------------------------------------|
------------------------------------------------------------------------------------|
------------------------------------------------------------------------------------|


Solo:		(there are two guitars during the solo but im only tabbing one. It?ll sound, good trust me.)

-----------------------------------------------------------------------------------------|
-----------------------------------------------------------------------------------------|
-----------------------------------------------------------------------------------------|
--0-1-0-------0-1-0-------0-1-0----------------------------------------------------------|
-----------2------------2-----------2-0-----------0--------------------------------------|
--------------------------------------------2-1-2----------------------------        X 2-|


-------------------------------------------------------------------------------------------|
--7-8-7-------7-8-7-------7-8-7------------------------------------------------------------|
----------8------------8-------------8-7----------8----------------------------------------|
--------------------------------------------9-7-9------------------------------------------|
-------------------------------------------------------------------------------------------|
-------------------------------------------------------------------------------        X 2-|


-----------------------------------------------------------------------------------------|
-----------------------------------------------------------------------------------------|
-----------------------------------------------------------------------------------------|
--2-3-2------2-3-2------2-3-2------------------------------------------------------------|
-----------4-----------4------------4--2----------2--------------------------------------|
--------------------------------------------4-3-4----------------------------        X 2-|


----------------------------------------------------------------12-------------|
----------------------------------------------------------------12b------------|
-------------------------------------------------------------------------------|
--0-1-0-----0-1-0------0-1-0---------------------------------------------------|
----------2-----------2-----------2--0-----------0-----------------------------|
-------------------------------------------2-1-2-------------------------------|
Вверх

Right On Time

Verse 1
G|------------------| (x8)
D|------------------|
A|----9-7-----------|
E|--0-----9--x9-x9--|

Chorus 1
G|----------------------9-9----9-9------------------11-11----11-11--| (x4)
D|-----11-11---11-11------------------9-9----9-9--------------------|
A|-------------------7-7----7-7------------------9-9------9-9-------|
E|--9-9-----9-9--------------------7-7----7-7-----------------------|

Verse 2 (same as Verse 1)

Chorus 2
G|----------------------9-9----9-9------------------11-11----11-11--| (x4)
D|-----11-11---11-11------------------9-9----9-9--------------------|
A|-------------------7-7----7-7------------------9-9------9-9-------|
E|--9-9-----9-9--------------------7-7----7-7-----------------------|

G|-----11-11----11-11------14-14------14-14------9-9----9-9------16-16--|
D|----------------------------------------------------------------------|
A|--9-9------9-9------12-12------12-12-------7-7-----7-7----14-14-------|
E|----------------------------------------------------------------------|

Verse 3 (same as Verse 1)

Chorus 3 (same as Chorus 1)

Ending
G|-------------|
D|-------------|
A|----9-7------|
E|--0------9--|
Вверх

Rivers Of Avalon

  Gtr I
|----------------------------------------------------|
|----------------------------------------------------|
|-----------------------------------------0----------|
|---2---------------------0---2-0-------------2-2----|
|-0---0-2-3-----3---3-----------------3--------------|
|-----------1-0---0---0-3---3-----3-1---1---1--------|

To figure this part out I used a addon for winamp called vocal remover you
can download it in the dowload section. www.gamesandstuff.com
There is another guitar in the background playing single notes.
Chorus
|-1-1-1-1-1-1-1-1-1-1----------------------------------------------|
|-3-3-3-3-3-3-3-3-3-3---1-1-1-1-1-1-1-1-1-1--5-5-5-5-5-5-5-5-5-5---|
|-2-2-2-2-2-2-2-2-2-2---0-0-0-0-0-0-0-0-0-0--6-6-6-6-6-6-6-6-6-6---|
|-----------------------2-2-2-2-2-2-2-2-2-2--7-7-7-7-7-7-7-7-7-7---|
|-----------------------3-3-3-3-3-3-3-3-3-3--7-7-7-7-7-7-7-7-7-7---|
|------------------------------------------------------------------|

Solo
|-----------------------------------------------------|
|-----------------------------------------------------|
|-----------------------------------------------------|
|-7------14--12--10-9--7---7---14--12--10/12-10--7----|
|-----------------------------------------------------|
|-----------------------------------------------------|


|-----------------------------------------------|
|-----------------------------------------------|
|-----------------------------------------------|
|-7----14--12--10--9--7-------------------------|
|-----------------------------------------------|
|-------------------------12--12-12-12-12-12----|

After Solo
|-1-1-1-1-1-1-1---------------------------------------------------|
|-3-3-3-3-3-3-3--1-1-1-1-1-1-1-1--0-0-0-0-0-0--5-5-5-5-5-5-5-5----|
|-2-2-2-2-2-2-2--0-0-0-0-0-0-0-0--0-0-0-0-0-0--6-6-6-6-6-6-6-6----|
|----------------2-2-2-2-2-2-2-2--0-0-0-0-0-0--7-7-7-7-7-7-7-7----|
|----------------3-3-3-3-3-3-3-3--2-2-2-2-2-2--7-7-7-7-7-7-7-7----|
|---------------------------------3-3-3-3-3-3---------------------|


|-1-1-1-1-1-1-1--------------------------------------------------|
|-3-3-3-3-3-3-3--1-1-1-1-1-1-1-1--3-3-3-3-3-3-3-3-3-3-3-3-3-3----|
|-2-2-2-2-2-2-2--0-0-0-0-0-0-0-0--4-4-4-4-4-4-4-4-4-4-4-4-4-4----|
|----------------2-2-2-2-2-2-2-2--5-5-5-5-5-5-5-5-5-5-5-5-5-5----|
|----------------3-3-3-3-3-3-3-3--5-5-5-5-5-5-5-5-5-5-5-5-5-5----|
|----------------------------------------------------------------|
Вверх

Rivers Of Avalon (2 вариант)

INTRO AND VERSE
e|------------------------------------------------------|
B|------------------------------------------------------|
G|------------------------------------------------------|
D|--2--2--3--3---------------2--2--3--3-----------------|
A|--0--0--3--3--3--3--5------0--0--3--3--3--3--5--------|
E|--------------3--3--5------------------3--3--5--------|


CHORUS

    Dm    G    Am      Dm    G    Am

e|---1------------------1-------------------------------|
B|---3----1-----1-------3----1-----1--------------------|
G|---2----------2-------2----------2--------------------|
D|--------2-----2------------2-----2--------------------|
A|--------3------------------3--------------------------|
E|------------------------------------------------------|


SOLO
e|------------------------------------------------------|
B|------------------------------------------------------|
G|------------------------------------------------------|
D|--------------14---12---10---12-----------------------|
A|---12----12----------------------12---12---14---------|
E|------------------------------------------------------|

e|------------------------------------------------------|
B|------------------------------------------------------|
G|------------------------------------------------------|
D|------------14---12---10---12-------------------------|
A|---12---12---------------------12----12---14---12-----|
E|------------------------------------------------------|
Вверх

Road Trippin

1. play this 2x for intro    3.
e|----3---3---3-------------|----3---3---3-----------------|
B|------0---0----5---4---4--|------0---0----5---4---4---4--|
G|-----------------0---0----|-----0---0---0----------------|
D|----2---2---2-------------|----2---2---2-----------------|
A|---------------3---2------|---3---2-----2----------------|
E|--0-----------------------|--0---------------------------|

4.                         5.
e|----3---3---3------------|----3---3-5-3------------------|
B|------0---0---5---4---4--|------0--------5---4---4-------|
G|----------------0---0----|-----0---0---------------------|
D|----2---2---2------------|----2---2----------------------|
A|--------------3---2------|---3---3-----------------------|
E|--0----------------------|--0----------------------------|

 6.                         7.
e|----3---3---3-------------|-----3---3-5-3----------------|
B|------0---0----5---4---4--|-------0--------5---4---4-----|
G|-----------------0---0----|------0---0---0---------------|
D|----2---2---2-------------|-----2---2--------------------|
A|---------------3---3------|----3---2-----2---------------|
E|--0-----------------------|--0---------------------------|

 8. play this 4x         12. play this 2x
e|-3---3---3-----------|0-------0--------------------7-----7---|
B|---0---0----5---4---4|------1----3------3--5-----5---8----8--|
G|--------------0---0--|----2-----------0--------0-------7----7|
D|-2---2---2-----------|---0----------0-----0------------------|
A|------------3---2----|0-0-----0--2-2----2--3-3---3-----------|
E|0--------------------|---------------------------------------|

14.                             15.
e|----3---3---3-----------------|----3---3---3-------------|
B|------0---0----5---4---4---4--|------0---0----5---4---4--|
G|-----------------0---0---0----|-----0---0---0------------|
D|----2---2---2-----------------|----2---2---2-------------|
A|---------------3---2-----2----|---3---2-----2------------|
E|--0---------------------------|--0-----------------------|

 16.                           17. play this 4x
e|----2---2-5-3----------------|----3---3---3--------------|
B|------0-------5---4---4---4--|------0---0----5---4---4---|
G|----------------0---0---0----|-----0---0-----------------|
D|----3---3--------------------|----2---2---2--------------|
A|--------------3---2-----2----|---3---2-------------------|
E|--0--------------------------|--0------------------------|

 20. play this 2x
e|--0-------0------------------------7-----7------|
B|--------1----3-------3--5-------5----8-----8----|
G|------2------------0----------0--------7-----7--|
D|-----------------0----------0------0------------|
A|--0-0-----0--2-2-----2--3-3-----3---------------|
E|------------------------------------------------|

22.
e|----------------------------------------------|
B|--8-------8-------------5-------5--7-------7--|
G|--------9----6-------6--------5----------5----|
D|------9------------5--------5----------7------|
A|--7-7-----7------7------3-3-----3--5-5-----5--|
E|-------------5-5-----5------------------------|

23.
e|-----------------------------------5-------5--|
B|--8-------8-------------5-------5--------4----|
G|--------9----6-------6--------5--------5------|
D|------9------------5--------5------4-4-----4--|
A|--7-7-----7------7------3-3-----3-------------|
E|-------------5-5-----5------------------------|

24.
e|----------------------------------------------|
B|--8-------8-------------5-------5--7-------7--|
G|--------9----6-------6--------5----------5----|
D|------9------------5--------5----------7------|
A|--7-7-----7------7------3-3-----3--5-5-----5--|
E|-------------5-5-----5------------------------|

25.
e|-----------------------------------5-----5-----5--|
B|--8-------8-------------3-------5------4-4---4-4--|
G|--------9----6-------6--------5-------------------|
D|------9------------5--------5------4-4---4-4---4--|
A|--7-7-----7------7------5-3-----3-----------------|
E|-------------5-5-----5----------------------------|

26.                              27.
e|----8-----11----8----5----2----|----3---3---3-------------|
B|----7-----10----7----4----1----|------0---0----5---4---4--|
G|----8-----11----8----5----2----------0---0---0------------|
D|--7----10-----7----4----1---1--|----2---2---2-------------|
A|-----------------------------------3---2-----2------------|
E|-------------------------------|--0-----------------------|

28.                             29.
e|----3---3---3-----------------|----3---3-5-3--------------|
B|------0---0----5---4---s7-12--|------0--------5---4---4---|
G|-----------------0---0----12--------0---0---0-------------|
D|----2---2---2-----------------|----2---2------------------|
A|---------------3---2---s6---------3---2-------------------|
E|--0---------------------------|--0------------------------|

30.                            31.
e|----3---3---3----------------|----3---3-5-3---------------|
B|------0---0----5---4---4--4--|------0--------5---4---4----|
G|-----------------0-----------------0---0---0--------------|
D|----2---2---2----------------|----2---2-------------------|
A|---------------3---2-2---2-------3---2--------------------|
E|--0--------------------------|--0-------------------------|

32. 8. play this 4x       36. play this 4x
e|-3---3---3-----------|0-------0--------------------7-----7---|
B|---0---0----5---4---4|------1----3------3--5-----5---8----8--|
G|--------------0---0--|----2-----------0--------0-------7----7|
D|-2---2---2-----------|---0----------0-----0------------------|
A|------------3---2----|0-0-----0--2-2----2--3-3---3-----------|
E|0--------------------|---------------------------------------|

37. play this 11x and then
e|--3-------------|----3--|
B|------0---------|-------|
G|----------------|-------|
D|--2-2-----------|--2----|
A|----------------|-------|
E|----------------|-------|

Лирика:

Road trippin? with my two favorite allies
Fully loaded we got snacks and supplies
It?s time to leave this town it?s time to steal away
Let?s go get lost anywhere in the U.S.A.
Let?s go get lost Let?s go get lost

Blue you sit so pretty West of the one
Sparkles light with yellow icing Just a mirror for the
Sun, just a mirror for the
Sun, just a mirror for the
Sun, these Smiling eyes are just a mirror for

So much as come before those battles lost and won
This life is shining more forever in the sun
Now let us check our heads and let us check the surf
Staying high and dry?s more trouble than it?s worth in the
Sun, just a mirror for the
Sun, just a mirror for the
Sun, these Smiling eyes are just a mirror for

In Big Sur we take some time to linger on
We three hunky dory?s got our snakefinger on
Now let us drink the stars it?s time to steal away
Let?s go get lost right here in the U.S.A
Let?s go get lost Let?s go get lost

Blue you sit so pretty West of the one
Sparkles light with yellow icing Just a mirror for the
Sun, just a mirror for the
Sun, just a mirror for the
Sun, these Smiling eyes are just a mirror for

These smiling eyes are just a mirror for
Your smiling eyes are just a mirror for
Вверх

Roller Coaster Of Love

starting part that sounds like a chainsaw starting is just a whole bunch
of slides to nowhere on the E string
G---9---8---7-----7--8--9-pop all notes on this string
D------------------------
A-7--6---5------5--6--7--slap all notes on this string
E------------------------
Вверх

Save The Population

Intro
e------------------10-10---------------------8-8---|
B--8-11-----------------------8-11-----------------|
G-------10--8-7--------------------10--8-7---------|
D--------------------------------------------------|
A--------------------------------------------------|
E--------------------------------------------------|

e---------------------------------------------|
B--8-11------------10-10---10^-8----6/8-6-----|
G-------10--8-7----------------------------7--|
D---------------------------------------------|
A---------------------------------------------|
E---------------------------------------------|

Verse (basically just alterations of the Intro)
e------------------13-13-13-13-------------------11-11-11--|
B--8-11------------13-13-13-13---8-11----------------------|
G-------10--8-7-----------------------10--8-7--------------|
D----------------------------------------------------------|
A----------------------------------------------------------|
E----------------------------------------------------------|

e-----------------10-10-10-10--8-8-8-8--6-6-6-6--5-5-5-5--4-4-4-4--|
B--8-11-----------10-10-10-10--8-8-8-8--6-6-6-6--5-5-5-5--4-4-4-4--|
G-------10--8-7----------------------------------------------------|
D------------------------------------------------------------------|
A------------------------------------------------------------------|
E------------------------------------------------------------------|

2nd Verse (an alteration of the 1st verse, deeper sounding)
e----------------------------------------------------|
B---------------------------------------------7-7----|
G------------------------------------------5--7-7----|
D--5--8--------8/10-10-10-10---5--8------------------|
A--------6-5-------------------------6-5-------------|
E----------------------------------------------------|

e----------------------------------------------2-2-2--|
B---------------7--7h8-------------------------2-2-2--|
G-----------------------7----------------------2-2-2--|
D--5--8-------------------------5--8------------------|
A--------6-5--------------------------6-5-------------|
E-----------------------------------------------------|

Pre Chorus
e--3-x-x-3-x-x-3-x-x-3-x-x-3/--6-x-x-6-x-x-6-x-x-6-x-x-6--|
B--3-x-x-3-x-x-3-x-x-3-x-x-3/--6-x-x-6-x-x-6-x-x-6-x-x-6--|
G--3-x-x-3-x-x-3-x-x-3-x-x-3/--6-x-x-6-x-x-6-x-x-6-x-x-6--|
D---------------------------------------------------------|
A---------------------------------------------------------|
E---------------------------------------------------------|

e--11-11-11-11-11-11-11-11--8-8-8-8-8-8-8-8--10-10-10-10-10-----13-13-13--|
B--11-11-11-11-11-11-11-11--8-8-8-8-8-8-8-8--10-10-10-10-10-----13-13-13--|
G--11-11-11-11-11-11-11-11--8-8-8-8-8-8-8-8--10-10-10-10-10-----13-13-13--|
D-------------------------------------------------------------------------|
A-------------------------------------------------------------------------|
E-------------------------------------------------------------------------|

Chorus
e-------15------------------------------------------------------|
B-----------15-------13-15-13-15----------15------13-15-13-15---|
G--12-----------12-----------------12-12------12----------------|
D---------------------------------------------------------------|
A---------------------------------------------------------------|
E---------------------------------------------------------------|

e---------------------------------------------------------|
B---------15------13-15-13-15-----------15------13-15-13--|
G--12-12------12-----------------12-12------12------------|
D---------------------------------------------------------|
A---------------------------------------------------------|
E---------------------------------------------------------|

e---15-------14-------------------------|
B---------------------13--13-15-13-15---|
G-------12--------12--------------------|
D---------------------------------------|
A---------------------------------------|
E---------------------------------------|

Twangy fill during Chorus
e-----------|
B-----------|
G--3h5--3~--|
D-----------|
A-----------|
E-----------|

Chords over Chorus
e-----------------|
B-----------------|
G--3-----5--------|
D--3-----5-----5--|
A--1-----3-----5--|
E--------------3--|
Вверх

Save The Population (2 вариант)

e--------------------------------------------------
B-----------------15-15-15-----------------13-13-13
G--12-15--------------------12-15------------------
D--------15-13-12-----------------15-13-12---------
A--------------------------------------------------
E--------------------------------------------------

e-------------------------------------
B-----------------10-10-10b-----------
G--12-15--------------------12--10b---
D--------15-13-12-------------------12
A-------------------------------------
E-------------------------------------
Вверх

Save The Population (3 вариант)

Intro/Verse

G|---------------------------|
D|---------------------------|
A|----1-1-1-1/5-5-5-5-5-5----|
E|-3-3-----------------------| (Verse with some improvisation at end of riff)

Pre chorus

G|-----------------------------------|
D|-----------------------------------|
A|----------------11-11-11-11-11-11--|
E|-33-33-33-33-33--------------------|x2

	Then play

G|---------------------------------------------------|
D|---------------------------------------------------|
A|66-66-66-66-66-33-33-33-33-33-55-55-55-55-55-55-55-|
E|---------------------------------------------------|x1

Chorus

G|------------------------------------------|
D|1-1-1-1-1-1/3-3-3-3-3/5-5-5-5-5-5-5-5-5-5-|
A|------------------------------------------|
E|------------------------------------------|
Вверх

Savior

Intro

e(-13/(15)-13-10-13---10-13/(15)--(--------------------------------------(
B(--------------------------------(---------15---------------------------(
G(--------------------------------(-12/(14)----(14)12-----10-12-10/(12)(
D(--------------------------------(---------------------12---------------(
A(--------------------------------(--------------------------------------(
E(--------------------------------(--------------------------------------(



Dmin, C, G

Dusting off your savior
Well you were always my favorite always my
Man. All in a hand

To celebrate you is greater now that I

E

Can. Always my man

Dmin, C, G

Now you see what I came for
No one here is to blame for
Misunderstand. All in a hand
Just like you 'cause you made me all that I

E

Am. All in a hand


Variation

Guitar 1

e(-------------------------------(-------------------------------(
B(-----3-----3-------3-----3---3-(-----3-----3-------3-----3---3-(
G(-------------------------------(-------------------------------(
D(-0-----0-----------------------(-0-----0-----------------------(
A(---------3---3-----------------(---------3---3---------1---1---(
E(---------------3-----3-3---3---(---------------3-----3---------(

Guitar 2 (not first time)

e(-----3-----1-----------1-3-----(-----3-----1-----------1-3-----(
B(-------------------3-------1-3-(-------------------3-------1-3-(



A butterfly that flaps its wings
Affecting almost everything
The more I hear the orchestra
The more I have something to bring
And now I see you in a beautiful
And different light
He's just a man and any damage done
Will be all right
Call out my name
Call and I came

Dmin, C, G

Dusting off your savior
Forgiving any behavior he's just a
Man. All in a hand
Your hero's destined to waver anyone

E

Can. Always my man

Dmin, C, G

I would never betray you
Look at me who could raise you face in the
Sand. Safe in your hand
You were always my favorite always my

Dmin, C, G

Man. All in a hand

Variation

We are the red hots and
We're loving up the love me nots
The flowers in your flower pots
Are dancing on the table tops
And now I see you in a beautiful
And different light
He's just a man and everything he does
Will be all right
Call out my name
Call and I came

Dmin, C, G

Dusting off your savior
The life that you have narrated
You were my man
Вверх

Savior (2 вариант)

Intro:
G|---------------------------------|
D|---------------------------------|
A|--5--5-5-5--5-5-0-3--3-3---------|
E|-------------------------3--3-3--|

Verse 1: (with some variations)
G|-----------------------------|(x4)
D|-----2-2-0-------------------|
A|--5--------0--3--3-3---------|
E|---------------------3--3-3--|

Bridge 1:
G|-----13--11-------------11---------|
D|-------------14-------------13-----|
A|-----------------14------------14--|
E|--0-let ring---------0-let ring----|

Verse 2: (same as Verse 1)

Bridge 2: (same as Bridge 1)

Chorus 1:
G|----7-----5------------------|----7-----5--------------|(x5)
D|----------------5-----5---5--|----------------5--------|
A|--5---5-3---3----------------|--5---5-3---3-------1-1--|
E|--------------3---3-3---3----|--------------3---3------|

Verse 3: (same as Verse 1)

Bridge 3: (same as Bridge 1)

Verse 4: (same as Verse 1)

Bridge 4: (same as Bridge 1)

Chorus 2: (same as Chorus 1)

Ending / Solo: (Verse with variations until end)
Вверх

Scar Tissue

First solo:
-----------------------------------------------------------------------------|
---13--10~------10--8~-------8--10~---10--12--13~----------------------------|
-----------------------------------------------------------------------------|
-----------------------------------------------------------------------------|
-----------------------------------------------------------------------------|
-----------------------------------------------------------------------------|

Second solo:
-----------------------------------------------------------------------------|
--15~-----15-13-10~---10--8~---13--10~----15~--17-13/10~-----13-10---13-10---|
-----------------------------------------------------------------------------|
-----------------------------------------------------------------------------|
-----------------------------------------------------------------------------|
-----------------------------------------------------------------------------|


--10-12-13~------------------------------------------------------------------|
-----------------------------------------------------------------------------|
-----------------------------------------------------------------------------|
-----------------------------------------------------------------------------|
-----------------------------------------------------------------------------|
-----------------------------------------------------------------------------|

Third solo:
---17~--17^-15~--15^-12~--12^-10~-----8/10-10/8-8/10-10~-10/8-----8---8------|
--------------------------------------------------------------10~---8~--10~--|
-----------------------------------------------------------------------------|
-----------------------------------------------------------------------------|
-----------------------------------------------------------------------------|
-----------------------------------------------------------------------------|


---------------------------------------------12^-12--------------------------|
-------/10~--10-10-10--------------------10~--------13--15--10~--13--10~-----|
--7^-5----------------7^-7-7^-5~-5-7-----------------------------------------|
-------------------------------------7~--------------------------------------|
-----------------------------------------------------------------------------|
-----------------------------------------------------------------------------|
Вверх

Scar Tissue (2 вариант)

Introduction:

e|-----5----5-5---5-------------------------------|
B|--------------------5--5/6---6---6-6----65-----|
G|------------------------------------------------|
D|--3----3------3---------------------------------|
A|--------------------3--3/5-----5-----5--53--3--|
E|------------------------------------------------|

e|-----5----5-5---5--3----------------------------|
B|-----------------------5--5/6---8h6--8h6--------|
G|------------------------------------------------|
D|--3----3------3---------------------------------|
A|-----------------------3--3/5-------------------|
E|------------------------------------------------|

First verse:

e|-----5----5-5---5--------------------------------|
B|--------------------5--5/6---6----6-6----65-----|
G|-------------------------------------------------|
D|--3----3------3----------------------------------|
A|--------------------3--3/5-----5------5--53--3--|
E|-------------------------------------------------|

e|-----5----5-5----8-------------------5--3--------|
B|---------------------5--5/6---6------------6--5--|
G|-------------------------------------------------|
D|--3----3------3----------------------------------|
A|---------------------3--3/5-----5----------------|
E|-------------------------------------------------|

Chorus: Repeat 2 Times.
	6x	    1x     6x    1x
e|---1--------0------1-----0------|
B|---1--------1------3-----1------|
G|---2--------0------2-----0------|
D|---3---------------0------------|
A|---3----------------------------|
E|--------------------------------|

Second Verse:

e|--------------------------------------------------------------|
B|-----10----10-10----10----------------------------------------|
G|-------------------------9--9/10---10-----10-10------109-----|
D|--------------------------------------------------------------|
A|--8-----8--------8--------------------------------------------|
E|-------------------------8--8/10------10---------10--109--8--|

e|---------------------10--8---------------------13--12--10--8--|
B|-----10----10-10----------------------------------------------|
G|------------------------------9--9/10--10---------------------|
D|--------------------------------------------------------------|
A|--8-----8--------8--------------------------------------------|
E|------------------------------8--8/10-----10---13--12--10--8--|

Chorus: Repeat 2 Times.
	6x	    1x     6x    1x
e|---1--------0------1-----0------|
B|---1--------1------3-----1------|
G|---2--------0------2-----0------|
D|---3---------------0------------|
A|---3----------------------------|
E|--------------------------------|

Slide Solo One  (Guitar 2 Strum Chords In Background)

e|--1310-10****108-8----8/10-10----10/12----12/13-13-----|
B|---------------------------------------------------------|
G|---------------------------------------------------------|
D|---------------------------------------------------------|
A|---------------------------------------------------------|
E|---------------------------------------------------------|

Third Verse:

e|-------------------------------------------------------------------|
B|-----10----10-10----10---------------------------------------------|
G|-------------------------9--9/10---10-----10-10------109/109-----|
D|-------------------------------------------------------------------|
A|--8-----8--------8-------------------------------------------------|
E|-------------------------8--8/10------10---------10--109/109--8--|

e|-----5----5-5----8-------------------------------|
B|---------------------5--5/6---6-----12-13-12-10--|
G|-------------------------------------------------|
D|--3----3------3----------------------------------|
A|---------------------3--3/5-----5----------------|
E|-------------------------------------------------|

Chorus: Repeat 2 Times.
	6x	    1x     6x    1x
e|---1--------0------1-----0------|
B|---1--------1------3-----1------|
G|---2--------0------2-----0------|
D|---3---------------0------------|
A|---3----------------------------|
E|--------------------------------|

Fourth Verse:

e|-----5----5-5---5-------------------------------|
B|--------------------5--5/6---6---6-6----65-----|
G|------------------------------------------------|
D|--3----3------3---------------------------------|
A|--------------------3--3/5-----5-----5--53--3--|
E|------------------------------------------------|

e|-----5----5-5----8-------------------12--10----------|
B|---------------------5--5/6---6--------------13--12--|
G|-----------------------------------------------------|
D|--3----3------3--------------------------------------|
A|---------------------3--3/5-----5--------------------|
E|-----------------------------------------------------|

Chorus: Repeat 2 Times.
	6x	    1x     6x    1x
e|---1--------0------1-----0------|
B|---1--------1------3-----1------|
G|---2--------0------2-----0------|
D|---3---------------0------------|
A|---3----------------------------|
E|--------------------------------|


Slide Solo Two (Rhythm Guitar Playing in Background)

e|--15--15--13--10--108-8--1310-10--15--17--|
B|--------------------------------------------|
G|--------------------------------------------|
D|--------------------------------------------|
A|--------------------------------------------|
E|--------------------------------------------|

e|--1310-10--108-8--1310-10--15/17--17/18-18--|
B|-----------------------------------------------|
G|-----------------------------------------------|
D|-----------------------------------------------|
A|-----------------------------------------------|
E|-----------------------------------------------|

Fifth Verse:

e|-----5----5-5---5----------------------------|
B|--------------------5--5/6---6---6-6----65--|
G|---------------------------------------------|
D|--3----3------3------------------------------|
A|--------------------3--3/5-----5-----5--53--|
E|---------------------------------------------|

e|--5-5/6----5----5-5----8-------------------5--3--------|
B|---------------------------5--5/6---6------------6--5--|
G|-------------------------------------------------------|
D|--3-3/4------3------3----------------------------------|
A|---------------------------3--3/5-----5----------------|
E|-------------------------------------------------------|

Chorus: Repeat 2 Times.
	6x	    1x     6x    1x
e|---1--------0------1-----0------|
B|---1--------1------3-----1------|
G|---2--------0------2-----0------|
D|---3---------------0------------|
A|---3----------------------------|
E|--------------------------------|

Slide Solo Three (Rhythm Guitar Playing in Background)

e|--17--1715-15--1712-12--1510-10--|
B|------------------------------------|
G|------------------------------------|
D|------------------------------------|
A|------------------------------------|
E|------------------------------------|

e|--8/10--108--8/10-10--1085--5/8-8--85-5--|
B|---------------------------------------------|
G|---------------------------------------------|
D|---------------------------------------------|
A|---------------------------------------------|
E|---------------------------------------------|

e|----------5-5-5-5---------------------------|
B|--3/53------------3/53--3/51-1-----------|
G|-----------------------------------5/72-2--|
D|--------------------------------------------|
A|--------------------------------------------|
E|--------------------------------------------|

e|---5-5--1312-12--8/105-5--5/83/5~~~~~~~~--|
B|---------------------------------------------|
G|---------------------------------------------|
D|---------------------------------------------|
A|---------------------------------------------|
E|---------------------------------------------|

For The First Solo, The Following Chords Are Strummed In The Background.

Repeat 2 Times.
    6x	    1x     6x    1x
e|---1--------0------1-----0------|
B|---1--------1------3-----1------|
G|---2--------0------2-----0------|
D|---3---------------0------------|
A|---3----------------------------|
E|--------------------------------|

For Solo's Two & Three A Rhythm Guitar Plays The Following In The Background.

e|-----------------------------------|
B|-----------------------------------|
G|----7----7------7----7---7------7--|
D|-----------------------------------|
A|--5---5----5--5----5---5---5--5----|
E|-----------------------------------|

e|---------------------------------------------------|
B|---------------------------------------------------|
G|---5-----5---5----5-----5---5-----7----7---7-------|
D|---------------------------------------------------|
A|-3---3----3-3---3----3---3-3--3/5---5---5-5--------|
E|---------------------------------------------------|

e|---------------------------------|
B|---------------------------------|
G|-------7---7-----9---9--9/10-----|
D|---------------------------------|
A|-----5---5---5/7---7----7/8------|
E|---------------------------------|

Lyrics: Scar Tissue

Scar tissue that I wish you saw
Sarcastic mister know it all
Ah close your eyes and I'll kiss you 'cause
With the birds I'll share
With the birds I'll share
This lonely view
With the birds I'll share
This lonely view and...

Ah push me up against the wall
Young Kentucky girl in a push-up bra
Ah fall-in' all over myself
To lick your heart and taste your health 'cause
With the birds I'll share
This lonely view...

Blood loss in a bathroom stall
Southern girl with a scarlet drawl
Wave good-bye to ma and pa 'cause
With the birds I'll share
With the birds I'll share
This lonely view
With the birds I'll share
This lonely view

Soft spoken with a broken jaw
Step outside but not to brawl
Autumn's sweet we call it fall
I'll make it to the moon if I have to crawl and
With the birds I'll share
This lonely view...

Scar tissue that I wish you saw
Sarcastic mister know it all
Ah close your eyes and I'll kiss you cause
With the birds I'll share
With the birds I'll share
This lonely view
With the birds I'll share
This lonely view...
Вверх

Scar Tissue (3 вариант)

INTRO:
  GUITAR 1
e|-------------------------------------------------------------------------|
B|-------10------10-----10-----10------------------------------------------|
G|---------------------------------9--9s10---10-----10----10----10h9-------|
D|-------------------------------------------------------------------------|
A|--8---------8------8-----8--------------------------------------------0--|
E|---------------------------------8--8s10-------10----10----10------------|

e|-------------------------------------------------------------------------|
B|-------10------10-----10-----10---8--------------------------------------|
G|------------------------------------------9s10-------12h10-12h10---------|
D|-------------------------------------------------------------------------|
A|--8---------8------8---------8----8--------------------------------------|
E|------------------------------------------8s10---------------------------|

VERSE :

e|-------------------------------------------------------------------------|
B|-------10------10-----10-----10------------------------------------------|
G|---------------------------------9--9s10---10-----10----10-----10h9------|
D|-------------------------------------------------------------------------|
A|-8----------8------8-----8--------------------------------------------0--|
E|---------------------------------8--8s10-------10----10----10------------|
  Scar tissue that I wish you saw         Sarcastic mister know it all

e|------------------------------8------------------------------------------|
B|--------10-----10------10------------8---8h10////////-----10--8----------|
G|-----------------------------------------------------------------10--10--|
D|-------------------------------------------------------------------------|
A|-8----------8------8----------8------8---8----------------8---8--8---8---|
E|-------------------------------------------------------------------------|
  Close your eyes and I'll kiss you 'cause   With the birds I'll share

BRIDGE:

      F                             C  Dm                         C  F
e|-------------------------------------------------------------------------|
B|-------10-10-------10-10----10-------------------------------------10----|
G|----10-10-10-10-10-10-10-10-10-10-10s12-10-10-10-10-10-10-10-10-9--10----|
D|----10-10-10-10-10-10-10-10-10-10-10s12-12-12-12-12-12-12-12-12-10-10----|
A|----8--8--8--8--8--8--8--8--8--8--8-s10-12-12-12-12-12-12-12-12-10-8-----|
E|----------------------------------8-s10-10-10-10-10-10-10-10-10-8--------|
      With the birds I'll share This lonel_______y vie_________________w

      F                             C  Dm                         C  F
e|-------------------------------------------------------------------------|
B|-------10-10-------10-10----10-------------------------------------10----|
G|----10-10-10-10-10-10-10-10-10-10-10s12-10-10-10-10-10-10-10-10-9--10----|
D|----10-10-10-10-10-10-10-10-10-10-10s12-12-12-12-12-12-12-12-12-10-10----|
A|----8--8--8--8--8--8--8--8--8--8--8-s10-12-12-12-12-12-12-12-12-10-8-----|
E|----------------------------------8-s10-10-10-10-10-10-10-10-10-8--------|
      With the birds I'll share This lonel_______y vie_________________w

VERSE:

e|-------------------------------------------------------------------------|
B|-------10------10-----10-----10------------------------------------------|
G|---------------------------------9--9s10---10-----10----10-----10/9------|
D|-------------------------------------------------------------------------|
A|-8----------8------8-----8--------------------------------------------0--|
E|---------------------------------8--8s10-------10----10----10------------|
  Push me up against the wa____ll      Young Kentuncky girl in a push-up bra

e|---------------------10--8------------------------13----12----10----8----|
B|-----10----10---10----------8h10-----------------------------------------|
G|-------------------------------------------------------------------------|
D|--------------------------------------------------0-----0-----0-----0----|
A|-8-------8----8------8---8--8--------------------------------------------|
E|-------------------------------------------------------------------------|
  Fallin' all over myself  To lick your heart and taste your health 'cause

BRIDGE:

      F                             C  Dm                         C  F
e|-------------------------------------------------------------------------|
B|-------10-10-------10-10----10-------------------------------------10----|
G|----10-10-10-10-10-10-10-10-10-10-10s12-10-10-10-10-10-10-10-10-9--10----|
D|----10-10-10-10-10-10-10-10-10-10-10s12-12-12-12-12-12-12-12-12-10-10----|
A|----8--8--8--8--8--8--8--8--8--8--8-s10-12-12-12-12-12-12-12-12-10-8-----|
E|----------------------------------8-s10-10-10-10-10-10-10-10-10-8--------|
      With the birds I'll share This lonel_______y vie_________________w

      F                             C  Dm                         C  F
e|-------------------------------------------------------------------------|
B|-------10-10-------10-10----10-------------------------------------10----|
G|----10-10-10-10-10-10-10-10-10-10-10s12-10-10-10-10-10-10-10-10-9--10----|
D|----10-10-10-10-10-10-10-10-10-10-10s12-12-12-12-12-12-12-12-12-10-10----|
A|----8--8--8--8--8--8--8--8--8--8--8-s10-12-12-12-12-12-12-12-12-10-8-----|
E|----------------------------------8-s10-10-10-10-10-10-10-10-10-8--------|
      With the birds I'll share This lonel_______y vie_________________w
      F                             C  Dm                         C  F
e|-------------------------------------------------------------------------|
B|-------10-10-------10-10----10-------------------------------------10----|
G|----10-10-10-10-10-10-10-10-10-10-10s12-10-10-10-10-10-10-10-10-9--10----|
D|----10-10-10-10-10-10-10-10-10-10-10s12-12-12-12-12-12-12-12-12-10-10----|
A|----8--8--8--8--8--8--8--8--8--8--8-s10-12-12-12-12-12-12-12-12-10-8-----|
E|----------------------------------8-s10-10-10-10-10-10-10-10-10-8--------|
      With the birds I'll share This lonel_______y vie__________________

GUITAR SOLO 1:

 GUITAR 1
    F                          C
|e|------------------------------------------------------------------------|
|B|-----1--1-----1--1--1--1-----1--------1--1------------------------------|
|G|-----2--2--2--2-----2--2--2--2--2--2--2--2---9---9---9---9---9---9------|
|D|-----3--3--3--3--3--3--3--3--3--3--3--3--3---10--10--10--10--10--10-----|
|A|-----3--3--3-----3--3--3--3-----3--3---------10--10--10--10--10--10-----|
|E|---------------------------------------------8---8---8---8---8---8------|
|GUITAR 2
|e|-8s5-5------------------------------5s3-3------------------3/5-5--------|
|B|------------------------------------------------------------------------|
|G|------------------------------------------------------------------------|
|D|------------------------------------------------------------------------|
|A|------------------------------------------------------------------------|
|E|------------------------------------------------------------------------|
   _________________w

|e|------------------------------------------------------------------------|
|B|------------------------------------------------------------------------|
|G|-----10--10--10--10--10-------------------------------------------------|
|D|-----12--12--12--12--12-------------------------------------------------|
|A|-----12--12--12--12--12-------------------------------------------------|
|E|-----10--10--10--10--10-------------------------------------------------|
|
|e|---------5s7---7s8---8///////////////////-------------------------------|
|B|------------------------------------------------------------------------|
|G|------------------------------------------------------------------------|
|D|------------------------------------------------------------------------|
|A|------------------------------------------------------------------------|
|E|------------------------------------------------------------------------|

VERSE:

e|-------------------------------------------------------------------------|
B|-------10------10-----10-----10------------------------------------------|
G|---------------------------------9--9s10---10----10-----12p10----12p10---|
D|-------------------------------------------------------------------------|
A|-8----------8------8-----8-----------------------------------------------|
E|---------------------------------8--8s10---10----10----------------------|
   Blood loss in a bathroom stall   Southern girl with scarlet drawl

e|------------------------------8-------------------------------8----------|
B|--------10-----10------10------------8---8h10////-10------10-----11--10--|
G|-------------------------------------------------------------------------|
D|-------------------------------------------------------------------------|
A|-8----------8------8----------8------8---8----------------8---8--8---8---|
E|-------------------------------------------------------------------------|
    Wave good-bye to ma and pa 'cause    With the birds I'll share

BRIDGE: SAME THAT FIRST BRIDGE.

VERSE:

e|-------------------------------------------------------------------------|
B|-------10------10-----10-----10------------------------------------------|
G|---------------------------------9--9s10---10-----10----10-----10h9------|
D|-------------------------------------------------------------------------|
A|-8----------8------8-----8--------------------------------------------0--|
E|---------------------------------8--8s10-------10----10----10------------|
   Soft spoken with the broken jaw   Step outside but not to brawlin'

e|------------------------------8------------------------------------------|
B|--------10-----10------10------------8---8h10////////-----10--8----------|
G|-----------------------------------------------------------------10--10--|
D|-------------------------------------------------------------------------|
A|-8----------8------8----------8------8---8----------------8---8--8---8---|
E|-------------------------------------------------------------------------|
Autumn's sweet we call it fall I'll make it to the moom if I got to crawl and

BRIDGE: SAME OF SECOND BRIDGE

GUITAR SOLO 2:


    D5
|e|------------------------------------------------------------------------|
|B|------------------------------------------------------------------------|
|G|------7-----------7-----------7-------7-------7-------7-----------7-----|
|D|----------7-----------7-------------------7---------------7-------------|
|A|--5-----------5---5-------5-------5-----------5---5-----------5---------|
|E|------------------------------------------------------------------------|
|
|e|--10~~~~~~~~~~~~~~---------------------------------------------10s8~~~~~|
|B|------------------------------------------------------------------------|
|G|------------------------------------------------------------------------|
|D|------------------------------------------------------------------------|
|A|------------------------------------------------------------------------|
|E|------------------------------------------------------------------------|
                                 C5
|e|------------------------------------------------------------------------|
|B|------------------------------------------------------------------------|
|G|----------7-------7-------7-------5-----------5-----------5-------5-----|
|D|--7-------------------7---------------5-----------5---------------------|
|A|------5-------5-----------5---3-----------3---3-------3-------3---------|
|E|------------------------------------------------------------------------|
|
|e|---8s5-5~~~~~~~~~~~--------5s3-3~~~~~~~~~------------8s5--5~~~~~~-------|
|B|------------------------------------------------------------------------|
|G|------------------------------------------------------------------------|
|D|------------------------------------------------------------------------|
|A|------------------------------------------------------------------------|
|E|------------------------------------------------------------------------|
              D5
|e|------------------------------------------------------------------------|
|B|------------------------------------------------------------------------|
|G|-------5-------7-----------7-----------7-------7-------7----------------|
|D|---5---------------7-----------7-------------------7--------------------|
|A|-------3---5-----------5---5-------5-------5-----------5----------------|
|E|------------------------------------------------------------------------|
|
|e|------------------------------------------------------------------------|
|B|------------------------------------------------------------------------|
|G|------------------------------------------------------------------------|
|D|------------------------------------------------------------------------|
|A|------------------------------------------------------------------------|
|E|------------------------------------------------------------------------|
     D5
|e|------------------------------------------------------------------------|
|B|------------------------------------------------------------------------|
|G|------7-----------7-----------7-------7-------7-------7-----------7-----|
|D|----------7-----------7-------------------7---------------7-------------|
|A|--5-----------5---5-------5-------5-----------5---5-----------5---------|
|E|------------------------------------------------------------------------|
|
|e|--10-----------------------12----------------------8--------------------|
|B|------------------------------------------------------------------------|
|G|------------------------------------------------------------------------|
|D|------------------------------------------------------------------------|
|A|------------------------------------------------------------------------|
|E|------------------------------------------------------------------------|
                                 C5
|e|------------------------------------------------------------------------|
|B|------------------------------------------------------------------------|
|G|----------7-------7-------7-------5-----------5-----------5-------5-----|
|D|--7-------------------7---------------5-----------5---------------------|
|A|------5-------5-----------5---3-----------3---3-------3-------3---------|
|E|------------------------------------------------------------------------|
|
|e|---------------------------------5------------------------------8s3-----|
|B|------------------------------------------------------------------------|
|G|------------------------------------------------------------------------|
|D|------------------------------------------------------------------------|
|A|------------------------------------------------------------------------|
|E|------------------------------------------------------------------------|
              D5
|e|------------------------------------------------------------------------|
|B|------------------------------------------------------------------------|
|G|-------5-------7-----------7-----------7-------7-------7----------------|
|D|---5---------------7-----------7-------------------7--------------------|
|A|-------3---5-----------5---5-------5-------5-----------5----------------|
|E|------------------------------------------------------------------------|
|
|e|-----------8s5--------------10-----------11-----------12----------------|
|B|------------------------------------------------------------------------|
|G|------------------------------------------------------------------------|
|D|------------------------------------------------------------------------|
|A|------------------------------------------------------------------------|
|E|------------------------------------------------------------------------|

VERSE:

e|-------------------------------------------------------------------------|
B|-------10------10-----10-----10------------------------------------------|
G|---------------------------------9--9s10---10-----10----10-----10h9------|
D|-------------------------------------------------------------------------|
A|-8----------8------8-----8--------------------------------------------0--|
E|---------------------------------8--8s10-------10----10----10------------|
  Scar tissue that I wish you saw         Sarcastic mister know it all

e|------------------------------8------------------------------------------|
B|--------10-----10------10------------8---8h10////////-----10--8----------|
G|-----------------------------------------------------------------10--10--|
D|-------------------------------------------------------------------------|
A|-8----------8------8----------8------8---8----------------8---8--8---8---|
E|-------------------------------------------------------------------------|
  Close your eyes and I'll kiss you 'cause   With the birds I'll share

BRIDGE:

      F                             C  Dm                         C  F
e|-------------------------------------------------------------------------|
B|-------10-10-------10-10----10-------------------------------------10----|
G|----10-10-10-10-10-10-10-10-10-10-10s12-10-10-10-10-10-10-10-10-9--10----|
D|----10-10-10-10-10-10-10-10-10-10-10s12-12-12-12-12-12-12-12-12-10-10----|
A|----8--8--8--8--8--8--8--8--8--8--8-s10-12-12-12-12-12-12-12-12-10-8-----|
E|----------------------------------8-s10-10-10-10-10-10-10-10-10-8--------|
      With the birds I'll share This lonel_______y vie_________________w

      F                             C  Dm                         C  F
e|-------------------------------------------------------------------------|
B|-------10-10-------10-10----10-------------------------------------10----|
G|----10-10-10-10-10-10-10-10-10-10-10s12-10-10-10-10-10-10-10-10-9--10----|
D|----10-10-10-10-10-10-10-10-10-10-10s12-12-12-12-12-12-12-12-12-10-10----|
A|----8--8--8--8--8--8--8--8--8--8--8-s10-12-12-12-12-12-12-12-12-10-8-----|
E|----------------------------------8-s10-10-10-10-10-10-10-10-10-8--------|
      With the birds I'll share This lonel_______y vie_________________w
      F                             C  Dm                         C  F
e|-------------------------------------------------------------------------|
B|-------10-10-------10-10----10-------------------------------------10----|
G|----10-10-10-10-10-10-10-10-10-10-10s12-10-10-10-10-10-10-10-10-9--10----|
D|----10-10-10-10-10-10-10-10-10-10-10s12-12-12-12-12-12-12-12-12-10-10----|
A|----8--8--8--8--8--8--8--8--8--8--8-s10-12-12-12-12-12-12-12-12-10-8-----|
E|----------------------------------8-s10-10-10-10-10-10-10-10-10-8--------|
      With the birds I'll share This lone_______y vie__________________

GUITAR SOLO 3:

|.DURING THIS SOLO THE FIRST GUITAR ONLY STUMS THIS THE NUMBER OF TIMES    .|
|.YOU THINK IT'S NECESSARY                                                 .|
|.|e|---------------------------------------------------------------------|.|
|.|B|---------------------------------------------------------------------|.|
|.|G|-------7--7--7--7-X--7--7--7--7-X--5--5--5--5-X--7--7--7--7----------|.|
|.|D|-------7--7--7--7-X--7--7--7--7-X--5--5--5--5-X--7--7--7--7----------|.|
|.|A|-------5--5--5--5-X--5--5--5--5-X--3--3--3--3-X--5--5--5--5----------|.|
|.|E|---------------------------------------------------------------------|.|

e|--17----17s15----15----17s12----12/13----10---10----8h10----10p8---------|
B|-------------------------------------------------------------------------|
G|-------------------------------------------------------------------------|
D|-------------------------------------------------------------------------|
A|-------------------------------------------------------------------------|
E|-------------------------------------------------------------------------|
   _________________w

e|--8h10----10p8----10----8s5----5----8s3---3----8s5----5--------------5---|
B|-----------------------------------------------------------4b5r4---------|
G|-------------------------------------------------------------------------|
D|-------------------------------------------------------------------------|
A|-------------------------------------------------------------------------|
E|-------------------------------------------------------------------------|

e|---5-----5---5----5--------------------------------------------5------5--|
B|------------------------3h5----3----3s5-------1----1h3-------------------|
G|----------------------------------------------------------2--------------|
D|-------------------------------------------------------------------------|
A|-------------------------------------------------------------------------|
E|-------------------------------------------------------------------------|

e|---5-----13-----12----8s10-----5-----5s8------3------3s5-----------------|
B|-------------------------------------------------------------------------|
G|-------------------------------------------------------------------------|
D|-------------------------------------------------------------------------|
A|-------------------------------------------------------------------------|
E|-------------------------------------------------------------------------|
Вверх

Sex Rap

Verse play 4 times

G |-----------|-----------|-----------|-----------|
D |-----------|-----------|-----------|-----------|
A |-----------|-------3---|-----------|-------3---|
E |--5-5-5-3--|---5-------|--5-5-5-3--|---5-------|

G |-----------|-----------|-----------|-----------|
D |-----------|-----------|-----------|-----------|
A |-----------|-------3---|-----------|---6--5----|
E |--5-5-5-3--|---5-------|--5-5-5-3--|-----------|

Interlude play 2 times

G |-----------|-----------|-----------|-----------|
D |-----------|-----------|-----------|-----------|
A |--7--------|--7--------|--7--------|---7--7----|
E |----5-7----|----5-7----|----5-7----|-----------|

G |-----------|-----------|-----------|-----------|
D |-----------|-----------|-----------|-----------|
A |--7--------|--7--------|--7--------|----7------|
E |----5-7----|----5-7----|----5-7----|-----------|

Guitar solo

G |-----------|-----------|-----------|-----------|
D |-----------|-----------|-----------|-----------|
A |-----------|--------1--|-----------|--------1--|
E |--3-3-3-1--|--3-3-3----|--3-3-3-1--|--3-3-3----|

G |-----------|-----------|-----------|-----------|
D |-----------|-----------|-----------|-----------|
A |-----------|--------1--|-----------|--------1--|
E |--3-3-3-1--|--3-3-3----|--3-3-3-1--|--3-3-3----|

G |------------|------------|------------|------------|
D |------------|------------|------------|------------|
A |------------|----------8-|------------|----------8-|
E |-10-10-10-8-|-10-10-10---|-10-10-10-8-|-10-10-10---|

G |-------------|-------------|-------------|-------------|
D |-------------|-------------|-------------|-------------|
A |-------------|----------10-|-------------|----------10-|
E |-12-12-12-10-|-12-12-12----|-12-12-12-10-|-12-12-12----|
Вверх

Sexy Mexican Maid

e-----------------------------------------------------------------------------------------------------------------
b-----------------------------------------------------------------------------------------------------------------
g-----------------------------------------------------------------------------------------------------------------
d------------------------------7~5-------5-----------------------------------7~5--------5~0--------5~0---------5--
a------7~5------5------0------------7-------------7~5------5------0-------------7------------7------------7-------
e--0----------7----------------------------------0----------7-----------------------------------------------------

e-----------------------------------------------------------------------------------------------------------------
b-----------------------------------------------------------------------------------------------------------------
g------x---x---x---x----2--2----x----x---x---2------x---x---x---x---4--4----x---x---x---4-------------------------
d------x---x---x---x----2--2----x----x---x---2------x---x---x---x---4--4----x---x---x---4-------------------------
a---------------------------------------------------------------------------------------------7-----7-----9-----9-
e---------------------------------------------------------------------------------------------5-----5-----7-----7-

e-----------------------------------------------------------------------------------------------------------------
b-----------------------------------------------------------------------------------------------------------------
g-----------------------------------------------------------------------------------------------------------------
d----------------------------------5------------------------------------------------------------------------------
a----7--5--7--5------7--5--7------7--5--7--5---------7~5----------------------------------------------------------
e--------------------------------------------------------------------7---6---5~3----------------------------------
Вверх

Shallow Be Thy Game

Intro:
G-|----------------------12-----12h14-----12---|
D-|------0h14-12h14--------14-12-----12h14--14-|
A-|-12h14-----------12h14----------------------|
E-|--------------------------------------------|

G-|---------12--------12-----14-----12---|
D-|-----0h14--14-12h14--14-12--12h14-----|
A-|-0h14------------------------------12-|
E-|--------------------------------------|

Bass figure 1:
G-|------------------------------|------------------------------|
D-|-------2--2-------2--2------2-|-------2--2-------2--2------2-|
A-|------------------------------|------------------------------|
E-|-0-0-0---0--0-0-0---0--0-0-0--|-0-0-0---0--0-0-0---0--0-0-0--|
    T T T P TP T T T P TP T T TP   T T T P TP T T T P TP T T TP
Reapet four times

Last two bars of bass fig.1:
G-|------------------------------|-------------------------------|
D-|-------2--2-------2--2------2-|-------2--2--------------------|
A-|------------------------------|-------------------------------|
E-|-0-0-0---0--0-0-0---0--0-0-0--|-0-0-0---0--0-0-0--0--0--/15--|
    T T T P TP T T T P TP T T TP   T T T P TP T T T  T

Bass figure 2:
G-|-----------------------------|-----------------------------|
D-|-----------7-9--7--5-5h7-5h7-|-----------7-9--7--5-5h7-5h7-|
A-|-5--7--x-7-------------------|-5--7--x-7-------------------|
E-|-----------------------------|-----------------------------|

After verse bass figure:
G-|---------------------------|--------------------------|
D-|---------------------------|--------------------------|
A-|------7---5----------------|----7----5--------5h7-5h7-|
E-|-0--0--0------0-5h7-5-0--3-|-0-----0----0-5h7---------|

G-|---------------------------|-----------------------|
D-|---------------------------|-----------------------|
A-|------7---5----------------|------7------------5h7-|
E-|-0--0--0------0-5h7-5-0--3-|-0--0---0-3-5--6/7-----|

Chorus:
G-|-------9--9------9--9------9-|-------7--7------7--7------7--|
D-|-----------------------------|------------------------------|
A-|-7-7-7--7--7-7-7--7--7-7-7---|-5-5-5--5--5-5-5--5--5-5-5----|
E-|-----------------------------|------------------------------|
    T T T PT PT T T PT PT T T P   T T T PT PT T T PT  T T T P

G-|-------6--6------6--6------6-|-------6--6------6--6------6-|
D-|-----------------------------|-----------------------------|
A-|-4-4-4--4--4-4-4--4--4-4-4---|-4-4-4--4--4-4-4--4--4-4-4---|
E-|-----------------------------|-----------------------------|
    T T T PT PT T T cont. smilie

G-|-------9--9------9--9------9-|---------12--12--------12--12--------12-|
D-|-----------------------------|----------------------------------------|
A-|-7-7-7--7--7-7-7--7--7-7-7---|-10-10-10--10--10-10-10--10--10-10-10---|
E-|-----------------------------|----------------------------------------|

G-|---------14--14--------14--14--------14-|---------14--14------------|
D-|----------------------------------------|---------------------------|
A-|-12-12-12--12--12-12-12--12--12-12-12---|-12-12-12--12--12-12--x-12-|
E-|----------------------------------------|---------------------------|

After Chorus:
G-|-----------------------------|-----------------------------|
D-|-----------7-9--7--5-5h7-5h7-|-----------7-9--7--5-7h9-7h9-|
A-|-5--7--x-7-------------------|-5--7--x-7-------------------|
E-|-----------------------------|-----------------------------|

G-|-----------------------------|-------------------------|
D-|-----------7-9--7--5-7h9-5h7-|------7h9----5h7-5-------|
A-|-5--7--x-7-------------------|-5--7-----5h7-----7-5----|
E-|-----------------------------|---------------------7-5-|

Guitar solo:
G-|-----------------------------|----------------------------|
D-|-----------7-9--7--5-5h7-5h7-|----------------------------|
A-|-5--7--x-7-------------------|-5--7--x-5-5-7--7--5--------|
E-|-----------------------------|---------------------7-5--3-|

G-|-----------------------------|-------------------------|
D-|-----------7-9--7--5-5h7-5h7-|---------7-9--7--5-7-7---|
A-|-5--7--x-7-------------------|-7---x-7---------------7-|
E-|-----------------------------|-------------------------|

G-|--------12--12-------------------|-----------14-14-14-14----------|
D-|-/14--14-------14--12---------12-|-14--14-12---------------------5-|
A-|---------------------14-12-14----|---------------------------5-7---|
E-|---------------------------------|-------------------------0-------|

G-|-----------------------------|---------7---7---7--------|
D-|-----------7-9--7--5-5h7-5h7-|-7h9-7-9---9---9---97-5--|
A-|-5--7--x-7-------------------|--------------------------|
E-|-----------------------------|--------------------------|

Outro:
G-|---------------------------|--------------------------|
D-|---------------------------|--------------------------|
A-|------7---5----------------|----7----5--------5-7-5---|
E-|-0--0--0------0-5h7-5-0--3-|-0-----0----0-5h7-------7-|

                                               B
G-|---------------------------|-------------------------------|
D-|---------------------------|------------7-5-7--5-5---------|
A-|------7---5----------------|----5h7----------------7-5-5---|
E-|-0--0--0------0-5h7-5-0--3-|-0------5h7------------------7-|

G-|---------------------------|---------------------------|
D-|---------------------------|---------------------------|
A-|------7---5----------------|------7-7-7-7-7-7-7-7-5----|
E-|-0--0--0------0-5h7-5-0--3-|-0--0--------------------7-|

G-|---------------------------|-----------------------|
D-|---------------------------|--------------5--5-5---|
A-|------7---5----------------|------7-7-5-7---7----7-|
E-|-0--0--0------0-5h7-5-0--3-|-0--0------------------|

    B                B
G-|---------------------------------------|
D-|---------------------------------------|
A-|-12---12p10-12h10-12---12p10-10h12-12--|
E-|---------------------------------------|

    B                B
G-|---------------------------------------|
D-|---------------------------------------|
A-|-12---12p10-12h10-12---12p10-10h12-12--|
E-|---------------------------------------|

    B                B
G-|---------------------------------------|
D-|---------------------------------------|
A-|-12---12p10-12h10-12---12p10-10h12-12--|
E-|---------------------------------------|

    B                B
G-|-----------------------------------------------|
D-|-----------------------------------------------|
A-|-12---12p10-10h12-12---12p10-12p10-12p10-12p10-|
E-|-----------------------------------------------|

G-|------------|
D-|------------|
A-|-7----------|
E-|-0----------|
Вверх

Show Me Your Soul

Intro:
G-|----|----|------|
D-|----|----|------|
A-|-5--|-7--|--5-7-|
E-|----|----|------|

Bass figure 1:
G-|-----------------------|----------------------|
D-|-----------------------|----------------------|
A-|----x-5-6-7--x-3p0-----|----x-5-6-7--3--------|
E-|-5------------------x3-|--5--------------x3-3-|

Pre-verse variation:
G-|---------------------|
D-|---------------7p5-7-|
A-|----x-5-6-7----------|
E-|-5-------------------|

Bass figure 2:
G-|---------------x-5--------|------------------------|
D-|--------------------------|------------------------|
A-|----x-5-6-7---------------|---x-5-6-7--------------|
E-|-5------------------4p3-5-|-5------------5--3-3-x--|
    T  T T T T    P P  T T T   T T T T T    T  T T T

Chorus:
G-|----|-----------------|----|---------------------------|
D-|----|-----------------|----|--------5------------------|
A-|-5--|--5/85----------|-5--|-5/85-------------3-3-4-4-|
E-|----|----------5/8-5-|----|----------5----53---------|

G-|----|-----------|--------|---------|
D-|----|-----------|--------|---------|
A-|-5--|--5/8-8----|--------|------1--|
E-|----|--------5--|--5--3--|--1------|

Interlude:
G-|--------------|-----------------|
D-|--------------|-----------------|
A-|-5-5--5--5-5--|--5-5--5--5-5-3--|
E-|--------------|-----------------|

G-|--------------|--------------------|
D-|--------------|--------------------|
A-|-5-5--5--5-5--|--5-5--5--5--5--x3--|
E-|--------------|--------------------|
Note: Sound an octave lower.
Played on 5-string or with octave pedal.

Bridge:
G-|--------------------|----------------------|
D-|--------------------|----------------------|
A-|-5h7-5h7-4-5--------|-5h7-5h7-4-5-----5----|
E-|-------------43-5--|--------------5/7--7--|

End of bridge:
G-|--------------------|------------------|
D-|--------------------|------------------|
A-|-5h7-5h7-4-5--------|-5--5-6-7---------|
E-|-------------43-5--|------------15---|

Guitar solo:
G-|--------------------|----------------------|
D-|--------------------|----------------------|
A-|-5h7-5h7-4-5--------|-5h7-5h7-4-5-----5----|
E-|-------------5p3-5--|--------------5h7--7--|

Special part in guitar solo (only one time):
G-|-------------------|--------------7-----------|
D-|-------------------|------5-7-8-9---9-7--5----|
A-|-5h7-5h7-4-5-------|--5/7-------------------7-|
E-|-------------5p3-5-|--------------------------|


------
Show me your soul
Tabbed by Truijllo
In this song Flea plays a five strings bass ( or maybe a six strings bass ), here
I've tried to translate this song in a tablature for a four strings bass
( in the video Flea plays a 4 strings )


Main riff
  |-------------2 times-------------------|
G |---------------------------------------------------------------------------
D |-------------------------------------------------------------------/12-10--
A |--0-0-5-6-7--------0-0-5-6-7--3----------0-0-5-6-7-------0-0-5-6-7---------
E |------------5-4-3---------------5-4-3--------------5-4-3-------------------

Variation with slap
G |------------4h5-*----------------------------------------------------
D |---------------------------------------------------------------------
A |-0-0-5-6-7--------------0-0-5-6-7-3----------------------------------
E |-------------------3----------------5-4-3----------------------------
    S S S S S  P   P  S    S S S S S S S S S

Chorus
G |---------------------------------------------------------------------
D |--------------------------5------------------------------------------
A |-5-7/8/7/8----0-3-3-4-4-5---0---0-3-3-4-4-5--8/0---------------------
E |-----------5---------------------------------------3-0---------------

Solo guitar ( slow part, here there are some low notes
G |---------------------------------------------------------------------
D |---------------------------------------------------------------------
A |--5-5--5---5------5-5--5---5--3----3-3--3---3-----3-3--3---3-2-------
E |---------5----3h5--------5----------------5---3h5--------5-----------

Outtro
G |---------------------------------------------------------------------
D |---------------------------------------------------------------------
A |7-7-5-7-4-5-----4-7-7-5-7-4-5----4h7p4-------------------------------
E |------------3-5--------------3h5-------------------------------------
Variation outtro
G |--------------------------7-4----------------------------------------
D |----------------------5h7------7-5---7-5-----------------------------
A |-7-7-5-7-4-5-----4--7--------------7---------------------------------
E |-------------3-5-----------------------------------------------------
Вверх

Sickamickanico

Verse:(Very Fast)                                           Pre-Chorus:(Fast)
e-----------------------------------------------         e------------------------------------------------
b-----------------------------------------------         b------------------------------------------------
g--------3-3-3---3-3-3---3-3-3---5--------------         g--4-4-4-4-4-4-4-4-7-x-7-x-7---------------------
d--5-5-5-3-3-3---3-3-3---3-3-3---5--------------         d--4-4-4-4-4-4-4-4-7-x-7-x-7---------------------
a--5-5-5-1-1-1-x-1-1-1-x-1-1-1-x 3--------------         a--2-2-2-2-2-2-2-2-5-x-5-x-5---------------------
e--3-3-3----------------------------------------         e------------------------------------------------


Chorus:(Fast)
e-----------------------------------------------------------------------------------
b-----------------------------------------------------------------------------------
g-----------------------------------------------------------------------------------
d--9-9-9-x-9-x-9-x-x-x-10-10---9-9-9-x-9-x-9-x-x-x-12--10---------------------------
a--9-9-9-x-9-x-9-x-x-x-10-10---9-9-9-x-9-x-9-x-x-x-12--10---------------------------
e--7-7-7-x-7-x-7-x-x-x--8--8---7-7-7-x-7-x-7-x-x-x-10---8---------------------------

Bridge:(Slow)
e---------------------------------------------------
b---------------------------------------------------
g------------9-----7--------------------------------
d-----------------------9-----7---------------------
a------------------------------------10-------------
e--0--0--0------------------------------------------

Outro:(Added to the end of the chorus)
e-----------------------------------------------------------------------
b-----------------------------------------------------------------------
g-----------------------------------------------------------------------
d--12-12-12-12-12-12-12-12-12-12-12-12-12-12-12--10---------------------
a--12-12-12-12-12-12-12-12-12-12-12-12-12-12-12--10---------------------
e--10-10-10-10-10-10-10-10-10-10-10-10-10-10-10---8---------------------
Вверх

Sickamickanico (2 вариант)

Main Rif
g--------------------------------------------------------
d--------------------------------------------------------
a--------------------repeat the G many times
e--3333333333333333333--------FAST

pre chorus
g------------------------------------
d------------------------------------
a-----------5-----5------5---------
e--7-----------7-----7-------------
   / repeat many X's

Chorus
      6x's       6x's     6x's   4x's
g-------------------------------------------------------------
d-------------------------------------------------------------
a-------------------------------------------------------------
e--  --0---------1---------0---------1---------3----1-----
Вверх

Sickamickanico (3 вариант)

Intro

    Play 5 times                                 Last time play this
-||-------------------------------------------||-------------------------------------||
-||-------------------------------------------||-------------------------------------||
-||-*--0-0-0-0-3-0-0-0-3-0-0-0-3-0-0-0-0-5--*-||---0-0-0-0-3-0-0-0-3-0-0-3-0-0-3-0---||
-||-*--0-0-0-0-3-0-0-0-3-0-0-0-3-0-0-0-0-5--*-||---0-0-0-0-3-0-0-0-3-0-0-3-0-0-3-0---||
-||-------------------------------------------||-------------------------------------||
-||-------------------------------------------||-------------------------------------||

Verse 1

-||---------------------------------------|-|
-||---------------------------------------|-|
-||-*--0-0-0-0-3-0-0-0-3-0-0-3-0-0-3-0--*-|-|
-||-*--0-0-0-0-3-0-0-0-3-0-0-3-0-0-3-0--*-|-|
-||---------------------------------------|-|
-||---------------------------------------|-| x3

     Play 3 times                                  Last time play this
-||-------------------------------------------||-------------------------------------||
-||-------------------------------------------||-------------------------------------||
-||-*--0-0-0-0-3-0-0-0-3-0-0-0-3-0-0-0-0-5--*-||---0-0-0-0-3-0-0-0-3-0-0-3-0-0-3-0---||
-||-*--0-0-0-0-3-0-0-0-3-0-0-0-3-0-0-0-0-5--*-||---0-0-0-0-3-0-0-0-3-0-0-3-0-0-3-0---||
-||-------------------------------------------||-------------------------------------||
-||-------------------------------------------||-------------------------------------||

Verse 2

-||---------------------------------------|-|
-||---------------------------------------|-|
-||-*--0-0-0-0-3-0-0-0-3-0-0-3-0-0-3-0--*-|-|
-||-*--0-0-0-0-3-0-0-0-3-0-0-3-0-0-3-0--*-|-|
-||---------------------------------------|-|
-||---------------------------------------|-| x3

Pre-Chorus

     B5                 D
-||--------------------------------------|-|
-||-----------------------7-x-x-7-x-7----|-|
-||-*---------------------7-x-x-7-x-7--*-|-|
-||-*--9-9-9-9-9-9-9-9----7-x-x-7-x-7--*-|-|
-||----9-9-9-9-9-9-9-9-------------------|-|
-||----7-7-7-7-7-7-7-7-------------------|-| x4

Chorus

-||------------------------------|--------------------------------|-|
-||------------------------------|--------------------------------|-|
-||--4-4-4-4--4-4-4-4--x-x--5-5--|--4-4-4-4--4-4-4-4--x-x--7--5---|-|
-||--4-4-4-4--4-4-4-4--x-x--5-5--|--4-4-4-4--4-4-4-4--x-x--7--5---|-|
-||--2-2-2-2--2-2-2-2--x-x--3-3--|--2-2-2-2--2-2-2-2--x-x--5--3---|-|
-||------------------------------|--------------------------------|-| x2

Verse 3

-||---------------------------------------|-|
-||---------------------------------------|-|
-||-*--0-0-0-0-3-0-0-0-3-0-0-3-0-0-3-0--*-|-|
-||-*--0-0-0-0-3-0-0-0-3-0-0-3-0-0-3-0--*-|-|
-||---------------------------------------|-|
-||---------------------------------------|-| x3

    Play 3 times                                  Last time play this
-||-------------------------------------------||-------------------------------------||
-||-------------------------------------------||-------------------------------------||
-||-*--0-0-0-0-3-0-0-0-3-0-0-0-3-0-0-0-0-5--*-||---0-0-0-0-3-0-0-0-3-0-0-3-0-0-3-0---||
-||-*--0-0-0-0-3-0-0-0-3-0-0-0-3-0-0-0-0-5--*-||---0-0-0-0-3-0-0-0-3-0-0-3-0-0-3-0---||
-||-------------------------------------------||-------------------------------------||
-||-------------------------------------------||-------------------------------------||

Verse 4

-||---------------------------------------|-|
-||---------------------------------------|-|
-||-*--0-0-0-0-3-0-0-0-3-0-0-3-0-0-3-0--*-|-|
-||-*--0-0-0-0-3-0-0-0-3-0-0-3-0-0-3-0--*-|-|
-||---------------------------------------|-|
-||---------------------------------------|-| x3

Pre-Chorus

     B5                 D
-||--------------------------------------|-|
-||-----------------------7-x-x-7-x-7----|-|
-||-*---------------------7-x-x-7-x-7--*-|-|
-||-*--9-9-9-9-9-9-9-9----7-x-x-7-x-7--*-|-|
-||----9-9-9-9-9-9-9-9-------------------|-|
-||----7-7-7-7-7-7-7-7-------------------|-| x4

Chorus

-||------------------------------|--------------------------------|-|
-||------------------------------|--------------------------------|-|
-||--4-4-4-4--4-4-4-4--x-x--5-5--|--4-4-4-4--4-4-4-4--x-x--7--5---|-|
-||--4-4-4-4--4-4-4-4--x-x--5-5--|--4-4-4-4--4-4-4-4--x-x--7--5---|-|
-||--2-2-2-2--2-2-2-2--x-x--3-3--|--2-2-2-2--2-2-2-2--x-x--5--3---|-|
-||------------------------------|--------------------------------|-| x2

Interlude

-||------------|-----------------------|---------|-----------|-|
-||------------|-----------------------|---------|-----------|-|
-||-*----------|----9br--7-------------|---------|---------*-|-|
-||-*----------|-------------9--7------|---------|---------*-|-|
-||------------|-------------------10--|---------|-----------|-|
-||------0-----|-----------------------|----0----|-----0-----|-|


-||-------------------------------------------||-------------------------------------||
-||-------------------------------------------||-------------------------------------||
-||-*--0-0-0-0-3-0-0-0-3-0-0-0-3-0-0-0-0-5--*-||---0-0-0-0-3-0-0-0-3-0-0-3-0-0-3-0---||
-||-*--0-0-0-0-3-0-0-0-3-0-0-0-3-0-0-0-0-5--*-||---0-0-0-0-3-0-0-0-3-0-0-3-0-0-3-0---||
-||-------------------------------------------||-------------------------------------||
-||-------------------------------------------||-------------------------------------||
Вверх

Sir Psycho Sexy

Intro: With Wah-Wah

E|--x---------------------------|------------x--x--x------------------|
B|--x----------x----------------|------------x--x--x------------------|
G|----------x--x----------------|-----x--x---x--x--x------------------|
D|----------x------x--5--5--5b--|--x------------------x--x--0--2~~~~--|
A|------x-----------------------|-------------------------------------|
E|------x-----------------------|-------------------------------------|

E|--x-----------x--x----------------------|-----------x--x------------------|
B|--x-----------x--x----------------------|-----------x--x--x---------------|
G|--------------x--x----------------------|--x--------x--x------------------|
D|-----x--x--x--------x--x--x--x--0-tr-2--|-----x--x-----------x--5--5--5b--|
A|----------------------------------------|---------------------------------|
E|----------------------------------------|---------------------------------|

E|--------------x--x------------------|----------------------------|
B|--------------x--x------------------|----------------------------|
G|--------------x--x------------------|-----x--x-------------------|
D|--x--x-----------------------------|--x--------x----x-5--5--5b--|
A|---------------------4--5---7-~~~~--|----------------------------|
E|------------------------------------|----------------------------|

E|------------------------------------------------------|
B|------------------------------------------------------|
G|------------------------------------------------------|
D|--x--x---x--x------x--x-------------------------------|
A|-------------------------5--5--5--5-------------------|
E|------------------------------------------------------|

Fig.1

E|--7--7----7--7-----x--7----7-----7--7----7----7--7----x--9--7--------|
B|--8--7----7--7-----x--8----8-----8--7----8----8--7----x--9--7--------|
G|--7--7----7--7-----x--7----7-----7--7----7----7--7----x--9--7--------|
D|--9--9----9--9-----x--9----9-----9--9----9----9--9--------------------|
A|--7--7----7--7-----x--7----7-----7--7----7----7--7--------------------|
E|----------------------------------------------------------------------|
x2Ѕ

E|------------------------------------------------------|
B|------------------------------------------------------|
G|------------------------------------------------------|
D|------------------------------------------------------|
A|--5--5--5--5------------------------------------------|
E|------------------------------------------------------|

Chorus:

E|---------------------------------------------------------|
B|--11-/--12-----------------------------------------------|
G|--9--/--10----10----12~~----x--x--3--3b------------------|
D|---------------------------------------------5--4---3-b--|
A|---------------------------------------------------------|
E|---------------------------------------------------------| a few times
with slight variations

Interlude:

E|------------------------|--------------------------|
B|--5----7----8-----------|--8--8--7--7--5-----------|
G|--5----7----9--x--------|--9--9--7--7--5--x--5-----|
D|------------------5--7--|-----------------------7--|
A|------------------------|--------------------------|
E|------------------------|--------------------------|

E|------------------------|--------------------------|
B|--5----7----8-----------|--8--8--7--7--5-----------|
G|--5----7----9--x--------|--9--9--7--7--5--7b--5~~--|
D|------------------5--7--|--------------------------|
A|------------------------|--------------------------|
E|------------------------|--------------------------|

E|------------------------|---------------x--5----6------|
B|--5----7----8-----------|--8--8--7--7---x--5----6------|
G|--5----7----9--x--------|--9--9--7--7---x--5----6------|
D|------------------5--7--|------------------------------|
A|------------------------|------------------------------|
E|------------------------|---------------------------0--|

Outro: Only Chords

    Em   Eb   Bb   D    Ab   Eb   Cm   Ab   G
E|------------6---------4--------------4----3--------------|
B|--8----8----6----7----4----8----4----4----3--------------|
G|--9----8----7----7----5----8----5----5----4--------------|
D|--9----8----8----7----6----8----5----6----5--------------|
A|--7----6----8----5----6----6----3----6----5--------------|
E|------------6---------4--------------4----3--------------|
Вверх

Sir Psycho Sexy (2 вариант)

Intro:
G-|------------------|----------------|----------------|--------------|
D-|------------------|----------------|----------------|--------------|
A-|-7-------4-5---5--|-7------4--5-4--|-7------4-5--5--|-7---5--7-5---|
E-|--0-6-7-------0-0-|--0-6-7---------|--0-6-7-----0-0-|--0-----------|

Verse Bass figure 1:
G-|------------------|----------------|----------------|----------------|
D-|------------------|----------------|----------------|----------------|
A-|-7-------4-5---5--|-7------4--5-4--|-7------4-5--5--|-7------5-5-5-5-|
E-|--0-6-7-------0-0-|--0-6-7---------|--0-6-7-----0-0-|--0-6-7---------|

Verse Bass figure2: (with phase shifter pedal)
G-|------------------|----------------|----------------|--------------|
D-|------------------|----------------|----------------|--------------|
A-|-7-------4-5---5--|-7------4--5-4--|-7------4-5--5--|-7---5--7-5---|
E-|--0-6-7-------0-0-|--0-6-7---------|--0-6-7-----0-0-|--0-----------|

G-|------------------|----------------|----------------|----------------|
D-|------------------|----------------|----------------|----------------|
A-|-7-------4-5---5--|-7------4--5-4--|-7------4-5--5--|-7------5-5-5-5-|
E-|--0-6-7-------0-0-|--0-6-7---------|--0-6-7-----0-0-|--0-6-7---------|

Verse 2:
G-|------------------|----------------|----------------|--------------|
D-|------------------|----------------|----------------|--------------|
A-|-7-------4-5---5--|-7------4--5-4--|-7------4-5--5--|-7---5--7-5---|
E-|--0-6-7-------0-0-|--0-6-7---------|--0-6-7-----0-0-|--0-----------|

G-|------------------|----------------|----------------|------6-7-------|
D-|------------------|----------------|----------------|----5-----------|
A-|-7-------4-5---5--|-7------4--5-4--|-7------4-5--5--|-7-7-----0-4-5-5|
E-|--0-6-7-------0-0-|--0-6-7---------|--0-6-7-----0-0-|----------------|

G-|------------------|----------------|----------------|--------------|
D-|------------------|----------------|----------------|--------------|
A-|-7-------4-5---5--|-7------4--5-4--|-7------4-5--5--|-7---5--7-5---|
E-|--0-6-7-------0-0-|--0-6-7---------|--0-6-7-----0-0-|--0-----------|

Chorus: (clean bass)
G-|--------------------|-------------------|------------------|
D-|----5-3-5--5-3-5----|----5-----5--------|-5-3-5--5-3-5-----|
A-|--------------------|-------------------|------------------|
E-|-3---------------x3-|--3--3--3---3-3-x3-|---------------x3-|

G-|----------------|------------------|----------------|-----------------|
D-|---5-----5------|-5-3-5--5-3-5-----|---5----5-------|-5-3-5--5-3-5----|
A-|----------------|------------------|----------------|-----------------|
E-|-3--3--3--3--x3-|---------------x3-|-3--3--3--3--x3-|---------------6-|

Verse 3: (with phase shifter)
G-|------------------|----------------|----------------|------------7---|
D-|------------------|----------------|----------------|----------------|
A-|-7-------4-5---5--|-7------4--5-4--|-7------4-5--5--|-7------5-5---5-|
E-|--0-6-7-------0-0-|--0-6-7---------|--0-6-7-----0-0-|--0-6-7---------|

G-|------------------|----------------|----------------|--------------|
D-|------------------|----------------|----------------|--------------|
A-|-7-------4-5---5--|-7------4--5-4--|-7------4-5--5--|-7---5--7-5---|
E-|--0-6-7-------0-0-|--0-6-7---------|--0-6-7-----0-0-|--0-----------|

G-|------------------|----------------|----------------|----------------|
D-|------------------|----------------|----------------|----------------|
A-|-7-------4-5---5--|-7------4--5-4--|-7------4-5--5--|-7------5-5-5-5-|
E-|--0-6-7-------0-0-|--0-6-7---------|--0-6-7-----0-0-|--0-6-7---------|

G-|------------------|-------------|
D-|------------------|-------------|
A-|-7-------4-5---5--|-7--------5--|
E-|--0-6-7-------0-0-|--0--6-7-----|

Interlude 1: (clean bass)
G-|----------------------------|-------------------------|
D-|----------------------------|-------------------------|
A-|----------------------------|-------------3-----------|
E-|-5-0-3-0-5-0-3-0--5-3-0-3-0-|-5-0-3-0-5-0---5-3-0-3-0-|

G-|----------------------------|-------------------------|
D-|----------------------------|-------------------------|
A-|----------------------------|-------------5-3---------|
E-|-5-0-3-0-5-0-3-0--5-3-0-3-0-|-5-0-3-0-5-0-----5-0-3-0-|
Play intelude 1 two times. Last two bars first time only

Last two bars second time:
G-|-------------------|-------|
D-|-------------------|-------|
A-|--------------5--6-|--7----|
E-|-5-0-3-0-5-3-------|-------|

Verse 4: (With phase shifter)
G-|------------------|----------------|----------------|--------------|
D-|------------------|----------------|----------------|--------------|
A-|-7-------4-5---5--|-7------4--5-4--|-7------4-5--5--|-7---5--7-5---|
E-|--0-6-7-------0-0-|--0-6-7---------|--0-6-7-----0-0-|--0-----------|

G-|------------------|----------------|----------------|------|
D-|------------------|----------------|----------------|------|
A-|-7-------4-5---5--|-7------4--5-4--|-7------4-5--5--|--0---|
E-|--0-6-7-------0-0-|--0-6-7---------|--0-6-7-----0-0-|------|

Interlude 2: (clean bass)
G-|------------9-|----------|---------11-9--|---------|----------9--|
D-|------6/7-----|----------|-----6/7-------|---------|-----6/7-----|
A-|-7------------|--6-------|-7-------------|-6---9---|-7-----------|
E-|--------------|------7---|---------------|-------7-|-------------|

G-|----------|-----------------|-------------|
D-|----------|-----------------|-------------|
A-|--6-------|-----------------|-0h2-2--2-2--|
E-|------7---|-5-0-5-0-5-0-5-0-|-------------|
Play interlude 2 two times. Last two bars first time only

Last two bars second time:
G-|------------|-----------|
D-|------------|---------4-|
A-|------------|-2--2--5---|
E-|-8---8-10-8-|-----------|

Verse 5: (with phase shifter)
G-|------------------|----------------|----------------|--------------|
D-|------------------|----------------|----------------|--------------|
A-|-7-------4-5---5--|-7------4--5-4--|-7------4-5--5--|-7---5--7-5---|
E-|--0-6-7-------0-0-|--0-6-7---------|--0-6-7-----0-0-|--0-----------|

G-|------------------|----------------|----------------|-----------------|
D-|------------------|----------------|----------------|----5-6----------|
A-|-7-------4-5---5--|-7------4--5-4--|-7------4-5--5--|-7-0----7-0----5-|
E-|--0-6-7-------0-0-|--0-6-7---------|--0-6-7-----0-0-|------------6-7--|

G-|------------------|----------------|----------------|--------------|
D-|------------------|----------------|----------------|--------------|
A-|-7-------4-5---5--|-7------4--5-4--|-7------4-5--5--|-7---5--7-5---|
E-|--0-6-7-------0-0-|--0-6-7---------|--0-6-7-----0-0-|--0-----------|
Outro:
G-|---------------|-------------|------------|------------|-----------|
D-|---------------|-------------|------------|------------|-----------|
A-|-7---7-7-----7-|-6--6---6-6--|------------|-5-5--5---5-|-------6---|
E-|------7-7--7---|------6------|-6---6-6--6-|--------5---|-4--4------|

G-|-------------|--------------|------------------|
D-|-------------|--------------|------------------|
A-|-3---3-3--3--|--------------|------------------|
E-|----3--------|-4-4---4-4-4--|-3-3-3-3-3-3-3-3--|
Play outro part several times. Flea inprovise over the part thourghout
the song
Вверх

Someone

 Intro/Verse

--------------------------------------------------------------------------|
----17---13---13-13-13------13--12----------------------------------------|
----17---14---14-14-14------14--12-14--12-12------------------------------|
----17---14---14-14-14------15--------------------------------------------|
-15------12---12-12-12------15--------------------------------------------|
-------------------------13-----------------------------------------------|

 Chorus

-------------|-------------------------|----------------------------------|
-------------|-------------------------|-13-13-13---15-15-15--------------|
-------------|-------------------------|-14-14-14---16-16-16--------------|
-------------|-------12/14-12----------|-15-15-15---17-17-17--------------|
-15-14----12-|----------------15-14----|-15-15-15---17-17-17--------------|
-------15----|-13-13----------------15-|-13-13-13---15-15-15--------------|
	      First couple times        Last time play this instead
 Bridge

------------|-------------------|-----------------------------------------|
------------|15b17r-15----------|-----------------------------------------|
-17-16----14|------------17-16--|-16--14----------------------------------|
-------17---|-------------------|---------17-17---------------------------|
------------|-------------------|-----------------------------------------|
------------|-------------------|-----------------------------------------|
	     1st Endings         Last Ending
 Outro

-----------------------------------------|--------------------------------|
-----------------------------------------|--------------------------------|
------17----------------12---------------|-17--------------16v------------|
---14-17----------------15--12-----------|-17-----------------------------|
-15---15--10/12------15--------15-14-14--|-15-----------------------------|
------------------13---------------------|--------------------------------|
                                           Last Chord      Last note
Вверх

Soul To Squeeze

Intro:
e:----------------------------------|
B:----------------------------------|
G:------2-----4b54p2-------------2--|
D:---2----------------------2h4-----|
A:0--------0----------0--0----------|
E:----------------------------------|



e:-----------------------------------------|
B:------------------------------5----------|
G:-------2-----------2-----4/6-----64--2--|
D:----2--------2---------------------------|
A:-0--------0-----0-----0------------------|
E:-----------------------------------------|



e:-----------------------------------|--------------------------------|
B:-----------------------------------|--------------------------------|
G:--------2-----4b5p2-------------2--|--------2-----------------------|
D:-----2---------------------2h4-----|-----2--------2-----2-----0-----|
A:--0--------0---------0--0----------|--0--------0-----0--------------|
E:-----------------------------------|-----------------------3-----3--|



e:-----------------------------------|
B:-----------------------------------|
G:--------2-----4b5p2-------------2--|
D:-----2---------------------2h4-----|
A:--0--------0---------0--0----------|
E:-----------------------------------|



e:----------------------------------------|
B:-------------------------------5--------|
G:--------2-----------------4/6-----6p4p2-|
D:-----2--------2-----2-------------------|
A:--0--------0-----0-----0----------------|
E:----------------------------------------|



e:----------------------------------|
B:----------------------------------|
G:--------2-----4b5p2-------------2-|
D:-----2---------------------2h4----|
A:--0--------0---------0--0---------|
E:----------------------------------|


Ok, now play these notes with a slide, over this progression:
F C Dm Dm F C Gm7 F C Dm Dm F C Gm7


e:---------------------------|--------------------------------|
B:---8/10------8/10----------|---13/15------1513-------------|
G:---------------------------|----------------------------14--|
D:---------------------------|--------------------------------|
A:---------------------------|--------------------------------|
E:---------------------------|--------------------------------|



e:-----------------|----------------|--------------|-----------------|
B:-------13--------|----------------|-----------13-|-----------13/15-|
G:-----------14----|-10-------------|--12/14-------|--14-------------|
D:-----------------|----------------|--------------|-----------------|
A:-----------------|----------------|--------------|-----------------|
E:-----------------|----------------|--------------|-----------------|



e:-------------------------|-----------------|
B:--------13/15---------13-|-----------------|
G:-------------------------|--------------14-|
D:-------------------------|-----------------|
A:-------------------------|-----------------|
E:-------------------------|-----------------|

Verse 1 is just the chord progression repeated again.
F           C          Dm        Dm          F            C       Gm
I've got a bad disease.          All from my brain is where I bleed.

F      C        Dm               Dm          F        C    Gm
Insanity it seems,               has got me by my soul to squeeze.

Verse 2, played with the same progression and these notes:

e:------------8/108---------|------------------|
B:---------------|-----------|--------------10--|
G:---------------|-----------|------------------|
D:---------------|-----------|------------------|
A:---------------|-----------|------------------|
E:---------------|-----------|------------------|



e:------------------|--------------|
B:--------13---10/1110----6-------|
G:------------------|--------------|
D:------------------|--------------|
A:------------------|--------------|
E:------------------|--------------|


Chorus:
  F             C             Dm9                        Bb#11
Where I go, I just don't know.   I got to, got to, gotta take it slow.
 F              C             Dm9                           A       Bb
When I find my peace of mind,    I'm gonna give you some of my good time.


Play Verse 3, then the Chorus again.


Solo (with the rhythm progression):
e:-------------------|----|-----------8--------|------------------|
B:-108--6--8/10--6~-|----|-/10-10-10----108--|-----6---------6--|
G:-------------------|----|--------------------|--------/7--------|
D:-------------------|----|--------------------|------------------|
A:-------------------|----|--------------------|------------------|
E:-------------------|----|--------------------|------------------|



e:----------------------|--------|--------------/108----------|------------|
B:-/10--8--6--8--10-6/8-|-6-----|-/10--10--10----------10--10-|-8-6-5---|
G:----------------------|-----7--|-----------------------------|------------|
D:----------------------|--------|-----------------------------|------------|
A:----------------------|--------|-----------------------------|------------|
E:----------------------|--------|-----------------------------|------------|



e:--/10------|----108----5----|---/108---------|--(8)--|---------------|
B:-----------|-----------------|-----------------|-------|-------13/15--|
G:-----------|-----------------|-----------------|-------|---------------|
D:-----------|-----------------|-----------------|-------|---------------|
A:-----------|-----------------|-----------------|-------|---------------|
E:-----------|-----------------|-----------------|-------|---------------|



e:----------------------|
B:-13-----1510---105--|
G:----------------------|
D:----------------------|
A:----------------------|
E:----------------------|


Verse 4

Bridge (with rhythm progression, vary and add bass notes here and there):


e:---------13/15-|----------13-|------------------------|------------------|
B:---------------|-------------|--15-------13/15--------|----10/11---------|
G:---------------|-------------|------------------1514-|-------------12---|
D:---------------|-------------|------------------------|------------------|
A:---------------|-------------|------------------------|------------------|
E:---------------|-------------|------------------------|------------------|



e:----------------|--------------------------|---------|-------|
B:----------------|---------/10--------------|---------|-------|
G:--10------------|-----------------------10-|---(10)--|-------|
D:----------------|--------------------------|---------|-------|
A:----------------|--------------------------|---------|-------|
E:----------------|--------------------------|---------|-------|


Ending Chorus (again with rhythm):

e:--------------|---------------|------------|-------------------|
B:--/10---------|---------86---|-6----------|--------------6/7-|
G:--------------|---------------|------------|--5/7--------------|
D:--------------|---------------|------------|-------------------|
A:--------------|---------------|------------|-------------------|
E:--------------|---------------|------------|-------------------|



e:--------------------|---------------|-------------------------|
B:-6-----------11/13-|--1110--------|--1110---------10/15----|
G:--------------------|---------------|-------------------------|
D:--------------------|---------------|-------------------------|
A:--------------------|---------------|-------------------------|
E:--------------------|---------------|-------------------------|



e:------------------|------------------|--------------|---------------------|
B:--15------15------|----------13------|-/10----------|----------10---------|
G:------------------|--/14---------14--|----------10--|---9/10--------10----|
D:------------------|------------------|--------------|---------------------|
A:------------------|------------------|--------------|---------------------|
E:------------------|------------------|--------------|---------------------|



e:-------------------|-------------------|---------|
B:----------8--6----|--------10---------|---------|
G:--9/10-------------|--9/10-------10----|--(10)---|
D:-------------------|-------------------|---------|
A:-------------------|-------------------|---------|
E:-------------------|-------------------|---------|
Вверх

Soul To Squeeze (2 вариант)

INTRO
G |-12-----12--12-14-12--------------------------
D |---12-14--14---------7-7-7-7-7-7-7-7-7  ....
A |----------------------------------------------
E |----------------------------------------------

VERSE
G |---------------------------------------
D |---------------0-2-3---------3-3-------
A |--------3-3-2-3-----1-5-5-0-5-1-3------
E |-1-1-3-5-------------------------3-6-5-

VARIATION(TO THE VERSE)
G |---------------------3-3-3--------------------------
D |---------------0-2-3-------------3-3-5-3-----3-0----
A |--------3-3-2-3-----1-----5-5-0-5-1-3---5-3-5---3-0-
E |-1-1-3-5---------------------------------6----------

***CHORUS 1***
G |---------------------------------------------------------------------------
D |--7-8-10-7-5---------------------7-9-10-7-7-8-7-5-----------------7--------
A |-8--------8-5-5-5-7-8-----10-9--8----------------8-7-5-5-5-5-5-5-8---------
E |--------8------------6-5-8--8----------8---------------------------6-8-5-3-

***CHORUS 2***
G |---------------------------------------------------------------------------
D |--7-8-10-7-5-------7----------------7-8-10-10-8-7-5-------------7----------
A |-8--------8-5-5-5/8----------10-9--8---------------5-5-5-5-5-5/8-----------
E |--------8-----------6-5-3-5-8--8----------8----------------------6-8-6-5-3-

GUITAR SOLO
G |---------------------3-3-3----------------------------------------------
D |---------------0-2-3---------------3-3--------------------------0-2-3---
A |--------3-3-2-3-----1-------5-5-0-5-1-3-(5)--------------3-3-2-3-----1--
E |-1-1-3-5-----------------------------------3-6-5--1-1-3-5---------------

G |---------------------------
D |--------3-3----------------
A |-5-5-0-5-1-3-3-3-3-3-3-3-3-
E |---------------------------

###BRIDGE###
G |--7----12----5-----5-----7----12----5--
D |---/10-10-5-7-7-5-7-7-----/10-10-5-7-7-
A |-5-------------------3--5--------------
E |---------------------------------------

***LAST CHORUS***
G |-------------------------------------------------------/12-10-----------5------
D |--7-8-10-7-7-8-7-5-5-------7----------------7-8-10-(10)------5-0-3-5-7-8-8-7-5-
A |-8----------------8-5-5-5/8----------10-9--8-----------------------------------
E |--------8-------------------6-5-3-5-8--8---------------------------------------

G |----------------------------------/12-10---------5-7-5-3-5-3-2-3-2-------10----
D |------10---------------7-8-10-(10)------5-0-3-5-7-----------------5-5-5/8------
A |-5-5/8-------------7--8---------------------------------------------------6-5-3
E |--------6-5-3-5-5-8------------------------------------------------------------

G |---------------12-10--5-7-5-3-5-3-2-3-2-------------------------||
D |---------7-8-10-----5-------------------------------------------||
A |--10-9--8------------3-----------------5-5-5-5-5-5-7-8----------||
E |-8--8-------------------------------------------------6-8-5-3-1-||
Вверх

Soul To Squeeze (3 вариант)

Intro*
G|-14--------14----14-16-14-------------------------------------------
D|-----14-16----16----------------------------------------------------
A|----------------------------0-0-0-0-0-0-0-0-0-0-0-0-0-0.............
E|--------------------------------------------------------------------

Verse
G|-----------------------------------------------
D|----------------0-2-3--------------------------
A|----------3-2-3-------1---5-5---5-8---8--------
E|-1-1--3-5---------------------5-----6---8--3-6

Verse (variation)
G|------------------------3-3-3------------------------------------
D|----------------0-2-3--------------------------------------------
A|----------3-2-3-------1--------5-5---5-8---8---10----------8-----
E|-1-1--3-5--------------------------5-----6---8----8-6-8h10---10-8

1st Chorus
G|---------------------------------------------------
D|---7--8-10-----7----------------------------------
A|-8----------------8-10--5-5-5-5-7-8---------10-----
E|-----------8----------------------6-6--8h10----10-8

G|----------------------------------------------
D|---7--8-10-----7h8p7--------------------------
A|-8-------------------8-10---5-5-5-5-7-8-------
E|-----------8--------------------------5-5-5-6

2nd Chorus
G|-----------------------------------------------------
D|---7--8-10-----7-------------------------------------
A|-8----------------8-10--5-5-5-5-7-8-----------10-----
E|-----------8----------------------6-6-6--8h10----10-8

G|------------------------------------------------
D|---7--8-10-----10-8-7---------------------------
A|-8-------------------105-5-5-5-7-8-------------
E|-----------8------------------------5-5-5-6-6-6

Guitar Solo
G|-----------------------------------------------
D|----------------0-2-3--------------------------
A|----------3-2-3-------1---5-5---5-8---8--------
E|-1-1--3-5---------------------5-----6---8--3-6

G|-------------------------------------------------
D|----------------0-2-3----------------------------
A|----------3-2-3-------1---5-5---5-8---8----------
E|-1-1--3-5---------------------5-----6---8-8-8-8-8

Bridge
G|--7---10/12---------5------5----
D|-------8/10-----5h7----5h7---7--      x3
A|-5-----------------------------3
E|--------------------------------
   sp    p        s   p  s   p s s

G|--7---10/12------------
D|-------8/10----------------
A|-5---------------------
E|-------------5-5-5-6-6
   sp    p

3rd Chorus
G|: -----------------------------------------------------------
D|: --7--8-10-----7-7-8-7-----------------7--------------------
A|: 8--------------------8-105-5-5-5-7h8---------------10-----
E|: ----------8-----------------------------6-6-6--8h10----10-8

G|---------------10/12-10---------------------------------------------------
D|---7---8---10---------------------7-8-10-8-7------------------------------
A|8----8---8-----------------7-8-10------------10--5-5-5-5-5-7-8------------
E|-------------------------8-------------------------------------5-5-5-6-6-6

G|-------------10/12-10----------------------------------------------------
D|--7---8---10--------------------7-8/10-7h8----------------7--------------
A|8---8---8----------------7-8-10------------105-5-5-5-7h8--------------10
E|-----------------------8------------------------------------6-6-6-8h10---
-10-8-|

G|------------10/12-10--------------------------------------------------
D|---7-7-8-10------------10-12-10--8-10-8--7-8-7------------------------
A|-8---------------------------------------------5-5-5-5-5-7-8----------
E|--------------------8----------------------------------------5-5-5-61
Вверх

Soul To Squeeze (4 вариант)

F          C          Dm Bb F         C           Dm   Bb
I've got a bad desease      Up from my brain is where i bleed
Insanity it seems           Is got me by my soul to squeeze
Well all the love from me   With all the dying trees i scream
The angels in my dreams     Have turn to demons of greed thats me

Chorus:
        F            C
        Where I go i just dont know
        Dm                      Bb
        Ive got to got to gotta take it slow
        When I find my peace of mind
        Im gonna give you some of my good time

F         C           Dm Bb  F       C       Dm       Bb
Today love smiled on me      It took away my pain say please
Oh let your ride be free     Youve got to let it be oh yeah

Chorus

Solo
Email me at popnfresh@sbcglobal.net if you want me to put the solo online.I need at
least twenty five people to email before i put it on. Sorry. If not, I still know it
if anybody wants the solo.

Your so polite indeed        Well i got everything i need
Oh make my days a breeze     And take away my self destruction

F                       C
Its bitter baby and its very sweet
   Dm                         Bb
Im on a roller coaster but im on my feet
Take me to the river let me on your shore
Ill be coming back baby Ill be coming back for more
F                      C
Doo doo doo doo dingle zing a dong bone,
Dm                         Bb
a-di ba-da ba-zumba crunga cone gone bad,
like an apple fritter but i went out and never said my pleasures
I'm much better but I won't regret it never

Chorus

2nd chorus
           F            C
           Where i go i just dont know
           Dm                          Bb
           I might end up somewhere in Mexico
           When i found my peace of mind        F
           Im gonna keep it for the end of time
Вверх

Special Secret Song Inside

Intro and Interlude:
G-|-------------------------|------------------4-5---|--------------------------|
D-|-------------------------|--------------3-5-------|--------------------------|
A-|-5-5-5-5--5-3------3-----|-5-5-5-5--3-5---------3-|-5-5-5-5--5-3-------3-----|
E-|--------------5-3----5-3-|------------------------|--------------5-3-5---5-3-|

G-|---------------------------|
D-|---------------------------|
A-|-5-5-5-5--5--3-5-3-----2-3-|
E-|-------------------5-1-----|

Verse 1 and 2:
G-|-------------------------|------------------------|
D-|-------------------------|------------------------|
A-|-5-5-5-5--5--3-----3-----|-5-5-5-5--3-----2-2-3-3-|
E-|---------------5-3---5-3-|------------5-----------|

G-|-------------------------|--------------------|
D-|-------------------------|--------------------|
A-|-5-5-5-5--5--3-----5-3---|-5-5-5-5----x2-3-4--|
E-|---------------3-5-----5-|--------------------|

1st, 2nd and 4th Chorus:
G-|-------------------------|------------------------|
D-|-------------------------|---------3--------------|
A-|-5-5--5-3-------3------3-|-5-5---5---5-3----------|
E-|----------5-3h5--5-3h5---|---------------5-4-3--1-|

G-|-------------------------|----------------------------|
D-|-------------------------|---------3h5p3--------------|
A-|-5-5--5-3-------3------3-|-5-5---5-------3------------|
E-|----------5-3h5--5-3h5---|-----------------5-3-1-3h5--|
Play chorus part two times

3nd Chorus (after the singing-only interlude):
G-|--------------------------|----------------------------|
D-|--------------------------|----------5h7---------------|
A-|-7-7--7-5-------5-------5-|-7-7--7-7-----7-5-----------|
E-|----------7-5h7---7-5h7---|------------------6-6-5-3-3-|

G-|----------------------------|-----------7h9---7h9-----|
D-|----------------------------|---------------9-----9---|
A-|-7-7-7-7--5-------5-------5-|-7-7--7-7--------------7-|
E-|------------7-5h7---7-5h7---|-------------------------|

G-|--------------------------|-----------------------------|
D-|--------------------------|----------5h7----------------|
A-|-7-7--7-5-------5-------5-|-7-7--7-7-----7-5------------|
E-|----------7-5h7---7-5h7---|-------------------5p3-3-3h5-|

G-|--------------------------|--------------------------|
D-|--------------------------|----------5h7-------------|
A-|-7-7--7-5-------5-------5-|-7-7--7-7-----7-5---------|
E-|----------7-5h7---7-5h7---|-------------------6-5-5/-|

Bridge:
G-|----------------|---------------------|
D-|-7-5---5--------|---------------------|
A-|-----7---7-5-7--|-5/3---3---3---------|
E-|----------------|-----5---5---5-3-5-5-|
Play four times

Guitarsolo:
G-|-----|-----|-----|-----|-----|-----|
D-|-----|-----|-----|-----|--3--|--2--|
A-|--5--|--3--|--5--|--3--|-----|-----|
E-|-----|-----|-----|-----|-----|-----|

End of 4th Chorus:
G-|-10----------------------|------|
D-|----12-10----------------|------|
A-|----------12-10-11-10----|------|
E-|----------------------13-|-10---|
Вверх

Stone Cold Bush

  Intro

 With Wah (+ = Treble)

  -        +           +           +
e----------6-----------6-----------6-|--------|---------6---------6-----
B----------6-----------6-----------6-|--------|---------6---------6-----
G------------------------------------|--------|-------------------------
D------------------------------------|--------|-------------------------
A------------------------------------|--------|------------------------
E-3-3-3-3-----3-3-3-3-----3-3-3-3----|-0-1-2--|-3-3-3-3----3-3-3-3------
 use thumb
                       + + + +

e------------------|---6-6-6-6-------------------------------------------
B------------------|---6-6-6-6-------------------------------------------
G------------------|-----------etc...------------------------------------
D------------------|-----------------------------------------------------
A----3-3-1--1--1-0-|-----------------------------------------------------
E--3--3----3-3-----|-----------------------------------------------------
 With wah            'get up off your knees' bit etc.
 (not sure this bit)
e------------------------------------------------------------------------
B------------------------------------------------------------------------
G------------------------------------------------------------------------
D--55555555-3333-2222-----5----------------------------------------------
A--33333333-1111-0000-----5----------------------------------------------
E-------------------------3----------------------------------------------
   she's--- Stone- Cold Bush'

                             Then bass solo
                             then Guitar solo :-)

  then....                     +                +
e-------------|----------------6----------------6---6-5-4-3-2------------
B----------7-5|--8-6-6-6-8-6-6-6--8-6-6-6-8-6-6-6------------------------
G----------7-5|----------------------------------------------------------
D-55555555-5-3|------------------------------------------------8-7-6-5---
A-33333333----|------------------------------------------------8-7-6-5---
E-------------|------------------------------------------------6-5-4-3---
Вверх

Stone Cold Bush (2 вариант)

Intro
G-------------------------------5----5-3--------------
D-----------------------------5----5------------------
A-----------------------------------------1-3--1-3-1--
E--3--------3-0-1-2-3---------------------------------

Verse Part 1
G----------------------------------------------------5----5-3--------------
D-------5-------5-------5---------------5-------5--5----5------------------
A--------------------------------------------------------------1-3--1-3-1--
E--1-3-----1-3-----1-3-----3-0-1-2-1-3-----1-3-----------------------------

Verse Part 2
G-------------------------------------------------------3-5--3-5-3-------------
D------------------------------------------------------------------------------
A------------------------------------------------------------------1-3--1-3-1--
E--3-3-1-3--3-3-1-3--3-3-1-3--3-0-1-2-3-3-1-3--3-3-1-3-------------------------

Chorus
G--------------------------------------------------------------------
D---------------------------------------------------------5---5---5--
A--------------------------------------------------------------------
E—-8-8-8-8-8-8-8-8-6-6-6-6-5-5-5-5-3--6-3-3--6-3-3--6-3-3---3---3----
   S S S S S S S S S S S S S S S S S  S S S  S S S  S S S P S P S P
G-----------------------------------
D-----------------------------------
A—-3-3-3-3-3-3-3-3-1-1-1-1-0-0-0-0--
E-----------------------------------

Solo Part 1
G---------12---------10-9-10-------12-12---------10-15~-12--
D------------10h12-----------------------10h12--------------
A—-0h10-x----------x------------10-------------x------------
E-----------------------------------------------------------
   T    T P  P     T P  P P     T  P  P  P     T P  P   P

G--------12-12-------10---10~-----15-14-13-12--------
D--------------10h12---------------------------------
A—-10-10----------------x-------x--------------------
E---------------------------------------------6-5-4--
   T  T  P  P  P     P  T P     T P  P  P  P  T T T

Solo Part 2
G--------------------------------------------
D------5-5-------3-3--------5-5--------------
A--------------------------------------------
E—-3-x-----0-1-x------0-3-x-----0-1/6-5-4-3--
   T T P P T T T P P  T T T P P T T   T T T

End Of Interlude
G-------------------------------------------------------------12----10--
D--------------------------------0/12-12-12-12-12-12-12-12-12-----------
A—-5-5-5-5-5-5-5-5-5-5-5-5-5-5-5----------------------------------------
E-----------------------------------------------------------------------

Order-
Intro x1
Verse Part 1 x2
Verse Part 2 x2
Chorus x2
Intro x1
Verse Part 2 x2
Chorus x1
Solo Part 1 x1
Solo Part 2 x10
End Of Interlude x1
Intro x1
Verse Part 1 x2
Verse Part 2 x2
Chorus x1
Solo Part 1 x1
Вверх

Stone Cold Bush (3 вариант)

Intro:

  VVVV VVV  V     VVVV V     V  V     V
||----|----------|----|3-5-3-5-3---------|
||----|----------|----|------------------|
||----|----------|----|---------1-3-1-3-1|
||3-3-|3-3-0-1-2-|3-3-|------------------|

Verse:

    V     V V     V  V     V V  V     V     V V     V
||------------------|----------------|----------------|
||o-----------------|----------------|----------------|
||o-----------------|----------------|----------------|
||--0-2-3-3-0-2-3-3-|0-2-3-3-3-0-1-2-|0-2-3-3-0-2-3-3-|
    (___)   (___)    (___)            (___)   (___)
      3       3        3                3       3

  V     V   V     V
|3-5-3-5-3------------||
|--------------------o||
|----------1-3-1-3-1-o||
|---------------------||

Chorus:

  V   V   V   V   V   V   V   V   V   V   V   V
||----------------|---------------*|---------------|
||o---------------|---------------*|---------------|
||o---------------|---------------*|----1-------1--|
||-8-8-8-8-8-8-8-8|6-6-6-6-5-5-5-5*|3-3---3-3-3---3|
   + + + + + + + + + + + + + + + +  + ^ + + + ^ +

 V   V   V     V
|------------------||
|-----------------o||
|----1-----1---1--o||
|3-3---3-3---3---3-||
 + + ^ + + ^ + ^ +

Go to solo after *'s on the second repeat of the second chorus.

BASS SOLO:
  V  v    V    v  Vv V v  V    v   V     v  V v    V  v
||-----12-------10--9--10|---12-----------10---15~--12-|
||--------10h12----------|-------X-10h12-----X---------|
||10-X-------------------|10---------------------------|
||-----------------------|-----------------------------|
  +  + ^  +     ^   ^  ^  +  ^   + +      ^  + ^    ^

 V  v   V  v     V   v    V  v V v  V  v  V  v V v
|-----12-----------10-----10~-|--15-14-13-12------|
|--------X-10h12--------------|-------------------|
|10-X------------------X------|-------------------|
|-----------------------------|--------------6-5-4|
 +  + ^  + +       ^   +  ^      ^  ^  ^  ^  + + +

  V v   V  v V v  V  v V v  V  v V v V v
|----------------------|-------------------||
|o----5----------3-----|----5-------------o||
|o---------------------|-------------1-0--o|| ? times.
|-3-X----3p0-1-X----1p0|3-X----3p0-1-----4-||
  + + ^  +   + + ^  +   + + ^  +   + + + +
  V     V     V     V     V  V  V  V
||-----------------------|12----10---|
||-----------------------|-----------|
||-----------------------|-----------|
||10-10-10-10-10-10-10-10|-----------|
  +  +  +  +  +  +  +  +  ^     ^
This bar 3 times then.....this once.Then back to Intro followed by the verse followed by the chorus and then....

    V v V v V v V v
||----3---3---3---3--||	This bit is where I get a
||o-----------------o||	little bit dodgy on the
||o-----------------o||	transcribing!
||--3---3---3---3----||
    + ^ + ^ + ^ + ^


 V v V v V v V     V VVV
|--3---3---------|-------||
|----------------|-------||	End
|----------------|-------||
|3---3-----6-5-4-|-3-----||
Вверх

Subterrannean Homesick Blues

e-||---------------------------|------------------|----------------------11----|
B-||----11----10----8----------|------------------|----11----10----8--8--------|
G-||-------------------8--8----|------------------|----------------------------|
D-||---------------------------|--10--8----8------|----------------------------|
A-||---------------------------|------------------|----------------------------|
E-||---------------------------|------------------|----------------------------|

e-||----8h11p8----8--11p8~~----|---------------------------|--------------------|
B-||-----------11--------------|----11----10----8----------|--------------------|
G-||---------------------------|-------------------8--8----|--------------------|
D-||---------------------------|---------------------------|----8--8----8h10----|
A-||---------------------------|---------------------------|--------------------|
E-||---------------------------|---------------------------|--------------------|

e-||----------------------11----|---------------------------|-|
B-||----11----10----8--8--------|----11p8-------------------|-|
G-||----------------------------|----------10--8------------|-|
D-||----------------------------|---------------------------|-|
A-||----------------------------|---------------------------|-|
E-||----------------------------|---------------------------|-|
Вверх

Subterrannean Homesick Blues (2 вариант)

Intro:
G]------------------------------------------------------------------]
D]------------------------------------------------------------------]
A]---------4-5--4-5-4------7----5----------------4-5--4-5-----------]
E]---0-----------------0-----------6--3---2---0------------0--3--2--]

G]------------------------------------------------------------------]
D]------------------------------------------------------------------]
A]---------4-5--4-5-4------7----5----------------4-5--4-5-----------]
E]---0-----------------0-----------6--3---2---0------------0--3--2--]

G]------------------------------------------------------------------]
D]------------------------------------------------------------------]
A]---------4-5--4-5-4------7----5----------------4-5--4-5-----------]
E]---0-----------------0-----------6--3---2---0------------0--3--2--]

G]------------------------------------------------------------------]
D]------------------------------------------------------------------]
A]---------4-5--4-5-4------7----5----------------4-5--4-5-----------]
E]---0-----------------0-----------6--3---2---0------------0--3--2--]

G]------------------------------------------------------------------]
D]------------------------------------------------------------------]
A]---------4-5--4-5-4------7----5----------------4-5--4-5-----------]
E]---0-----------------0-----------6--3---2---0------------0--3--2--]

G]--------------------------------------]
D]--------------------------------------]
A]---------4-5--4-5-4------7----5-------]
E]---0-----------------0-----------6--3-]

look i cant find my cd but i know u just keep hitting the A
in the amount times needed its not hard
Chorus:
G]------------------------------------------------------------------]
D]------------------------------------------------------------------]
A]------------------------------------------------------------------]
E]---17----5-----5---5---5-----5---5---5---5---5----5----5--5----5-]

u just play the amount of times there
its not hard to imterperate

Bridge:
G]------------------------------------------------------------------]
D]------------------------------------------------------------------]
A]------------------------------------------------------------------]
E]--8---8--8-8-8--8--8-8--8---8--8-8-8-8----8---8----8--------------]

again just play the notes when heard

Interlude:(killlen em)

G]-----------------------------------------------------------------]
D]-----------------------------------------------------------------]
A]-----------------------------------------------------------------]
E]--0-2--2-------0-2--2-----0--2--2------0--2--2-------------------]

G]-----------------------------------------------------------------]
D]-----------------------------------------------------------------]
A]-----------------------------------------------------------------]
E]--0--2-0-2/12--0--2---0--2/14--0-2---0-2/1210/16---0-2-0-2/12---]

G]-----------------------------------------------------------------]
D]-----------------------------------------------------------------]
A]-----------------------------------------------------------------]
E]--0--2-0-2/12--0--2---0--2/14--0-2---0-2/1210/16---0-2-0-2/20 -]
Вверх

Subterrannean Homesick Blues (3 вариант)

Main riff ( effected )
                             |-ending    1 -|
G |---------------------------------------------------------------------
D |---------------------------------------------------------------------
A |---4-5-4-5----7-5----------4-5---------------------------------------
E |-0---------0------6--3-0---------3-2-0-------------------------------
   |-ending    2 -|
G |---------------------------------------------------------------------
D |---------------------------------------------------------------------
A |-4-5-----------------------------------------------------------------
E |-------3-3-5-5-------------------------------------------------------

Chorus ( clean )

G |---------------------------------------------------------------------
D |---------------------------------------------------------------------
A |---------------------------------------------------------------------
E |-5~~/0--0-0-0--0-0-0--0--......--------------------------------------

Solo 1 ( effected part )

G |---7h8----------------------8----------------------8h9---------------
D |-------8h10-----7h8-7---8---------7h8----8h10-*-*-------8-8-8h10-----
A |--------------------------7---------------------------------------3-3-3-3---3
E |---------------------------------------------------------------------

Solo 1 ( clean part )
G |---------------------------------------------------------------------
D |---------------------------------------------------------------------
A |--3-3-3--3-3-3-3--3-3-3-3---...---------------------------------------
E |---------------------------------------------------------------------

Solo 2 ( effected part )

G |----11-------9-8-/9------11------9/8------11---------9-11--/14-------11
D |--------9h11----------------9h11--------------0-9h11-----------------
A |-9------------------0--9----------------9----------------------0--9--
E |---------------------------------------------------------------------
    S  P   P    P P    S  S P  P    P      S P   P P    P P     P S  S  P

G |---------------------11---------9-8-9-8---------9-14------------9----
D |--0-9h11----------------0--9h11---------0-----9------------9-11------
A |---------12-------9------------------------9------------9------------
E |-------------2-------------------------------------------------------
     P P    S   S    S  P  P  P    P P P P P  S  P P  P    S  S  S P

G |------9h11---------9-11-13-14----------------------------------------
D |-9h11---------9-11---------------------------------------------------
A |------------9--------------------------------------------------------
E |---------------------------------------------------------------------
    P    P     S P P  P P   P  P

Solo 2 ( clean part )

G |---------------------------------------------------------------------
D |---------------------------------------------------------------------
A |---------------------------------------------------------------------
E |--0--2-2---0--2-2--...---0-2-2-0-2/(10)--2-2-0-2/(14)----2-2-0-/(10)- etc..
     S  S S   S  S S        S S S S S       S S S S         S S S

Pre 2nd chorus
G |---------------------------------------------------------------------
D |---------------------------------------------------------------------
A |-7-7-7-----7-5-5-5-----5-3-3-3-----3-2-2-2--5-5-5-5------------------
E |-------7h9---------5h7---------3h5-----------------------------------
Вверх

Subway To Venus

e-----------------
B-----------------
G-77-7-7-7-777-777   PLAY THAT LICK 4 TIMES.
D-----------------
A-----------------
E-----------------
w/heavy distortion=guitar#2
e----------------
B----------------
G----------------
D----------------    PLAY THIS 4 TIMES.
A-7-------4-5-456
E---4-567--7-----

OUTRO-GUITAR SOLO: played by guitar#3 w/heavy distortion + chorus

    hold bend  hold bend      these are slow bend and releases
e-----------------------------------------
B-10b~~~~~~vv-8b~~~~~~vv-5br--------------
G----------------------------7brbrbrbrbrbr
D-----------------------------------------
A-----------------------------------------
E-----------------------------------------
                              use pre-bar dips on all of these notes
e------------------------------------------------------
B-------------------------------v101010v888v555v888v555
G------------------------------------------------------
D-9-7-9-5v(5)5v(5)5----5-------5-----------------------
A-------------------5h7-5h7p5h7------------------------
E------------------------------------------------------

e-------------------------------------------------------
B-------------------------------------------------------
G-7h9---------------------------------------------------
D----7h9-5h7--------------------------------------------
A------------5h7----------------------------------------
E----------------5h7-3h5-0h3-0-3p0-0-3p0-3p0-0-3p0-0-3br

e-------------------------------------------
B-------------------------------------------
G--------------3bvvvvvvvv-10-10-------12-12
D-------------------------10-10-10-10-12-12
A--------------------------8--8-10-10-10-10
E-0-3p0-0-3p0-0------------------8--8-------
Вверх

Subway To Venus (2 вариант)

Intro

G---------------|-15--14--p12------14--p12----------------------------------|
D---------------|--------------14-----------14--12p11------12--p11---------|
A---------------|---------------------------------------12-----------12--10-|
E---------------|-----------------------------------------------------------|

G----------X--9-------------------------------------X--9--------------------
D----------------6-----7-----8-----9----------------------6----7----(0)-7-8-
A--7--7----------------------------------X-----7----------------------------
E---------------------------------------------------------------------------

G---7----|-------X--9----------------------------|-------9-------------7----
D-9---9--|-------------6-----7-----8-----9-------|----------6--7--8--9----9-
A--------|-7----------------------------------X--|-7------------------------
E--------|---------------------------------------|--------------------------

G----------||
D--8--7----||
A----------||
E----------||

Verse

G----|--------X--9-----------------------------|-------X--9----------------
D----|--------------6-----7-----8-----9--------|-------------6-----7-----(0)
A----|--7-----------------------------------X--|-7-------------------------
E----|--0--------------------------------------|---------------------------

G----------7-----|| X 4
D-7--8--9-----9--||
A----------------||
E----------------||

G---------------------------------------------|-----------------------------
D---------------------------------------------|-----------------------------
A-------------3-------------------------------|----------3--------5-----5---
E----5-----5-----5-----X--0--5--5-----0--4----|-5-----5-----5---------------

G-----------|----------------------------------------------|----------------
D-----------|----------------------------------------------|----------------
A-------3---|--------------3-------------------------------|-------------4--
E----5------|-----5-----5-----5-----X--0--5--5-----0--4----|-5--5----5------

G----------------------------------||   ||----------------------------------
D----------------------------------||   ||----------------------------------
A-4-----4--5--5-----5--6--6-----6--||   ||----------7-----------------------
E----------------------------------||   ||-0-----0-----4-----5-----6-----7--

G--------|-------------------------------------------------||
D--------|-------------------------------------------------||
A--------|------------7-----------------------------5------||
E---7----|--0-----0-------4-----5-----(0)--5--6--7-----7---||

Chorus

G-------------------------------------------|-------------------------------
D-------------9---7-------------------------|-----------------7-------------
A---------------------9-----7---------------|-----7---8---9-------9---------
E--7----------------------------------------|---------------------------5---

G--------------------------------------------|---------------------------||-
D-------------9/h11--9--7--------------------|---------------------------||-
A--------------------------9-----7-----7-----|-----8-----------10---10---||-
E----------7---------------------------------|-----------8---------------||-

G------10---------------12---12--12--12-----||
D-------------10----------------------------||
A--8---------------10-----------------------||
E----------8--------------------------------||

Guitar Solo

G-----||------------------------------------------||-------------------------|
D-----||------------------------------------------||-------------------------|
A-----||-7------------------4-----4----5---4-5-6--||-7------------------4----|
E-----||----4---5---6---7-----7------7------------||----4---5---6---7------7-|

G-------------||-----------------12----||
D-------------||------------------------||
A--5---4-5-6--||-8--8--------10---------||
E-------------||-------8--8-------------||
Вверх

Suck My Kiss

Intro and Guitar Solo
G|---------------------------|
D|---------------------------|
A|------------1--------------|
E|--1---3------------1---3---| x3

						All x2

G|--------------------------7h9-9--|
D|---------3-3-3-3--5/7-7-7--------|
A|-3h5-5-5-------------------------|
E|---------------------------------| x1

---------------------------------------------------------------------
Main Verse Riff
G|--------------------------|-------------------------------|
D|--------------------------|-------------------------------|
A|--------------------------|-----------------------1h3-1---|
E|--1---3-33--1-----3--33---|--1---3-33--1-----3--3---------|

Mid Verse
G|------------------|--------------------|
D|-------3----------|-3-------3------4---|
A|---------------3--|------------4-------|
E|--1---------------|--------------------|

End Of Verse
G|-------------------------|--------------------|
D|-------------------------|--------------------|
A|-------------------------|-------------1------|
E|--1---3-33--1-----3-33---|--1--3----3---------|

---------------------------------------------------------------------
Chorus 1		    	x3	     x1
G|-----------------------------|-----------|
D|----------5-----5------------|-----------|
A|-------------5-----5---------|-----------|
E|--0--0----------------0-5-5--|--0--0--0--|

				x1
G|-----------------------------|
D|----------5-----5------------|
A|-------------5-----5---------|
E|--0--0----------------0-5-5--|


Chorus 2			x3	     x1
G|-----------------------------|-----------|
D|----------5-----5------------|-----------|
A|-------------5-----5---------|-----------|
E|--0--0----------------0-5-5--|--0-----0--|


				x1(Just Before Guitar Solo)
G|-----------------------------|-----------|
D|----------5-----5------------|-----------|
A|-------------5-----5---------|--1--------|
E|--0--0----------------0-5-5--|-----------|

Chorus 3			x3	    x1
G|-----------------------------|-----------|
D|----------5-----5------------|-----------|
A|-------------5-----5---------|-----------|
E|--0--0----------------0-5-5--|-------0---|

				x1
G|-----------------------------|
D|----------5-----5------------|
A|-------------5-----5---------|
E|--0--0----------------0-5-5--|
Вверх

Suck My Kiss (2 вариант)

Intro (Repeat 2x)
----------------------------------------------------------------|
----------------------------------------------------------------|
|-----0--------------0--------------0-------------------------------7/9-9-X-|
|-----0--------------0--------------0-----------------3-3-3-5/7-7-7---------|
|-----1--------------1--------------1---------3p5-5-5-----------------------|
|-1-3---1-3-X-X--1-3---1-3-X-X--1-3---1-3-X-X-------------------------------|


---------------------|
---------------------|
---------------------|
---------------------|Играется все куплеты
---------------1h3p1-|
|-1-3-3-1-3-3--1-3-3-1-3-3-------|

Should have been could have been
would have been dead
If I didn?t get the message
goin? to my head
I am what I am
most motherfuckers
Don?t give a damn

|---4-|---4----5-5-5-|
|---4-|---4----5-5-5-|
|-----|-----4--------|
|-3---|-3---4--------|
|-3---|-3---4--------|
|--------|Так играются две последние строчки во всех куплетах

aw baby think you can
be my girl I?ll be your man

someone full of fun
do me till I?m well done
little bo peep
cummin?from my stun gun
beware take care
most motherfuckers
have a cold ass stare
aw baby please be there
suck my kiss cut me my share

CHORUS:

E     Dsus4 D5  Dsus4 D5    A
Hit me, you can?t hurt me
N.C.
suck my kiss
E5    Dsus4 D5 Dsus4 D5 Dsus4    A
kiss me please pervert me
N.C.
stick with this
E      Dsus4        D5 Dsus4  A  N.C.
is she talking dirty
            E               Dsus4
give to me sweet sacred bliss
Dsus4           A5     N.C.
your mouth was made to suck my kiss


Look at me can?t you see
all I really want to be
is free from a world
that hurts me
i need relief
do you want me girl
to be your thief
aw baby just for you
I?d steal anything that you want me to

K-I-S-S-I-N-G
Chicka chicka dee
do me like a banchee
low brow is how
swimming in the sound
of bow wow wow
aw baby do me now
do me here I do allow

CHORUS

Repeat 1st verse.
Вверх

Sweet Home Alabama Live

e|---------------------------------------------------------------------------
B|---------------------------------------------------------------------------
G|---------12-12-12----------------------------------------------------------
D|---------12-12-12-----------------10-10-----------------3-3----------------
A|-----------------------------------------------------3---------------------
E|--10/12--------------1210---8/10----------105--3h5---------3-------------

^^^^^^^^^^^^^^^ Repeat Once (So play twice)^^^^^^^^^^^^^^^^^^^^^^^^^
Then...
e|-----------------7~-6-3~---------------------------------------------------
B|---------------------------------------------------------------------------
G|---------------------------------------------------------------------------
D|---------------------------------------------------------------------------
A|---------------------------------------------------------------------------
E|---------------------------------------------------------------------------

 John plays nothing for the first line of the verse then on the second line play:
e|------------------------------------------------------------------------3--
B|-------2----------------------3--------------------------------------0-----
G|----------3-----------------------0-----------------------------0-2--------
D|--0-0--------0------------------------0--------------------0-2-------------
A|------------------------3--3--------------------------0-2------------------
E|----------------------------------------------3--3-------------------------
Third line of Verse:
e|---------------------------------------------------------------------------
B|---------------------------------------------------------------------------
G|------7--7--x7--x7-7-----5--5--x5--x5--5-----------------------------------
D|------7--7--x7--x7-7-----5--5--x5--x5--5---3--3--x3--x3--3-------------3-5-
A|-------------------------------------------3--3--x3--x3--3--------3-5------
E|---------------------------------------------------------------------------
Вверх

Taste The Pain

     Intro

-------------------------------------------------------
---8B(10)--8B(10)~~~~~~~~~~~(8)P5----------------------
---------------------------------7B(9)~~~~~~~~~~~~~~~~-
-------------------------------------------------------
-------------------------------------------------------
-------------------------------------------------------

    Verse Riff  (Wah-wah)

--------------------15-----15-----  ----------------------------
-------------12~----15-----15-----  --14-----##14--####14---#---
-------------12~---------------#--  --14-----##14--####14---#---
-12P14~~-##------##----##-------#-  ----------------------------
----------------------------------  ----------------------------
----------------------------------  ----------------------------

       Chorus Riff

------7------7-7-7----------------  --------5-5-5-5----12-12-12-12-
------8------8-8-8----------------  ---5----5-5-5-5----12-12-12-12-
------7------7-7-7----------------  -----5--5-5-5-5----12-12-12-12-
------9------9-9-9----------------  --------7---7------------------
------7--------7------------------  -------------------------------
----------------------------------  -------------------------------

        Second Guitar

D-------2---2-0-------------------  -------------------------------
A----------------3--3---2--2------  -0----------4--4--5--5---------
E-0--#----------------------------  -------------------------------

Bridge

-------------------------------------------------------------------
A5----G5-G-------D/F#-----C/E--  2times Then: -c-----------D5--D---

Trumpet solo over verse-riff

Then:   Em9

---14------14-14
---15------15-15-
---12------12-12-
---12-------------------------------------2
-------------------3--3--2--2--0

Then:

A--3-3-2-2- -0-0---------------
E---------- -----3-3-2-2-1-1--- --0--

Outro:  (With Vibrato Bar)

--14----14--  -15-------- -14------------- -15-----------
--15----15--  -14-------- -15----12--12--- -14---17--14--
--12----16--  -14-------- -12----12-----12 -14---------14
--14--------  ----------- -14----14------- --------------

----------------------- -----------------
---12-----12----------- --------14-------
---12-----------12----- -----------------
---12--------12-------- -12/14-----------
Вверх

Taste The Pain (2 вариант)

Verse
G |-----------|--7---7----|--6---6---|--6---6---|
D |-----------|-----------|----------|----------|
A |--7-7-7-7--|---5---5---|---4---4--|---4---4--|
E |-----------|-----------|----------|----------|

G |-----------|-----------|--6---6---|--6---6---|
D |-----------|-----------|----------|----------|
A |--7-7-7-7--|-----------|---4---4--|---4---4--|
E |-----------|--3-3-3-3--|----------|----------|

G |-----------|--7---7----|--6---6---|--6---6---|
D |-----------|-----------|----------|----------|
A |--7-7-7-7--|---5---5---|---4---4--|---4---4--|
E |-----------|-----------|----------|----------|

G |-----------|-----------|-----------|-----------|
D |-----------|-----------|-----------|-----------|
A |--7-7-7-7--|-----------|-----------|-----------|
E |-----------|--3-3-3-3--|--5-5-5-5--|--5-5-5-5--|

	Chorus
G |--9-5-5-4-4-2--|--6-6-7-7--|--9-5-5-4-4-2--|--6-6-7-7--|
D |---------------|-----------|---------------|-----------|
A |--7-3-3-2-2-0--|--4-4-5-5--|--7-3-3-2-2-0--|--4-4-5-5--|
E |---------------|-----------|---------------|-----------|

G |--9-5-5-4-4-2--|--6-6-7-7--|--9-5-5-4-4-2--|
D |---------------|-----------|---------------|
A |--7-3-3-2-2-0--|--4-4-5-5--|--7-3-3-2-2-0--|
E |---------------|-----------|---------------|
	Interlude before Brass solo
G |-------------------------5-7-7-7-7-7-7-7-7--|
D |--7-7-5-4-4-3--7-7-5-4-4--------------------|
A |--------------------------------------------|
E |--------------------------------------------|
	Brass Solo

G |-----------|--7---7---|--6---6---|--6---6---|
D |-----------|----------|----------|----------|
A |--7-7-7-7--|---5---5--|---4---4--|---4---4--|
E |-----------|----------|----------|----------|

G |-----------|-----------|--6---6---|--6---6---|
D |-----------|-----------|----------|----------|
A |--7-7-7-7--|-----------|---4---4--|---4---4--|
E |-----------|--3-3-3-3--|----------|----------|

G |-----------|----------|-----------|-----------|
D |-----------|----------|-----------|-----------|
A |--7-7-7-7--|----------|--4-4-4-4--|--3-3-3-3--|
E |-----------|--3-3-3-3-|-----------|-----------|

G |-----------|----------|-----------|-----------|
D |-----------|----------|-----------|-----------|
A |--7-7-7-7--|----------|--4-4-4-4--|--4-4-4-4--|
E |-----------|--3-3-3-3-|-----------|-----------|

	Riff after solo
G |--9-5-5-4-4-2--|--9-5-5-4-4-2--|---------|
D |---------------|---------------|--5-4-3--|
A |--7-3-3-2-2-0--|--7-3-3-2-2-0--|---------|
E |---------------|---------------|--3-2-1--|
Вверх

Tear

Intro
e--3-----| R-   e-----------------------|------0--------------|   -R
B--3h5---| E    B-----5-----------3-----|------1--------------|    E
G--5-----| P    G-----5-----------4-----|------2--------------|    P
D--------| E    D-----5-----------3-----|---------------------|    E
A--3-----| A    A--3--------------------|---0-----------------|    A
E--------| T-   E--------------3--------|---------------------|   -T
**Kybds. arr for gtr.

Verse
e------------------------|------0--------------|-------------------|
B------5-----------3-----|------1--------------|-----5-----------3-|
G------5-----------4-----|------2--------------|-----5-----------4-|
D------5-----------3-----|---------------------|-----5-----------3-|
A---3--------------------|---0-----------------|--3----------------|
E---------------3--------|---------------------|--------------3----|

e------0--------------|----------3---------------------------------|
B------1--------------|------5------6--5----------3---6--5--3------|
G------2--------------|------5--------------------4----------------|
D---------------------|------5--------------------3----------------|
A---0-----------------|---3----------------------------------------|
E---------------------|------------------------3-------------------|

e----------0-----0-----0-----0------|---------3h5--3-----------
B------1-----1-----1-----1-----1----|-----5----------5-------3-
G------2-------2-----2-----2-----2--|-----5------------------4-
D-----------------------------------|-----5------------------3-
A---0-------------------------------|--3-----------------------
E-----------------------------------|---------------------3----

e--------------|-----------0------0--------|-----------------------|
B--6--5--3-----|------1------1-------------|-----5-------------3---|
G--------------|------2--------2-----------|-----5-------------4---|
D--------------|---------------------------|-----5-------------3---|
A--------------|---0-----------------------|--3--------------------|
E--------------|---------------------------|----------------3------|

e------0---------------|-------------------------------------------|
B------1---------------|-----5----------------3--------------------|
G------2---------------|-----5----------------4--------------------|
D----------------------|-----5----------------3--------------------|
A---0------------------|--3----------------------------------------|
E----------------------|-------------------3-----------------------|

e------0---------------|---------3--------------------------------|
B------1---------------|-----5------6--5----------3---6--5--3-----|
G------2---------------|-----5--------------------4---------------|
D----------------------|-----5--------------------3---------------|
A---0------------------|--3---------------------------------------|
E----------------------|-----------------------3------------------|


e---------0-----0-----0-----0------|---------3h5--3----------------|
B------1----1-----1-----1-----1----|-----5----------5-------6----6-|
G------2------2-----2-----2-----2--|-----5------------------4----4-|
D----------------------------------|-----5------------------5----5-|
A---0------------------------------|--3----------------------------|
E----------------------------------|---------------------3---------|

Chorus
e------0----------------0-----|-----0----------------0-----|
B------1----------------1-----|-----1----------------1-----|
G------0----------------0-----|-----2----------------2-----|
D-----------------------------|----------------------------|
A---3-----------2-------------|--0-------------------------|
E-----------------------------|---------------3------------|

e-------1------------0-----|--1---1-----------------|-----0---------
B-------1------------1-----|--3---3---3---------3---|-----1---------
G-------2------------0-----|--2---2---4---------4---|-----0---------
D--------------------------|--0---0---5---------5---|---------------
A--------------------------|------------------------|--3-----------2
E---1----------0-----------|----------3---------3---|---------------

e-----0-----|--------0--------------0-------|--------1----------0--|
B-----1-----|--------1--------------1-------|--------1----------1--|
G-----0-----|--------2--------------2-------|--------2----------0--|
D-----------|-------------------------------|----------------------|
A-----------|---0---------------------------|----------------------|
E-----------|---------------3---------------|--1-----------0-------|

e--1---1-----------------|-------0--------------------|-------0----|
B--3---3---3---------3---|-------1--------------------|-------1----|
G--2---2---4---------4---|-------2--------------------|-------2----|
D--0---0---5---------5---|----------------------------|------------|
A------------------------|-------0--------------------|-------0----|
E----------3---------3---|----------------------------|------------|

Verse
e-----------------------|------0---------------|
B-----5-------------3---|------1---------------|
G-----5-------------4---|------2---------------|
D-----5-------------3---|----------------------|
A--3--------------------|---0------------------|
E----------------3------|----------------------|

e-------------------------------------------|------0---------------|
B-----5----------------3--------------------|------1---------------|
G-----5----------------4--------------------|------2---------------|
D-----5----------------3--------------------|----------------------|
A--3----------------------------------------|---0------------------|
E-------------------3-----------------------|----------------------|






e---------3--------------------------------|
B-----5------6--5----------3---6--5--3-----|
G-----5--------------------4---------------|
D-----5--------------------3---------------|
A--3---------------------------------------|
E-----------------------3------------------|

e---------0-----0-----0-----0------|---------3h5--3----------------|
B------1----1-----1-----1-----1----|-----5----------5-------6----6-|
G------2------2-----2-----2-----2--|-----5------------------4----4-|
D----------------------------------|-----5------------------5----5-|
A---0------------------------------|--3----------------------------|
E----------------------------------|---------------------3---------|

Guitar Solo
e-----------------------------------|-------------------------------
B----5-6-8-6-5----------------------|-----5---------5---------5-----
G--5-----------5---4-5-7-5-4---4----|---5---7p5---5---7p5---5---7p5-
D----------------5-----------5------|-7---------7---------7---------
A-----------------------------------|-------------------------------
E-----------------------------------|-------------------------------

e-------------|--------------------------------|
B------5------|---5-6-8-6-5-----------6-5------|
G----5---7p5--|-5-----------5---4-5-7-----7-5--|
D--7----------|---------------5----------------|
A-------------|--------------------------------|
E-------------|--------------------------------|

e--------------------------------------|
B------5---------5---------5-------7---|
G----5---7p5---5---7p5---5---7p5---9---|
D--7---------7---------7---------7-----|
A--------------------------------------|
E--------------------------------------|

Verse
e-----------------------------|-----0--------------|----------------
B------5------------3---------|-----1--------------|-----5----------
G------5------------4---------|-----2--------------|-----5----------
D------5------------3---------|--------------------|-----5----------
A---3-------------------------|--0-----------------|--3-------------
E----------------3------------|--------------------|--------------3-

e------------|
B---6----6---|
G---4----4---|
D---5----5---|
A------------|
E------------|






Chorus
e------0----------------0-----|-----0----------------0-----|
B------1----------------1-----|-----1----------------1-----|
G------0----------------0-----|-----2----------------2-----|
D-----------------------------|----------------------------|
A---3-----------2-------------|--0-------------------------|
E-----------------------------|---------------3------------|

e-------1------------0-----|--1---1-----------------|-----0---------
B-------1------------1-----|--3---3---3---------3---|-----1---------
G-------2------------0-----|--2---2---4---------4---|-----0---------
D--------------------------|--0---0---5---------5---|---------------
A--------------------------|------------------------|--3-----------2
E---1----------0-----------|----------3---------3---|---------------

e-----0-----|--------0--------------0-------|--------1----------0--|
B-----1-----|--------1--------------1-------|--------1----------1--|
G-----0-----|--------2--------------2-------|--------2----------0--|
D-----------|-------------------------------|----------------------|
A-----------|---0---------------------------|----------------------|
E-----------|---------------3---------------|--1-----------0-------|

e--1---1-----------------|-------0--------------------|
B--3---3---3---------3---|-------1--------------------|
G--2---2---4---------4---|-------2--------------------|
D--0---0---5---------5---|----------------------------|
A------------------------|-------0--------------------|
E----------3---------3---|----------------------------|

e-----------------------------------|
B-------------1---------------------|
G-------------2---------------------|
D---2----2----2---------------------|
A---0----0----0---------------------|
E-----------------------------------|

Interlude
e---12------|--10------|--12------|---------------13----|--12------|
B---13------|--12------|--13------|--12------15---15----|--13------|
G---14------|--13------|--14------|--13------13---13----|--14------|
D---15------|--14------|--15------|--14------14---14----|--15------|
A---tr------|--tr------|--tr------|--tr------tr---tr----|--tr------|
E-----------|----------|----------|---------------------|----------|

e--12------16---------12--|--12------|---------------------|
B--12------12---------12--|--13------|--15------13---15----|
G--13------13---------13--|--14------|--13------14---16----|
D--14------14---------14--|--15------|--14------15---17----|
A--tr------tr---------tr--|--tr------|--tr------tr---tr----|
E-------------------------|----------|---------------------|






e------15-17-15-------15-17-15-------15-17-15-|--------------------|
B---17----------17-17----------17-17----------|-17-----------------|
G---------------------------------------------|--------------------|
D---------------------------------------------|--------------------|
A---------------------------------------------|--------------------|
E---------------------------------------------|--------------------|
**Trumpet arr. for gtr.

e------15-17-15-------15-17-15-------15-17-15-|--------------------|
B---17----------17-17----------17-17----------|-17-----------------|
G---------------------------------------------|--------------------|
D---------------------------------------------|--------------------|
A---------------------------------------------|--------------------|
E---------------------------------------------|--------------------|

Verse
e-----------------------|
B-----5-------------3---|
G-----5-------------4---|
D-----5-------------3---|
A--3--------------------|
E----------------3------|

e------0---------------|-------------------------------------------|
B------1---------------|-----5----------------3--------------------|
G------2---------------|-----5----------------4--------------------|
D----------------------|-----5----------------3--------------------|
A---0------------------|--3----------------------------------------|
E----------------------|-------------------3-----------------------|

e------0---------------|---------3--------------------------------|
B------1---------------|-----5------6--5----------3---6--5--3-----|
G------2---------------|-----5--------------------4---------------|
D----------------------|-----5--------------------3---------------|
A---0------------------|--3---------------------------------------|
E----------------------|-----------------------3------------------|


e---------0-----0-----0-----0------|---------3h5--3----------------|
B------1----1-----1-----1-----1----|-----5----------5-------6----6-|
G------2------2-----2-----2-----2--|-----5------------------4----4-|
D----------------------------------|-----5------------------5----5-|
A---0------------------------------|--3----------------------------|
E----------------------------------|---------------------3---------|

Chorus
e------0----------------0-----|-----0----------------0-----|
B------1----------------1-----|-----1----------------1-----|
G------0----------------0-----|-----2----------------2-----|
D-----------------------------|----------------------------|
A---3-----------2-------------|--0-------------------------|
E-----------------------------|---------------3------------|



e-------1------------0-----|--1---1-----------------|-----0---------
B-------1------------1-----|--3---3---3---------3---|-----1---------
G-------2------------0-----|--2---2---4---------4---|-----0---------
D--------------------------|--0---0---5---------5---|---------------
A--------------------------|------------------------|--3-----------2
E---1----------0-----------|----------3---------3---|---------------

e-----0-----|--------0--------------0-------|--------1----------0--|
B-----1-----|--------1--------------1-------|--------1----------1--|
G-----0-----|--------2--------------2-------|--------2----------0--|
D-----------|-------------------------------|----------------------|
A-----------|---0---------------------------|----------------------|
E-----------|---------------3---------------|--1-----------0-------|

e--1---1-----------------|------0---------------------------|
B--3---3---3---------3---|------1---------------------------|
G--2---2---4---------4---|------2---------------------------|
D--0---0---5---------5---|------2---------------------------|
A------------------------|------0---------------------------|
E----------3---------3---|----------------------------------|

e------0-----------------|------0--------|--------0---------||
B------1-----------------|------1--------|--------1---------||
G------2-----------------|------2--------|--------2---------||
D------2-----------------|------2--------|--------2---------||
A------0-----------------|------0--------|--------0---------||
E------------------------|---------------|------------------||
Вверх

Tear (2 вариант)

                                           /------ x4 ------|
e|-----------------|-----------------------|-----------------|
B|-----------------|-----------------------|-----------------|
G|-9-10-12-10-9----|-----------------------|-------9---------|
D|--------------10-|----9-10-12-10-9----9--|----10---12p10---|
A|-----------------|-10--------------10----|-12--------------|
E|-----------------|-----------------------|-----------------|

                                           /------ x3 -----------------|
e|-----------------|-----------------------|---------------|------------|
B|-----------------|-----------------------|---------------|------------|
G|-9-10-12-10-9----|------------10-9-------|-------9-------|--------9---|
D|--------------10-|----9-10-12------12-10-|----10---12p10-|-----12-----|
A|-----------------|-10--------------------|-12------------|-12--10-----|
E|-----------------|-----------------------|---------------|------------|
Вверх

Tear (3 вариант)

Intro:
C
C G Am Am x2

Verse:
C             G
  This is my time
              Am  Am
  This is my tear
C             G
  I can see clearly now
         Am
  That this is not a place
               Am
  For playing solitaire
C           G        Am     Am
  Tell me where you want me
C             G
  This is my time
              Am  Am
  This is my tear
C              G
  Comin? on strong
        Am   Am
  Baudelaire
C           G
  Seems to me like
           Am
  All the world gets high
             Am
  Where you take a dare
C        G       Am      Am
  Let it rise before you
C              G
  This is my crime

Chorus:
C        G
  All in all and I?m
  Am            G
  Loving every rise and fall
       F                C
  The sun will make and I will take
    F           G
  Breath to be sure of this
C        G
  In the end and then
  Am              G
  All will be forgiven when
     F             C
  Surrender rises high and I
   F           G
  Gave what I came to give
C         C                      C  C
  Say it now because you never know

Verse:
Devil may cry devil may care
Distiller?s got a scream
And now I know just why
When she?s movin? air
Can you feel the voltage
This is my time

[solo]

California skies
Got room to spare
This is my time

Chorus:
All in all and I?m
Loving every rise and fall
The sun will make and I will take
Breath to be sure of this
In the end and then
All will be forgiven when
Surrender rises high and I
Gave what I came to give
Say it now because you never know

[solo]

Verse:
Take it outside
Take it out there
Seems to me like
All the world gets high
Where you take a dare
In the final moment
This is my time

Chorus:
All in all and I?m
Loving every rise and fall
The sun will make and I will take
Breath to be sure of this
In the end and then
All will be forgiven when
Surrender rises high and I
Gave what I came to give
Say it now because you never know
Вверх

Tearjerker

Intro:
G-|-----------------|----------------------|--------------------|
D-|-----------------|----------------------|--------------------|
A-|-5----5--4----4--|-------------------7--|-5----5--4--4-------|
E-|-----------------|-3-----3--5--5-5h7----|-----------------7--|

G-|-----------------------|-----------------|------------------------|
D-|----------9--9---------|-----------------|------------------------|
A-|--------9--9--------4--|-5----5--4----4--|------------------7/97-|
E-|-(7)--------------7----|-----------------|-3-----3-3/5--5h7-------|

G-|---------------------|--------------|
D-|---------------------|--------9-----|
A-|-5----5--4--4--7-----|---9----------|
E-|------------------7--|--------------|

1st verse:
G-|-----------------|-----------------------|--------------------|
D-|-----------------|-----------------------|--------------------|
A-|-5----5--4----4--|------------------4--7-|-5----5--4--4-------|
E-|-----------------|-3-----3/5--5-5h7------|-----------------7--|

G-|--------------------|-----------------|----------------------|
D-|----------9-----9---|-----------------|----------------------|
A-|--------9-----9-----|-5----5--4----4--|-------------4-5h7-5--|
E-|-(7)----------------|-----------------|-3-----3-3/5----------|

G-|---------------------|---------------------|------------------|
D-|---------------------|---------------------|------------------|
A-|-5----5--4--4--7-----|-------9/12--12---13-|-----12--12---13--|
E-|------------------7--|-(7)-----------------|------------------|

G-|---------------------|
D-|---------------------|
A-|-(13)------12--12---|
E-|---------------------|

2nd verse:
G-|-----------------|----------------------|--------------------|
D-|-----------------|----------------------|--------------------|
A-|-5----5--4----4--|-----------4-5-7-5--7-|-5----5--4--4-------|
E-|-----------------|-3-----3/5------------|-----------------7--|

G-|------------------|-----------------|--------------------|
D-|----------9----9--|-----------------|--------------------|
A-|--------9---------|-5----5--4----4--|-------------4--5-7-|
E-|-(7)--------------|-----------------|-3-----3-3/5--------|

G-|---------------------|-----------------------|
D-|---------------------|-----------------------|
A-|-5----5--4--4--7-----|-----------------------|
E-|------------------7--|-7--7-7-7-7--7-7-7-7-7-|

Chorus:
G-|-----------------------|--------------------|---------------------|
D-|---------------5-------|--2-2--2--0----0-2--|---------------------|
A-|-3---3--3---3----3-----|------------2-------|-3--3--3-3---3-5-----|
E-|----------3---------0--|--------------------|-----------3-------0-|

G-|--------------------|-------------------|-------------|---------------|
D-|---2--2-2-2-2---0-2-|-------------------|-------------|---------------|
A-|--------------2-----|-3--3-3--3---3-3---|-------------|---------------|
E-|-0------------------|-----------3-----0-|-0--0--0-0--0|-2---2--2-0--2-|

G-|--------------------------|------------------|------------------|
D-|--------------------------|------------------|------------------|
A-|----------9/12--12----13--|-----12--12---13--|-(13)----12--12--|
E-|-2--2--2------------------|------------------|------------------|

3rd verse:
G-|-----------------|------------------------|--------------------|
D-|-----------------|------------------------|--------------------|
A-|-5----5--4----4--|--------------------4h7-|-5----5--4--4-------|
E-|-----------------|-3-----3-3-3-3/5-5h7----|-----------------7--|

G-|------------------------|-----------------|---------------------|
D-|----------11---12--12--|-----------------|---------------------|
A-|--------9---------------|-5----5--4----4--|-------------------4-|
E-|-(7)--------------------|-----------------|-3-----3-3-3/5---7---|

G-|---------------------|---------------------|------------------|
D-|---------------------|---------------------|------------------|
A-|-5----5--4--4--7-----|-------9/12--12---13-|-----12--12---13--|
E-|------------------7--|-(7)-----------------|------------------|

G-|---------------------|
D-|---------------------|
A-|-(13)------12--12---|
E-|---------------------|

Guitar solo:
G-|-----------------|----------------------|--------------------|
D-|-----------------|----------------------|--------------------|
A-|-5----5--4----4--|------------------4-7-|-5----5--4--4-------|
E-|-----------------|-3----3-3/5-5-5h7-----|-----------------7--|

G-|------------------------------|-----------------|---------------------|
D-|----------9-9/11--11-11/1312-|-----------------|-------------------7-|
A-|--------9---------------------|-5----5--4----4--|---------------4h7---|
E-|-(7)--------------------------|-----------------|-3-----3-3/5-5-------|

G-|---------------------|-----------------------|
D-|---------------------|-----------------------|
A-|-5----5--4--4--7-----|-----------------------|
E-|------------------7--|-7--7-7-7-7--7-7-7-7-7-|

Outro:
G-|------19--19--19----|------19--------19------|------15--------17------|
D-|----19-----------19-|----19----19------19----|--------15--------17----|
A-|-17-----17--17------|-17-----17---17-----17-|-13-13-----13/15----15--|
E-|--------------------|------------------------|------------------------|

G-|------19---21-19---------|-------15----------17---17---|------19---19-|
D-|----19-------------19----|---------15------17---17--17-|--------------|
A-|-17-----17-------17--17-|-13-13------13/15------------|-17-17--17----|
E-|-------------------------|-----------------------------|--------------|

G-|-----------15----------------------|---19--19--19--19--19---|
D-|-----------------------------------|------------------------|
A-|-13--13-13---13-13-----------15-17-|-17--17--17--17--17--17-|
E-|-------------------15--15-15-------|------------------------|

G-|-----------15------------17----17-|-19---------21--19--------|
D-|-----------------------17---------|-19----------------19-----|
A-|-13--13-13----13--13/15------15---|-17-------------------17--|
E-|----------------------------------|--------------------------|
Вверх

Tearjerker (2 вариант)

E----------------------------------------------------------------
B----------------------------------------------------------------
G|-9-9-9/11-11-11-11/12-12-12-12/11-11-11-11/12-12-14-14-14-14/12-12-12-12/11
D----------------------------------------------------------------
A----------------------------------------------------------------
E----------------------------------------------------------------

E----------------------------------------------------------------
B|-11-11-11/9-9-9/7-7-6-6/4-6-4-4-4-6-6-9h11p9-7---7-------------------------
G------------------------------------9---7-5-5-7-5-4-------------
D----------------------------------------------------5-(7)-(5)---
A----------------------------------------------------------------
E----------------------------------------------------------------

E-------------10-------------------------------------------------
B|-10-8----8---------8-10----------------------------------------------------
G|------10---10-7-10---------------------------------------------------------
D----------------------------------------------------------------
A----------------------------------------------------------------
E----------------------------------------------------------------



Starts off with a Dsus4

e--0--------0-----------------------------
B--3------3---3---------------------------
G--2----2-------2-------------------------
D--0--0-----------0-----------------------
A-----------------------------------------
E-----------------------------------------

e-----------------------------------------------------------------
B---7p5h7---5p3(h5)--3p1------------------------------------------
G-------------------------4b5r4---4b-(2/7)-----------------------
D-----------------------------------------------------------------
A-----------------------------------------------------------------
E-----------------------------------------------------------------



I dont know if this part is played with a 12 stringed guitar.
It sound very high to me, but I donпt know.

Anyway, the chords are:

      D   D(On C#)?     G      A    Bm    A5  Bb5   C   Em  F#m

e-----------------------3------5----2---------------0----0--2-----
B-----7-----7-----------3------5----3---------------1----0--2-----
G-----7-----7-----------4------6----4---------------0----0--2-----
D-----7-----7-----------5------7----4-----2---3-----2----2--4-----
A-----5-----4-----------5------7----2-----0---1-----3----2--4-----
E-----------------------3------5-------------------------0--2-----

The thing is that I donпt know if there is a 12 stringed guitar or if
you play these chords up around the 12-15 fret.



The chords should be played in a arpeggio kind of way
Something like this:
(THIS IS NOT EXACT)

         D         DonC#        G                A
e-------------------------------3----------------5----------------
B--------7----------7-----------3--------------5-5----------------
G--------7----------7------------------------6-----6--------------
D-----7----7------7---7------5-----5-------7----------------------
A---5-----------4-------------------------------------------------
E-------------------------3-------------5-------------------------




 D            DonC#     G               A                     D
My mouth fell open     Hoping that the truth would not not be true
DonC#       Bm
Refuse the news


 D            DonC#     G               A              D
Iпm feeling sick now - What the fuck Am I supposed to do
     DonC#      Bm
Just loose and loose


A5  A5  Bb5   A5  A5  Bb5

 D            DonC#  G               A                D
First time I saw you You were sitting backstage in a dress
 DonC#     Bm
A perfect mess
 D        DonC#     G            A             D   DonC#       Bm
You never knew this But I wanted badly for you to  Requite my love


 C          Em    C            Em    C                  Em
Left on the floor Leaving your body  When highs are the lows
                 F#m    Em         F#m    A5          Bb5   A5        Bb5
and lows are the way   So hard to stay  Guess now you know I love you so

D            DonC#     G               A             D
I liked your whiskers And I liked the dimple in your chin
DonC#          Bm
Your pale blue eyes

D            DonC#     G               A                  D
You painted pictures Cause the one who hurts can give so much
DonC#       Bm
You gave me such


 C          Em    C            Em    C                  Em
Left on the floor Leaving your body  When highs are the lows
                 F#m    Em         F#m    A5             Bb5  A5     Bb5
and lows are the way   So hard to stay  Guess now you know I love you so
Вверх

Tearjerker (3 вариант)

{C:Intro : D  F#m  G  A  D F#m  Bm  2x}

[D]My mouth fell [F#m]open
[G]Hoping that the [A]truth would not be [D]true
Re[F#m]fuse the [Bm]news

I'm feeling sick now
What the fuck am I supposed to do
Just loose and loose

{C: A  Bb  A  Bb  A}

First time I saw you
You were sitting backstage in a dress
A perfect mess

You never knew this
But I wanted badly for you to
Requite my love

{soc}
[C]Left on the [Em]floor
[C]Leaving her [Em]body
[C]When highs are the [Em]lows
And lows are the [F#m]way
[Em]So hard to [F#m]stay
[A]Guess now you [Bb]know
[A]I love you [Bb]so  [A]
{eoc}

I liked your whiskers
And I liked the dimple in your chin
Your pale blue eyes

You painted pictures
Cause the one who hurts can give so much
You gave me such

{C:Repeat chorus}

{C: D    Bb  C  D  Bb  G  D  Bb  C D}
Вверх

Teatro Jam

e-|---------------------------------------|
B-|---------------------------------------|
G-|---------------------------------------|
D-|---------------5--7/9--9-9---97--7-7--|
A-|--7-7-7-7-7-7--------------------------|
E-|---------------------------------------|

e-|-----------------------------------------|
B-|-----------------------------------------|
G-|-----------------------------------------|
D-|---------------5--7/9--9-9--9/12--12-12--|
A-|--7-7-7-7-7-7----------------------------|
E-|-----------------------------------------|

e-|---------------------------------------------|
B-|---------------------------------------------|
G-|---------------------------------------------|
D-|---------------5--7/12--12-12-12--127--7-7--|
A-|--7-7-7-7-7-7--------------------------------|
E-|---------------------------------------------|

At the end he plays it an octave higher

e-|-----------------------------------------------|
B-|---------------8--10/12--12-12--1210--10-10---|
G-|--9-9-9-9-9-9----------------------------------|
D-|-----------------------------------------------|
A-|-----------------------------------------------|
E-|-----------------------------------------------|
Вверх

Teenager In Love

INTRO/VERSE:

    C    Am    Fm     G

e|--0--|-----|-----|--3--|
B|--1--|--1--|-----|--3--|
G|--0--|--2--|--2--|--0--|
D|--2--|--2--|--3--|--0--|
A|--3--|--0--|--3--|--2--|
E|-----|-----|--1--|--3--|


OTHER BIT: (Bridge)

  Fm      G

e-----|--3--|
B-----|--3--|
G--2--|--0--|
D--3--|--0--|
A--3--|--2--|
E--1--|--3--|
Вверх

Teenager In Love (2 вариант)

C#           A#m
Each time we have a quarrel
F#           G#
It almost breaks my heart.
C#           A#m
?Cos I am so afraid
F#           G#
That we will have to part.
C#           A#m      F#       G#
Each night I ask the stars up above

Why must I be a teenager in love?



One day I feel so happy,

Next day I feel so sad.

I guess I?ll learn to take

The good with the bad.

Each night I ask the stars up above

Why must I be a teenager in love?


F#         G#
I cried a tear
F#             G#
For nobody but you,
F#                 G#
I?ll be the lonely one
F#                        G#
If you should say we?re through.



Well, if you want to make me cry,

That won?t be so hard to do.

And if you should say goodbye,

I?ll still go on loving you.

Each night I ask the stars up above

Why must I be a teenager in love?


Why must I be a teenager in love?

Why must I be a teenager in love?

In love?
Вверх

Teenager In Love (3 вариант)

Intro:

C          Am         F        G7
Uuuuuh     Uuuuuh Wah Uuuuh    Uuuuuh

C	     Am	    F        G7
Uuuuuh     Uuuuuh Wah Uuuuh    Uuuuuh

Verse 1:
C	         Am 	        F	       G7
  Each time we have a quarrel    it almost breaks my heart
C	      Am          F  		    G7
 `Cause I’m so afraid     that we will have depart
C	         Am      F          G7  C(short, then a little break)
  Each night I ask the stars up above    WHY MUST I BE A TEENAGER IN LOVE?

	After „...IN LOVE?“ I play this:
	E----------------|
	B----------------|
	G----------------| Actually Flea play it on bass,
	D----------------| but it sounds good, too!
	A-----1-3-4------|
	E-4-4------------|

Verse 2:
C           Am             F           G7
  One day I feel so happy   next day I feel so sad
C           Am             F         G7
  I guess I have to learn   the good with the bad
C              Am      F          G7  C(short, then a little break)
  Each night I ask the stars up above    WHY MUST I BE A TEENAGER IN LOVE?

Bridge:
F           G7    F                G7
  I cried a tear,   for nobody but you
F           G7            F                    G7
  I’ll be a lonely one if you should say we’re through

Verse 3:
C                     Am          F                  G7
  Well if you want to make me cry   that won’t be so hard to do
C                   Am           F                  G7
  And if you should say goodbye   I’ll still go on loving you
C	           Am       F         G7    C(short, then a little break)
  Each night I ask the stars up above    WHY MUST I BE A TEENAGER IN LOVE?

Bridge

Verse 3

Outro:
C            Am         F        G7
  WHY MUST I BE A TEEN - AGER IN LOVE?   X6


Chords:
   C  Am   F   G7

E|-0-|-0-|-1-|-1-|
B|-1-|-1-|-1-|-0-|
G|-0-|-2-|-2-|-0-|
D|-2-|-2-|-3-|-0-|
A|-3-|-0-|-3-|-2-|
E|-x-|-x-|-1-|-3-|
Вверх

The Brothers Cup

This one of the PePPeRs best songs.  Its played dropped D unless u have a 5
string.

intro, verse and most of the song.
g--------------------------|---------------------------|
d--------------------------|-------------------7--7-5--|
a-----5--3--2--3-3-0-------|---5-5--3-2----------------|
d--------------------------|---------------------------|

g-------------------------|----------------------------|
d-------------------------|--3-------5-3-6-5-3---------|
a----5--3--2--3-3-0-------|--------------------------5-|
d-------------------------|----------------------------|

chorus
g---------------------------------------------------|
d---------------------------------------------------|
a--5--3--1---------------5--3--1--3-3-1-------------|
d------------5--3--5--------------------------------|

ending-this part is slapped
g---------------------------------------------------|
d---------------------------------------------------|
a--------------------------------------55-7777------|
Вверх

The Coffee Shop

          1st guitar :

E-|---------------------------------------------------------------------|
B-|---------------------------------------------------------------------|
G-|---------------------------------------------------------------------|
D-|-2--x--x--x--x--2--x--x--x--x--2--2--2--x--x--x--x--2--x--x--x--2--2-|
A-|-2--x--x--x--x--2--x--x--x--x--2--2--2--x--x--x--x--2--x--x--x--2--2-|
E-|-0--x--x--x--x--0--x--x--x--x--0--0--0--x--x--x--x--0--x--x--x--0--0-|


          2nd guitar :

E-|----------------------------------------------------------xxxx//12-12|
B-|----------------------------------------------------------xxxx//12-12|
G-|-------------------------------4--3~~~~~~~~~~~~~~~~~~~~~~~xxxx//12-12|
D-|---------------------------------------------------------------------|
A-|---------------------------------------------------------------------|
E-|---------------------------------------------------------------------|

          I am just a lousy bum
          Searching for the unknow crumb, the crumb, the crumb
          Something of someone to come
          Come along illumate my lust, combust
          Confucing might have been confused
          And buddha might have blown a face, booze the muse


          Chorus :

E-|---------------------------------------------------------------------------|
B-|---------------------------------------------------------------------------|
G-|---------------------------------------------------------------------------|
D-|---------------------------------------------------------------------------|
A-|-7----7----5-----5-----2----------2-------------2----------2---------------|
E-|-5----5----3-----3-----0----------0-------------0----------0---------------|
              Meet me   at    the       Coffee shop

              Where we  can dance like Iggy Pop


E-|---------------------------------------------------------------------------|
B-|---------------------------------------------------------------------------|
G-|---------------------------------------------------------------------------|
D-|---------------------------------------------------------------------------|
A-|-7--7--7-7-5----5---4----------------------------5----4-------4--4---------|
E-|-5--5--5-5-3----3---2----------------------------3----2-------2--2---------|
                Another go   in  the    porking  lot
          Frewak the


          E-|--------------------------------------|
          B-|--------------------------------------|
          G-|--------------------------------------|
          D-|-5------5---------9----10---12----14-|
          A-|-3------3---7-------------------------|
          E-|------------5-----7----8----10----12-|
              cheek  on  your  hotspo-ot
          And then back to theme, chorus again and .... the strange part with
          the
          strange bass, and then the BASS SOLO ; too hard for me to transcribe
          !!

          Note that you can play the theme on one guitar only but the result is
          better on
          2 guitars ...
Вверх

The Coffee Shop (2 вариант)

Bass figure 1:
G|----------------------------|-----------------2---------|
D|------2--2-------2--2---2---|------2--2-------------5---|
A|----------------------------|---------------------------|
E|-0--x-------0--x------0---0-|-0--x-------0--x---x-3---3-|

G|-----------------------|---------------------------|
D|-----------------------|-----2---------------------|
A|-----------------------|-----------0h2p0---0h2p0---|
E|-5---5--x-x-3--3--x--0-|--0--------------3-------3-|

G|-----------------------|-------------------------|
D|-----------------------|----2--------------------|
A|------------3--3-------|---------0h2p0---0h2p0---|
E|-5---5--x-x-------x--0-|--0------------3-------3-|

G|-----------------------|-----------------------|---------------------|
D|-----------------------|----------4------------|---------------------|
A|-----------------------|-----------------------|-----------3--3------|
E|-5---5--x-x-3--3--0--2-|--2--2--2---3--3--0--2-|--2--2-x-x--------5--|

G|-----------------------|
D|-----------------------|
A|-----------------------|
E|--5--5--5--5--5--5--5--|

Interlude: (With Auto-wah)

G|-------------------------------|-------------------------------------|
D|----14-14--------x-------------|-------------12p11h12p11h12p11h12p11-|
A|----------12h14-x--------------|--------10---------------------------|
E|-0-x---------------x-10h12-x-x-|-10h12-x---x-------------------------|

G|------------------------12h14------|-14---12--12p11--------|
D|-----14-14--------x-----------12-x-|----------------12--12-|
A|-----------12h14-x-----------------|-----------------------|
E|-0-x----------------x-x------------|-----------------------|

G|--------------------------------------------------|
D|-12h14P12h14-11h12p11h12--------------------------|
A|-------------------------10h12p10h12--------------|
E|--------------------------------------10h12p10h12-|

G|-----------------------------|-----------------------------------|
D|-----x-x---------x-----------|----------------12--x-------12-----|
A|---------------x---x-x-------|-------x-10h12-x---x--x-x-10-------|
E|-0-x-----10h12---------10h12-|-10h12-------------------------x-x-|

G|------------------------------|
D|-------x-x---x----------x-----|
A|-----------x---x-12h14----x-x-|
E|-10h12------------------------|

G|---9--7--6----x-------|------------------|---9--7--6---x--------|
D|----------------------|----5--7----9/17-|----------------------|
A|-7----------x---x-x-5-|-7--------x-------|-7---------x---x-x-4--|
E|----------------------|------------------|----------------------|

G|--------7----6---------|---9--7--6----X-------|----------12/14----14-|
D|-----6-----------7P5P0-|----------------------|----------11/12----12-|
A|--5--------X---X-------|-7----------X---X-X---|-X-X------------------|
E|-----------------------|--------------------3-|-----0-----------0----|

G|---9--7--6---X-------|-------------------|
D|---------------------|-------------------|
A|-7---------X---X-X---|-/11---10---9---8--|
E|-------------------3-|-------------------|

G|-------------------------|-------------------------|
D|-------------------------|-------------------------|
A|-------------------------|-------------------------|
E|-0--0--0--0--0--0-0-0--0-|-0--0--0--0--0--0-0-0--0-|

          Reapet two times          Bass solo:

G|-----------------------------|-------------------------|
D|----------5------------------|----------5--------5-7-5-|
A|-----5h7-7---7--7-5h7-5h7--5-|-----5h7-7---7--7-7------|
E|-0--0------------------------|-0--0--------------------|

G|---------------------7--7h9-7--|-7h9--7-7-9-9-9-/12--12-12--12-12----|
D|-7/9-7-5-7-5-----7/9--9------9-|-------9--------------------------12-|
A|-------------7-5---------------|-------------------------------------|
E|-------------------------------|-------------------------------------|

G|------12---14--14-14--14--14-----12--12-|
D|-12h14--14-------------------------14---|
A|----------------------------------------|
E|----------------------------------------|

G|-14--14--14--14--14-12---------------|--------------------------12----|
D|----------------------14-12-14-14-14-|-12h14-14-14-12--------------14-|
A|-------------------------------------|---------------14-15-15-15------|
E|-------------------------------------|--------------------------------|

G|-------------12----------------------------|
D|------14-------16-14--------------------12-|
A|-14h15--14h15-------12-15-15-12-14-14-14---|
E|-------------------------------------------|

G|------------------------12-----------|
D|------------12--12-13-14--14-12-14---|
A|-14-12-13-14--14---------------------|
E|-------------------------------------|

G|------------------------12-----------|
D|------------12--12-13-14--14-12-14---|
A|-14-12-13-14--14---------------------|
E|-------------------------------------|

G|---------------------12h14-14-14--14-14-|
D|---------12--12-13-14-------------------|
A|-12-13-14--14---------------------------|
E|----------------------------------------|

G|-/19--19--18-18-16--16--------------------|
D|-----------------------17--17-16-16-14-14-|
A|------------------------------------------|
E|------------------------------------------|

G|----------------------------|-----------------2---------|
D|------2--2-------2--2---2---|------2--2-------------5---|
A|----------------------------|---------------------------|
E|-0--0-------0--0------0---0-|-0--0-------0--0---0-3---3-|

G|----------------------------|-----------------2---------|
D|------2--2-------2--2---2---|------2--2-------------5---|
A|----------------------------|---------------------------|
E|-0--0-------0--0------0---0-|-0--0-------0--0---0-3---3-|

G|-----|
D|-----|
A|-----|
E|-0---|
Вверх

The Greeting Song

Bass figure 1:

G-|--------------------|----------------------|
D-|--------------------|----------------------|
A-|-0--x-0--0--3-3-3-3-|-0---3--0--0--0-0-0-0-|
E-|--------------------|----------------------|

Verse interlude:
G-|--------------------|-------------------|-------------------|
D-|------0--2--2-3-4--|------0--2--2-3-4-|------0--2--2-3-4-|
A-|-2--x---------------|-2--x--------------|-2--x--------------|
E-|--------------------|-------------------|-------------------|

G-|---------------------|
D-|------0--2--2-3--4--|
A-|-2--x----------------|
E-|---------------------|

Pre-chorus:
G-|--------------------|-------------------|-------------------|
D-|------0--2--2-3-4--|------0--2--2-3-4-|------0--2--2-3-4-|
A-|-2--x---------------|-2--x--------------|-2--x--------------|
E-|--------------------|-------------------|-------------------|

G-|---------------------------------|
D-|-5h7-7-7-7--7-7-5h7-7-7-7-7--7-7-|
A-|---------------------------------|
E-|---------------------------------|

Chorus: (Repeat 4 times)
G-|-------------------|-------------------|
D-|-7--7----5-7--7----|-5--5---4--4--0-2--|
A-|------0---------0--|------0------------|
E-|-------------------|-------------------|

Guitar solo: (Repeat 2 times)
G-|--------------------|----12---12--10--------|-----------------------|
D-|----------------10--|-10-------------12--10-|-----------------------|
A-|-8--8-10/12--12-----|-----------------------|-12---12--11---11--10--|
E-|--------------------|-----------------------|-----------------------|

G-|------------------|--------------------|----10h12--12--10h12p10------|
D-|------------------|----------------10--|-10--------------------12----|
A-|-10--9---9--8--7--|-8---8--12---12-----|--------------------------12-|
E-|------------------|--------------------|-----------------------------|

G-|----------------------|------------------|
D-|----------------------|------------------|
A-|-12---12--11---11--10-|-10--9---9--8--7--|
E-|----------------------|------------------|

G-|-------------------------|--------------------|
D-|-------------------------|--------------------|
A-|-5--5--5--4--4--4--3--3--|-3--2--2--2--1---0--|
E-|-------------------------|--------------------|
Repeat 3 times

G-|-------------------------|-------------------------|
D-|-------------------------|-------------------------|
A-|-6--6--6--5--5--5--4--4--|-4--3--3--3--2--2--1--1--|
E-|-------------------------|-------------------------|

Ending:
G-|-------------------|------------------|
D-|-9---9----7-9--9---|-7---7--6--6------|
A-|-------9---------9-|-------------7-9--|
E-|-------------------|------------------|

G-|-------------------|--------------------|
D-|-9---9----7-9--9---|-7---7--6--6--------|
A-|-------9---------9-|-------------7-9--0-|
E-|-------------------|--------------------|

G-|-------------------|-------------------|
D-|-7--7----5-7--7----|-5--5---4--4--0-2--|
A-|------0---------0--|------0------------|
E-|-------------------|-------------------|

G-|-------------------|-------------------|------|
D-|-7--7----5-7--7----|-5--5---4--4--0-2--|------|
A-|------0---------0--|------0------------|-0----|
E-|-------------------|-------------------|------|
Вверх

The Righteous And The Wicked

Intro/Verse

Riff 1
G-
D-
A- 5--5--5--2--2---------|
E- -----------5--0--0--0-|

Riff 2
G-
D- -------------------2-|
A- 5--5--5--5--2--2-----|
E- --------------5--0---|

Riff 3
G-
D- -------------------2--0-----------|
A- 5--5--5--5--2--2--------2--0------|
E- --------------5--0-----------2--0-|

Chorus
G-
D-
A- 5--2--5--2--5--2--0--2--3--3--3-|
E-

Bridge
G-
D-
A-
E- 7--7--7--5--3--3--3--1--0--0--0--1--3--3--3-|

Interlude

Riff 1      x2
G-
D- 0--1--0---|---0h1p0--------------|
A- --------2-|---------2--0---------|
E- -------------------------2--0--2-|

Riff 2      x2
G-
D- 2--3--2---|---2h3p2--------------|
A- --------4-|----------4--2--------|
E- -------------------------4--2--4-|

Riff 3       x2
G-
D- 5--6--5---|---5h6p5--------------|
A- --------7-|---------7--5---------|
E---------------------------7--5--7-|

Chorus (final)

G-
D-
A- 5--2--5--2--5--2--0--2--3-3-3-3-3-3-3-3-3-3-3-3-3-3-3-3
E-

Structure

Verse
Chorus
Bridge
Verse
Chorus
Bridge
Interlude (play riff 1 then 2, 3 and 1 again after that)
Verse
Chorus
Chorus (final)
Вверх

The Righteous The Wicked

Timechange to ex. 5/4:
G-|---|
D-|-5-|
A-|-4-|
E-|---|
B-|---|

5-string bass
Moderately funk

Intro:
G-|--------|--------------------------|-------------------------|--------------------|
D-|--------|--------------------------|-------------------------|--------------------|
A-|----5-5-|-5------------------5-5-5-|-5-------------7-----5-5-|-5------------------|
E-|--------|----7--5--7---------------|----7--5--7--------------|----7--5--7---------|
B-|--------|------------0-0--0--------|------------5------------|-------------0-0--0-|

G-|----------|
D-|----------|
A-|------5-5-|
E-|----------|
B-|----------|
Repeat last four bars 2 times

Bass figure 1:
G-|--------|--------------------------|-------------------------|
D-|--------|--------------------------|-------------------------|
A-|----5-5-|-5------------------5-5-5-|-5-------------7-----5-5-|
E-|--------|----7--5--7---------------|----7--5--7--------------|
B-|--------|------------0-0--0--------|------------5------------|

G-|--------------------------|-------------------------------|
D-|--------------------------|-------------------------------|
A-|-5------------------5-5-5-|-5-------------7/8-7-5---------|
E-|----7--5--7---------------|----7--5--7------------7-5-----|
B-|------------0-0--0--------|------------5--------------7-5-|

G-|--------------------------|-------------------------|
D-|--------------------------|-------------------------|
A-|-5------------------5-5-5-|-5-------------7-----5-5-|
E-|----7--5--7---------------|----7--5--7--------------|
B-|------------0-0--0--------|------------5------------|

G-|--------------------------|----------------------|
D-|--------------------------|----------------------|
A-|-5------------------5-5-5-|-5-------------7---5--|
E-|----7--5--7---------------|----7--5--7-----------|
B-|------------0-0--0--------|------------5---------|

Variation in bar four, 2nd verse:
G-|-----------------------------|
D-|-----------------------------|
A-|-5-------------------6-7-7---|
E-|----7--5--7-0--2-5-7-------5-|
B-|-----------------------------|

Bass figure 2:
G-|-------------------------|-----------------------|-----------------------|
D-|-------------------------|-----------------------|-----------------------|
A-|----------------------5--|--------------------5--|--------------------5--|
E-|-7---x-x-----7---x-x-----|-7--x-5--7--8-8--8-----|-7---x-x-----7--x-x----|
B-|---------3/--------------|-----------------------|---------3/------------|

G-|-----------------------|-----------------------|-----------------------|
D-|-----------------------|-----------------------|-----------------------|
A-|--------------------5--|--------------------5--|--------------------5--|
E-|-7--x-5--7--8--8--8----|-7---x-x-----7--x-x----|-7---x-5--7--8-8--8----|
B-|-----------------------|---------3/------------|-----------------------|

G-|------------------------|----------------------|
D-|------------------------|----------------------|
A-|---------------------5--|----------------------|
E-|-7---x-x-----7--x-x-----|-7---7-5--7--8--8--8--|
B-|---------3--------------|----------------------|

Verse interlude:
G-|-------------------|-----------------|--------------------|---------------------|
D-|-------------------|-----------------|--------------------|---------------------|
A-|-------------------|-----------------|--------------------|---------------------|
E-|-7---7-5-4---4-2-1-|---0--1--2-2--2--|-7---7--5--4---4--2-|-1--1-0--1--2--2--2--|
B-|-------------------|-----------------|--------------------|---------------------|
Repeat 2 times

Last bar 2nd time:
G-|--------------------------|
D-|--------------------------|
A-|----------------------5-5-|
E-|-1----0--1--2--2--2h6-----|
B-|--------------------------|

Interlude:
G-|---|--------------------------------------|
D-|-5-|--------------------------------------|
A-|-4-|-5-6-5-----5-6-5-----5h6p5------------|
E-|---|-------7---------7--------7-5-------5-|
B-|---|------------------------------7-6-7---|
Repeat 4 times

G-|---|-------------------------------------|
D-|-5-|-------------------------------------|
A-|-4-|-7-8-7-----7-8-7-----7h8p7-----------|
E-|---|-------9---------9---------9-------7-|
B-|---|-----------------------------9-8-9---|
Repeat 2 times

G-|---|--------------------------------------|
D-|-5-|--------------------------------------|
A-|-4-|-5-6-5-----5-6-5-----5h6p5------------|
E-|---|-------7---------7--------7-5-------5-|
B-|---|------------------------------7-6-7---|

G-|---|-------------------------------------|---|-------|
D-|-5-|-------------------------------------|-4-|-------|
A-|-4-|-5-6-5-----5-6-5-----5h6p5-----------|-4-|-------|
E-|---|-------7---------7--------7-5--------|---|-2-----|
B-|---|------------------------------7-6-7--|---|-------|

G-|---------------------------------------|
D-|---------------------------------------|
A-|-----------------------------------5-5-|
E-|-2/3/4/5/6/7/9/10/12/13/14/17/20------|
B-|---------------------------------------|

Ending:
G-|---|------------|---|-------------------------|-------------------------|
D-|-2-|------------|-4-|-------------------------|-------------------------|
A-|-4-|------------|-4-|-------------------------|-------------------------|
E-|---|-7--7-5--7--|---|-8--8--8--8--8--8--8--8--|-8--8--8--8--8--8--8--8--|
B-|---|------------|---|-------------------------|-------------------------|

G-|--------------|
D-|--------------|
A-|--------------|
E-|----7---------|
B-|---------0----|
Вверх

Theyre Red Hot

Bass figure 1:
G-|-----------------|----------------|---------------------|
D-|-----------------|----------------|---------------------|
A-|-3---3---2---2---|----------------|-5---5---------------|
E-|-----------------|-5---5---5--5---|---------3---3---3---|

G-|-----------------|-----------------|----------------|----------------|
D-|-----------------|-----------------|----------------|----4---5---7---|
A-|-3---3------3----|-3---3---2---2---|----------------|-5--------------|
E-|-----------------|-----------------|-5---5---5--5---|----------------|

G-|----------------|------------|-------------|---------------|
D-|----------------|------------|-------------|---------------|
A-|----------------|-3----------|-(3)-----3---|---------------|
E-|-3---3---3--3---|------------|-------------|-5---------5---|

G-|---------------|-----------------|----------------|-----------------|
D-|---------------|-----------------|----------------|-----------------|
A-|---------------|-3---3---2---2---|----------------|-5---5-----------|
E-|-4---------4---|-----------------|-5---5---5--5---|---------3---3---|

G-|------------------|-----------------|-----------------|
D-|------------------|-----------------|-----------------|
A-|-3---3------3--4--|-5---5-----------|-3---3-------3---|
E-|------------------|---------3---3---|-----------------|
Repeat 4 times

Last bar 4th time:
G-|-------------------|
D-|-------------------|
A-|-3---3---3---------|
E-|-------------------|
Вверх

The Zephyr Song

Intro:
     Am/G     G7      Em     F     Am      G     Em      F
e|------3-------1---------------------0---------------------0----------------|
B|----1-------0--------0------1--------------3------0------------------------|
G|-------------------0--------------2------0--------------2-2----------------|
D|--------------------------3---------------------2--------------------------|
A|--0-----------------------------0------------------------------------------|
E|----------3------0------1--------------3------0------1---------------------|

Verse:
       Am             G               Em             F
e|--------3-1-0--------1-0---------------------------------------------------|
B|------1------------3-----3-1------0---3-1-0-1------1--3/5-3-1-0-1----------|
G|-----------------0------------------0--------------------------------------|
D|----2---------------------------2----------------2-------------------------|
A|--0------------------------------------------------------------------------|
E|---------------3--------------0----------------1---------------------------|
       Am             G               Em             F
e|--------3-5-0------------1-0------------0----------------------------------|
B|------1------------3---------3------0-3---0------1-----1-------------------|
G|-----------------0---(0)---------------------------------------------------|
D|----2-----------------------------2------------3-----3---------------------|
A|--0------------------------------------------------------------------------|
E|---------------3----------------0------------1-----1-----1-----------------|

Chours:
    D     G     A
e|--5-----3-----5------------------------------------------------------------|
B|--7-----3-----5------------------------------------------------------------|
G|--7-----4-----6------------------------------------------------------------|
D|--7-----5-----7------------------------------------------------------------|
A|--5-----5-----7------------------------------------------------------------|
E|--x-----3-----5------------------------------------------------------------|

After Chours:
       Am             G               Em             F
e|--------3-1-0--------1-0---------------------------------------------------|
B|------1------------3-----3-1------0---3-1-0--------1--3/5-3-1-0------------|
G|-----------------0------------------0--------------------------------------|
D|----2---------------------------2----------------2-------------------------|
A|--0------------------------------------------------------------------------|
E|---------------3--------------0----------------1---------------------------|

Verse

Chours

Solo:
e|--12-10-12-12~-12~-10-12---------10-8-10-10~-10~--10-12---------12-10-12---|
B|-------------------------12^-10-------------------------12^-10-------------|
G|---------------------------------------------------------------------------|
D|---------------------------------------------------------------------------|
A|---------------------------------------------------------------------------|
E|---------------------------------------------------------------------------|

e|--12~--10-12---------10-8-10-10~-10-8-10-12--------------------------------|
B|-------------12^-10-------------------------12^-10-------------------------|
G|---------------------------------------------------9-----------------------|
D|---------------------------------------------------------------------------|
A|---------------------------------------------------------------------------|
E|---------------------------------------------------------------------------|

after solo verse:
  Am    G   Em    F
e|-0----3----0----1----------------------------------------------------------|
B|-1----3----0----1----------------------------------------------------------|
G|-2----0----0----2----------------------------------------------------------|
D|-2----0----2----3----------------------------------------------------------|
A|-0----2----2----3----------------------------------------------------------|
E|-x----3----0----1----------------------------------------------------------|

Chours to end

Played in chours the last times
    D                                                G
e|--------14-------14----14-------14-------14----14--------15-------15----15-|
B|--15-15----15-15----15----15-15----15-15----15-----------------------------|
G|---------------------------------------------------12-12----12-12----12----|
D|---------------------------------------------------------------------------|
A|---------------------------------------------------------------------------|
E|---------------------------------------------------------------------------|
    A                          D
e|--------17-------17----17--------14-------14----14-------14-------14----14-|
B|---------------------------15-15----15-15----15----15-15----15-15----15----|
G|--14-14----14-14----14-----------------------------------------------------|
D|---------------------------------------------------------------------------|
A|---------------------------------------------------------------------------|
E|---------------------------------------------------------------------------|
    G	                   A		      D
e|--------15-------15----15-------17-------17----17-------14-------14--------|
B|--------------------------------------------------15-15----15-15----15-15--|
G|--12-12----12-12----12----14-14----14-14----14-----------------------------|
D|---------------------------------------------------------------------------|
A|---------------------------------------------------------------------------|
E|---------------------------------------------------------------------------|
		         G 		       A
e|-15-------14-------14-----------15-------15----15-------17-------17----17--|
B|----15-15----15-15----15---------------------------------------------------|
G|--------------------------12-12----12-12----12----14-14----14-14----14-----|
D|---------------------------------------------------------------------------|
A|---------------------------------------------------------------------------|
E|---------------------------------------------------------------------------|
   D					     G
e|-------14-------14-------15-------14-------14-----------15-------15----15--|
B|-15-15----15-15----15-15----15-15----15-15----15---------------------------|
G|--------------------------------------------------12-12----12-12----12-----|
D|---------------------------------------------------------------------------|
A|---------------------------------------------------------------------------|
E|---------------------------------------------------------------------------|
   A                         D7*
e|-------17-------17----17---17----------------------------------------------|
B|---------------------------15----------------------------------------------|
G|-14-14----14-14----14------17----------------------------------------------|
D|---------------------------(0)---------------------------------------------|
A|---------------------------------------------------------------------------|
E|---------------------------------------------------------------------------|
Вверх

The Zephyr Song (2 вариант)

Solo1:

e|17-17-15-17--17-15-17-12/13-12-|-12-12-10-12--12-10-12-7/8-7-|
B--------------------------------------|
G--------------------------------------|
D--------------------------------------|
A--------------------------------------|
E--------------------------------------|

e|17-17-15-17-----15-17-12/13-12-|-12-12-10-12--12-12-10-7/8-7-|
B--------------------------------------|
G--------------------------------------|
D--------------------------------------|
A--------------------------------------|
E--------------------------------------|


  Solo2:
  D                          G              A             D
e|5----5----5----5----5----------3----3---------5----5---|----5----5----5----5----5-
B|--7----7----7----7----7------3----3----3----5----5-----|--7----7----7----7----7---
G|----7----7----7----7----7--4----4----4----6----6-----6-|7----7----7----7----7-----
D-----------------------------------------------------------
A-----------------------------------------------------------
E-----------------------------------------------------------

 G               A     G  A    D                              G              A
-----3----3----------5-7--9---|----5----5-------------------------3----3---------5----5---|
---3----3-----3----5---8--10--|--7----7----7--8----7----7-------3----3----3----5----5-----|
-4----4-----4----6-----7--9---|7----7----7-------7----7----7--4----4----4----6----6-----6-|
----------------------------------------7----7--------------------------------|
------------------------------------------------------------------------------|
------------------------------------------------------------------------------|

 D                              G              A   G  A   D
|----5----5-------------------------3----3-----5---7--9---10|
|--7----7----7--8----7----7-------3----3----3--5---8--10--10|
|7----7----7-------7----7----7--4----4----4----6---7--9---11|
----------7----7--------------------------------|
------------------------------------------------|
------------------------------------------------|

Am
Can I get your hand to write on
G
Just a piece of lead to bite on
Em
What am I to fly my kite on
F
Do you want to flash your light on
Am                       G
Take a look its on display - for you
Em                     F
Coming down no not today


Did you meet your fortune teller
Get it off with no propellor
Do it up it?s always stellar
What a way to finally smell her
Pick it up it?s not to strong - for you
Take a piece and pass it on

Chorus:
D
Fly away on my Zephyr
G          A
I feel it more then ever
D
And in this perfect weather
G              A
We?ll find a place together

Verse 2:

Am  G  Em  F
Fly on my wing
Riddlin on liberator
Find a way to be a skater
Rev it up to levitator
Super mainly aviator
Take a look its on display - for you
Coming down no not today

Chorus:

Fly away on my Zephyr
I feel it more then ever
And in this perfect weather
We?ll find a place together

In the water where the scent of my emotion
All the world will pass me by
Fly away on my Zephyr
We?ll find a place together

Verse 3:

Whoa whoa whoa whoa whoa whoa - do you
Yeah yeah yeah yeah yeah yeah
Whoa whoa whoa whoa whoa whoa - won?t you
Yeah yeah yeah yeah yeah yeah

Chorus:

Fly away on my Zephyr
I feel it more then ever
And in this perfect weather
We?ll find a place together

In the water where the scent of my emotion
All the world will pass me by
Fly away on my Zephyr
We?re gonna live forever…

Forever…
Вверх

This Is The Place

   riff 1            riff 2
E|--12---------|-12-15-17-19-15-|-12-15-17-22/19-19-12-15-17-19-15||
B|--10---------|-10-13-15-17-13-|-10-13-15-20/17-17-10-13-15-17-13||
G|-------------|----------------|---------------------------------||
D|-------------|----------------|---------------------------------||
A|-------------|----------------|---------------------------------||
E|-------------|----------------|---------------------------------||
                        riff 3
E|-10-8-10-8-10-12|-----17-15-13-15-13-15-13-15/12----------------||
B|--8-6--8-6--8-10|-----15-13-11-13-11-13-11-13/10----------------||
G|----------------|-----------------------------------------------||
D|----------------|-----------------------------------------------||
A|----------------|-----------------------------------------------||
E|----------------|-----------------------------------------------||
    fig. 1
E|---------------------------------|------------------------------||
B|----------12----------12---------|------------------------------||
G|-11/13-11----11/13-11----13/11/9-|------------------------------||
D|---------------------------------|------------------------------||
A|---------------------------------|------------------------------||
E|---------------------------------|------------------------------||
    fig. 2
E|---------------------------------|------------------------------||
B|-12----12----12---12-------------|------------------------------||
G|----13----13----13---13-13-11-9--|------------------------------||
D|---------------------------------|------------------------------||
A|---------------------------------|------------------------------||
E|---------------------------------|------------------------------||
   chorus                under chords
   Am C  Dm Dm Am C  F  F  (chords under the verses on a second guitar)
E|-0--0--1--1--0--0--1--1-|---------------------------------------||
B|-1--1--3--3--1--1--1--1-|---------------------------------------||
G|-2--0--2--2--2--0--2--2-|---------5-5-5-5---------2-2-2-2-------||
D|-2--2--0--0--2--2--3--3-|-7-7-7-7-5-5-5-5-3-3-3-3-2-2-2-2-------||
A|-0--3--------0--3--x--x-|-7-7-7-7-3-3-3-3-3-3-3-3-0-0-0-0-------||
E|-------------------x--x-|-5-5-5-5---------1-1-1-1---------------||
  ....p.m..........   .............p.m.................
   fig. 3
E|----------------------------------------------------------------||
B|----------12----------------------------------------------------||
G|-11/13-11----13/11-13/11-11/9-6---------------------------------||
D|----------------------------------------------------------------||
A|----------------------------------------------------------------||
E|----------------------------------------------------------------||

i know during some of the verses there is a cool, erie little sound, but i
don't think it's a guitar. if you think it is, feel free to come up with something
for it yourself. i'm not sure what john frusciante uses to get the cool, underwater
sound for this song, but i'd like to get one. here's the song order.

bass intro
riff 1 x 6 (w/under chords)
riff 1 x 2 (0:50)
riff 2 x 2
riff 1 x 6 (w/under chords)(1:08)
riff 1 x 2 (1:50)
riff 2 x 2
riff 3
fig. 1
fig. 2
fig. 1
chorus x 2
riff 1 x 2 (w/under chords)
riff 1 x 2 (3:15)
riff 2 x 2
fig. 1, fig. 3 (3:31)
fig. 1, fig. 3
fig. 1, fig. 3
fig. 1, fig. 3
riff 1 (let ring)(4:05)
end (4:17)
Вверх

This Is The Place (2 вариант)

G|--------5-5-------------5-5----------------------------------
D|--7-7-7----5-5-5--3-3-3----7-7-7------7-7-----------5-5-3-3-3
A----------------------5-5-5---8-8-8-3-3-3---------
E--------------------------------------------------


This is the place where all
 The junkies go
 Where time gets fast
 But everything gets slow

 Can I get some vaseline
 Step into a modern scene
 Take a chance of that
 Which seems to be
 The making of a dream

 I don?t want to do it
 Like my daddy did
 I don?t want to give it
 To my baby?s kid

 This is my calling...

 This is the place where all
 The devils plead
 Their case to take from you
 What they need
 Can I isolate your gene
 Can I kiss your dopamine
 In a way I wonder
 If she?s living in a magazine

 I don?t want to say it
 If it isn?t so
 I don?t want to weigh it
 But i?ve got to know

 This is my calling...

 I saw you out there yesterday
 What did you want to say
 A perfect piece of DNA
 Caught in a flashing ray
 I caught you out there in the fray
 What did you want to say
 A master piece of DNA
 Caught in a flashing ray

 Can I smell your gasoline
 Can I pet your wolverine
 On the day my best friend died
 I could not get my copper clean

 I don?t want to take it up
 With little Joe
 I don?t want to fake it
 But i?ve gotta know

 This is my calling...

 I am a misfit
 I?m born with all of it
 The fucking ultimate
 Of love inside the atom split

 I?m in a flash ray
 A mash of DNA
 Another poppin? Jay
 Who thinks he?s got
 Something to say
Вверх

This Velvet Glove (2 вариант)

-Intro

   Dm         C           Bb          Dm          C           Bb
E----------------------------------------------------------------------------
B----------------------------------------------------------------------------
G----------------------------------------------------------------------------
D------10--12------10--12------------------10--12------10--12----------------
A--12----------10----------8---7-8-7---12----------10----------8---7--8-7----
E----------------------------------------------------------------------------

   Dm      C      Bb      Dm      C      Bb
E-----------------------------------------------------------------
B-------------------------10--------------------------------------
G--12--10--9------------------12--9-------------------------------
D-------------10--10/12--------------10--12----12--12-12----12----
A-----------------------------------------------------------------
E-----------------------------------------------------------------


-Verse

  Dm  C  Bb Dm C  Bb        Dm    C   Bb
E----------|--------10-10---|
B-10-10-10-|10--10--10-10-|-10--10--10--|
G---------------|
D---------------|
A---------------|
E---------------|


  Dm C   Bb      --etc.
E----------10-10-----10---|
B-10--10---10-10--|-10--10--10---10---|
G-------------------------|
D-------------------------|
A-------------------------|
E-------------------------|

E------------|-10-10-------------|-10-10-----|
B-10--10--10-|-10-10-10--10--10--|-10-10-10--|
G--------------------|
D--------------------|
A--------------------|
E--------------------|


E----------------------------------------------------------------------------
B----------------------------------------------------------------------------
G----------------------------------------------------------------------------
D------10--12------10--12------------------10--12------10--12----------------
A--12----------10----------8--8-8-8-8--12----------10----------8---8-8-8-8---
E----------------------------------------------------------------------------

   Dm      C      Bb      Dm      C      Bb
E----------------------------------------------
B-------------------------10-------------------
G--12--10--9------------------12--9------------
D-------------10--12-----------------10--12----
A----------------------------------------------
E----------------------------------------------

E--10-10-------
B--10-10-10----
G--------------
D--------------
A--------------
E--------------


E-10-10-------10-10-----|-10-10-----|----------10-10------10-10----|
B-10-10-10----10-10-10--|-10-10-10--|-10-10-10-10-10-10---10-10-10-|
G------------------------------------------|
D------------------------------------------|
A------------------------------------------|
E------------------------------------------|


E-10-10-----|
B-10-10-10--|
G-----------|
D-----------|
A-----------|
E-----------|

-Chorus

  Dm                            Bb
E-13--10------13-13-13--10------17--15-15---17--15-------|
B--------10----------------10----------------------15---|Play this
G--------------------------------------------------------|riff
D--------------------------------------------------------|3 times
A--------------------------------------------------------|
E--------------------------------------------------------|

  C                         Am
E-15--13-13---15--15-13-13--10-----10---10--|
B-------------------------------------------|
G-------------------------------------------|
D-------------------------------------------|
A-------------------------------------------|
E-------------------------------------------|

-Interlude

  Dm    C    Bb                  Dm   C    Bb
E-----8-10---------------------|----8-10------------------
B-10-------8-10--10-10--10-10--|-10------8-10--10-10--10--
G---------------------------------------------
D---------------------------------------------
A---------------------------------------------
E---------------------------------------------

-Verse

E-------------|---------10-10----|---------10-10-|
B-10--10--10--|-10--10--10-10--|-10--10--10--|-10--10--10-10-|
G------------------------|
D------------------------|
A------------------------|
E------------------------|


E-------------10-10--|
B-10--10--10--10-10--|Play this
G--------------------|riff
D--------------------|3 times
A--------------------|
E--------------------|


E--------------|
B-10--10--10---|
G--------------|
D--------------|
A--------------|
E--------------|

-Interlude
   (strumming)     (not strumming)
E---8----8---10--|--12--12--12/15--15----------|
B--10---12---13--|--13--13---------------------|
G----------------------------------|
D----------------------------------|
A----------------------------------|
E----------------------------------|


-Interlude

E-------------15-17----------------------|
B-10-13---15--------13-15--15-15--15-15--|
G----------------------------------------|
D----------------------------------------|
A----------------------------------------|
E----------------------------------------|


E-13--15-17------------------------------|
B-----------13-15---15-------------------|
G----------------------------------------|
D----------------------------------------|
A----------------------------------------|
E----------------------------------------|

-Verse

E-10-10--|--------10-10--|--------10-10--|--------10-10--| )
B-10-10--|-10--10-10-10--|-10--10-10-10--|-10--10-10-10--| )
G--------------------| )
D--------------------| )
A--------------------| )
E--------------------| )Play this
                                                           )
                                                           )3 times
E------------------------|                     )
B-10--10-10-10-10-10--|-10-10-10-10--|                     )
G------------------------|                     )
D------------------------|                     )
A------------------------|                     )
E------------------------|                     )

E-10-10------|
B--------10--|
G------------|
D------------|
A------------|
E------------|
Вверх

Throw Away Your Television

Intro

g---------------------------9--------99-x9------------- ||
d-77-7-0-77x7-0-----------------------------x9--10-----*|| Repeat
a---------------7--0----77-------7---------------------*|| This (?)
e------------------------------0----------------------- || # of times.

Chorus

g----9----9---9----11----11----11--- ||
d--7---7----7---9----9-----9-----9--*|| After this you go back to the
a-----------------------------------*|| intro.
e----------------------------------- ||

Outro

g---------------------------------------------------------------- ||
d-7-77-7-77--7-77-9-99-99-9---1212-1212---12--14-14-14-12--10/12-*||
a----------------------------------------------------------------*||
e---------------------------------------------------------------- ||
Вверх

Throw Away Your Television (2 вариант)

e|------------|
b|------------|
g|------------|
d|-55--77--88-|
a|------------|
e|------------|

solo 1
e|-------------------------------------|
b|-------------------------------------|
g|-9-12-11-9-7-9-12-11-9-7-9-12-11-9-7-|
d|-------------------------------------|
a|-------------------------------------|
e|-------------------------------------|

e|---------------------------------------|
b|---------------------------------------|
g|9h10p9h10p9h10p9h10p9h10p9h10p9h10p9h10|
d|---------------------------------------|
a|---------------------------------------|
e|---------------------------------------|x2

solo 2
e|--------------------------------------------------|
b|--------------------------------------------------|
g|9-12-11-9-7-9-12-11-9-7-9-12-11-9-7-9-12-11-9-7-9-|
d|--------------------------------------------------|
a|--------------------------------------------------|
e|--------------------------------------------------|
Вверх

Time

 Intro

-x----------------x-----------------x-----------------x------------------|
-x----------------x-----------------x-----------------x------------------|
-x----------------x-----------------x-----------------x------------------|
-------------------------------------------------------------------------|
-------------------------------------------------------------------------|
-------------------------------------------------------------------------|

 Verse (With Delay)

-12---------------15----------------12----------------15-----------------|
-13---------------13----------------13----------------13-----------------|
-14---------------------------------14-----------------------------------|
------------------15----------------------------------15-----------------|
-------------------------------------------------------------------------|
-------------------------------------------------------------------------|

 Chorus (Panned hard right)

-------------------------------------------------------------------------|
-------------------------------------------------------------------------|
-7h9--------------7---7h9-9-9--------------------------------------------|
-------------------------------------------------------------------------|
-----77-77------7---7----------------------------------------------------|
-----------1010----------------------------------------------------------|

 Bridge

------------------14----------------------------------12-----------------|
-16---------------14---------------14-----------------12-----------------|
-16---------------14---------------14-----------------13-----------------|
-16---------------16---------------14-----------------14-----------------|
-14---------------16---------------12-----------------14-----------------|
------------------14----------------------------------12-----------------|

 Outro (Distortion, Repeat each line a few times)

--------------14-12-----12-----------------------------------------------|
-12--12-12-12--------15----15---12--12-12-12--12-------------------------|
-------------------------------------------------11----------------------|
-------------------------------------------------------------------------|
-------------------------------------------------------------------------|
-------------------------------------------------------------------------|

-----------------0-2-0---0-----------------------------------------------|
-0--00-0-000-00--------3----0--00-0-000-00-------------------------------|
-------------------------------------------------------------------------|
-------------------------------------------4-----------------------------|
-------------------------------------------------------------------------|
-------------------------------------------------------------------------|
Вверх

Time (2 вариант)

Intro

G---------------|---------------|--------------------|----------------|
D---------------|---------------|--------------------|----------------|
A------------5h7|------------5h7|------------5h7p5h7-|------------5h7-|
E--5-5x-5-5x----|--5-5x-5-5x----|--5-5x-5-5x---------|--5-5x-5-5x-----|

Verse

G-----------------------------------|
D-----------------------------------|
A------------23333-----------23333--|
E--5-5-5-5-5-------1-1-1-1-1--------|

Interlude ( One Time .... )

G-------------------------------------------------|
D-------------------------------------------------|
A--5/17-17-17-17-15-15-17-15-15-17----------------|
E----------------------------------12-12-12-12-12-|


G--------------------------------------------------|
D--------------------------------17-17-17-15-15-17-|
A--17-17-17-17-15-15-17-15-15-17-------------------|
E--------------------------------------------------|


G-------------------------------------------------|
D-------------------------------------------------|
A--5/17-17-17-17-15-15-17-15-15-17----------------|
E----------------------------------12-12-12-12-12-|


G----------------------------------17-17-17-15-15-17-|
D----------------------------------------------------|
A--5/17-17-17-17-15-14-17-15-15-17-------------------|
E----------------------------------------------------|


G----------------------------------|---------------------------------|
D----------------------------------|---------------------------------|
A------------7-5-7-7-7-5-5---------|-----------9-9-7-5-5-9-7---------|
E--7-5-7-7-5---------------7-5-7-5-|-7-5-7-7-5-----------------9-7-5-|
Вверх

Tiny Dancer

This is how you play it


     F         Am7        Dm                         F
-||--------------------|-------------------------|-------------------------|-
-||--6----6----5----5--|--6----6---6--6-6--------|-----6--6-6----5----5----|-
-||--5----5----5----5--|--7----7---7--7-7--------|-----5--5-5----5----5----|-
-||--7----7----5----5--|--7----7---7--7-7--------|-----7--7-7----5----5----|-
-||--8----8----7----7--|--5----5---5--5-5---5-7--|--8--8--8-8----7----7----|-
-||--------------------|-------------------------|-------------------------|-


    G
-|-----------------------|-
-|--3---3--3--3--3--x-x--|-
-|--4---4--4--4--4--x-x--|-
-|--5---5--5--5--5--x-x--|-
-|--5---5--5--5--5--x-x--|-
-|--3---3--3--3--3-------|-


Lyrics:

F        Am7          Dm
 Hold me closer, Tiny Dancer
F          Am7               G
 Count the headlights on the highway
F       Am7               Dm
 Lay me down in sheets of linen
F          Am7      G
 You had a busy day today
Вверх

Transcending

Bass

Bass figure 1:           B  B                                B B B B
G-|-------9--------------------------|-------9--------------------------|
D-|--------------7-7-9-9-9--9--7-----|--------------7-7-9-9--9-9-9-9--7-|
A-|-9-9-9----9-9-----------------9-7-|-9-9-9----9-9---------------------|
E-|----------------------------------|----------------------------------|

                         B  B
G-|-------9--------------------------|-------9------------------------|
D-|--------------7-7-9-9-9--9--7-----|--------------------------------|
A-|-9-9-9----9-9-----------------9-7-|-9-9-9----9-9-9-9---------7-7-7-|
E-|----------------------------------|------------------7-7-7-7-------|

Interlude: (After verse, with triangle)
G-|---------------------------|--------------------------|
D-|---------------------------|--------------------------|
A-|-7h9--9--7h9--9--7-9-7-----|----------------------7-7-|
E-|-----------------------9-7-|-0--0-0--7---7-7--7h9-----|

G-|---------------------------|------------------------|
D-|---------------------------|-------------7h9--7--9--|
A-|-7h9--9--7h9--9--7-9-7-----|------------------------|
E-|-----------------------9-7-|-0--0-0--7--------------|

G-|---------------------------|----------------|
D-|---------------------------|-------------9--|
A-|-7h9--9--7h9--9--7-9-7-----|----------------|
E-|-----------------------9-7-|-0--0-0--7------|

G-|---------------------------|-----------------------------|
D-|---------------------------|-----------------------------|
A-|-7h9--9--7h9--9--7-9-7-----|-----------9-7-9-7-9-7-9-----|
E-|-----------------------9-7-|-0--0-0--7---------------9-7-|

Bridge:
G-|--------------------|-------------------|--------------------|
D-|--------------------|-------------------|--------------------|
A-|-------------4--6---|-7--6---4----------|-------------4--6---|
E-|-4---6---7----------|------------7---6--|-4---6---7----------|

G-|-----------------------|--------------------|-------------------|
D-|-----------------------|--------------------|-------------------|
A-|-7---7h9--7---6--7p6-4-|-------------4--6---|-7--6---4----------|
E-|-----------------------|-4---6---7----------|------------7---6--|

G-|-------------------------|-----------------------|-------------------|
D-|-------------------------|-----------------------|-------------------|
A-|-------------------------|-7-7-----7------7--7-7-|-------------------|
E-|-7---7-7-7-7----7-7---9--|-0---0-0-----0---------|-7--7-7---7-7-7/9--|

G-|----------------------9-|-----------------------|---------------------|
D-|------------------------|-----------------------|---9-9-----9---------|
A-|-/7--7-7-7---------7----|-9--9-9-9-9-9-9--9-9-9-|-7-7-7-7---7-7-7-7-7-|
E-|------------0--0-0------|-----------------------|---------------------|

G-|------------------------------|
D-|----1111---11---11---11111111-|
A-|-9--9-9--9-9--9-9--9-9-9-9-9--|
E-|------------------------------|
Reapet bar four times

Outro:
G-|---------------------------------------------|
D-|---------------------------------------------|
A-|-------------------10----------10------------|
E-|-10h12-10-12-12-12----12-10-12---12-12-10h12-|

G-|---------------------------------------------------|
D-|---------------------------------------------------|
A-|-------------------10-------12-------10-12-10------|
E-|-10h12-12-12-12-12----12-12----12-12---------10-12-|

G-|---------------------------------------------------------------|
D-|---------------------------------------------------------------|
A-|-------------10------------10----------10--12---------------12-|
E-|-10-12-12-12---12-12p10-12----12-12-12---12--12-12-12-10h12----|

G-|--------------------------------------------|
D-|--------------------------------------------|
A-|--------------10-10-10-12-12-10-10-10-------|
E-|-9-9-9-10--10-------------------------12-12-|
Played with variations. Frequently used variations showed below.

G-|------------------------------------------------------|
D-|---------------------------------12-12-12h14-12-------|
A-|----------------10------10-12h14----------------14-12-|
E-|-10h12-12-12-12---12-12-------------------------------|

G-|------------------------------------12-14-------------|
D-|-------------------------12h14-14-12------12----------|
A-|-------------------12-14---------------------14-------|
E-|-12-12-10-10-12p10------------------------------1210-|

G-|-------12----14-----------------------------|
D-|-12h14----14-----12-12----------------------|
A-|-----------------------14p12-12-10-12-------|
E-|--------------------------------------12-10-|

Silent part of outro:
G-|----------------------------------------------------|
D-|----------------------------------------------------|
A-|-------------10------12----------10--10--10---------|
E-|-10h12-12-12---12-12----12-12-12---12--12--12-10h12-|

                               B
G-|---------------------------------------------|
D-|---------------------------------------------|
A-|----------------------------10-12---10-12----|
E-|-10h12-0-0-3-0-0-10h12-0-12---------------10-|

             B       B    B
G-|-----------------------------------------|
D-|--------------------------------12-------|
A-|---10--10-12---10-12---12---x-12--14--14-|
E-|-12--12----------------------------------|

G-|---------------------------------------------------|
D-|-12h14-12------------------------------------------|
A-|---------14-12-14-12-13-13-13-13-13-13-12-10-------|
E-|---------------------------------------------12-10-|

G-|----------------------------|------------------------------------|
D-|----------------------------|------------------------------------|
A-|------------7--7--7--7-5h7--|-7-7-7-7-7-7---7-7--7-7-7-7---7-7-7-|
E-|-12-12-12-0--0--0--0--------|-0-0-0-0-0-0-0-0-0--0-0-0-0-0-0-0-0-|

Ending:                                                B B B
G-|-----------------------------------|--------------------------------|
D-|-------5---7-5---------------------|--------------------------------|
A-|-5h7-7---7-----7-5-----------------|--------------------------------|
E-|-------------------7-6-5-3-5-3-5-0-|-9-9-9-10-10-10-3-3-3-3-3-3-2-2-|

G-|------------|
D-|------------|
A-|------------|
E-|-0----------|
Вверх

Transcending (2 вариант)

  Gtr I
|------------------------------------------|
|------------------------------------------|
|------------------------------------------|
|-9s11-11-11-(11)-11-11-11s9-9-9-9-9-9-9-9-|
|-7s=9--9--9--(9)--9--9--9s7-7-7-7-7-7-7-7-|
|------------------------------------------|


|--------------------------------------------------|
|--------------------------------------------------|
|--------------------------------------------------|
|-9s11-11-11-(11)-11-11-11-(11)-11s14-14-14-14-14-|
|-7s=9--9--9--(9)--9--9--9--(9)--9s12-12-12-12-12-|
|--------------------------------------------------|


|------------------------------------------|
|------------------------------------------|
|------------------------------------------|
|-9s11-11-11-(11)-11-11-11s9-9-9-9-9-9-9-9-|
|-7s=9--9--9--(9)--9--9--9s7-7-7-7-7-7-7-7-|
|------------------------------------------|


|---------------------------------------|
|---------------------------------------|
|---------------------------------------|
|-9s11-11-11-11-11-11-11----------------|
|-7s=9--9--9--9--9--9--9--9-9-9-9-9-9-9-|
|-------------------------7-7-7-7-7-7-7-|


|------------------------------------------|
|------------------------------------------|
|------------------------------------------|
|-9s11-11-11-(11)-11-11-11s9-9-9-9-9-9-9-9-|
|-7s=9--9--9--(9)--9--9--9s7-7-7-7-7-7-7-7-|
|------------------------------------------|


|--------------------------------------------------|
|--------------------------------------------------|
|--------------------------------------------------|
|-9s11-11-11-(11)-11-11-11-(11)-11s14-14-14-14-14-|
|-7s=9--9--9--(9)--9--9--9--(9)--9s12-12-12-12-12-|
|--------------------------------------------------|


|------------------------------------------|
|------------------------------------------|
|------------------------------------------|
|-9s11-11-11-(11)-11-11-11s9-9-9-9-9-9-9-9-|
|-7s=9--9--9--(9)--9--9--9s7-7-7-7-7-7-7-7-|
|------------------------------------------|


|---------------------------------------|
|---------------------------------------|
|---------------------------------------|
|-9s11-11-11-11-11-11-11----------------|
|-7s=9--9--9--9--9--9--9--9-9-9-7-7-7-7-|
|-------------------------7-7-7-5-5-5-5-|


|------------------------------------------|
|------------------------------------------|
|------------------------------------------|
|-9s11-11-11-(11)-11-11-11s9-9-9-9-9-9-9-9-|
|-7s=9--9--9--(9)--9--9--9s7-7-7-7-7-7-7-7-|
|------------------------------------------|


|--------------------------------------------------|
|--------------------------------------------------|
|--------------------------------------------------|
|-9s11-11-11-(11)-11-11-11-(11)-11s14-14-14-14-14-|
|-7s=9--9--9--(9)--9--9--9--(9)--9s12-12-12-12-12-|
|--------------------------------------------------|


|------------------------------------------|
|------------------------------------------|
|------------------------------------------|
|-9s11-11-11-(11)-11-11-11s9-9-9-9-9-9-9-9-|
|-7s=9--9--9--(9)--9--9--9s7-7-7-7-7-7-7-7-|
|------------------------------------------|


|---------------------------------------|
|---------------------------------------|
|---------------------------------------|
|-9s11-11-11-11-11-11-11----------------|
|-7s=9--9--9--9--9--9--9--9-9-9-7-7-7-7-|
|-------------------------7-7-7-5-5-5-5-|


 Pre-Chorus
  Gtr II
|---------------------------------------------|
|---------------------------------------------|
|-9s11-11-11-11--11--11-11-11-9-9-9-9-8-8-8-8-|
|---------------------------------------------|
|-7s=9--9--9--9---9---9--9--9-7-7-7-7-6-6-6-6-|
|---------------------------------------------|
|
| Gtr I
|---------------------------------------------|
|---------------------------------------------|
|---------------------------------------------|
|-9s===11-11-11-(11)-11-11-11s9-9-9-9-9-9-9-9-|
|-7s====9--9--9--(9)--9--9--9s7-7-7-7-7-7-7-7-|
|---------------------------------------------|


|-----------------------------------------------------|
|-----------------------------------------------------|
|-8s=9--9--9---9---9--9--9---9---9s=6--6--6s=8--8--8--|
|-----------------------------------------------------|
|-6s=7--7--7---7---7--7--7---7---7s=4--4--4s=6--6--6--|
|-----------------------------------------------------|
|
|-----------------------------------------------------|
|-----------------------------------------------------|
|-----------------------------------------------------|
|-9s11-11-11-(11)-11-11-11-(11)-11s14-14-14-14-14----|
|-7s=9--9--9--(9)--9--9--9--(9)--9s12-12-12-12-12----|
|-----------------------------------------------------|


|------------------------------------------|
|------------------------------------------|
|-8s11-11-11--11--11-11-11s9-9-9-9s8-8-8-8-|
|------------------------------------------|
|-6s=9--9--9---9---9--9--9s7-7-7-7s6-6-6-6-|
|------------------------------------------|
|
|------------------------------------------|
|------------------------------------------|
|------------------------------------------|
|-9s11-11-11-(11)-11-11-11s9-9-9-9-9-9-9-9-|
|-7s=9--9--9--(9)--9--9--9s7-7-7-7-7-7-7-7-|
|------------------------------------------|


|----------------------------------------|
|----------------------------------------|
|-8s=9--9--9--9--9--9--9s6-6-6-6s4-4-4-4-|
|----------------------------------------|
|-6s=7--7--7--7--7--7--7s4-4-4-4s2-2-2-2-|
|----------------------------------------|
|
|----------------------------------------|
|----------------------------------------|
|----------------------------------------|
|-9s11-11-11-11-11-11-11-----------------|
|-7s=9--9--9--9--9--9--9---9-9-9-9-9-7-7-|
|--------------------------7-7-7-7-7-5-5-|


 Chorus
  Gtr I
                 ~~
|------------------------------------|---------------------------------|
|------------------------------------|---------------------------------|
|-------------9h11-------------------|---------------------------------|
|---9h11-(11)------9h11---11p9-------|-------7----------9--------------|
|-9---------------------9------9-7---|---9------------9------11p9----0-|
|----------------------------------9-|-7---7---7h9S11-----11------11---|


                 ~~
|------------------------------------|---------------------------------|
|------------------------------------|---------------------------------|
|-------------9h11-------------------|---------------------------------|
|---9h11-(11)------9h11---11p9-------|-------7----------9--------------|
|-9---------------------9------9-7---|---9------------9------11p9----0-|
|----------------------------------9-|-7---7---7h9S11-----11------11---|


                 ~~
|------------------------------------|---------------------------------|
|------------------------------------|---------------------------------|
|-------------9h11-------------------|---------------------------------|
|---9h11-(11)------9h11---11p9-------|-------7----------9--------------|
|-9---------------------9------9-7---|---9------------9------11p9----0-|
|----------------------------------9-|-7---7---7h9S11-----11------11---|


                 ~~
|------------------------------------|---------------------------------|
|------------------------------------|---------------------------------|
|-------------9h11------9------------|---------------------------------|
|---9h11-(11)------9h11---11p9-------|-------7----------9--------------|
|-9---------------------9------9-7---|---9------------9------11p9----0-|
|----------------------------------9-|-7---7---7h9S11-----11------11---|


 Verse
|------------------------------------------|
|------------------------------------------|
|------------------------------------------|
|-9s11-11-11-(11)-11-11-11s9-9-9-9-9-9-9-9-|
|-7s=9--9--9--(9)--9--9--9s7-7-7-7-7-7-7-7-|
|------------------------------------------|


|--------------------------------------------------|
|--------------------------------------------------|
|--------------------------------------------------|
|-9s11-11-11-(11)-11-11-11-(11)-11s14-14-14-14-14-|
|-7s=9--9--9--(9)--9--9--9--(9)--9s12-12-12-12-12-|
|--------------------------------------------------|


|------------------------------------------|
|------------------------------------------|
|------------------------------------------|
|-9s11-11-11-(11)-11-11-11s9-9-9-9-9-9-9-9-|
|-7s=9--9--9--(9)--9--9--9s7-7-7-7-7-7-7-7-|
|------------------------------------------|


|---------------------------------------|
|---------------------------------------|
|---------------------------------------|
|-9s11-11-11-11-11-11-11----------------|
|-7s=9--9--9--9--9--9--9--9-9-9-9-9-9-9-|
|-------------------------7-7-7-7-7-7-7-|


|------------------------------------------|
|------------------------------------------|
|------------------------------------------|
|-9s11-11-11-(11)-11-11-11s9-9-9-9-9-9-9-9-|
|-7s=9--9--9--(9)--9--9--9s7-7-7-7-7-7-7-7-|
|------------------------------------------|


|--------------------------------------------------|
|--------------------------------------------------|
|--------------------------------------------------|
|-9s11-11-11-(11)-11-11-11-(11)-11s14-14-14-14-14-|
|-7s=9--9--9--(9)--9--9--9--(9)--9s12-12-12-12-12-|
|--------------------------------------------------|


|------------------------------------------|
|------------------------------------------|
|------------------------------------------|
|-9s11-11-11-(11)-11-11-11s9-9-9-9-9-9-9-9-|
|-7s=9--9--9--(9)--9--9--9s7-7-7-7-7-7-7-7-|
|------------------------------------------|


|---------------------------------------|
|---------------------------------------|
|---------------------------------------|
|-9s11-11-11-11-11-11-11----------------|
|-7s=9--9--9--9--9--9--9--9-9-9-9-9-9-9-|
|-------------------------7-7-7-7-7-7-7-|


|------------------------------------------|
|------------------------------------------|
|------------------------------------------|
|-9s11-11-11-(11)-11-11-11s9-9-9-9-9-9-9-9-|
|-7s=9--9--9--(9)--9--9--9s7-7-7-7-7-7-7-7-|
|------------------------------------------|


|--------------------------------------------------|
|--------------------------------------------------|
|--------------------------------------------------|
|-9s11-11-11-(11)-11-11-11-(11)-11s14-14-14-14-14-|
|-7s=9--9--9--(9)--9--9--9--(9)--9s12-12-12-12-12-|
|--------------------------------------------------|


|------------------------------------------|
|------------------------------------------|
|------------------------------------------|
|-9s11-11-11-(11)-11-11-11s9-9-9-9-9-9-9-9-|
|-7s=9--9--9--(9)--9--9--9s7-7-7-7-7-7-7-7-|
|------------------------------------------|


|---------------------------------------|
|---------------------------------------|
|---------------------------------------|
|-9s11-11-11-11-11-11-11----------------|
|-7s=9--9--9--9--9--9--9--9-9-9-9-9-9-9-|
|-------------------------7-7-7-7-7-7-7-|


 Pre-chorus 2
  Gtr II
|---------------------------------------------|
|---------------------------------------------|
|-9s11-11-11-11--11--11-11-11-9-9-9-9-8-8-8-8-|
|---------------------------------------------|
|-7s=9--9--9--9---9---9--9--9-7-7-7-7-6-6-6-6-|
|---------------------------------------------|
|
| Gtr I
|---------------------------------------------|
|---------------------------------------------|
|---------------------------------------------|
|-9s===11-11-11-(11)-11-11-11s9-9-9-9-9-9-9-9-|
|-7s====9--9--9--(9)--9--9--9s7-7-7-7-7-7-7-7-|
|---------------------------------------------|


|-----------------------------------------------------|
|-----------------------------------------------------|
|-8s=9--9--9---9---9--9--9---9---9s=6--6--6s=8--8--8--|
|-----------------------------------------------------|
|-6s=7--7--7---7---7--7--7---7---7s=4--4--4s=6--6--6--|
|-----------------------------------------------------|
|
|-----------------------------------------------------|
|-----------------------------------------------------|
|-----------------------------------------------------|
|-9s11-11-11-(11)-11-11-11-(11)-11s14-14-14-14-14----|
|-7s=9--9--9--(9)--9--9--9--(9)--9s12-12-12-12-12----|
|-----------------------------------------------------|


|------------------------------------------|
|------------------------------------------|
|-8s11-11-11--11--11-11-11s9-9-9-9s8-8-8-8-|
|------------------------------------------|
|-6s=9--9--9---9---9--9--9s7-7-7-7s6-6-6-6-|
|------------------------------------------|
|
|------------------------------------------|
|------------------------------------------|
|------------------------------------------|
|-9s11-11-11-(11)-11-11-11s9-9-9-9-9-9-9-9-|
|-7s=9--9--9--(9)--9--9--9s7-7-7-7-7-7-7-7-|
|------------------------------------------|


|----------------------------------------|
|----------------------------------------|
|-8s=9--9--9--9--9--9--9s6-6-6-6s4-4-4-4-|
|----------------------------------------|
|-6s=7--7--7--7--7--7--7s4-4-4-4s2-2-2-2-|
|----------------------------------------|
|
|----------------------------------------|
|----------------------------------------|
|----------------------------------------|
|-9s11-11-11-11-11-11-11-----------------|
|-7s=9--9--9--9--9--9--9---9-9-9-9-9-9-9-|
|--------------------------7-7-7-7-7-7-7-|


 Chorus
  Gtr I
                 ~~
|------------------------------------|---------------------------------|
|------------------------------------|---------------------------------|
|-------------9h11-------------------|---------------------------------|
|---9h11-(11)------9h11---11p9-------|-------7----------9--------------|
|-9---------------------9------9-7---|---9------------9------11p9----0-|
|----------------------------------9-|-7---7---7h9S11-----11------11---|


                 ~~
|------------------------------------|---------------------------------|
|------------------------------------|---------------------------------|
|-------------9h11-------------------|---------------------------------|
|---9h11-(11)------9h11---11p9-------|-------7----------9--------------|
|-9---------------------9------9-7---|---9------------9------11p9----0-|
|----------------------------------9-|-7---7---7h9S11-----11------11---|


                 ~~
|------------------------------------|---------------------------------|
|------------------------------------|---------------------------------|
|-------------9h11-------------------|---------------------------------|
|---9h11-(11)------9h11---11p9-------|-------7----------9--------------|
|-9---------------------9------9-7---|---9------------9------11p9----0-|
|----------------------------------9-|-7---7---7h9S11-----11------11---|


                 ~~
|------------------------------------|---------------------------------|
|------------------------------------|---------------------------------|
|-------------9h11------9------------|---------------------------------|
|---9h11-(11)------9h11---11p9-------|-------7----------9--------------|
|-9---------------------9------9-7---|---9------------9------11p9----0-|
|----------------------------------9-|-7---7---7h9S11-----11------11---|


 Interlude & Outro
|---------------------------------------------------|
|---------------------------------------------------|
|----------------------11----11h13----11-(11)----13-|
|-----------11h13-(13)------------------------------|
|-9h11-(11)---------------11-------11---------11----|
|---------------------------------------------------|


|---------------------------------------|
|---------------------------------------|
|-15-13-(13)-13-------13-13-13-11-11-11-|
|-11-11-(11)-11-14-14-14-14-14-13-13-13-|
|---------------11-11-------------------|
|---------------------------------------|


|-----------------------------------------------------|
|-----------------------------------------------------|
|-------11-11-(11)-11-13-13-(13)-13-13-13-11-13-13-11-|
|-11h13-13-13-(13)-13-13-13-(13)-13-13-13-13-13-13-11-|
|-11--------------------------------------------------|
|-----------------------------------------------------|


|-------------------------------------------------|
|-------------------------------------------------|
|-15-15-15-13-13-13----------13-13-13-13-11-11-11-|
|-11-11-11-11-11-11-14-14-14-14-14-14-14-13-13-13-|
|-------------------11-11-11----------------------|
|-------------------------------------------------|


|-----------------------------------------------|
|-----------------------------------------------|
|-------11-(11)-11-11h13-(13)-13-13-11-13-13-11-|
|-11h13-13-(13)-13-13---------13-13-13-13-13-11-|
|-11--------------------------------------------|
|-----------------------------------------------|


|----------------------------------------|
|----------------------------------------|
|-15-15-15-13-13-13---------13-13--------|
|-11-11-11-11-11-11-14-(14)-14-14-14-13--|
|-------------------11-(11)-11-11-11-11--|
|----------------------------------------|


|-----------------------------|------------------------------|
|-----------------------------|------------------------------|
|-8-8-8-(8)-8-8-8-8-8-8-8-x-x-|-8-8-8-(8)-8-9-9-9-9-9-9-x-x--|
|-9-9-9-(9)-9-9-9-9-9-9-9-x-x-|-9-9-9-(9)-9-9-9-9-9-9-9-x-x--|
|-9-9-9-(9)-9-9-9-9-9-9-9-x-x-|-7-7-7-(7)-7-7-7-7-7-7-7-x-x--|
|-7-7-7-(7)-7-7-7-7-7-7-7-x-x-|------------------------------|


|-----------------------------|------------------------------|
|-----------------------------|------------------------------|
|-8-8-8-(8)-8-8-8-8-8-8-8-x-x-|-8-8-8-(8)-8-9-9-9-9-9-9-x-x--|
|-9-9-9-(9)-9-9-9-9-9-9-9-x-x-|-9-9-9-(9)-9-9-9-9-9-9-9-x-x--|
|-9-9-9-(9)-9-9-9-9-9-9-9-x-x-|-7-7-7-(7)-7-7-7-7-7-7-7-x-x--|
|-7-7-7-(7)-7-7-7-7-7-7-7-x-x-|------------------------------|


|-----------------------------|------------------------------|
|-----------------------------|------------------------------|
|-8-8-8-(8)-8-8-8-8-8-8-8-x-x-|-8-8-8-8-8-9-9-9-9-9-9-9-9-9/-|
|-9-9-9-(9)-9-9-9-9-9-9-9-x-x-|-9-9-9-9-9-9-9-9-9-9-9-9-9-9/-|
|-9-9-9-(9)-9-9-9-9-9-9-9-x-x-|-7-7-7-7-7-7-7-7-7-7-7-7-7-7/-|
|-7-7-7-(7)-7-7-7-7-7-7-7-x-x-|------------------------------|


|------------------------------------------|
|----------------------------9--9--9--9--9-|
|-11-11-11-(11)-11-11-11-11-11-11-11-11-11-|
|-11-11-11-(11)-11-11-11-11-11-11-11-11-11-|
|--9--9--9--(9)--9--9--9--9--9--9--9--9--9-|
|--9--9--9--(9)--9--9--9--9--9--9--9--9--9-|


|-----------------9--9--9--9--9--9--9--9--9-|
|--9--9--9--9--9--9--9--9--9--9--9--9--9--9-|
|-11-11-11-11-11-11-11-11-11-11-11-11-11-11-|
|-11-11-11-11-11-11-11-11-11-11-11-11-11-11-|
|--9--9--9--9--9--9--9--9--9--9--9--9--9--9-|
|--9--9--9--9--9--9--9--9--9--9--9--9--9--9-|


|--9--9--9--9--9--9--9--9--9--9--9--9--9--9-|
|--9--9--9--9--9--9--9--9--9--9--9--9--9--9-|
|-11-11-11-11-11-11-11-11-11-11-11-11-11-11-|
|-11-11-11-11-11-11-11-11-11-11-11-11-11-11-|
|--9--9--9--9--9--9--9--9--9--9--9--9--9--9-|
|--9--9--9--9--9--9--9--9--9--9--9--9--9--9-|


                                              Gtrs I, III
                                                      ~~~~~~~~~~~~~
|--9--9--9--9--9--9--9--9--9--9--9--9--9--9-|--------12-(12)--(12)-15-(15)-|
|--9--9--9--9--9--9--9--9--9--9--9--9--9--9-|--------12-(12)--(12)-14-(14)-|
|-11-11-11-11-11-11-11-11-11-11-11-11-11-11-|--------12-(12)--(12)---------|
|-11-11-11-11-11-11-11-11-11-11-11-11-11-11-|------------------------------|
|--9--9--9--9--9--9--9--9--9--9--9--9--9--9-|------------------------------|
|--9--9--9--9--9--9--9--9--9--9--9--9--9--9-|-0--(0)-----------------------|


   .5/                                     1.5/
                     ~~~~~~~~~~~~~                             ~~~~~~~~~~~~~
|-----------------------------------------|-------------------12-(12)--(12)---|
|-------------------12-(12)--(12)-14-(14)-|-------------------12-(12)--(12)---|
|-------------------12-(12)--(12)-14-(14)-|-------------------12-(12)--(12)---|
|-----------------------------------------|-----------------------------------|
|-----------------------------------------|---------------------------------x-|
|-0-----(0)-(0)-(0)-----------------------|-0-----(0)-(0)-(0)---------------x-|


|-------------------------------------------|
|-------------------------------------------|
|-------------------------------------------|
|-11-11-11-12-12-12s7-7-7-5-5-5-------------|
|-----------------------------------5-7b11==|
|--9--9--9-10-10-10s5-5-5-3-3-3-5h7---------|


                   ~~~~~~~~~~~~~
|-----------------12-(12)--(12)-------------------------|
|---------------0-12-(12)--(12)-15b17r(15)-15b19==(15)r-|
|-----------------12-(12)--(12)-------------------------|
|-------------------------------------------------------|
|-(7)--(7)-(7)r-----------------------------------------|
|-------------------------------------------------------|


  1/                                   1.5/
              ~~~~~~~~~~~~~                                ~~~~~~~~~~~~~
|------------12-(12)--(12)------------|-------------------12-(12)--(12)-----|
|------------12-(12)--(12)-15----(15)-|-------------------12-(12)--(12)-----|
|----------0-12-(12)--(12)-14b16r(14)-|-------------------12-(12)--(12)-0---|
|-------------------------------------|-------------------------------------|
|-------------------------------------|-------------------------------------|
|-0----(0)----------------------------|-0-----(0)-(0)-(0)-----------------x-|


|---------------------------------------|
|---------------------------------------|
|---------------------------------------|
|-11-11-11-12-12-12s7-9s7-5-5-5-7s9-----|
|---------------------------------------|
|--9--9--9-10-10-10s5-7s5-3-3-3-5s7-0-0-|


                                       2.5/
                  ~~~~~~~~~~~~~                           ~~~~~~~~~~~~~
|----------------12-(12)--(12)-------|-------------------12-(12)--(12)--------|
|----------------12-(12)--(12)-15----|-------------------12-(12)--(12)-15b19--|
|----------------12-(12)--(12)-14b16-|-------------------12-(12)--(12)--------|
|-7s9s12s17s23-0---------------------|----------------------------------------|
|------------------------------------|----------------------------------------|
|------------------------------------|-0-----(0)-(0)-(0)----------------------|


  1.5/
                     ~~~~~~~~~~~~~
|-------------------12-(12)--(12)-----|
|-------------------12-(12)--(12)-----|
|-------------------12-(12)--(12)-0---|
|-------------------------------------|
|-----------------------------------x-|
|-0-----(0)-(0)-(0)-----------------x-|


                                                                   1.5/
                                                     ~~~~~~~~~~~~~
|-----------------------------------------|-------x-12-(12)--(12)-12-----(12)--|
|-----------------------------------------|-------x-12-(12)--(12)-12-----(12)--|
|-----------------------------------------|-------x-12-(12)--(12)-12-----(12)--|
|-11-11-11-12-12-12s7-7-7-5-5-5-----------|------------------------------------|
|-----------------------------------5-7b9r|=(7)--------------------------------|
|--9--9--9-10-10-10s5-5-5-3-3-3-5h7-------|------------------------------------|


                 2.5/       1.5/
         ~~~~~~~                         ~~~~~~~
|-----x-12-(12)------------|------------12-(12)----|
|-----x-12-(12)------------|------------12-(12)----|
|-----x-12-(12)--0-----(0)-|------------12-(12)----|
|--------------------------|-----------------------|
|--------------------------|-----------------------|
|-0------------------------|-0------(0)------------|


|-------------------------------------------|
|-------------------------------------------|
|-------------------------------------------|
|-11-11-11-12-12-12s7-7-7-5-5-5-------------|
|-----------------------------------5-7b11r=|
|--9--9--9-10-10-10s5-5-5-3-3-3-5h7---------|


               1.5/                   .5/      .5/      1.5/     .5/
|-------------12-----(12)-(12)-(12)-|----------12--------|-------------------|
|-------------12-----(12)-(12)-(12)-|----------12--------|-------------------|
|-----------0-12-----(12)-(12)-(12)-|----------12--------|-------------------|
|-----------------------------------|--------------------|----------5--------|
|-(7)---(7)-------------------------|--------------------|-------------------|
|-----------------------------------|-0------------------|-0-----------------|


                                                                         1/
                                                 ~~~~~~~~~~~~~~~~~~~~~~
|----------------------------------------------|----------|------------------|
|----------------------------------------------|----------|------------------|
|----------------------------------------------|----------|------------------|
|-11-11-11-12-12-12s7-7-7-5-5-5----------------|----------|------------------|
|-----------------------------------5-7b11r(7)-|-7--------|-(7)----(7)---7---|
|--9--9--9-10-10-10s5-5-5-3-3-3-5h7------------|----------|------------------|


                  1/ 1/     1/
          ~~~~~~~
|---------------------------------|------------------|
|---------------------------------|------------------|
|---------------------------------|------------------|
|---------------------------------|------------------|
|-(7)-(7)-7--(7)--7---7---(7)-7---|-(7)----(7)--(7)--|
|---------------------------------|------------------|


  1/                    1.5/
|---------------|--------------------|
|---------------|--------0-------(0)-|
|---------------|--------0-------(0)-|
|---------------|--------------------|
|-7------(7)----|-(7)----------------|
|---------------|--------------------|


  1.5/
              ~~~~~~~~~~~~~
|------------12-(12)--(12)-14-(14)-|
|------------12-(12)--(12)-14-(14)-|
|------------12-(12)--(12)---------|
|----------------------------------|
|----------------------------------|
|-0------(0)-----------------------|


   1.5/                                       1.5/
                  ~~~~~~~~~~~~~~~~~~    ~~~~~
|-----------------------------------15-17b19-|----------------------------------|
|----------------17b20==(17)--(17)r----------|----------------------------------|
|--------------------------------------------|-----------------()---()-|
|--------------------------------------------|----------------------------------|
|--------------------------------------------|----------------------------------|
|--0-----(0)-(0)-----------------------------|-0------(0)-(0)-------------------|


|-------------------------------------|
|-------------------------------------|
|-------------------------------------|
|-11-11-11-12-12-12s7-7-7-5-5-5-7/----|
|---------------------------------7-7-|
|--9--9--9-10-10-10s5-5-5-3-3-3-5s0-0-|


        1.5/                            .5/
                   ~~~~~~~
|-----------------12-(12)-------------|----------------------------------|
|-15--------------12-(12)-------------|---------------17b19==(17)r-------|
|-14b16-----------12-(12)----()-|------------------------------x-0-|
|-------------------------------------|----------------------------------|
|-------------------------------------|----------------------------------|
|-------0-----(0)---------------------|-0-----(0)-(0)--------------------|


  1.5/
                 ~~~~~~~
|---------------12-(12)----|
|---------------12-(12)----|
|---------------12-(12)----|
|--------------------------|
|--------------------------|
|-0-----(0)-(0)------------|


|------------------------------------------|---------------|
|------------------------------------------|---------------|
|------------------------------------------|------------|
|-11-11-11-12-12-12s7-7-7-5-5-5------------|------------|
|-----------------------------------5-7b11r|=(7)-----------|
|--9--9--9-10-10-10s5-5-5-3-3-3-5h7--------|---------------|


   .5/                                1.5/
                                                   ~~~~~~~~~~~~~
|------------15-----(15)-(15)-(15)---|------------12-(12)--(12)-------|
|------------15b16==(15)-(15)-(15)r--|------------12-(12)--(12)-------|
|------------------------------------|------------12-(12)--(12)-0-0-0-|
|------------------------------------|--------------------------0-0-0-|
|------------------------------------|--------------------------------|
|-0------(0)-------------------------|-0------(0)---------------------|


                   1/
                       ~~~~~~~~~~~
|---------------------------|------------*|
|----------11-(11)-0---0----|-(0)--------*|
|----------10-(10)-0---0----|-(0)--------*|
|-11-11-11---------0---0----|-(0)--------*|
|------------------0---0----|-(0)--------*|
|--9--9--9---------0---0----|-(0)--------*|
Вверх

True Men Dont Kill Coyotes

intro

G|----------7h9p7--|-----------0h2-2---|
D|-----7h9---------|----0------------2-|
A|-----------------|-------------------|
E|---0-----0-------|--0---0------------|

verse

E|--0-0-0-3-5-3--|

chorus

D|--0--|   A|---2-0-2-0-|
Вверх

True Men Dont Kill Coyotes (2 вариант)

Intro

e-|------------------------------|
B-|------------------------------|
G-|------------------------------|
D-|------------------------------|
A-|--------7--5------------------|
E-|--0--7---------0--3--5--5--0--|

Couplet

Guitare 1

e|-------------------------------|
B|-------------------------------|
G|--9---9--9-9-------------------|
D|--9---9--9-9-------5---9-------|
A|--7---7--7-7-------5---9-------|
E|----------------0--3---7-------|

Guitare 2

e-|------------------------------|
B-|------------------------------|
G-|-----------7------------------|
D-|-----9--------9-----9---------|
A-|--9-----9--------9------------|
E-|-----------------------7------|

et

e-|------------------------------|
B-|------------------------------|
G-|--------------------------7---|
D-|--------9--------9------------|
A-|-----9--------9--------9------|
E-|--7--------7--------7---------|


Refrain


e|-------------------------------|
B|-------------------------------|
G|--9---9--9-9-------------------|
D|--9---9--9-9-------5---9-------|
A|--7---7--7-7-------5---9-------|
E|----------------0--3---7-------|


SOLO 1 :

e|-----------------------------------|
B|--15---12--------------------------|
G|------------14---12---14-----------|
D|---------------------------12------|
A|-----------------------------------|
E|-----------------------------------|


SOLO 2 :

e|---------------------------------------------14--12--10--12--------|
B|-------------------------------------10--12------------------12----|
G|---------x-x------------------9--11--------------------------------|
D|--15/16--x-x--12--9-9--9--12---------------------------------------|
A|---------x-x-------------------------------------------------------|
E|-------------------------------------------------------------------|
Вверх

Under The Bridge

No Bass until between verse 1 and 2
G|-------------------------------------------------------------|
D|-------------------------------------------------------------|
A|-------------------------------------------------------------|
E|-0---0---0---0---0 let ring----------------------------------|

Then chorus

G|-------------------------------------------------------------|
D|--11---------9--------------9--------------------------------|
A|--9----7--7------7---------------7----9---9---9---9----------|
E|--------------------9---7------------------------------------|

G|-------------------------------------------------------------|
D|--11---------9--------------9--------------------------------|
A|--9----7--7------7---------------7----9---9h11p9h11p9--------|
E|--------------------9---7------------------------------------|

G|-------------------------------------------------------------|
D|--11---------9---------------9-------------------------------|
A|--9----7--7------7---------------7----9---9---9---9----------|
E|--------------------9----7-----------------------------------|

G|-------------------------------------------------------------|
D|--11---------9---------------9-------------------------------|
A|--9----7--7------7---------------7----9---9------------------|
E|--------------------9----7-----------------------------------|

Verses

G|-------------------------------------------------------------|
D|-------------------------------------------------------------|
A|---------2--------0---------------2-------4-----0-----0------|
E|--0------------4------------0--------------------------------|

G|-------------------------------------------------------------|
D|-------------------------------------------------------------|
A|---------2--------0---------------2-------4-----0-----0------|
E|--0------------4------------0--------------------------------|

G|---------------------------------------------------------7/9-|
D|-------------------------------------------------------------|
A|-------2--------0--------------2-------4-----0-----0---------|
E|-0-----------4-----------0-----------------------------------|

Back to chorus
G|-------------------------------------------------------------|
D|--11---------9--------------9--------------------------------|
A|--9----7--7------7---------------7----9---11-9-7-9-----------|
E|--------------------9---7------------------------------------|

G|-------------------------------------------------------------|
D|--11---------9--------------9--------------------------------|
A|--9----7--7------7---------------7----9---9------------------|
E|--------------------9---7---------------------2---2----------|

G|-------------------------------------------------------------|
D|--11---------9--------------9--------------------------------|
A|--9----7--7------7---------------7----9---9---9---9----------|
E|--------------------9---7------------------------------------|

G|-------------------------------------------------------------|
D|--11---------9--------------9--------------------------------|
A|--9----7--7------7---------------7----9---9-----9------------|
E|--------------------9---7------------------------------------|

Ending

G|----9---------------------------7--------------------5-------|
D|-7-----7---10---7---5---7---5-------5----3-----5h7-------7p5-|
A|-------------------------------------------------------------|
E|-------------------------------------------------------------|

G|----9-------9-----------7-----------------------5------------|
D|---------7-----7----5--------5-----3-----5h7--------7p5h7----|
A|-0----0------------------------------------------------------|
E|-------------------------------------------------------------|

G|----9---------------------------7--------------------5-------|
D|-7-----7---10---7---5---7---5-------5----3-----5h7-------7p5-|
A|-------------------------------------------------------------|
E|-------------------------------------------------------------|

Bridge before choir
G|-------------------------------------------------------------|
D|-------------------------------------------------------------|
A|-------------------------------------------------------------|
E|--1-1-1-1-1-1-1-1-0-0-0-0-3-3-3-3----------------------------|

G|----9---------------------------7--------------------5-------|
D|-7-----7---10---7---5---7---5-------5----3-----5h7-------7p5-|
A|-------------------------------------------------------------|
E|-------------------------------------------------------------|

G|----9-------9-----------7-----------------------5------------|
D|---------7-----7----5--------5-----3-----5h7-------7p5h7-----|
A|-0----0------------------------------------------------------|
E|-------------------------------------------------------------|

G|----9---------------------------7--------------------5-------|
D|-7-----7---10---7---5---7---5-------5----3-----5h7-------7p5-|
A|-------------------------------------------------------------|
E|-------------------------------------------------------------|

G|----9-------9-----------7-----------------------5------------|
D|---------7-----7----5--------5-----3-----5h7-------7p5h7-----|
A|-0----0------------------------------------------------------|
E|-------------------------------------------------------------|

G|----9----------------------------7-------------------5-------|
D|-7-----7---10---7---5---7----5-------5----3----5h7-------7p5-|
A|-------------------------------------------------------------|
E|-------------------------------------------------------------|

G|----9-------9-----------7-----------------------5------------|
D|---------7-----7----5--------5-----3-----5h7-------7p5h7-----|
A|-0----0------------------------------------------------------|
E|-------------------------------------------------------------|

G|----9---------------------------7--------------------5-------|
D|-7-----7---10---7---5---7---5-------5----3-----5h7-------7p5-|
A|-------------------------------------------------------------|
E|-------------------------------------------------------------|

G|----9-------9-----------7-----------------------5------------|
D|---------7-----7----5--------5-----3-----5h7-------7p5h7-----|
A|-0----0------------------------------------------------------|
E|-------------------------------------------------------------|

End of vocals and drums
G|----9---------------------------7--------------------5-------|
D|-7-----7---10---7---5---7---5-------5----3-----5h7-------7p5-|
A|-------------------------------------------------------------|
E|-------------------------------------------------------------|

G|----9-------9-----------7-----------------------5h7p5--------|
D|---------7-----7----5--------5-----3-----5h7------------7p5--|
A|-0----0------------------------------------------------------|
E|-------------------------------------------------------------|

G|----9-----------------------------7------------------5-------|
D|-7-----7----10----7---5---7---5-------5----3---5h7-------7p5-|
A|-------------------------------------------------------------|
E|-------------------------------------------------------------|

G|----9-------9-----------7------------------------------------|
D|---------7-----7----5--------5-----3-------------------------|
A|-0----0------------------------------------0 let ring--------|
E|-------------------------------------------------------------|
Вверх

Universally Speaking

Intro and verse:

               D                           e7
eI-2-2-2---2--2-2--2-2--2-2----3-3-3---3--3-3--3-3--3-3-I
HI-3-3-3---3--3-3--3-3--3-3----3-3-3---3--3-3--3-3--3-3-I
GI-2-2-2---2--2-2--2-2--2-2----4-4-4---4--4-4--4-4--4-4-I
DI-0-0-0---0--0-0--0-0--0-0----0-0-0---0--0-0--0-0--0-0-I
AI------------------------------------------------------I
EI------------------------------------------------------I


Chorus:

             A                           Amaj7
eI-0-0-0---0--0-0--0-0--0-0----0-0-0---0--0-0--0-0--0-0-I
HI-2-2-2---2--2-2--2-2--2-2----2-2-2---2--2-2--2-2--2-2-I
GI-2-2-2---2--2-2--2-2--2-2----1-1-1---1--1-1--1-1--1-1-I
DI-2-2-2---2--2-2--2-2--2-2----2-2-2---2--2-2--2-2--2-2-I
AI-0-0-0---0--0-0--0-0--0-0----0-0-0---0--0-0--0-0--0-0-I
EI------------------------------------------------------I

       G            h       a      h       e
eI-3-3-3--3-3---------------0--------------0-I
HI-3-3-3--3-3---------------1--------------0-I
GI-4-4-4--4-4----4-4--4-4---2---4-4--4-4---0-I
DI-5-5-5--5-5----4-4--4-4---2---4-4--4-4---2-I
AI-5-5-5--5-5----2-2--2-2---0---2-2--2-2---2-I
EI-3-3-3--3-3------------------------------0-I

Solo:

eI-2-0-0-----------0------0-----------2-0-0-----------0------0--4/5-5--5-5-I
HI----3--3-2--3-2-3--3-2-3---------------3--3-2--3-2-3--3-2-3--------------I
GI--------------------------2-2--2-2---------------------------------------I
DI-------------------------------------------------------------------------I
AI-------------------------------------------------------------------------I
EI-------------------------------------------------------------------------I

eI-2-0-0-----------0-----------------------------------------I
HI----3--3-2--3-2-3--3-2-3-2-----------------------------2/3-I
GI--------------------------2-2--2-2---2-0----------2--2-----I
DI----------------------------------------4-4br-0-0----------I
AI-----------------------------------------------------------I
EI-----------------------------------------------------------I
Вверх

Universally Speaking (2 вариант)

e--------------------------------------------------------------------
B---7----------------------------------------------------------------
G-------10p8h10p8----7878h10----878h10--------------------------
D----------------------------------------------8-8-8-8---------------
A--------------------------------------------------------------------
E--------------------------------------------------------------------

e--------------------------------------------------------------------
B---7------------------------------------------10-10-10-10-----------
G-------10p8h10p8----7878h10----878h10--------------------------
D--------------------------------------------------------------------
A--------------------------------------------------------------------
E--------------------------------------------------------------------

e--------------------------------------------------------------------
B---7----------------------------------------------------------------
G-------10p8h10p8----7878h10----878h7---------------------------
D----------------------------------------------8-8-8-8---------------
A--------------------------------------------------------------------
E--------------------------------------------------------------------


e--------------------------------------------------------------------
B--------------------------------------------------------------------
G------------------------------------------8-------------------------
D-----8---6---5---6/5-----------8---8--------------------------------
A----------------------6---6-----------------------------------------
E--------------------------------------------------------------------
Вверх

Universally Speaking (3 вариант)

intro D Em7 x 4


D	   Em7
i saw your face
 	     D
Elegant and tired
		Em7
Cut up from the chase
	    D
Still I so admired
		Em7
Bloodshot your smile
	     D
Delicate and wild
		Em7
Give me she wolf style
		  D
Rip right thru me

D				   Em7
Silveretta the jets of a lifetime
					D
Go and get her i've got her on my mind
					Em7
Nothing better then feeling is so fine
				D
Simply put I saw your love stream flow

A
Come on baby 'cause cause there's no name for
Am7
Give it up and I got what I came for
G	  Bm
Universal-ly speaking

A
Take it back and you make me nervous
Am7
Nothing better then love and service
G	  Bm          Am
Universal-ly speaking ah
B7		Em
Win in the long run

I saw your crime
Dying to get high
Two of a kind
Beat all hands tonight
Вверх

Universally Speaking (4 вариант)

verse and pre-chorus: D (5-fret) D4

Chorus: A (barre on 5-fret) C#m G (3-fret) D (5-fret) A

solo:
|-------------------------------------------------------------|
|-------------------------------------------------------------|
|---11-9----9-------------------------------------------------|
|--------12----12-11--12-11-12/-14--12-11-12-/-14-------------|
|-------------------------------------------------12--12-12-12|
|-------------------------------------------------------------|


|-------------------------------------------------------------|
|-------------------------------------------------------------|
|---11-9----9------------------------------------14--14-14-14-|
|--------12----12-11--12-11-12/-14--12-11-12-/-14-------------|
|-------------------------------------------------------------|
|-------------------------------------------------------------|


|-------------------------------------------------------------|
|-------------------------------------------------------------|
|---11-9----9-------------------------------------------------|
|--------12----12-11--12-11-12/-14--12-11-12-/-14-------------|
|-------------------------------------------------12--12-12-12|
|-------------------------------------------------------------|

|------------------------------------------------------------|
|------------------------------------------------------------|
|------------------------------------------------------------|
|----------------7--7/12-------------------------------------|
|--12-10-9-b9--5---------------------------------------------|
| -----------------------------------------------------------|


D4
|-----|
|--8--|
|--7--|
|--7--|
|--5--|
|-----|
Вверх

Venice Queen

Intro: (Guitar only, Bass Comes in at 0:16)
G|-------------------------------------------------------------------------|
D|-------------------------------------------------------------------------|
A|77777777777777-56-77777777777777-56-77777777777777-56-77777777777777-56--|
E|-------------------------------------------------------------------------|

Second part of Intro:
G:|---------------------------------|
D:|---------------------------------|
A:|3-3-3--3-3-33-0-0-0--0-0-00------|
E:|---------------------------------|
(Repeat this unill 2:20)

Little Brigde
G:|--------------------------------------|
D:|--------------------------------------|
A:|77777777777777-5-6-77777777777777-5-6-|
E:|--------------------------------------|

G:|---------------------------------|
D:|---------------------------------|
A:|3-3-3--3-3-33-0-0-0--0-0-00------|
E:|---------------------------------|

Then:
G|-------------------------------------------------------------------------|
D|-------------------------------------------------------------------------|
A|77777777777777-56-77777777777777-56-77777777777777-56-77777777777777-56--|
E|-------------------------------------------------------------------------|

At 2:52 play
G:|-----------------------------------------------------|
D:|2-22-----2-22-----2-22-----2-2-2-2-2/-12-12-12-12-12-|
A:|-----3-2------3-2------3-2---------------------------|   (Repeat X3)
E:|-----------------------------------------------------|

Second part:
G:|----------------------------|
D:|2-22-----2-22-----2-22------|
A:|-----3-2------3-2------3-2--|
E:|----------------------------|

At 3:34 play
G|--------------------------------------------------------------------------|
D|7-7-7-7-7-7-7-77-7--------------------------------------------------------|
A|--------------------8-8-8-8-8-8-8-88-8-7-7-7-7-7-7-7-77-7-5-5-5-5-5-5-5555|
E|--------------------------------------------------------------------------|

Then at 4:33 play
G|--------------------------------------------------------------------------|
D|7-7-7-7-7-77-7------------------------------------------------------------|
A|---------------8-8-8-8-8-88-8-7-7-7-7-7-7-77-7-5-5-5-5-5-55-5/-12-12121212|
E|--------------------------------------------------------------------------|
Вверх

Venice Queen (2 вариант)

   Riff A
e|-----7------7-------7------------|
B|---------------------------8-7---|
G|---9------9------9-------9-------|
D|-9------9------9-------9---------|
A|---------------------------------|
E|---------------------------------|

   Riff A, Variation
e|-----7------7-------7------7-------------------------|
B|-------------------------------8--8--8--8--8-8-8-8---|
G|---9------9------9-------9-----7--7--7--7--9-9-9-9---|
D|-9------9------9-------9-------9--9--9--9--9-9-9-9---|
A|------------------------------10-10-10-10--7-7-7-7---|
E|-----------------------------------------------------|

   Riff B
e|--------------------------------7-7------------------|
B|--------------------------------7-7------------------|
G|-0-0--4-4--0-0--4-4---6-6-6-6---7-7------------------|
D|-2-2--5-5--2-2--5-5---7-7-7-7---7-7------------------|
A|-2-2--5-5--2-2--5-5---7-7-7-7---5-5------------------|
E|-0-0--3-3--0-0--3-3---5-5-5-5------------------------|

   Riff B, Play over Chords,
e|----7---10----7---10--7--7--7---7--7-----------------|
B|---8-8-8-----8-8-8-----8--8--8---7--7----------------|
G|--7---7-----7---7-------9--9--9---7--7---------------|
D|-7---------7-----------------------------------------|
A|-----------------------------------------------------|
E|-----------------------------------------------------|

   Riff C,
e|-0-0-0-0-0-0-0-0--0-0-0-0-0-0-0-0--0-0-0-0-0-0-0-0--0-0-0-0-0-0-0-0---|
B|-2-2-2-2-2-2-2-2--3-3-3-3-3-3-3-3--5-5-5-5-5-5-5-5--3-3-3-3-3-3-3-3---|
G|-2-2-2-2-2-2-2-2--2-2-2-2-2-2-2-2--5-5-5-5-5-5-5-5--2-2-2-2-2-2-2-2---|
D|-2-2-2-2-2-2-2-2--0-0-0-0-0-0-0-0--5-5-5-5-5-5-5-5--0-0-0-0-0-0-0-0---|
A|-0-0-0-0-0-0-0-0-------------------3-3-3-3-3-3-3-3--------------------|
E|----------------------------------------------------------------------|

   Riff C, Play over Chords
e|----------------------------------------------------------------------|
B|-2--2--2--2--2-2--3--3--3--3--3-3--5--5--5--5--5-5--3--3--3--3--3-3---|
G|--2--2--2--2--2----2--2--2--2--2----5--5--5--5--5----2--2--2--2--2----|
D|---2--2--2---2------0--0--0--0-------5--5--5--5-------0--0--0--0------|
A|----------------------------------------------------------------------|
E|----------------------------------------------------------------------|

   Fill, Play over Riff C
e|-----------------------------------8-7--------------8-7---------------|
B|-8h10--------------8h10----------------10---------------10------------|
G|----------------------------------------------------------------------|
D|----------------------------------------------------------------------|
A|----------------------------------------------------------------------|
E|----------------------------------------------------------------------|
Вверх

Venice Queen (2 вариант)

 4/4
  Gtr I
--------------------------|
|-----12-----12-----12----------------|
|---9----9--------9----9----12--11----|
|-9--------9----9--------9------------|
--------------------------|
--------------------------|



Intro+Couplet:

Em Emsus2 (en arpeges a l?octave)

Cmaj7 - A7sus4 - Em (a l?octave)


Section acoustique 1:

Em - C (x3)

A - Dsus2


Section acoustique 2:

Asus2 - G6 - Fmaj7 / C -Dsus2
Venice Queen

Does it go from east to west
body free and a body less
come again just to start afresh
once again to find a home
in the moment of the meantime

Dropping in coming through the mesh
checking in just to get it blessed
hard to leave when it?s picturesque
find a form that?s free to roam
where you come from
where you going

Do it all then it all again
make it up and you make a friend
paddle on just around the bend
find a place where you can see
all the mamas and the papas

Take a chance on a recommend
hard as hell just to comprehend
disbelief that I do suspend
easy now to find a breeze
where you come from
where you going

We all want to tell her
tell her that we love her
Venice gets a queen
best I?ve ever seen
we all want to kiss her
tell her that we miss her
Venice gets a queen
best I?ve ever seen

I know you said you don?t believe
in god do you still disagree
now that it?s time for you to leave
G - L - O - R - I - A
is love   my friend

Your stylish mess of silver hair
a woman of your kind is rare
your uniform returns to flir
G - L - O - R - I - A
is love   my friend

And now it?s time for you to go
you taught me most of what I know
where would I be without you Glo
G - L - O - R - I - A
is love   my friend

I see you standing by the sea
the waves you made will always be
a kiss goodbye before you leave
G - L - O - R - I - A
is love   my friend
Вверх

Venice Queen (3 вариант)

|-------------------------------------|
|-----12-----12-----12----------------|
|---9----9--------9----9----12--11----|
|-9--------9----9--------9------------|
|-------------------------------------|
|-------------------------------------|Intro then cords below

Em Emsus2 (in arpegio of an octave)

Cmaj7 - A7sus4 - Em (octave)


Acoustic Bridge

Em - C (x3)

A - Dsus2


Second Acoustic Bridge:

Asus2 - G6 - Fmaj7 / C -Dsus2

Lead Licks over Acoustics.

e--------------------
B-13-12--10~-------
Вверх

Venice Queen (4 вариант)

tuning EADG

bass comes in with drums a few seconds into the song
   verse/intro
G|----------------------------------------------------------------------------|
D|----------------------------------------------------------------------------|
A|77777777777777-5-6-77777777777777-5-6-77777777777777-5-6-77777777777777-5-6-|
E|----------------------------------------------------------------------------|

   bridge part or watever
G|-------------------------------|    just keep playing this over again for a
D|-------------------------------|    couple of minutes until mood changes and
A|3-3-3--3-3-33-0-0-0--0-0-00----|    it is like this....
E|-------------------------------|

   other verse.....i think
G|------------------------------------------------------------|
D|2-22------2-22------2-22------2-2-2-2-2/-12-12-12-12-12----|
A|-----3-2-0-----3-2-0-----3-2-0------------------------------|
E|------------------------------------------------------------|
play that part over again 4 times i think and go onto this part

G|-------------------------------------------------------------------------|
D|7-7-7-7-7-7-7-77-7-------------------------------------------------------|
A|-------------------8-8-8-8-8-8-8-88-8-7-7-7-7-7-7-7-77-7-5-5-5-5-5-55-5--|
E|-------------------------------------------------------------------------|
    it goes something like that. you might need to change it to
    your feel of the song but that is something like it and the drums
    stop here and guitar and bass play the same thing with a little variation
    like this

G|-----------------------------------------------------------------------------|
D|7-7-7-7-7-77-7---------------------------------------------------------------|
A|---------------8-8-8-8-8-88-8-7-7-7-7-7-7-77-7-5-5-5-5-55-5-7/12-12-12-12-12-|
E|-----------------------------------------------------------------------------|
     play that about 4 times and then that should be about it
Вверх

Walkabout

G|--7--9--7------------------------9--7------------------------9--7----------|
D|-9---------5--7b8r7--5-----------------5--7b8r7--5--0--------------5--7b8r7|
A|------------------------0--------------------------------------------------|
E|---------------------------------------------------------------------------|

G|----------------------------------------------------------------------9--7-|
D|--5------------------------------------------5--7--7b8r7--5--9-------------|
A|-----0--------------5--5b6r5--3--7--------7--------------------------------|
E|--------------5--8---------------------------------------------------------|

G|---------------------------------------------------------------------------|
D|-5--7b8r7--0---------------------------------------------------------------|
A|----------------3----0-----------------------------------------------------|
E|---------------------------------------------------------------------------|


RIFF 1   (x10)
G|-0-7-8-9-------------------------------------------------------------------|
D|----------7--5--------0-7-6-5----------------------------------------------|
A|-------------------------------7--5-----------4-5-7-0----------------------|
E|---------------------------------------------------------------------------|

RIFF 2
G|----------5---------------------5------------------------------------------|
D|-7--5------------------7--5------------------------------------------------|
A|-------7-----6-5-------------7-----6-5--8-7--------------------------------|
E|---------------------------------------------------------------------------|

G:---------------|----------|----------------|
D:Riff-1-(x8)----|Riff-2----|--Riff-1--(x4)--|
A:---------------|----------|----------------|
E:---------------|----------|----------------|


G|-------------------------------------11-11-----------------11--------------|
D|---------------------------------------------------------------------------|
A|----9-----7-7-------9-----7-7-----9-----------7-7-------9--------7-7-------|
E|-9-----7-------9-9-----7-------9-----------7-------9-9--------7------------|


G:---------------|
D:Riff-1-(x8)----|
A:---------------|
E:---------------|
Вверх

Walkin On Down The Road

Intro: All vibratos with bar

E-|--------------------------------|----------------------------------------|
B-|--17)~~~~~~~----Vibrato-with----|----)-17---)----------------------------|
G-|--16~~~~~~~~------bar-into------|--16-----16-----14^16--14~~~~~~~~~~-x--|
D-|------------------FeedBack------|------------------------------------x--|
A-|--------------------------------|----------------------------------------|
E-|--------------------------------|----------------------------------------|

E-|-----------------------------------|---------------------------------17-----------|
B-|----)-17----)-17-------------------|----)-17----)-17------------------------------|
G-|--16------16--------16-16--14~~~~--|--16------16------16-14--16-14--------14~~~~--|
D-|-----------------------------------|----------------------------------------------|
A-|-----------------------------------|----------------------------------------------|
E-|-----------------------------------|----------------------------------------------|


E-|--------17----17--17-17-----------|----------------------------------------------|
B-|----)-----------------------------|---------------------------------)--17~~~~~~--|
G-|--16----------------------14~~~~--|------------14^16^14-----14----16-------------|
D-|----------------------------------|--14^16--16-----------16----------------------|
A-|----------------------------------|----------------------------------------------|
E-|----------------------------------|----------------------------------------------|

Chorus:

Guitar 1: In bar 1 you play the A5 chord on beat 1 and 3, while
guitar 2 plays the two note chord on beat 2 and 4
                                                  |1.--------------------|2.---------|
                                                  |                      |           |
E-|--------------|-----------------|--------------|----------------------|------------|
B-|--------------|-----------------|--------------|----------------------|------------|
G-|--------------|-----------------|--------------|----------------------|--7--7------|
D-|--7------7----|--7----7----7----|--7------7----|--7----7----7---------|--7--7--7---|
A-|--7------7----|--7----7----7----|--7------7----|--7----7----7-----)---|--5--5--7---|
E-|--5------5----|--5----5----5----|--5------5----|--5----5----5----3----|--------5---| x2

Guitar 2

E-|--------)-------------)----|-----------------------------|
B-|-------5)----x-x-x---5)----|-----------------------------|
G-|-------5-----x-x-x---5-----|----x-x-x--------------------|
D-|---------------------------|----x-x-x-5--x-5-x-5--5-7----|
A-|---------------------------|-----------------------------|
E-|---------------------------|-----------------------------| x4 With Variations
                                                                 in last bar

Guitar Solo: Play 4 bars in A and move up to F# and play in the
same scale as in the intro. Pentatonic, minor or major I don?t
know.....it?s in F#. The Bass continues to play something
between A and G.

    1:56                        2:06
E-|-----)~~~~~~~~-------------|-----------------------------------|
B-|----8----------------------|----)---17-----------)---17--------|
G-|---------------------------|--16-------14~~----16--------14~~--|
D-|---------------------------|-----------------------------------|
A-|---------------------------|-----------------------------------|
E-|---------------------------|-----------------------------------|

E-|-----------------------------------|-----------------------------|
B-|--------------------17-------------|-----------------------------|
G-|--14^16^14----14-16--------14~~~~--|--~~~/////~~~~----------|
D-|-----------16----------16----------|-----------------------------|
A-|-----------------------------------|-----------------------------|
E-|-----------------------------------|-----------------------------|

Bass Riff could be played like this during the solo:

G-|---------------------------|-----------------------------|
D-|-----7--7----7-------------|-----7--7-----7--------------|
A-|---------------------------|-----------------------------|
E-|--5-------5-------3--------|--5--------5-------3---------|

Interlude after Solo:

Guitar 1 :

E-|-----------------|-----------|------------------|----------|--------|--------|
B-|-----------------|-----------|------------------|----------|--------|--------|
G-|-----------------|-----------|------------------|----------|--------|--------|
D-|--5---------5^7--|--5--------|--5----------5^7--|--5----7--|--------|--------|
A-|-----------------|-----------|------------------|----------|--------|--------|
E-|-----------------|-----------|------------------|----------|--------|--------|

Guitar 2:

     A                G                     B                 G
E-|--------------------------------------|-------------------------------------|
B-|--------------------------------------|-------------------------------------|
G-|--------------------------------------|-------------------------------------|
D-|-----7-----7----7-----5------5-----5--|-----9-----9----9-----5------5----5--|
A-|--------------------------------------|-------------------------------------|
E-|--5-----5-----5----3------3-----3-----|--7-----7-----7-----3-----3-----3----|

     A                G                     A                 B
E-|--------------------------------------|-------------------------------------|
B-|--------------------------------------|-------------------------------------|
G-|--------------------------------------|-------------------------------------|
D-|-----7-----7----7-----5------5-----5--|-----7-----7----7-----9------9----9--|
A-|--------------------------------------|-------------------------------------|
E-|--5-----5-----5----3------3-----3-----|--5-----5-----5-----7-----7-----7----|

     B                                      B
E-|--------------------------------------|-------------------------------------|
B-|--------------------------------------|-------------------------------------|
G-|--------------------------------------|-------------------------------------|
D-|-----9-----9----9-----9------9-----9--|-----9-----9----9------9-----9----9--|
A-|--------------------------------------|-------------------------------------|
E-|--7-----7-----7----7------7-----7-----|--7-----7-----7-----7-----7-----7----|

Fills:

    1:04
E-|------------------------------------|------------------------------------|
B-|------)-17----)-17----|-------------|------)-17----)-17----|-------------|
G-|----16------16------16--16--14~~~~--|----16------16------16--16--14~~~~--|
D-|------------------------------------|------------------------------------|
A-|------------------------------------|------------------------------------|
E-|------------------------------------|------------------------------------|

    1:21
E-|---------------------------|--------------------------------|
B-|----------)-17-------|----|--------------------------------|
G-|--------16---------16------|----14^16^14------------14~~~~--|
D-|---------------------------|--------------16-16-14----------|
A-|---------------------------|--------------------------------|
E-|---------------------------|--------------------------------|

    2:50
E-|----------------------------------|-------------------------------------------|
B-|----)-17----)-17----|-------------|----)-17----)-17----|-------------17-------|
G-|--16------16------16--16--14~~~~--|--16------16------16--16-14-16-14----14~~--|
D-|----------------------------------|-------------------------------------------|
A-|----------------------------------|-------------------------------------------|
E-|----------------------------------|-------------------------------------------|

E-|--17~~~~~~~~---------------|
B-|---------------------------|
G-|---------------------------|
D-|---------------------------|
A-|---------------------------|
E-|---------------------------|

    3:11
E-|---------------------------|--------------------------|
B-|------17)~~~~~~------------|----)-17----|------------|
G-|------16-------------------|--16------16----14~~~~~~--|
D-|---------------------------|--------------------------|
A-|---------------------------|--------------------------|
E-|---------------------------|--------------------------|

     3:16
E-|-------------------------------|------17~~~-------17~~~~-----|
B-|-------------------------------|-----(17)~~----17------------|
G-|--14-14--16-14------14~~~~~----|-----------------------------|
D-|----------------16-------------|-----------------------------|
A-|-------------------------------|-----------------------------|
E-|-------------------------------|-----------------------------|

E-|----17-17-17------------------|---------|---------|---------|
B-|--------------(14)~~~----14--|--x-5----|--x-5----|--x-5----|
G-|---------------14~~~~----14--|--x-5----|--x-5----|--x-5----|
D-|------------------------------|---------|---------|---------|
A-|------------------------------|---------|---------|---------|
E-|------------------------------|---------|---------|---------|

E-|---------------------------|------------------------------|------)--------|
B-|---------------------------|-------------7--5-----7-7--5--|--7--5)--------|
G-|-------5--x-5-x-5-5-x-5-5--|--x-5-x-5-5--7--5-----7-7--5--|--7--5---------|
D-|--5^7----------------------|-------------------7----------|---------------|
A-|---------------------------|------------------------------|---------------|
E-|---------------------------|------------------------------|---------------|

E-|----------------------------|------------------------|
B-|--7/10~~--10/12~~--12/14~~--|------------------------|
G-|----------------------------|--------Fade-Out--------|
D-|----------------------------|------------------------|
A-|----------------------------|------------------------|
E-|----------------------------|------------------------|
Вверх

Warm Tape

capo on 4

2 beats between each chord on the verses
(verse)
B     D#5         C#    E5   B      D#5       C#      E5
      shiver for me   girl        deliver for me my darling
B     D#5         C#    E5   B      D#5          C#          E5
      pushin up  to you             a river that runs right thru you

 all verses played to thoses chords^

(chorus)

 Em                        G5       Cadd9     Em        G5  Cadd9
 miles and miles of nether worlds i roam
Em                           G5      Cadd9    D      Dsus4 D Cmaj7#11  Csus2
settle for love you're never far from home

(bridge)

E B               E    B            C#m(add9)           C#m(add11)
i know i make it   for two  and if   in-tu-i-tion's on-ly what u make from it
E B               E    B            C#m(add9)
i know i make it  for two and then   you were there and i was fortunate
E B                E    B                 E   B                  E   B
i know i make it   for two i'll make it   for two i'll make it   for two. yeah!

(outro)
 B       D#5        C#      E5     B    D#5        C#     E5    B
         settle for love____________   settle for love__________
         D#5        C#              E5        B            Bmaj7
         settle for love____________                 (strum once 4 finish)
Вверх

Warped

Intro
I just strum Em (022000). This gets boring if you're playing alone but
the special effects on the CD give it more movement.


Verse Riff

e-|---------------------------------|-------------------------------|
B-|---------------------------------|-------------------------------|
G-|---------------------------------|-------------------------------|
D-|---------------------------------|-------------------------------|
A-|-----5h7-x-5h7-x-5h7-x-5h7-x-----|-----5h7-x-5h7-x-5h7-x-5h7-x---|
E-|-0---------------------------5---|-0---------------------------5-|

    So much love                      So rare to dare


Chorus

    G5 F#5 G5          G5 F#5 G5
e-|-----------------|------------------|
B-|-----------------|------------------|
G-|-----------------|------------------|
D-|-12--11--12------|--12--11--12------|
A-|-10---9--10------|--10---9--10------|
E-|-----------------|------------------|

    She said
    All the way


Verse 2
Chorus

2nd part of Chorus

     G5 F#5 E5        G5 F#5 D5        G5 F#5 A5         C5 B5 A5 G5 F#5 E5
e-|----------------|----------------|-----------------|--------------------|
B-|----------------|----------------|-----------------|--------------------|
G-|--12--11--9-----|--12--11--7-----|--12--11--14-----|--17-16-14-12-11--9-|
D-|--12--11--9-----|--12--11--7-----|--12--11--14-----|--17-16-14-12-11--9-|
A-|----------------|----------------|-----------------|--------------------|
E-|----------------|----------------|-----------------|--------------------|

   Everyday                          Warped and scared


Solo
Verse 3


Bridge

G-|----------------------------|-----------------------------|
D-|----------------------------|-----------------------------|
A-|--7-x-5-x-x-7-x-5-x-x-10-9--|--7-x-5-x-x-7-x-5-x-x-11-10--|
E-|----------------------------|-----------------------------|

Play Em (xxx121212) over this bass part.


Outro
The song is in E minor up until the outro when it changes to E major.
The chords are a bit tricky so here are the voicings for this part of
the song only.

C#sus  x  4  6  6  7  x
C#     x  4  6  6  6  x
G#m    4  6  6  4  4  4
E(1)   x  x 14 13 12  x
C#m    x  x 11  9  9  x
C#m6   x  x 11  9 11  x
E5     0  7  9  9  x  x
D#5    x  6  8  8  x  x
C#5    x  4  6  6  x  x
B5     x  2  4  4  x  x
E(2)  12 14 14 13  x  x

If you listen to the song, you'll hear when to hold the chord and when to
arpeggiate.

C#sus C# G#m
C#sus C# G#m

E(1)
E(1)
E(1)
E(1)

C#m  C#m6
C#m  C#m6

E5   D#5
C#5  B5

E(2)
Вверх

Warped (2 вариант)

Intro:
G-|-----------------------------------------|
D-|-----------------------------------------|
A-|-----------------------------------------|
E-|-12-12--12-12-12--12-12-12--12-12-12-----|


7th time:
G-|-----------------------------------|---------------------------|
D-|-----------------------------------|---------------------------|
A-|-----------------------------------|---------------------------|
E-|-12/10-10-10-10-109-9-9-9-98-8-8-|-10/12-12-12--12-12-12-12-12-|

Bass Figure 1:
G-|------------------------------|
D-|------------------------------|
A-|---5h7---5h7---5h7---5h7-0----|
E-|-0-----0-----0-----0-------5--|


Pre-verse variations:
G-|---------------------------|----------------------------|
D-|---------------4h5---------|---------------4h5-5h7-5h7--|
A-|---5h7---5h7-------5h7-0---|---5h7---5h7----------------|
E-|-0-----0-----0-----------5-|-0-----0-----0--------------|


Chorus:
G-|-12--11--12---|-12--11--12---|-12--11--12-------|
D-|-0---0---0----|-0---0---0----|-0---0---0--------|
A-|--------------|--------------|---------------14-|
E-|--------------|--------------|------------------|


Interlude:
G-|-7-------7-------7----|--7----11---5--------5-------|
D-|--0-0-0--0--0-0----0--|-0--0--0--0-0--0-0-0-0--0-0--|
A-|----------------------|-----------------------------|
E-|----------------------|-----------------------------|
Note: Let notes on 1st string ring over open 2nd string.


Guitarsolo:
G-|---------------------|----------------------|----------------------|
D-|---------------------|----------------------|----------------------|
A-|-----------------3-2-|--------------5-5-3-2-|----------------------|
E-|-5--5-3-3-5--3-3-----|-5--5-3-3-5-5---------|-5--5-3-3-5-3-5-3-5-3-|Repeat bar three times


G-|---------------------|-------------------------|----------------------|
D-|---------------------|-7--7-5-5----------------|----------------------|
A-|-----------------3-2-|----------7-7-6-6-5-5--3-|-5--5-3-3-------------|
E-|-5--5-3-3-5--3-3-----|-------------------------|----------5-5-3-3-5-3-|


G-|----------------------|----------------------|---------------------|
D-|-7--7-5-5-------------|-7-7-9--9-7-7-5-5-----|---------------------|
A-|----------7-7-6-6-5---|------------------7-5-|---------5-5-3-3-5-3-|
E-|--------------------5-|----------------------|-5--5-3-3------------|

G-|----------------------|--------------------|--------------------|-------|
D-|----------------------|--------------------|--------------------|-5-4---|
A-|----------7-7-6-6-5-5-|----------------3-2-|----------------3-2-|-----5-|
E-|-5--5-3-3-------------|-5-5-3--5-5-3-3-----|-5-5-3--5-5-3-3-----|-------|


Coda (after 2nd interlude)
G-|--------------------------------|--------------------------------|
D-|--------------------------------|--------------------------------|
A-|---------------------------10-9-|--------------------------11-10-|
E-|-12--12-10-10-12-12--10-10------|-12-12-10--10-12-12-10-10-------|
Play bar two times                  Play bar three times


G-|--------------------------------|
D-|--------------------------------|
A-|---------------------------10-9-|
E-|-12--12-10-10-12-12--10-10------|
Play bar three times


Outro (Bass solo):
G-|------------------|--------------------------|-------------------|
D-|------------------|-9-9-11-------------------|-------------------|
A-|-------11------11-|-------11---11-9-11-11-11-|-------11-------11-|
E-|-9--9--------9----|--------------------------|-9--9-9-------9----|


G-|------------------------|------------13-11-----|---------------------|
D-|-9-9-11-----------------|-14-14--14---------14-|-14-14-14--13-11-----|
A-|-------11--11--11-11-11-|----------------------|------------------14-|
E-|------------------------|----------------------|---------------------|


G-|---------------------|-----------13-11----|---------|------11----|
D-|-11-11-11--14-13--11-|-11-11--11-------14-|-14--13--|-11---------|
A-|---------------------|--------------------|---------|--------14--|
E-|---------------------|--------------------|---------|------------|

G-|-------|-----16----------|-------|
D-|-------|--14----14-------|-------|
A-|-------|-----------15p14-|-------|
E-|--0----|-----------------|--0----|
Вверх

What Is Soul

E|---------------------------------------------------------------------------||
B|---------------------------------------------------------------------------||
G|---------------------------------------------------------------------------||
D|---------------------------------3-----------------------------------------||
A|---3--3-5-------------------3-------5--3-----------------------------------||
E|-5--5------x-x--x-x-x-x---5---5-------------x-x-x-x-x----------------------||

E|---------------------------------------------------------------------------||
B|---------------------------------------------------------------------------||
G|---------------------------------------------------------------------------||
D|-----------------------------------------3---------------------------------||
A|------3-----3--5-------------------3--5-----5--3---------------------------||
E|---5-----5---------1---3-----3-4-5-----------------------------------------||


This is the main riff, and is the same on bass. In between the riffy bits, just

play little funk fills, favourites including the slide down of:


E|---------------------------------------------------------------------------||
B|---------------------------------------------------------------------------||
G|---------------------------------------------------------------------------||
D|--12-------------------------------------------------------------------------||
A|--13------------------------------------------------------------------------||
E|---------------------------------------------------------------------------||

or little in-key twiddles:

E|---------------------------------------------------------------------------||
B|---------------------------------------------------------------------------||
G|--7---5----------------------------------------------------------------------||
D|----------------------5--7--5-------------------------------------------------||
A|---------------------------------------------------------------------------||
E|---------------------------------------------------------------------------||

or simply rest your fingers over the fretboard without hitting notes and strum funkily,

but this is better with a wa-wa pedal, as is the rest of the song. Anyway, Frusciante

quickly sets off in the song to play a couple octaves higher:

E|----------------------10--------------------------------13--10-------------||
B|--10---13------10--13-----------x-x-x-x--x---10--13-10----------13---------||
G|---------------------------------------------------------------------------||
D|---------------------------------------------------------------------------||
A|---------------------------------------------------------------------------||
E|---------------------------------------------------------------------------||

E|---------------------10-----------------------13--10-----------------------||
B|--10--13---10----13---------------10--13--10----------13-------------------||
G|---------------------------------------------------------------------------||
D|---------------------------xxxxx-------------------------------------------||
A|---------------------------------------------------------------------------||
E|---------------------------------------------------------------------------||

E|--------------------10-----------------------------13--10------------------||
B|--10--13--10---13--------------------------11--13----------13--------------||
G|-----------------------10--12----12-13-14----------------------------------||
D|---------------------------------------------------------------------------||
A|---------------------------------------------------------------------------||
E|---------------------------------------------------------------------------||
Вверх

What It Is

G-|--------------------|-----|------------------|--9//11-|
D-|--------------------|-----|------------------|--9//11-|
A-|--------------------|-----|------------------|--------|
E-|-O---0--0-----0-0---|h1p0-|-0---0--0----0-0--|--------|
    x   x  x     x x    x x    x   x  x    x x

G-|--------------------|-------------|--------------------|---------------|
D-|--------------------|-5---5-------|--------------------|-5---5---------|
A-|--------------------|-------------|--------------------|---------------|
E-|-0---0--0----0-0h5h7|---*---5---7-|-0---0--0----0-0h5h7|---x---5-5-7-7-|
    x   x  x    x x      p x p x   x   x   x  x    x x      p x p x x x x
Verse:
G-|-----------------------|-9--------------------|
D-|-o--9------------------|--------------------o-|
A-|-o--------------5--5h7-|-------------5-5h7--o-|
E-|-----0--0h5h7----------|--0--0h5h7------------|

Chorus:
G-|-----------------|---------------------|
D-|-o---------------|-------------------o-|
A-|-o---------------|-------------------o-|
E-|--7-3--0-0-3-5-7-|--7-3--0-0-7-7-5-3---|


tr~~=trill
x=slap
p=pop
9//11=slide from 9 to 11
*=choked note
h=hammer on
|----------|
|-o------o-|   = repeat everything between these symbols
|-o------o-|
|----------|
Вверх

Why Dont You Love Me

Intro play 4 times each bar
G |----------------------|----------------------|
D |--7-let-ring----------|--5-let ring----------|
A |--0-0--0-0--0-0--0-0--|--0-0--0-0--0-0--0-0--|
E |----------------------|----------------------|

Main riff 4 times I am not sure if it's slide 1/3 but a slide anyway
G |------------------|----------|
D |--7--4-5-----4h5--|--7--5-4--|
A |---------1/3------|----------|
E |------------------|----------|

After this back to main riff (play 2 times)
G |-------------------|---------------|
D |-------------------|---------------|
A |--0h2-0-2-5-2-0-2--|--0h2-2-0------|
E |-------------------|----------3-3--|
This part after second verse
G |-------------|---------|
D |----------3--|---------|
A |--5-2-3-5----|--5-2-3--|
E |-------------|---------|

Interlude
G |------0---------|-----0----|
D |--0h2--2--------|--0h2-2---|
A |----------------|----------|
E |---------0-0-0--|-------0--|

Variation
G |------0---------|-----0-------|
D |--0h2--2--------|--0h2-2-0----|
A |----------------|-------------|
E |---------0-0-0--|----------0--|

Variation in the end
G |------0-----------|-----0----|
D |--0h2--2----------|--0h2-2---|
A |--------------3---|----------|
E |---------0-3-5-0--|-------0--|
Вверх

Woodstock Bass

G|---------------------------------------------------------------|
D|-------5-7-^7^--5-^7^--5-^7^-----------------------------------|
A|---5h7------------------------7-5----7--5----------------------|
E|-0---------------------------------7-------7--6-5-3----^6-3-0-0|

G|-------------------------12---12-14-^15^p14--------16--18--19~~~~--|
D|---------12----12-13-14----14-----------------16/17--17--17--17~~--|
A|12-13-14----14-----------------------------------------------------|
E|----------------------------------------------------------------0--|

G|-----------------------------------------------|
D|-----------------------------------------------|
A|--5-5-5--4-4-4--------------3-2----------------|
E|0---------------5-3-0-2-3-0-----0-3-2-0--------|

G|---------------------------------------------------------------|
D|--------------5-7-^8--7-10-9-7---------------------------------|
A|-------5-6-7------------------9-^10^-9-7-----------------------|
E|5-6-7------------------------------------10|8-8|7-7|3--3-+2-2-0|

G|-------------------------------------|
D|-------------------------------------|
A|-------------------------------------|
E|-0-0-0-0^12^-0^12^-0^12^-0^15^-0^15^-|

G|------12-11-------------------------------------------------------------------|
D|14--12------9----------------------------------------------------------0-2----|
A|--14-----------10/9-7-7/5-3-4-4-4-4-4-4В»----------------------------2--------2|
E|--------------0----------------------------5/3-3---5-6-^6^--3-^6^--3-------3--|

G|---------------7------------7--6-4--2----------|
D|---------5-7h9---9-8-5-7--5----------5-4--0--2-|
A|-----5h7---------------------------------------|
E|-3-0-------------------------------------------|

G|--------|--------|--------|-------|------|
D|2-2-2-2-|2-2-2-2-|2-2-2-2-|2-2-2-2|-2-2--|
A|--------|--------|--------|-------|------|
E|--------|--------|--------|-------|-----0|

G|-------------------------------------------------|  }
D|-12h14-14--12h14-14--12h14-14--12h14-------------|  |
A|--------------------------------------14-13-12-10|  |
E|-------------------------------------------------|  |
                                                      |3x
G|------------------------------------------------|   |
D|-12h14-14--12h14-14--12h14-14-------------------|   |
A|------------------------------14-13-12-10-------|   |
E|-------------------------------------------12-10|   }

G|-------------------------------------------------|
D|-12h14-14--12h14-14--12h14-14--12h14-------------|
A|--------------------------------------14-13-12-10|
E|-------------------------------------------------|

G|-------------------------------------------------------|
D|-12h14-14--12h14-14--12h14-14--------------------------|
A|------------------------------14-13-12-10--------------|
E|-------------------------------------------12-10--8-7-3|
Вверх

Yertle The Turtle

Intro play four times and after second time the lick below
G |-----------|--3--5--3--|----------|--3-------|
D |---5--5----|-----------|--5--5-5--|----------|
A |-----------|--1--3--1--|----------|--1-------|
E |---3--3----|-----------|--3--3-3--|----------|
Flea's lick
G |-------------------|
D |------------17p15--|
A |------15p17--------|
E |---15--------------|

Basic riff under verse - it is hard to hear under the guitar
it goes like this - I think...
G |---------3-5-3--|
D |-----3-5--------|
A |----------------|
E |---3------------|

Play two times and after first time the lick below
G |-----------|--3--5--3--|----------|--3-------|
D |---5--5----|-----------|--5--5-5--|----------|
A |-----------|--1--3--1--|----------|--1-------|
E |---3--3----|-----------|--3--3-3--|----------|
Flea's lick
G |-------------------|
D |------------17p15--|
A |------15p17--------|
E |---15--------------|

Interlude
G |-----------|-----------|-----------|------|
D |-----------|-----------|-----------|------|
A |--3-3-3-3--|--3-3-3-3--|--1-1-1-1--|--0---|
E |-----------|-----------|-----------|------|

G |-----------|-----------|---------|--------|
D |-----------|-----------|---------|--------|
A |------1-1--|--3-3-5-5--|---------|--4-3---|
E |--3-3------|-----------|---3-----|--------|

Interlude G-note (E |--3--|) is played sometimes between
G |--3--5--|--------|--------|--------|
D |--------|--------|--------|--------|
A |--------|--1--3--|--1--3--|--1--3--|
E |--------|--------|--------|--------|

G |--------|--------|--------|--------|--------|
D |--------|--------|--------|--------|---3----|
A |--1--3--|--1--3--|--1--3--|--1--3--|--------|
E |--------|--------|--------|--------|--------|
Вверх

Zephyr Song

|-----3-------1-|---------------|-----0---------|-------------0-|
|---1-------0---|-----0-------1-|---1---------3-|-----0-------1-|
|-0-------0-----|---0-------2---|-2---------4---|---0-------2---|
|---------------|-2-------3-----|---------5-----|-2-------3-----|
|---------------|---------------|---------------|---------------|
|---------------|---------------|---------------|---------------|
INTRO

|-----0-3--1--0-|-------1-0-----|---------------|---------------|
|---1-----------|-----3-----3---|-----0-3--1--0-|-----1-1/5-3-1-|
|-2-------------|---4-----------|---0-----------|---2-----------|
|---------------|-5-------------|-2-------------|-3-------------|
|---------------|---------------|---------------|---------------|
|---------------|---------------|---------------|---------------|


|-----0-3--5--0-|-------1-0-----|---------------|---------------|
|---1-----------|-----3-----3---|-----0-0--3--1-|-----1-------1-|
|-2-------------|---4-----------|---0-----------|---2-------2---|
|---------------|-5-------------|-2-------------|-3-------3-----|
|---------------|---------------|---------------|---------------|
|---------------|---------------|---------------|---------------|
VERSE

 D               D               G               A
|---------------|---------------|---------------|---0-----0-----|
|-----3----3----|------3--------|-----3-----3---|---------------|
|---2----2------|2---2------2---|---0-----0-----|-2-----2---2---|
|-0-----------0-|--0------0---0-|-0-------------|-------------2-|
|---------------|---------------|---------------|---------------|
|---------------|---------------|---------------|---------------|
CHORUS

|-12-10-12-12--12--10--12-------------10-8-10-10--10--10--12-------------12--
|-------------------------12b13r12-10------------------------12b13r12-10-----
|----------------------------------------------------------------------------
|----------------------------------------------------------------------------
|----------------------------------------------------------------------------
|----------------------------------------------------------------------------


-10-12-12---10--12--------------10-8-10-10--10-8-10-10---------------|
-------------------12b-13r12-10------------------------12b13r12-12-8-|
---------------------------------------------------------------------|
---------------------------------------------------------------------|
---------------------------------------------------------------------|
---------------------------------------------------------------------|
SOLO

-10-------10-------------10-------10-------------10-------10-------------12---
-------10-------10----10-------10-------10----12-------12-------12----14------
----11-------11----11-------11-------11----12-------12-------12----14---------
------------------------------------------------------------------------------
------------------------------------------------------------------------------
------------------------------------------------------------------------------


-------12-------|----|-------10-------10-------12-----10--------10-------10---
----14-------14-|----|----10-------10-------10---------------10-------12------
-14-------14----|----|-11-------11-------11--------11-----11-------12---------
----------------|-2x-|--------------------------------------------------------
----------------|----|--------------------------------------------------------
----------------|----|--------------------------------------------------------


-------10-------------12-------12-------------10-------10-------12-----10-----
----12-------12----14-------14-------14----10-------10-------10---------------
-12-------12----14-------14-------14----11-------11-------11--------11-----11-
------------------------------------------------------------------------------
------------------------------------------------------------------------------
------------------------------------------------------------------------------


----10-------10-------10---------------12-10--|
-10-------12-------12-------12-----14-----10--|
-------12-------12-------12----14---------11--|
----------------------------------------------|
----------------------------------------------|
----------------------------------------------|
Вверх
English songs 109

ABBA
AC-DC
Adams Bryan
Adriano Celentano
Aerosmith
A-Ha
Animals
Antonio Banderos
Apocalyptica
Armstrong Louis
Billy's Band
Bjork
Blink 182
Blondie
Blur
Bob Dylan
Boney M
Bon Jovi
Bowie David
Brainstorm
Braxton Toni
Butch
Celine Dion
Chris De Burgh
Chris Isaak
Chuck Berry
Clapton Eric
Cohen Leonard
Cranberries
Deep Purple
Depeche Mode
Dire Straits
Donovan Jason
Eagles
Electric Light Orchestra
Elton John
Elvis Presley
Era
Europe
Evanescence
Garbage
Gary Moore
Glen Wiston
Gorillaz
Green Day
Guano Apes
Guns N Roses
Hendrix Jimi
Iggy Pop
Iron Maiden
Joe Dassin
Kansas
King Crimson
Kiss
Led Zeppelin
Leonard Cohen
Limp Bizkit
Linkin Park
Louis Amstrong
Madonna
Marilyn Manson
Marley Bob
Metallica
Moby
Morricone Ennio
Muse
Nazareth
Nelly Furtado
Nick Cave
Nirvana
No Doubt
Oasis
Offspring
Ottawan
Outkast
Ozzy Osbourne
Pain
Para Bellum
Pink Floyd
Placebo
P.O.D.
Queen
RadioHead
Rainbow
Rammstein
Rea Chris
Red Hot Chili Peppers
Ritchie Blackmore
Rolling Stones
Roxette
Rufus Wainwright
Santana
Sarah Brightman
Scorpions
Sex Pistols
Simon & Garfunkel
Shocking Blue
Soul Asylumx
Status Quo
Sting
System of a down
Sum 41
The Beatles
The Doors
Tito & Tarantula
U2
UB 40
Uriah Heep
Van Halen

Українські пісні 109

Boom Box
Escape
Flit
Kapela Drewutnia
Lama
LЮK
Mad Heads (XL)
Motor' rolla
NEON
Ot Vinta
The Вйо
Абздольц
Аероплан
Акорд
Ані Лорак
Бандурна розмова
Білик Ірина
Борщ
Брати Гадюкіни
Вася Club
Вій
Воплі Відоплясова
Гайдамаки
Гончар Олесь
Гринжоли
Гроно
Гуляйгород
Дарка і Славко
Дивні
Друга Ріка
Другий подих
Дударик
Експампей
Євтушенко Андрій
Жарівка (Дяк Олесь)
Журбовіз
Зібров Павло
Зінкевич Василь
Злотник Олександр
Івасюк Володимир
Калєкція
Карна
Карпа Ірена
Клямка
Козловський Віталій
Кому вниз
Крихітка Цахес
Курінь
Лесик-Band
Лорд Юрія
Львівські музики
Мандри
Менестрелі
Мері
Мертвий Півень
Міпеніум
Монте Крісто
Морозов Віктор
Нахтіґаль
Не журись!
Неборак Віктор
НеДІля
НЕМО
Нічлава блюз
Океан Ельзи
ПереBANDя
Перкалаба
Петрович
Піккардійська Терція
Піпа Олександр
Плач Єремїі
Пономарьов Олександр
Пророк
Росава
Ротару Софія
Руслана
Рутенія
С.К.А.Й.
САД
Самі свої
Серцевий Напад
Скрябін
Смерічка
Сокира Перука
Соколи
Таліта Кум
Тартак
Тінь сонця
Ткач Михайло
ТНМК
Тостер
Тріо Мареничів
Фарбований лис
Фестиваль Снів
Хвилю тримай
Цісик Квітка
Черемош
Черемшина
Четвертий кут
Чорний вересень
Чорні черешні
Шевченко Тарас
Щастя
Юркеш
Юрченко Юрко
Юрчишин Ярослав
Явір
Яка існуЄ
Яремчук Назарій

   
 sait@i.ua



Рейтинг@Mail.ru