accordS-land.ru Аккорды и табулатуры к гитаре.
Главная | Песенник | Аккорды | Учебник
Руссике песни 180
5nizza
7Б
9-й Район
Animal ДжаZ
Billy's Band
Butch
Para Bellum
TequilaJazzz
Worms
Zdob Si Zdub
Автоматические удовлетворители
Агата Кристи
Агузарова Жанна
Агутин Леонид
Адо
Аквариум
Алиса
Алсу
Амирамов Е.
Антонов Ю.
Арефьева Ольга
Ария
АукцЫон
Барыкин
Башаков Михаил
Башлачев Александр
БекХан
Бернес М.
Би - 2
Бони неМ
Борзов Найк
Боярский Михаил
Браво
Братья Грим
Ва-Банкъ
Вертинский Александр
Визбор Юрий
Високосный год
Воскресенье
Восьмая Марта
Высоцкий В.С.
Високосный год
Газманов О.
Галич Александр
Герман А.
Городницкий Александр
Глызин А.
Градский Александр
Гражданская Оборона
Гребещенков
Данко
ДДТ
Дидюля
Диоды
Дискотека Авария
Дягилева Янка
Ёлка
Жуки
Заблудовский Андрей
Запрещенные Барабанщики
Звери
Земляне
Земфира
Зинчук Виктор
Зоопарк
Иван Кайф
Иванов А.
Иваси
ИЗ КИНО И МУЛЬТФИЛЬМОВ
Империя
Калинов мост
Кашин Павел
Кельми К.
КИНО
Кипелов
Конец Фильма
Контингент
Корни
Король и Шут
Коррозия металла
Крематорий
Крупнов Анатолий
Кузьмин Владимир
Куликов Е.
Кукрыниксы
Курехин Сергей
Лаэртский Александр
Ласковый май
Ленинград
Леонидов Максим
Лесоповал
Лещенко Л.
Линда
Лицей
Лоза Юрий
Любэ
Люмен
Ляпис Трубецкой
Мальчишник
Манго-манго
Мара
Маркин В.
Маршал Александр
Маша и медведи
Машина времени
Мечтать
Мистер Кредо
Митяев Олег
Многоточье
Монгол Шуудан
Моральный Кодекс
Мультfильмы
Мумий Тролль
Настя
Науменко Майк
Наутилус Помпилиус
Непара
Неприкасаемые
Несчастный случай
Никоваев И.
Никольский Константин
Ногу свело
Ноль
Носков Николай
Ночные Снайперы
Окуджава Булат
Оркрист
Осин Е.
Оскар
Отиева И.
Паперный Т.А.М.
Парк Горького (Gorky Park)
Пикник
Пилот
Пламя
Полковник и однополчане
Пугачева А.
ПЭХ
Приключения Электроников
Просто прикольные песни
Рада и Терновник
Римский-Корсаков
Розенбаум Александр
Рок-Острова
Рондо
Сансара
Саруханов
Сегодня Ночью
Секрет
Сектор газа
Сенчина Л.
СерьГа
Смысловые Галлюцинации
Сплин
Солодуха А.
Старые блатные песни
Сукачев Гарик
Сурганова и Оркестр
Сюткин Валерий
Тальков Игорь
Танцы минус
Тараканы
Тату
Технология
УмаТурман
Умка и Броневичок
Ундервудъ
Фабрика звезд
Х.З. (Хуй Забей)
Центр
ЧайФ
Черный кофе
Черный Лукич
Чиж и Ко
Чистяков Федор
Шанхай
Щербаков Михаил
Ю-Питер

Классика 22

Албениз Исаак
Албениз Матео
Бах Иоган Себостьян
Бетховен Людвиг ван
Бизе Жорж
Брамс Иоганнес
Вивальди Антонио
Гендель Георг Фридрих
Гершвин Джордж
Григ Эдвард
Дебюсси Клод
Камиль Сен-Санс
Мендельсон
Моцарт Вольфгант Амадей
Мусоргский Модест Пертрович
Норис Крис
Огинский Михал Клеофас
Паганини Никколо
Рахманинов Сергей Васильевич
Римский-Корсаков
Чайковский Пётр Ильич
Шуберт Франц
 

 

Blink 182

Adams Song
Aliens Exist
All The Small Things
Anthem Part 2
Apple Shampoo
Blow Job
Boring
Carousel
Dammit
Dick Lips
Dude Ranch
Dumpweed
Dysentary Gary
Family Reunion
First Date
Fuck A Dog
Going Away To College
Josie
M&Ms
Mothers Day
Mutt
Online Songs
Pathetic
Reckless abandon
Sex With His Sister
Shut Up
Sometimes
Stay Together For The Kids
The Country Song
The Rock Show
TV
TV (2 вариант)
Untitled
Waggy
Whats My Age Again
When You Fucked Grandpa
Вверх

Adams Song

Intro 1
Играем плавно и красиво (эта часть играется 2 раза)
E|--------------|---------------|---------------|--------------|
B|--------------|---------------|---------------|--------------|
G|--------------|---------------|---------------|--------------|
D|---4-0----4-0-|---4-0-----4-0-|---4-0-----4-0-|---4-0----4-0-|
A|-2------2-----|-0------0------|---------------|--------------|
E|--------------|---------------|-3-------3-----|-0------3-----|

Main Riffa играется 4 раза

I never thought I?d die alone
I laughed the loudest who?d have known?
I trace the cord back to the wall
No wonder it was never plugged in at all

I took my time, I hurried up
The choice was mine I didn?t think enough
I?m too depressed to go on
You?ll be sorry when I?m gone

E|---------------|-------------|---------------|---------------|
B|---------------|-------------|---------------|---------------|
G|---------------|-------------|---------------|---------------|
D|---------------|-------------|---------------|---------------|
A|3-3-3-3-3-3-3-3|-------------|0-0-0-0-0-0-0-0|---------------|
E|---------------|1-1-1-1-1-1-1|---------------|1-1-1-1-1-1-1-1|

После этого опять небольшая  вставка Intro 2 (тоже 2 раза)
E|---------------|--------------|------------------|
B|---------------|--------------|------------------|
G|-----0-------0-|-----0------0-|------------------|
D|---7-------7---|---9------9---|----4--0-----4--0-|
A|-5-------5-----|-7------7-----|-2--------2-------|
E|---------------|--------------|------------------|

Идет продолжение....
E|------------------|
B|------------------|
G|------------------|
D|----4--0-----4--0-|
A|------------------|
E|-3-------3--------|

Затем играется  (2 раза тоже) Riffb

I never conquered, rarely came
16 just held such better days
Days when I still felt alive
We couldn?t wait to get out...

E|---------------|---------------|---------------|-------------|
B|---------------|---------------|---------------|-------------|
G|5-5-5-5-5-5-5-5|7-7-7-7-7-7-7-7|2-2-2-2-2-2-2-2|3-3-3-3-3-3-3|
D|5-5-5-5-5-5-5-5|7-7-7-7-7-7-7-7|2-2-2-2-2-2-2-2|3-3-3-3-3-3-3|
A|3-3-3-3-3-3-3-3|5-5-5-5-5-5-5-5|0-0-0-0-0-0-0-0|1-1-1-1-1-1-1|
E|---------------|---------------|---------------|-------------|

Intro3 (2 раза)   ...-side
The world was wide, too late to try
The tour was over I?d survived
I couldn?t wait till I got home
To pass the time in my room alone

E|-------------|---------------|---------------|---------------|
B|-------------|---------------|---------------|---------------|
G|5-5-5-5-5-5-5|7-7-7-7-7-7-7-7|2-2-2-2-2-2-2-2|3-3-3-3-3-3-3-3|
D|5-5-5-5-5-5-5|7-7-7-7-7-7-7-7|2-2-2-2-2-2-2-2|3-3-3-3-3-3-3-3|
A|3-3-3-3-3-3-3|5-5-5-5-5-5-5-5|0-0-0-0-0-0-0-0|1-1-1-1-1-1-1-1|
E|-------------|---------------|---------------|---------------|

Опять идет Intro1 (2 раза)

E|--------------|---------------|---------------|--------------|
B|--------------|---------------|---------------|--------------|
G|--------------|---------------|---------------|--------------|
D|---4-0----4-0-|---4-0-----4-0-|---4-0-----4-0-|---4-0----4-0-|
A|-2------2-----|-0------0------|---------------|--------------|
E|--------------|---------------|-3-------3-----|-0------3-----|

Потом тот же самый Riffa

I never thought I?d die alone
Another six months I?ll be unknown
Give all my things to all my friends
You?ll never set foot in my room again

You?ll close it off, board it up
Remember the time that I spilled the cup
Of apple juice in the hall
Please tell mom this is not her fault

E|--------------|--------------|---------------|---------------|
B|--------------|--------------|---------------|---------------|
G|-----0------0-|-----0------0-|---------------|---------------|
D|---7------7---|---9------9---|----4-0----4-0-|----4------4---|
A|-5------5-----|-7------7-----|-2------2------|------5------5-|
E|--------------|--------------|---------------|-3-------3-----|

Затем Riffc

Riffb

 I never conquered, rarely came
 16 just held such better days
 Days when I still felt alive
 We couldn?t wait to get out...-

E|---------------|---------------|-------------|---------------|
B|---------------|---------------|-------------|---------------|
G|5-5-5-5-5-5-5-5|7-7-7-7-7-7-7-7|2-2-2-2-2-2-2|3-3-3-3-3-3-3-3|
D|5-5-5-5-5-5-5-5|7-7-7-7-7-7-7-7|2-2-2-2-2-2-2|3-3-3-3-3-3-3-3|
A|3-3-3-3-3-3-3-3|5-5-5-5-5-5-5-5|0-0-0-0-0-0-0|1-1-1-1-1-1-1-1|
E|---------------|---------------|-------------|---------------|

Intro3
 ...-side
 The world was wide, too late to try
 The tour was over I?d survived
 I couldn?t wait till I got home
 To pass the time in my room alone

E|---------------|---------------|---------------|-------------|
B|---------------|---------------|---------------|-------------|
G|5-5-5-5-5-5-5-5|7-7-7-7-7-7-7-7|2-2-2-2-2-2-2-2|3-3-3-3-3-3-3|
D|5-5-5-5-5-5-5-5|7-7-7-7-7-7-7-7|2-2-2-2-2-2-2-2|3-3-3-3-3-3-3|
A|3-3-3-3-3-3-3-3|5-5-5-5-5-5-5-5|0-0-0-0-0-0-0-0|1-1-1-1-1-1-1|
E|---------------|---------------|---------------|-------------|

Riffd (играют 2 гитары, эта первая, но вот как играет
вторая - не знаю,и пианино тут тоже подыгрывает)

E|------------|-----------|-----------|-----------------|
B|------------|-----------|-----------|-----------------|
G|------------|-----------|-----------|-----------------|
D|---5---5--5-|---5-5---5-|---5-5---5-|---5-5------5----|
A|-3---3------|-3-----3---|-3-----3---|-3-----3--3----3-|
E|------------|-----------|-----------|-----------------|

E|-----------|-----------|-------------|--------|-------|
B|-----------|-----------|-------------|--------|-------|
G|-----------|-----------|-------------|--------|-------|
D|---5---5-5-|---5-5---5-|---5-5----5--|---5-5--|----0--|
A|-3---3-----|-3------3--|-0------0---0|-3------|-3-----|
E|-----------|-----------|-------------|--------|-------|

E|---------------3-2------------------------------------|
B|--------3----3------------3--------------3--5--7--13--|
G|------5----5-------5----5--------5-----5--------------|
D|----5-----------------5------3-------5----------------|
A|-3---------------------------------3------------------|
E|------------------------------------------------------|

E|------------------|
B|------------------|
G|-------5--------5-|
D|----5--------5----|
A|-3--------3-------|
E|------------------|

Пианино заканчивает играть, а затем опять Intro3

I never conquered, rarely came
But tomorrow holds such better days
Days when I can still feel alive
When I can?t wait to get outside
The world is wide, the time goes by
The tour is over, I?ve survived
I can?t wait till I get home
To pass the time in my room alone

E|---------------|---------------|---------------|-------------|
B|---------------|---------------|---------------|-------------|
G|5-5-5-5-5-5-5-5|7-7-7-7-7-7-7-7|2-2-2-2-2-2-2-2|3-3-3-3-3-3-3|
D|5-5-5-5-5-5-5-5|7-7-7-7-7-7-7-7|2-2-2-2-2-2-2-2|3-3-3-3-3-3-3|
A|3-3-3-3-3-3-3-3|5-5-5-5-5-5-5-5|0-0-0-0-0-0-0-0|1-1-1-1-1-1-1|
E|---------------|---------------|---------------|-------------|
Вверх

Aliens Exist

Riff A
intro
g|-444444444444--4-|
d|-444444444444--x-|
a|-222222222222--2-|
e|-----------------|

Riff B
Verse (2x)
g|-44444444----------------------------|
d|-44444444-44444444-66666666-22222222-|
a|-22222222-44444444-66666666-22222222-|
e|----------22222222-44444444-00000000-|

     (2x)
g|-44444444-66666666-------------------|
d|-44444444-66666666-66666666-22222222-|
a|-22222222-44444444-66666666-22222222-|
e|-------------------44444444-00000000-|

Riff C
     (2x)
g|-44444444----------------------------|
d|-44444444-22222222-66666666-22222222-|
a|-22222222-22222222-66666666-22222222-|
e|----------00000000-44444444-00000000-|

Riff D
Chorus
g|-4---4-4-4-4-------------4---4-4-4-4-------------|
d|-4---4-4-4-4-4---4-4-4-4-4---4-4-4-4-4---4-4-4-4-|
a|-2---2-2-2-2-4---4-4-4-4-2---2-2-2-2-4---4-4-4-4-|
e|-------------2---2-2-2-2-------------2---2-2-2-2-|

g|----------------------9----9----9----9---|
d|--6----6----6----6----9----9----9----9---|
a|--6----6----6----6---7-7--7-7--7-7--7-7--|
e|-4-4--4-4--4-4--4-4----------------------|

   I?m not like you guys...
g|-----------4--------------4-|
d|-4-4---2-2-4----4-4---2-2-4-|
a|-4-4---2-2-2----4-4---2-2-2-|
e|-2-2---0-0------2-2---0-0---|

Riff E
Bridge (gtr 1)
g|-4-4-4-4-4-4-4-4-4-4-4-4-4-4-4-4-4-4-4-4-4-4-4-4-4-4-|
d|-x-x-x-x-x-x-x-x-x-x-x-x-x-x-x-x-x-x-x-x-x-x-x-x-x-x-|
a|-2-2-2-2-2-2-2-2-2-2-2-2-2-2-2-2-2-2-2-2-2-2-2-2-2-2-|
e|-----------------------------------------------------|
(gtr 2)
g|-88888888-866666666/99999999-988888888--|
d|-xxxxxxxx----xxxxxx---xxxxxx-----xxxxxx-|
a|-66666666-644444444/77777777-766666666--|
e|----------------------------------------|

Riff F
     Dark and scary, ordinary
g|----------------------------44444444-|
d|-66666666-44444444-22222222-44444444-|
a|-66666666-44444444-22222222-22222222-|
e|-44444444-22222222-00000000----------|

   I?m not like you guys...
g|-----------4--------------4-|
d|-4-4---2-2-4----4-4---2-2-4-|
a|-4-4---2-2-2----4-4---2-2-2-|
e|-2-2---0-0------2-2---0-0---|
Вверх

All The Small Things

Intro (x2):

e|-------------------------------------------------------|
B|-------------------------------------------------------|
G|-----------------5--------10---------------------------|
D|-(5)-----(3)-----5 (x8)---10 (x8)---5--------3XXXXXX33-|
A|-(5)-----(3)-----3---------8--------5 (x8)---3XXXXXX33-|
E|-(3)-----(1)------------------------3--------1XXXXXX11-|

Verse (x4): (P. M.)

e|-----------------------------------|
B|-----------------------------------|
G|-5---------------------------------|
D|-5 (x8)---5--------3--------5------|
A|-3--------5 (x8)---3 (x8)---5 (x8)-|
E|----------3--------1--------3------|

"Say it ain't so..."  (let chord ring)

e|---|
B|---|
G|-5-|
D|-5-|
A|-3-|
E|---|

Chorus (x2):

e|---------------------------|
B|---------------------------|
G|-5-------------------------|
D|-5 (x12)---5--------3------|
A|-3---------5 (x8)---3 (x8)-|
E|-----------3--------1------|

Repeat Intro all same as 1st time except change as follows:

e|-------------------|
B|-------------------|
G|-10--------10------|
D|-10 (x4)---10 (x4)-|
A|-8----------7------|
E|-------------------|

Repeat verse (x4)

Break @ 1:45 (palm mute):

e|-------|
B|-------|
G|-5-----|
D|-----5-|
A|-------|
E|-------|

Outro(x4):

e|---------------------------------|
B|---------------------------------|
G|-5-------------------------------|
D|-5-(x12)------5-----------3------|
A|-3------------5 (x8)------3 (x8)-|
E|--------------3-----------1------|

All the, small things
True care, truth brings
I'll take, one lift
Your ride, best trip
Always, I know
You'll be at my show
Watching, waiting, commiserating
Say it ain't so, I will not go, turn the lights off,
carry me home

Na, na...

Late night, come home
Work sucks, I know
She left me roses by the stairs, surprises let me know she cares
Say it ain't so, I will not go, turn the lights off,
carry me home

Na, na...

Say it ain't so, I will
not go, turn the lights off, carry me home
Keep your head still, I'll be your thrill,
the night will go on, my little windmill
Say it ain't so, I will not go, turn the lights off,
carry me home
Keep your head still, I'll be your thrill,
the night will go on, my little windmill
Вверх

Anthem Part 2

Intro 1:
e|-3---3---1---1---0---0---1---1---|
B|---1---1---1---1---1---1---1---1-|
G|---------------------------------|
D|---------------------------------|
A|---------------------------------|
E|---------------------------------|

Intro 2
e|-----------------------------------------------|
B|-----------------------------------------------|
G|-----------------------------------------------|
D|----2h3----2----2h3---2-----2h3----2----0----0-|
A|-33-----33---33-----33---33-----33---33---33---|
E|-----------------------------------------------|

Interlude:
e|------------------|    |---------------------|
B|------------------|    |---------------------|
G|-9--10--9---5--7--|    |-9--10--9--7---55555-|
D|-x---x--x---x--x--| x3 |-x---x--x--x---xxxxx-|
A|-7---8--7---3--5--|    |-7---8--7--5---33333-|
E|------------------|    |---------------------|

Verse:
e|---------|
B|---------|
G|--999-5--|
D|--999-5--|
A|--777-3--|
E|---------|

 muted:

e|----------------|----------------|----------------|------|
B|----------------|----------------|----------------|------|
G|5---5-5-5-5-5-5-|5-5-5-5-5-5-5-5-|----------------|------|
D|5---5-5-5-5-5-5-|5-5-5-5-5-5-5-5-|7-7-7-7-7-7-7-7-|3-3-3-|
A|3---3-3-3-3-3-3-|3-3-3-3-3-3-3-3-|7-7-7-7-7-7-7-7-|3-3-3-|
E|----------------|----------------|5-5-5-5-5-5-5-5-|1-1-1-|

Little bridge part
e|---------------------|
B|---------------------|
G|---------------------|
D|----2------0---------|
A|--0---0-----------3--|
E|---------3---3--1----|

Chorus
e|----------------|----------------|----------------|-------|
B|----------------|----------------|----------------|-------|
G|----------------|----------------|5-5-5-5-5-5-5-5-|-------|
D|2-2-2-2-2-2-2-2-|3-3-3-3-3-3-3-3-|5-5-5-5-5-5-5-5-|5-5-5--|
A|2-2-2-2-2-2-2-2-|3-3-3-3-3-3-3-3-|3-3-3-3-3-3-3-3-|5-5-5--|
E|0-0-0-0-0-0-0-0-|1-1-1-1-1-1-1-1-|----------------|3-3-3--|

Palm Muted:
e|----------------|----------------|----------------|-------|
B|----------------|----------------|----------------|-------|
G|2-2-2-2-2-2-2-2-|----------------|5-5-5-5-5-5-5-5-|-------|
D|2-2-2-2-2-2-2-2-|3-3-3-3-3-3-3-3-|5-5-5-5-5-5-5-5-|5-5-5--|
A|0-0-0-0-0-0-0-0-|3-3-3-3-3-3-3-3-|3-3-3-3-3-3-3-3-|5-5-5--|
E|----------------|1-1-1-1-1-1-1-1-|----------------|3-3-3--|

Interlude again: (Octaves)
e|-------------------|    |---------------------|
B|-------------------|    |---------------------|
G|--9--10--9---5--7--|    |-9--10--9--7---55555-|
D|--x---x--x---x--x--| x3 |-x---x--x--x---xxxxx-|
A|--7---8--7---3--5--|    |-7---8--7--5---33333-|
E|-------------------|    |---------------------|

Verse:
e|---------|
B|---------|
G|--999-5--|
D|--999-5--|
A|--777-3--|
E|---------|

This is all palm muted:

e|----------------|----------------|----------------|--------|
B|----------------|----------------|----------------|--------|
G|5---5-5-5-5-5-5-|5-5-5-5-5-5-5-5-|----------------|--------|
D|5---5-5-5-5-5-5-|5-5-5-5-5-5-5-5-|7-7-7-7-7-7-7-7-|3-3-3-3-|
A|3---3-3-3-3-3-3-|3-3-3-3-3-3-3-3-|7-7-7-7-7-7-7-7-|3-3-3-3-|
E|----------------|----------------|5-5-5-5-5-5-5-5-|1-1-1-1-|

Little bridge part
e|---------------------|
B|---------------------|
G|---------------------|
D|----2------0---------|
A|--0---0-----------3--|
E|---------3---3--1----|

Chorus
e|-----------------|----------------|----------------|--------|
B|-----------------|----------------|----------------|--------|
G|-----------------|----------------|5-5-5-5-5-5-5-5-|--------|
D|-2-2-2-2-2-2-2-2-|3-3-3-3-3-3-3-3-|5-5-5-5-5-5-5-5-|5-5-5-5-|
A|-2-2-2-2-2-2-2-2-|3-3-3-3-3-3-3-3-|3-3-3-3-3-3-3-3-|5-5-5-5-|
E|-0-0-0-0-0-0-0-0-|1-1-1-1-1-1-1-1-|----------------|3-3-3-3-|

Palm Muted:
e|-----------------|----------------|----------------|--------|
B|-----------------|----------------|----------------|--------|
G|-2-2-2-2-2-2-2-2-|----------------|5-5-5-5-5-5-5-5-|--------|
D|-2-2-2-2-2-2-2-2-|3-3-3-3-3-3-3-3-|5-5-5-5-5-5-5-5-|5-5-5-5-|
A|-0-0-0-0-0-0-0-0-|3-3-3-3-3-3-3-3-|3-3-3-3-3-3-3-3-|5-5-5-5-|
E|-----------------|1-1-1-1-1-1-1-1-|----------------|3-3-3-3-|

Bass Line:

G|---------------------------------------|
D|---------------------------------------|
A|-33333333-0000------33333333-0000------|
E|---------------1111---------------1111-|

Chorus again:
e|-----------------|----------------|----------------|--------|
B|-----------------|----------------|----------------|--------|
G|-----------------|----------------|5-5-5-5-5-5-5-5-|--------|
D|-2-2-2-2-2-2-2-2-|3-3-3-3-3-3-3-3-|5-5-5-5-5-5-5-5-|5-5-5-5-|
A|-2-2-2-2-2-2-2-2-|3-3-3-3-3-3-3-3-|3-3-3-3-3-3-3-3-|5-5-5---|
E|-0-0-0-0-0-0-0-0-|1-1-1-1-1-1-1-1-|----------------|3-3-3---|

Palm Muted:
e|-----------------|----------------|----------------|--------|
B|-----------------|----------------|----------------|--------|
G|-2-2-2-2-2-2-2-2-|----------------|5-5-5-5-5-5-5-5-|--------|
D|-2-2-2-2-2-2-2-2-|3-3-3-3-3-3-3-3-|5-5-5-5-5-5-5-5-|5-5-5-5-|
A|-0-0-0-0-0-0-0-0-|3-3-3-3-3-3-3-3-|3-3-3-3-3-3-3-3-|5-5-5-5-|
E|-----------------|1-1-1-1-1-1-1-1-|----------------|3-3-3-3-|

Intro 2 again:
e|-----------------------------------------------|
B|-----------------------------------------------|
G|-----------------------------------------------|
D|----2h3----2----2h3---2-----2h3----2----0----0-|
A|-33-----33---33-----33---33-----33---33---33---|
E|-----------------------------------------------|

Intro 1 is played with intro 2
e|-3---3---1---1---0---0---1---1---|
B|---1---1---1---1---1---1---1---1-|
G|---------------------------------|
D|---------------------------------|
A|---------------------------------|
E|---------------------------------|
Вверх

Apple Shampoo

E|-----------------------|
B|-----------------------|
G|-5-----------7--10-----|
D|-5---7---3---7--10---5-|
A|-3---7---3---5---8---5-|
E|-----5---1-----------3-|

INTRO:

C5 (let it fade)
She didn?t mean to deceive you, believe me
But sometimes the hardest part is conceiving

A5
The good intentions that you had
F5
Now only came to this
A5
And although she saw the mark
D5    F5ii
The arrow missed.

C5 (let it fade)
It isn?t exciting reciting the stories

Of kind words turned hurting when routine get boring

A5
Both getting tired of punk rock clubs
F5
And both playing in punk rock bands
A5
The start was something good
D5  F5ii
But some good things must end

RIFF 1:

C5-F5-G5-F5 (x2)

RIFF 2: (x2)

E|------------------------------------------------------|
B|------------------------------------------------------|
G|------------------------------------------------------|
D|---2------2------3------3------5------5------3------3-|
A|-3----3-3---------------------------------------------|
E|-------------1-1----1-1----3-3----3-3----1-1----1-1---|

And she said, "It could never survive
With such differing lives
One home, one out on tour again

We may never come back
The strike of a match
The candle?s buring at both ends."

RIFF 1:(x2)

RIFF 2:(x2)

And now she knows too much
And I?m too fucked up
It?s awkward trying to make my move

I?ll pretend that I?m fine
Show up right on time
But I know I?ll never be that cool

RIFF 3:

A5
I never wanted to hold you back
F5                         A5
I?m just trying to hold on
D5     F5ii
But my chance is gone

RIFF 4:

C5  G5                  F5
I   know / just where / I stand / a boy

Trapped in the body of a man and
C5                               D5
I?ll take what you?re willing to give
                         F5
And I?ll teach myself to live
                         G5
With a walk-on part of a background shot
       A5    B5
From a movie I?m not in


RIFF 1:(x4)
(3rd & 4th time with heavy palm mute and words)

She?s so important
And I?m so retarded

RIFF 3:

A5
And now I realize
F5                              A5
I should have kissed you in L.A.

But I drove home all alone
D5            F5ii
As if I had a choice, anyway

RIFF 5:

G5                   D5
Where are you coming from?
                     F5
What are you running from?
                     G5
Is it so hard to see?
                      D5
And if you?re feeling scared
                     F5
Remember the time we shared
                  G5
You know it meant everything (everything)
                       A5         B5 C5
You know that it meant everything to me
(C5)
You know that it meant everything to me

RIFF 1:(x2)
Вверх

Blow Job

It'll be nice to have a blow job,
Am             C
It'll be nice to have a blow job,
Am              C
It'll be nice to have a blow job,
Am              C
It'll be nice to have a blow job,
Am               C
It'll be nice to have a blow job,
Am               Dm
It'll be nice to have a blow job,
Am               Dm
It'll be nice to have a blow job,
Am               Dm
It'll be nice to have a blow job,

I've thought i wrong.
Вверх

Boring

                  play 8 times                    play twice
E||--------------------|--------------------||-----------------|
B||--------------------|--------------------||-----------------|
G||*-------------------|-------------------*||*------6------7--|
D||*-------------------|-------------------*||*--7---6---5--7--|
A||--0-4--0--5----4----|-----4-------5--4---||---7---4---5--5--|
E||--------------------|--3-------3---------||---5-------3-----|

 After 1st time pause for a sec              play 4 times
-----------------------||------------------------|------------||
-----------------------||------------------------|------------||
------6------7--------*||*-----------------------|-----------*||
--7---6---5--7--------*||*-----------------------|-----------*||
--7---4---5--5---------||---0----4---------5--5/-|--7--7--7---||
--5-------3------------||-------------3----------|------------||

                  play 4 times                     play twice
----------------------|----------------------||----------------|
----------------------|----------------------||----------------|
*---------------------|---------------------*||*------6------7-|
*---------------------|---------------------*||*--7---6---5--7-|
---0--4--0--5----4----|-----4-------5--4-----||---7---4---5--5-|
----------------------|--3-------3-----------||---5-------3----|

 after 1st time pause for a sec             play four times
----------------------||-----------------------|--------------||
----------------------||-----------------------|--------------||
------6------7-------*||*----------------------|-------------*||
--7---6---5--7-------*||*----------------------|-------------*||
--7---4---5--5--------||---0----4--------5--5/-|--7--7--7-----||
--5-------3-----------||-------------3---------|--------------||

              play 4 times
----------------------|-----------------------||---------------|
----------------------|-----------------------||---------------|
*---------------------|----------------------*||------6------7-|
*--7----6-------------|-------6--------------*||--7---6---5--7-|
-------------7--------|--5---------7----------||--7---4---5--5-|
----------------------|---------------5-------||--5-------3----|

--------||
--------||
--------||  weird kissing and horse sounds
--7--7--||
--7--7--||
--5--5--||  slide= /     repeat=  *
                                  *
Вверх

Carousel

Intro: Guitar 1
e|-------------------------------------------------------------|
B|-------------------------------------------------------------|
G|-------------------------------------------------------------|
D|-------------------------------------------------------------|
A|12-12-12-10-10-10-9-12-12-12-10-10-10-9-4-4-4-5-5-5-7-4-4-4-5|
E|-------------------------------------------------------------|

E|-------|
B|-------|
G|-------|
D|-------|
A|-5-5-7-|
E|-------|

       Guitar 2
e|-------------------------------------------------------------|
B|-------------------------------------------------------------|
G|7-7-7-7-7-7-7-7-7-7-7-7-7-7-7-7-7-7-7-7----------------------|
D|7-7-7-7-7-7-7-7-7-7-7-7-7-7-7-7-7-7-7-7-4h5-5-5-5-4-4-4-2-2-2|
A|5-5-5-5-5-5-5-5-5-5-5-5-5-5-5-5-5-5-5-5----------------------|
E|-------------------------------------------------------------|
       Guitar 1
e|---------------------------------------------------------|
B|---------------------------------------------------------|
G|---------------------------------------------------------|
D|---------------------------------------------------------|
A|-10-10-10-9-9-9--7--10-10-10-9-9-9--7--5-5-5-5-5-5-5-5-5-|
E|---------------------------------------------------------|

E|-------------------------|
B|-------------------------|
G|-------------------------|(2x)
D|-------------------------|
A|-5-5-5--5-5-5--5-5-5-----|
E|-------------------------|
       Guitar 2
e|-----------------------------------------------------------|
B|-----------------------------------------------------------|
G|-4-4-4-4-4-4-4-4-4-4-4-4-4-4-4-4-4-------------------------|
D|-4-4-4-4-4-4-4-4-4-4-4-4-4-4-4-4-4-4h5-5-5-5-4-4-4---------|
A|-2-2-2-2-2-2-2-2-2-2-2-2-2-2-2-2-2-----------------7-7-7-5-|
E|-----------------------------------------------------------|

E|-------|
B|-------|
G|-------|(2x)
D|-------|
A|-5-5-5-|
E|-------|

Intro Cont?d:
e|------------------------------------------------------------|
B|------------------------------------------------------------|
G|------------------------------------------------------------|
D|---4-4-5-7-5-4----------------------------------------------|
A|-5-------------5---4-4-5-7-5-4-----7-7-9-10-9-7-9-----5-----|
E|-----------------5-------------5-7----------------3-3---3-3-|

E|-------|
B|-------|
G|-------|(2x)
D|-------|
A|-5-----|
E|---3-3-|

e|----------------------------------------------------|
B|----------------------------------------------------|
G|----------------------------------------------------|(2x)
D|-7-7-7-7-7-7----------------------------------------|
A|-5-5-5-5-5-5--7-7-7-7-7-7--9-9-9-9-9-9--5-5-5-5-5-5-|
E|--------------5-5-5-5-5-5--7-7-7-7-7-7--3-3-3-3-3-3-|

e|----------------------------------------------------|
B|----------------------------------------------------|
G|-7-7-7-7-7-7----------------------------------------|(2x)
D|-7-7-7-7-7-7--7-7-7-7-7-7--9-9-9-9-9-9--5-5-5-5-5-5-|
A|-5-5-5-5-5-5--7-7-7-7-7-7--9-9-9-9-9-9--5-5-5-5-5-5-|
E|--------------5-5-5-5-5-5--7-7-7-7-7-7--3-3-3-3-3-3-|

e|----------------------------------------------------|
B|----------------------------------------------------|
G|----------------------------------------------------|(2x)
D|-4-4-4-4-4-4-4-2-2-2-2-2-2-2h4-4-4-4-4-4-4-0-2-0----|
A|-------------------------------------------------4--|
E|----------------------------------------------------|

e|-------------------------------------------------------|
B|-------------------------------------------------------|
G|-------------------------------------------------------|
D|-4-4-4-4-4-4-4h5-2-2-2-2-2-2-2h4-4-4-4-4-4-4h5-7-5-4-2-|
A|-------------------------------------------------------|
E|-------------------------------------------------------|

e|----------------------------------------------------------|
B|----------------------------------------------------------|
G|----------------------------------------------------------|
D|-4-4-4-4-4-4-4h5-2-2-2-2-2-2-2h4-4-4-4-4-4h5p4-0--4h5p4-0-|
A|----------------------------------------------------------|
E|----------------------------------------------------------|

E|---------------|
B|---------------|
G|---------------|
D|-4h5p4h5p4h5-0-|
A|---------------|
E|---------------|

Verse:
e|-------------------------------------------------|
B|-------------------------------------------------|
G|-7-7-7-7-7-7-------------------------------------|(2x)
D|-7-7-7-7-7-7-7-7-7-7-7-7-9-9-9-9-9-9-5-5-5-5-5-5-|
A|-5-5-5-5-5-5-7-7-7-7-7-7-9-9-9-9-9-9-5-5-5-5-5-5-|
E|-------------5-5-5-5-5-5-7-7-7-7-7-7-3-3-3-3-3-3-|

e|------------------------------------------------------|
B|------------------------------------------------------|
G|11-------11-------11----9-----9-----9---11-----11-----|
D|---12-12----12-12----12---7-7---7-7---7----9-9----9-9-|
A|------------------------------------------------------|
E|------------------------------------------------------|

E|------------------------------|
B|------------------------------|
G|-11---------------------------|
D|----9-12-------12-------12----|
A|---------10-10----10-10----10-|
E|------------------------------|

Chorus:
e|------------------------------------------|
B|------------------------------------------|
G|--7-7-7-7-7-9-9-9-9-9---------------------|
D|--7-7-7-7-7-9-9-9-9-9-7-7-7-7-7-5-5-5-5-5-|
A|--5-5-5-5-5-7-7-7-7-7-7-7-7-7-7-5-5-5-5-5-|
E|----------------------5-5-5-5-5-3-3-3-3-3-|

Riff:
e|-------------------------------------------------------|
B|-------------------------------------------------------|
G|-------------------------------------------------------|
D|-4-4-4-4-4-4-4h5-2-2-2-2-2-2-2h4-4-4-4-4-4-4h5-7-5-4-2-|
A|-------------------------------------------------------|
E|-------------------------------------------------------|

e|----------------------------------------------------------|
B|----------------------------------------------------------|
G|----------------------------------------------------------|
D|-4-4-4-4-4-4-4h5-2-2-2-2-2-2-2h4-4-4-4-4-4h5p4-0--4h5p4-0-|
A|----------------------------------------------------------|
E|----------------------------------------------------------|

E|---------------|
B|---------------|
G|---------------|
D|-4h5p4h5p4h5-0-|
A|---------------|
E|---------------|

Verse:
e|-------------------------------------------------|
B|-------------------------------------------------|
G|-7-7-7-7-7-7-------------------------------------|
D|-7-7-7-7-7-7-7-7-7-7-7-7-9-9-9-9-9-9-5-5-5-5-5-5-|
A|-5-5-5-5-5-5-7-7-7-7-7-7-9-9-9-9-9-9-5-5-5-5-5-5-|
E|-------------5-5-5-5-5-5-7-7-7-7-7-7-3-3-3-3-3-3-|

e|---------------------------------------------------|
B|---------------------------------------------------|
G|---------------------------------------------------|
D|-4-4-4-4-4-4-4-4--2-2-2-2-2-2-2-2--4-4-4-4-4-4-4-4-|
A|---------------------------------------------------|
E|---------------------------------------------------|

E|-----------------|
B|-----------------|
G|-----------------|
D|-0-0-0-0-0-0-0-0-|
A|-----------------|
E|-----------------|

Interlude:
e|-------------------------------------------------------|
B|-------------------------------------------------------|
G|-7-----------------------------------------------------|
D|-7-4-5-7-5-4---7-------------9-------------5-----------|
A|-5-------------7-4-5-7-5-4---9-6-7-9-7-6---5-2-3-5-3-2-|
E|---------------5-------------7-------------3-----------|

Outro: Let Ring
e|---|
B|---|
G|-5-|
D|-5-|
A|-3-|
E|---|
Вверх

Dammit

Main Riff:

E|-----------------------------------------------------|
B|-----------------------------------------------------|
G|-----------------------------------------------------|
D|-----------------------------------------------------|
A|-------5-5--7--------5-5--7--------5-5-7--8-8-7-7--5-|
E|-8-8------------3-3-----------5-5--------------------|

 Chords:  Same throughout the whole song
      C5     G5    A5      F5
E|------------------------|
B|------------------------|
G|-5----------------------|
D|-5-------5-----7------3-|
A|-3-------5-----7------3-|
E|---------3-----5------1-|

Guitar1:  Main Riff - 2x
Guitar 2:  Silent

Guitar 1: Main Riff 2x
Guitar 2: C5 G5 A5 F5 2x
(2nd time Hold F5 a little into the next phrase)

Guitar 1:

Muted
E|-----------------------------------------------|
B|-----------------------------------------------|
G|-5---------------------------------------------|
D|-5----------5------------7-------------------3-|
A|-3----------5------------7-------------------3-|
E|------------3------------5-------------------1-|
It's alright / to tell me / what you think / about me
I won't try / to argue / or hold it / against you

Open
E|-----------------------------------------------------|
B|-----------------------------------------------------|
G|--5--------------------------------------------------|
D|--5----------5------------------7------------------3-|
A|--3----------5------------------7------------------3-|
E|-------------3------------------5------------------1-|
I know that / you're leaving / you must have / your reasons
The season / is calling / and your pictures / are falling down

Guitar 1: Main Riff 2x
Guitar 2: C5 G5 A5 F5 2x
(2nd time Hold F5 a little into the next phrase)

Muted
E|---------------------------------------------------|
B|---------------------------------------------------|
G|--5------------------------------------------------|
D|--5--------------5-----------7-------------------3-|
A|--3--------------5-----------7-------------------3-|
E|-----------------3-----------5-------------------1-|
The steps that / I retrace / a sad look / on your face
The timing / and structure / did you hear / he fucked her?

Open.
E|--------------------------------------------------------|
B|--------------------------------------------------------|
G|--5---------------------------------------------------5-|
D|--5----------5---------------7-------------------3----5-|
A|--3----------5---------------7-------------------3----3-|
E|-------------3---------------5-------------------1------|
 A day late / a buck short / I'm writing / the report
 I'm losing / and failing / when I move / I'm flailing now

           		G5
And it's happened once again
  	        A5
 I'll turn to a friend
  		    F5
Someone that understands
           		 C5
Sees through the master plan

        	G5
But everybody's gone
           		    A5
And I've been here for too long
           	   F5
To face this on my own
Well I guess this is growing up

Guitar 1: Main Riff 2x
Guitar 2: C5 G5 A5 F5 2x
(2nd time Hold F5 a little into the next phrase)
Well I guess this is growing up

Muted
E|---------------------------------------------------|
B|---------------------------------------------------|
G|--5------------------------------------------------|
D|--5--------------5-----------7-------------------3-|
A|--3--------------5-----------7-------------------3-|
E|-----------------3-----------5-------------------1-|
And maybe / I'll see you / at a movie / sneak preview
You'll show up / and walk by / on the arm / of that guy

Open
E|-------------------------------------------------------------|
B|-------------------------------------------------------------|
G|--5--------------------------------------------------------5-|
D|--5--------------5------------------7-------------------3--5-|
A|--3--------------5------------------7-------------------3--3-|
E|-----------------3-------------------5------------------1----|
And I'll smile / and you'll wave / we'll pretend / it's okay
The charade / it won't last / when he's gone / I won't come back

			  G5
And it's happened once again
  	           A5
 I'll turn to a friend
  		     F5
Someone that understands
           		 C5
Sees through the master plan

           	 G5
But everybody's gone
               		      A5
And you've been here for too long
           	   F5
To face this on my own
Well I guess this is growing up

Bridge: 2x
E|-----------------------------------------|
B|-6------------6------6-----------6----6--|
G|---5-0-----5---0-------5-0----5---0-5--5-|
D|-----------------------------------------|
A|-----------------------------------------|
E|-----------------------------------------|

Guitar 1: Main Riff 4x
Guitar 2: C5 G5 A5 F5 4x
Well, I guess this is growing up [4x]
           		      C5
Well, I guess this is growing up.
end
Вверх

Dick Lips

    Intro        Куплет        Intro 2   Chorus
e|------------------------------------------------------|
B|------------------------------------------------------|
G|--(7)-(9)--2-2-7-------7------(7)-(9)--2-7------------|
D|-7-7-7-9---2-2-7-9-7-7-7-9---7-7-7-9---2-7-7-2--------|
A|-4-5-7-7---0-0-5-9-7-7-5-9---4-5-7-7---0-5-7-2--------|
E|-----5-----------7-5-5---7-------5---------5-0--------|
   -------                     -------   -------
    2раза                       2раза     2раза

Solo:
e|-------|-----------|-----|
B|-------|-----------|-----|
G|---7-9-|---7-6---7-|-14--|
D|-7-7-9-|-7-7-6-2-7-|-14--| - только аккорды
A|-4-5-7-|-7-5-4-2-5-|-12--|
E|-------|-5-----0---|-----|
   -----   ---------  -----
  2  раза   4  раза   x-раз
Вверх

Dude Ranch

CHORDS:
  B5   C#5  E5  Em  F#5  G#5
|----------------------------|
|----------------------------|
|--4----6---9----------------|
|--4----6---9---2----4---6---|
|--2----4---7---2----4---6---|
|---------------0----2---4---|
INTRO: B5 12 times and let it ring.

B5 F#5 Em
Yeah My Girlfriend Takes Me Home When I?m Too Drunk To Drive
B5 C#5 E5
And She doesn?t Get All Jealous When I Hang Out With The Guys
B5 F#5 Em (with heavy palm mute)
She Laughs At My Dumb Jokes When No One Does
B5 C#5 E5
She Brings Me Mexican Food From Sombrero Just Because
B5
Yeah Just Because.
B5 F#5 Em
Yeah My Girlfriend Likes U.L And D.H.C
B5 C#5 E5
And She?s So Smart And Independent, I Don?t Think She Needs Me.
B5 F#5 Em (with heavy palm mute)
Quite Half As Much As I Know I Need Her.
B5 C#5 E5
I Wonder Why There?s Not Another Guy That She?d Prefer.
F#5 Em B5
And When I Feel Like Giving Up Like My World Is Falling Down
F#5 C#5
I Show Up At 3am, She?s Still Up Watching Vacation
Em
And I See Her Pretty Face, It Takes Me Away To
A Better Place And...
CHORUS (x2)
B5 F#5 Em
Know That Everything, Know That Everything, Know That Everything
G#5 F#5
Everything?s Gonna be Fine!

B5 F#5 Em
And My Girlfriend Takes Collect Calls From the Road
B5 C#5 E5
And It Doesn?t Seem To Matter That I?m Lacking In The Bulge
B5 F#5 Em (with heavy palm mute)
She Laughs At My Dumb Jokes When No One Does
B5 C#5 E5
She Brings Me Mexican Food From Sombrero Just Because
F#5 Em B5
And When I Feel Like Giving Up Like My World Is Falling Down
F#5 C#5
I Show Up At 3am, She?s Still Up Watching Vacation
Em
And I See Her Pretty Face, It Takes Me Away To
A Better Place And...
CHORUS (x4) B5 F#5 Em
Know That Everything, Know That Everything, Know That Everything
G#5 F#5
Everything?s Gonna be Fine!
BRIDGE: Play B5 8 times and let it ring
CHORUS (x4)
B5 F#5 Em
Know That Everything, Know That Everything, Know That Everything
G#5 F#5
Everything?s Gonna be Fine!
End the song with B5!!
Вверх

Dumpweed mp3

Intro:
e|-------------------------------------------------------------|
B|-------------------------------------------------------------|
G|--1-1h2p1---------1-1h2p1------2-1-1h2p1-------2-1-1h2p1-4---|
D|2-----------4-2-2------------4-2-----------4-2-2------------4|
A|2--------2-0----2---------2-0--0--------2-0----0----------2--|
E|0---------------0--------------------------------------------|

Interlude for Guitar 1(Repeat 2x):
  E5  A5   B5
e---------------|
B---------------|
G------2---4----|
D--2---2---4----|
A--2---0---2----|
E--0------------|

Interlude for Guitar 2(Repeat 2x):
e|4------4-------2-------2-------4-------4-------5-------5-----|
B|---5-------5-------5-------5-------5-------5-------5-------5-|
G|-4---4---4---4---4---4---4---4---4---4---4---4---4---4---4--4|
D|-------------------------------------------------------------|
A|-------------------------------------------------------------|
E|-------------------------------------------------------------|

Verse(Heavy Palm Muting;Repeat 2x):
   E5        B5        E5        B5
e|-----------------------------------------|
B|-----------------------------------------|
G|-----------4-4-4-4-4-----------4-4-4-4-4-|
D|-2-2-2-2-2-4-4-4-4-4-2-2-2-2-2-4-4-4-4-4-|
A|-2-2-2-2-2-2-2-2-2-2-2-2-2-2-2-2-2-2-2-2-|
E|-0-0-0-0-0-----------0-0-0-0-0-----------|

   A5        B5        A5        B5
e|-----------------------------------------|
B|-----------------------------------------|
G|-2-2-2-2-2-4-4-4-4-4-2-2-2-2-2-4-4-4-4-4-|
D|-2-2-2-2-2-4-4-4-4-4-2-2-2-2-2-4-4-4-4-4-|
A|-0-0-0-0-0-2-2-2-2-2-0-0-0-0-0-2-2-2-2-2-|
E|-----------------------------------------|

It?s understood, I said it many ways
Too scared to run, I?m too scared to stay
I said I?d leave, I could never leave her
And if I did, you know I?d never cheat her
But this I ask, it?s what I want to know
How would you feel, if I should choose to go
Another guy, you think it?d be unlikely
Another guy, you think he?d wanna fight me

Play Intro

Chorus(Play 2x):
   E5        B5        A5        B5
e|-----------------------------------------|
B|-----------------------------------------|
G|-----------4-4-4-4-4-2-2-2-2-2-4-4-4-4-4-|
D|-2-2-2-2-2-4-4-4-4-4-2-2-2-2-2-4-4-4-4-4-|
A|-2-2-2-2-2-2-2-2-2-2-0-0-0-0-0-2-2-2-2-2-|
E|-0-0-0-0-0-------------------------------|

She?s a dove, she?s a fucking nightmare
Unpredictable, it was my mistake to stay here
On the go, it?s way too late to play
I need a girl that I can train

Play Interlude

Play Verse(Play Riff Only Once As Opposed To Twice):

I heard it once, I?m sure I heard it twice
My dad used to give me all of his advice
He would say "you gotta turn your back and run now
Come on, son, you haven?t got a chance now"

Play Intro

Play Chorus(Play Riff 4 Times):

She?s a dove, she?s a fucking nightmare
Unpredictable, it was my mistake to stay here
On the go, it?s way too late to play
I need a girl that I can train
(Repeat Words Twice)

Play Verse(Play Riff Twice):

Need a girl that I can train
Need a girl that I can train
Turn your back and run now
You haven?t got a chance now

(Second Guitar Continues Verse As This* Is Played)
Play 3x
e|-4-----2---2-----2---4-----2---5-----2---|
B|---------5---------5---------5---------5-|
G|---4-4-------4-4-------4-4-------4-4-----|
D|-----------------------------------------|
A|-----------------------------------------|
E|-----------------------------------------|
Вверх

Dysentary Gary

Intro: (2x) strummed fast using up/down strokes
E|----------------------------------------------------------|
B|----------------------------------------------------------|
G|----------------------------------------------------------|
D|----------------------------------------------------------|
A|-9-9-9-9-9------------10-10-10-10--9-9-9-9-9--------------|
E|------------10-10-10--------------------------10-10-10-10-|

e|-------------------------------------------------|
B|-------------------------------------------------|
G|-------------------------------------------------|
D|------------4-4-4-4--------------4-4-4-4-4-4-4-5-|
A|-------------------------------------------------|
E|-3-3-3-3-------------5-5-5-5---------------------|

Intro w/ Fill (2x)
Fill:
E|-D-----------------G-----------------A-----------|
B|-------------------------------------------------|
G|-7-7-7-7-7-7-7-7---------------------------------|
D|-7-7-7-7-7-7-7-7---5-5-5-5-5-5-5-5---7-7-7-7-7-7-|
A|-5-5-5-5-5-5-5-5---5-5-5-5-5-5-5-5---7-7-7-7-7-7-|
E|-------------------3-3-3-3-3-3-3-3---5-5-5-5-5-5-|

Riff 1: (2x) muted fast x- mut ring
e|-D-----------------D-----------------G---------------|
B|-----------------------------------------------------|
G|-7-x-x-x-x-x-x-7---7-x-x-x-x-x-x-7-------------------|
D|-7-x-x-x-x-x-x-7---7-x-x-x-x-x-x-7---5-x-x-x-x-x-x-5-|
A|-5-x-x-x-x-x-x-5---5-x-x-x-x-x-x-5---5-x-x-x-x-x-x-5-|
E|-------------------------------------3-x-x-x-x-x-x-3-|

E|-A-------------------|
B|---------------------|
G|---------------------|
D|-7-x-x-7-x-x-x-7-x-7-|
A|-7-x-x-7-x-x-x-7-x-7-|
E|-5-x-x-5-x-x-x-5-x-5-|

D                        D
 Got a lotta heart ache.  He?s a fucken weasel.
G                              A
 His issues make my mind ache.  Wanna make a deal.
D                                 D
 Cause I love your little motions. You with your pigtails.
G                      A
 What a nice creation.  Worth another night in jail.

Pre-Chorus: (1x)-Clean Guitar
E|-D-----------------------G---------------A-------------|
B|-------------------------------------------------------|
G|-7-7-7-7-7-7-7-7-7-7-7---------------------------------|
D|-7-7-7-7-7-7-7-7-7-7-7---5-5-5-5-5-5-5---7-7-7-7-7-7-7-|
A|-5-5-5-5-5-5-5-5-5-5-5---5-5-5-5-5-5-5---7-7-7-7-7-7-7-|
E|-------------------------3-3-3-3-3-3-3---5-5-5-5-5-5-5-|

Chorus: (1x)
E|-D-----------------------G---------------A-------------|
B|-------------------------------------------------------|
G|-7-7-7-7-7-7-7-7-7-7-7---------------------------------|
D|-7-7-7-7-7-7-7-7-7-7-7---5-5-5-5-5-5-5---7-7-7-7-7-7-7-|
A|-5-5-5-5-5-5-5-5-5-5-5---5-5-5-5-5-5-5---7-7-7-7-7-7-7-|
E|-------------------------3-3-3-3-3-3-3---5-5-5-5-5-5-5-|

D
He?s a player, diarrhea giver, tried to grow his hair out,
when friends were listening to Slayer.
G
I would like to find him Friday night.
A
Hanging out with mom and trying on his father?s tights.

Post-Chorus: (6x)
E|-15-14--------------------|
B|----------15--------------|
G|-----------------12-12-12-|
D|--------------------------|
A|--------------------------|
E|--------------------------|

(1)              (2)             (3)            (4)
Life just sucks, I lost the one. I?m giving up, she found
         (5)                  (6)
someone. There?s plenty more. Girls are such a drag.

Intro w/ Fill (2x)
Fill:
E|-D-----------------G-----------------A------------|
B|--------------------------------------------------|
G|-7-7-7-7-7-7-7-7----------------------------------|
D|-7-7-7-7-7-7-7-7---5-5-5-5-5-5-5-5---7-7-7-7-7-7--|
A|-5-5-5-5-5-5-5-5---5-5-5-5-5-5-5-5---7-7-7-7-7-7--|
E|-------------------3-3-3-3-3-3-3-3---5-5-5-5-5-5--|

Riff 1: (2x) muted fast
e|-D-----------------D-----------------G---------------|
B|-----------------------------------------------------|
G|-7-x-x-x-x-x-x-7---7-x-x-x-x-x-x-7-------------------|
D|-7-x-x-x-x-x-x-7---7-x-x-x-x-x-x-7---5-x-x-x-x-x-x-5-|
A|-5-x-x-x-x-x-x-5---5-x-x-x-x-x-x-5---5-x-x-x-x-x-x-5-|
E|-------------------------------------3-x-x-x-x-x-x-3-|

E|-A-------------------|
B|---------------------|
G|---------------------|
D|-7-x-x-7-x-x-x-7-x-7-|
A|-7-x-x-7-x-x-x-7-x-7-|
E|-5-x-x-5-x-x-x-5-x-5-|

D                         D
 So all you little ladies. Be sure to choose the right guys.
G                             A
 You?ll come back to me maybe. I?ll shower you with lies.
D                       D
 Got a lotta heart ache. He?s a fucken weasel.
G                            A
 Decisions make my mind ache. Wanna make a deal.

Pre-Chorus: (2x)-Clean Guitar
E|-D-----------------------G---------------A-------------|
B|-------------------------------------------------------|
G|-7-7-7-7-7-7-7-7-7-7-7---------------------------------|
D|-7-7-7-7-7-7-7-7-7-7-7---5-5-5-5-5-5-5---7-7-7-7-7-7-7-|
A|-5-5-5-5-5-5-5-5-5-5-5---5-5-5-5-5-5-5---7-7-7-7-7-7-7-|
E|-------------------------3-3-3-3-3-3-3---5-5-5-5-5-5-5-|

D
Ease away the problems and the pain.
The girl chose the guy that makes you wanna kick and scream.
G
All along, you wish that she would stay.
A
Fuck the guy that took and ran away, yeah.

Chorus: (1x)
E|-D-----------------------G---------------A-------------|
B|-------------------------------------------------------|
G|-7-7-7-7-7-7-7-7-7-7-7---------------------------------|
D|-7-7-7-7-7-7-7-7-7-7-7---5-5-5-5-5-5-5---7-7-7-7-7-7-7-|
A|-5-5-5-5-5-5-5-5-5-5-5---5-5-5-5-5-5-5---7-7-7-7-7-7-7-|
E|-------------------------3-3-3-3-3-3-3---5-5-5-5-5-5-5-|

D
He?s a player, diarrhea giver, tried to grow his hair out,
when friends were listening to Slayer.
G
I would like to find him Friday night.
A
Hanging out with mom and trying on his father?s tights.

Post-Chorus: (6x)
E|-15-14--------------------|
B|----------15--------------|
G|-----------------12-12-12-|
D|--------------------------|
A|--------------------------|
E|--------------------------|

(1)              (2)             (3)            (4)
Life just sucks, I lost the one. I?m giving up, she found
         (5)                  (6)
someone. There?s plenty more. Girls are such a drag.

[Bass Solo Type Thing] PLAY D then G clean (4x)

Post-Chorus: (6x)
E|-15-14--------------------|
B|----------15--------------|
G|-----------------12-12-12-|
D|--------------------------|
A|--------------------------|
E|--------------------------|

(1)              (2)             (3)             (4)
Fuck this place, I lost the war. I hate you all, your mom?s
         (5)             (6)
a whore. Where?s my dog? Cause girls are such a drag.

End on Intro(Slightly Different)
E|-------------------------------------------------------------|
B|-------------------------------------------------------------|
G|-------------------------------------------------------------|
D|-------------------------------------------------------------|
A|-9-9-9-9-9------------10-10-10-10--9-9-9-9-9-----------------|
E|------------10-10-10--------------------------10-10-10-10----|

or play:
CAN ALSO SUBSTITUTE THIS FOR THE ABOVE INTRO
                                        (they sound the same)
E|-------------------------------------------------------------|
B|-------------------------------------------------------------|
G|-------------------------------------------------------------|
D|-4-4-4-4-------5-5-5-4-4-4---------------4-4-4---------------|
A|---------5-5-5-------------5-5-5-5-----------------4-4-4h5---|
E|-----------------------------------3-3-3-------5-5-----------|
Вверх

Family Reunion

 A5                 H5
Shit piss fuck cunt cocksucker
              C#5               D5
motherfucker tit fart turd and twat
Shit piss fuck cunt cocksucker
motherfucker tit fart turd and twat
Shit piss fuck cunt cocksucker
motherfucker tit fart turd and twat
Shit piss fuck cunt cocksucker
motherfucker tit fart turd and twat
              A5
I fucked your mom
Вверх

First Date mp3

E|---|
B|---|
G|-5-|
D|-5-|
A|-3-|
E|---|

  In the car i jast...
E|--------------|
B|--------------|
G|-55--55-55-55-|
D|--------------|
A|--------------|
E|--------------|
   ПРИПЕВ.
E|--------------------|
B|------------222-----|
G|-5-5----5-5-222-----|
D|-5-5----5-5-222-3-5-| 4раза
A|-3-3----2-2-----3-5-|
E|----------------1-3-|
        Lets go torn wa......
riff1
E|---------------|
B|---------------|
G|-55------------|
D|-55--22--33-55-| 2раза
A|-33--22--33-55-| глушение струн.
E|---------11-33-|
  сколько раз бить по струнам разберётесь сами.

Продалжение выше написаново. Только с Distoksion.
E|--------------------------------|
B|--------------------------------|
G|-9999/55-10101010/55-7777-55555-| 3раза
D|-9999/55-10101010/55-7777-55555-|
A|-7777/33--8-8-8-8/33-5555-33333-|
E|--------------------------------|
   потом припев.
Вверх

Fuck A Dog

E|------------|-------|----|
B|----0-----0-|-------|----|
G|------0-----|---0---|---2|
D|--0-----0---|-----2-|-0--|
A|------------|-3-----|----|
E|------------|-------|----|

I wanna fuck a dog in the ass
(he wants to fuck a dog)
i wanna fuck a dog
(thats right kids)

I tried to fuck your mom in the ass
I tried to fuck your dad in the ass
Could only find the dog
And his ass

We wanna fuck a dog in the ass
We wanna fuck a dog in the ass
We fuck a dog

I tried to fuck a fuckin pirate in the ass
(argh!me and me first mate)
Tried to fuck a fucking pirate
but found the dog (argh,twas no pirate,twas thine own seester)

We wanna fuck a dog in the ass
We wanna fuck a dog in the ass
We fuck a dog
Вверх

Going Away To College mp3

Intro(Repeat 2X)
e|------------------------------------|
B|-4-4-4-4--2-2-2-2--4-4-4-4--2-2-2-2-|
G|-4-4-4-4--4-4-4-4--4-4-4-4--4-4-4-4-|
D|------------------------------------|
A|------------------------------------|
E|------------------------------------|

e|------------------------------------|
B|-4-4-4-4--2-2-2-2--4-4-4-4--2-2-2-2-|
G|-4-4-4-4--4-4-4-4--4-4-4-4--4-4-4-4-|
D|-2 2 2 2--2-2-2-2--2-2-2-2--2-2-2-2-|
A|------------------------------------|
E|------------------------------------|

Interlude For Guitar 1 (Repeat 2X)

e|-------------------------------------------------|
B|-----------4-----------4-----------4-----2-----2-|
G|-----4-----------4-----------4-------------------|
D|-------------------------2-2---2-2---4-4---4-4---|
A|-2-2---2-2---2-2---2-2---------------------------|
E|-------------------------------------------------|

Interlude For Guitar 2 (Repeat 2X)
  B5  C#5  E5
e|-----------|
B|-----------|
G|-4---6---9-|
D|-4---6---9-|
A|-2---4---7-|
E|-----------|

Note: Not shown w/ proper rhthym/spacing.
      Let each chord ring.

Verse 1(No Guitar):
Please take me by the hand, it?s so cold out tonight.

I?ll put blankets on the bed. I won?t turn out the light

Verse 1 Continued(Guitar Enters):
     B5              C#5         E5       B5
just don?t forget to think about me and I won?t
                  C#5              E5
forget you. "I?ll write you once a week" she said.

Play Interlude

Verse 2(No Guitar):
Why does it feel the same to fall in love or break it up?

And if young love is just a game, then I must have missed

the kick off.

Verse 2 Continued(Guitar Enters):
B5              C#5         E5              B5
Don?t depend on if she ever followed you or anything,
    C#5            E5
but I?d go through hell for you.

Chorus:
    G#5       E5                B5   F#5
And I haven?t been this scared, in a long time.
G#5        E5          B5             F#5
And I?m so unprepared, so here?s your valentine.
G#5          E5            B5       F#5     G#5
A bouquet of clumsy words, a simple melody. This
           E5          B5            F#5
world?s an ugly place, but you?re so beautiful to me.

Play Interlude

Verse 3(Palm Mute):
C#5                      B5              E5
I think about the times, she kissed me after class.
C#5                    B5               E5
And she put up with my friends. I acted like an ass.

Verse 3 Continued(Play W/O Palm Muting)
C#5                   B5           E5
I ditched my lecture, to watch the girls play soccer.
C#5           B5               E5
Is my picture still hanging in her locker?

Chorus:
G#5       E5                B5   F#5
I haven?t been this scared, in a long time.
G#5        E5          B5             F#5
And I?m so unprepared, so here?s your valentine.
G#5          E5            B5       F#5     G#5
A bouquet of clumsy words, a simple melody. This
           E5          B5            F#5
world?s an ugly place, but you?re so beautiful.

Play Intro

Chorus:
G#5       E5                B5   F#5
I haven?t been this scared, in a long time.
G#5        E5          B5             F#5
And I?m so unprepared, so here?s your valentine.
G#5          E5            B5       F#5     G#5
A bouquet of clumsy words, a simple melody. This
           E5          B5            F#5
world?s an ugly place, but you?re so beautiful.

Chords Used In This Song:
  B5  C#5 E5  G#5 F#5
e---------------------|
B---------------------|
G--4---6---9----------|
D--4---6---9---6---4--|
A--2---4---7---6---4--|
E--------------4---2--|
Вверх

Josie

    B5  C#5  E5  Em  F#5  G#5
E|--------------------------|
B|--------------------------|
G|--4----6---9--------------|
D|--4----6---9---2----4---6-|
A|--2----4---7---2----4---6-|
E|---------------0----2---4-|

Play B5 12 times

            B5              F#5                        Em
Yeah My Girlfriend Takes Me Home When I?m Too Drunk To Drive
         B5             C#5            E5
And She doesn?t Get All Jealous When I Hang Out With The Guys
    B5                F#5               Em
She Laughs At My Dumb Jokes When No One Does
              B5                C#5           E5
She Brings Me Mexican Food From Sombrero Just Because
          B5
Yeah Just Because.

            B5             F#5        Em
Yeah My Girlfriend Likes U.L And D.H.C
            B5                C#5           E5
And She?s So Smart And Independent, I Don?t Think She Needs Me.
      B5                F#5         Em
Quite Half As Much As I Know I Need Her.
         B5              C#5     E5
I Wonder Why There?s Not Another Guy That She?d Prefer.

    F#5                     Em                          B5
And When I Feel Like Giving Up Like My World Is Falling Down
       F#5              C#5
I Show Up At 3am, She?s Still Up Watching Vacation
      Em
And I See Her Pretty Face,
It Takes Me Away To A Better Place And...

B5                    F#5                   Em
Know That Everything, Know That Everything, Know That Everything
G#5          F#5
Everything?s Gonna be Fine!

           B5           F#5                    Em
And My Girlfriend Takes Collect Calls From the Road
       B5                  C#5         E5
And It Doesn?t Seem To Matter That I?m Lacking In The Bulge
   B5                F#5               Em
She Laughs At My Dumb Jokes When No One Does
              B5                C#5           E5
She Brings Me Mexican Food From Sombrero Just Because

   F#5                     Em                          B5
And When I Feel Like Giving Up Like My World Is Falling Down
       F#5              C#5
I Show Up At 3am, She?s Still Up Watching Vacation
      Em
And I See Her Pretty Face,
It Takes Me Away To A Better Place And...

B5                    F#5                   Em
Know That Everything, Know That Everything, Know That Everything
G#5          F#5
Everything?s Gonna be Fine!

B5                    F#5                   Em
Know That Everything, Know That Everything, Know That Everything
G#5          F#5
Everything?s Gonna be Fine!

End the song with B5!!
Вверх

M&Ms

G|-------------------------------------------------------------|
D|2-2-2-2-2-2-2-2----------------------------------------------|
A|----------------2-2-2-2-2-2-2-4-4-4-4-4-4-4-4-0-0-0-0-0-0-0-0|
E|-------------------------------------------------------------|

G|-------------------------------------------------------------|
D|-------------------------------------------------------------|
A|----------------2-2-2-2-2-2-2-4-4-4-4-4-4-4-4-0-0-0-0-0-0-0-0|
E|0-0-0-0-0-0-0-0----------------------------------------------|

Chorus
G|--------------------------------|
D|--------------------------------|
A|------------------------2-2-2-2-|
E|2-2-2-2-5-5-5-5-0-0-0-0---------|
Вверх

Mothers Day

mute every other time

e|-----------|
B|-----------|
G|-----------|
D|-----------|
A|-0-0-0-0-0-| X3
E|-0-0-0-0-0-|

then

e|-----------------|
B|-----------------|
G|-----------------|
D|-----------------|
A|-3-3-3-3-2-2-2-2-|
E|-3-3-3-3-2-2-2-2-|
Вверх

Mutt mp3

Intro
e|-------------------------------------------------------------|
B|-------------------------------------------------------------|
G|-------------------------------------------------------------|
D|-----2-----2-----2-----2-----2-------2------2-------2------2-|
A|-0-0---0-0---0-0---0-0---0-0----0-0----0-0-----0-0----0-0----|
E|-------------------------------------------------------------|

e|-------------------------------------------------------------|
B|-------------------------------------------------------------|
G|-------------------------------------------------------------|
D|-------------------------------------------------------------|
A|-----2-----2-----2-----2-----2-------2------2-------2------2-|
E|-0-0---0-0---0-0---0-0---0-0----0-0----0-0-----0-0----0-0----|

     Guitar 1    (2x)
e|-------------------------------------------------------------|
B|----2------2-------2------2-------2-------2-------2-------2--|
G|--2------2-------2------2-------2-------2-------2-------2----|
D|2----2-2-----2-2----2-2-----2-0-----0-0-----0-0-----0-0-----0|
A|-------------------------------------------------------------|
E|-------------------------------------------------------------|

     Guitar 2  (clean) (2x)
e|-----------------------------------------------------|
B|-----------------------------------------------------|
G|--------------4-4-4-4-4-4-4--7-7--6-6----------------|
D|-7-7-7-7-7-7--4-4-4-4-4-4-4--7-7--6-6--7-7-7-7-7-7-7-|
A|-7-7-7-7-7-7--2-2-2-2-2-2-2--5-5--4-4--7-7-7-7-7-7-7-|
E|-5-5-5-5-5-5---------------------------5-5-5-5-5-5-5-|

Verse    (2x)
e|--------------------------------------------------|
B|--------------------------------------------------|
G|----------------------------------------------7---|
D|-7-7-7-7-7-7-7--4-4-4-4-4-4-4--2-2-2-2-2-2-2--7-7-|
A|-7-7-7-7-7-7-7--4-4-4-4-4-4-4--2-2-2-2-2-2-2--5-7-|
E|-5-5-5-5-5-5-5--2-2-2-2-2-2-2--0-0-0-0-0-0-0----5-|
     p.m........    p.m........    p.m........

e|--------------------------------------------------|
B|--------------------------------------------------|
G|----------------------------------------------7---|
D|-7-7-7-7-7-7-7--4-4-4-4-4-4-4--2-2-2-2-2-2-2--7-7-|
A|-7-7-7-7-7-7-7--4-4-4-4-4-4-4--2-2-2-2-2-2-2--5-7-|
E|-5-5-5-5-5-5-5--2-2-2-2-2-2-2--0-0-0-0-0-0-0----5-|

e|-------------------------------------------------------------|
B|-------------------------------------------------------------|
G|----------------------------------------7-7-7-7-7-7-9-9-9-9-9|
D|7-7-7-7-7-7-7-4-4-4-4-4-4-2-2-2-2-2-2-2-7-7-7-7-7-7-9-9-9-9-9|
A|7-7-7-7-7-7-7-4-4-4-4-4-4-2-2-2-2-2-2-2-5-5-5-5-5-5-7-7-7-7-7|
E|5-5-5-5-5-5-5-2-2-2-2-2-2-0-0-0-0-0-0-0----------------------|

Chorus
     Guitar 1  (clean)
e|---------------------------------------|
B|---------------------------------------|
G|---------------------------------------|
D|-7--7--7--7--7--7--7--7--7--7--7--7--7-|
A|-7--7--7--7--7--7--7--7--7--7--7--7--7-|
E|-5--5--5--5--5--5--5--5--5--5--5--5--5-|
     Guitar 2  (clean)
e|---------------------------------|
B|---------------------------------|
G|-------------4------------7-6----|
D|-7-----------4------------7-6--7-|
A|-7-----------2------------5-4--7-|
E|-5-----------------------------5-|

   play 2 times
e|-------------------------------------------------------------|
B|----2------2-------2-------2-------2-------2-------2-------2-|
G|--2------2-------2-------2-------2-------2-------2-------2---|
D|2----2-2-----2-2-----2-2-----2-0-----0-0-----0-0-----0-0----0|
A|-------------------------------------------------------------|
E|-------------------------------------------------------------|

Verse    (2x)
e|--------------------------------------------------|
B|--------------------------------------------------|
G|----------------------------------------------7---|
D|-7-7-7-7-7-7-7--4-4-4-4-4-4-4--2-2-2-2-2-2-2--7-7-|
A|-7-7-7-7-7-7-7--4-4-4-4-4-4-4--2-2-2-2-2-2-2--5-7-|
E|-5-5-5-5-5-5-5--2-2-2-2-2-2-2--0-0-0-0-0-0-0----5-|
     p.m........    p.m........    p.m........

e|--------------------------------------------------|
B|--------------------------------------------------|
G|----------------------------------------------7---|
D|-7-7-7-7-7-7-7--4-4-4-4-4-4-4--2-2-2-2-2-2-2--7-7-|
A|-7-7-7-7-7-7-7--4-4-4-4-4-4-4--2-2-2-2-2-2-2--5-7-|
E|-5-5-5-5-5-5-5--2-2-2-2-2-2-2--0-0-0-0-0-0-0----5-|

e|-------------------------------------------------------------|
B|-------------------------------------------------------------|
G|----------------------------------------7-7-7-7-7-7-9-9-9-9-9|
D|7-7-7-7-7-7-7-4-4-4-4-4-4-2-2-2-2-2-2-2-7-7-7-7-7-7-9-9-9-9-9|
A|7-7-7-7-7-7-7-4-4-4-4-4-4-2-2-2-2-2-2-2-5-5-5-5-5-5-7-7-7-7-7|
E|5-5-5-5-5-5-5-2-2-2-2-2-2-0-0-0-0-0-0-0----------------------|

Chorus
     Guitar 1  (clean)
e|---------------------------------------|
B|---------------------------------------|
G|---------------------------------------|
D|-7--7--7--7--7--7--7--7--7--7--7--7--7-|
A|-7--7--7--7--7--7--7--7--7--7--7--7--7-|
E|-5--5--5--5--5--5--5--5--5--5--5--5--5-|
     Guitar 2  (clean)
e|---------------------------------|
B|---------------------------------|
G|-------------4------------7-6----|
D|-7-----------4------------7-6--7-|
A|-7-----------2------------5-4--7-|
E|-5-----------------------------5-|

Bridge  (2x)
e|------------------------------|
B|------------------------------|
G|-----------4-4-------7-6------|
D|-7-7-------4-4-------7-6--7-7-|
A|-7-7-------2-2-------5-4--7-7-|
E|-5-5----------------------5-5-|
   p.m.........................

   play 2 times
e|-------------------------------------------------------------|
B|----2------2-------2-------2-------2-------2-------2------2--|
G|--2------2-------2-------2-------2-------2-------2------2----|
D|2----2-2-----2-2-----2-2-----2-0-----0-0-----0-0----0-0-----0|
A|-------------------------------------------------------------|
E|-------------------------------------------------------------|

Outro  (2x)
e|------------------------------|
B|------------------------------|
G|-----------4-4-------7-6------|
D|-7-7-------4-4-------7-6--7-7-|
A|-7-7-------2-2-------5-4--7-7-|
E|-5-5----------------------5-5-|
   p.m.........................
Вверх

Online Songs mp3

Строй :EADGBE

Intro Pt. 1                Intro Pt.2
E|---------------------------------------|
B|---------------------------------------|
G|---------------------------------------|
D|-------------0---0-0-------------------|
A|-0-0---7---0---0-----------0-0---7---7-|
E|-----9---9---------------------9---9---|

Riff A (Palm Mute)         Riff A (Ending)
E|--------------------------------------|
B|--------------------------10-10-10-10-|
G|---------------------------9--9--9--9-|
D|---------------------------7--7--7--7-|
A|-0-4-0-7-4-0-5-0-5-5------------------|
E|--------------------------------------|

Bridge
E|---|
B|---|
G|---|
D|-7-|
A|-7-|
E|-5-|

Riff B
E|-----------------------------------------|
B|-----------------------------------------|
G|-7-7-7-7-7-----------9-9-9-9-9-7-7-7-7-7-|
D|-7-7-7-7-7-7-7-7-7-7-9-9-9-9-9-7-7-7-7-7-|
A|-5-5-5-5-5-7-7-7-7-7-7-7-7-7-7-5-5-5-5-5-|
E|-----------5-5-5-5-5---------------------|

Riff C Pt.1
E|----------------------------------------------------------|
B|----------------------------------------------------------|
G|-----7-7--------------------------7-7-----------9-9-9-9-9-|
D|-4-4-7-7-7-7-7-7-7-2-2-2-2-2--4-4-7-7-7-7-7-7-7-9-9-9-9-9-|
A|-4-4-5-5-7-7-7-7-7-2-2-2-2-2--4-4-5-5-7-7-7-7-7-7-7-7-7-7-|
E|-2-2-----5-5-5-5-5-0-0-0-0-0--2-2-----5-5-5-5-5-----------|

Riff C Pt.2
E|-----------------------------------------|
B|-----------------------------------------|
G|-----------7-7-7-7-7---------------------|
D|-4-4-4-4-4-7-7-7-7-7-7-7-7-7-7-2-2-2-2-2-|
A|-4-4-4-4-4-5-5-5-5-5-7-7-7-7-7-2-2-2-2-2-|
E|-2-2-2-2-2-----------5-5-5-5-5-0-0-0-0-0-|

Riff C Pt.2
E|-----------------------------------------|
B|-----------------------------------------|
G|-----------7-7-7-7-7-----------9-9-9-9-9-|
D|-4-4-4-4-4-7-7-7-7-7-7-7-7-7-7-9-9-9-9-9-|
A|-4-4-4-4-4-5-5-5-5-5-7-7-7-7-7-7-7-7-7-7-|
E|-2-2-2-2-2-----------5-5-5-5-5-----------|

Консовка
E|-------------|
B|-------------|
G|---------x-7-|
D|-4-4-4-4-x-7-|
A|-4-4-4-4-x-5-|
E|-2-2-2-2-----|


Intro Pt.1      x 3
Intro Pt.2      x 1
Riff A          x 4
Riff A Ending   x 1
Bridge          x 1
Riff A          x 4
Riff A Ending   x 1
Bridge          x 1
Pick Slide
Riff B          x 2
Bridge          x 1
Pick Slide
Riff B          x 4
Riff C Pt.1     x 1
Riff C Pt.2     x 1
Riff B          x 4
Ending
Вверх

Pathetic

CHORDS

   C   G   A   Fii  F   Gii
E|-------------------------|
B|-------------------------|
G|-5-----------10-------12-|
D|-5---5---7---10---3---12-|
A|-3---5---7---8----3---10-|
E|-----3---5--------1------|

Riff:

E|-1--3---1--3---1--3---0---0---0-|
B|------1------1------1---1---1---|
G|--------------------------------|
D|--------------------------------|
A|--------------------------------|
E|--------------------------------|

Intro: Riff (x3 and a half)

Verse1:

  C
i know i?m pathetic i knew when she said it
  Gii                    Fii
a loser a bum?s what she called me when i drove her home
C
there?s no more waiting and sure no more wasting
     Gii                    Fii
i?ve done all i can but she still wants to be left alone

(same chords)
you got you got you got to help me out
and i?ll try not to argue
no one no one no one likes a drop out
mistakes are hard to undo

CHORUS:

A          C  G
don?t pull me down
              C   F
this is where i belong
           (i think i?m different but i?m the same & i?m wrong)
A          C  G
don?t pull me down
              C   F
this is where i belong               this is where i belong
               (i think i?m different)

Riff (x3 and a half)

Verse2:
i think its disgusting believing and trusting
if i gave a fuck there would be nothing for me to prove
although its amusing its slightly confusing
i?ve done all i can but her ego is still hard to move
you got you got you got to help me out
and i?ll try not to argue
no one no one no one likes a drop out
mistakes are hard to undo

repeat CHORUS
Вверх

Reckless abandon mp3

Riff A Pt.1
E|-------------------------------------------------|
B|-------------------------------------------------|
G|-44444-44444-44444-44444-------------------------|
D|-44444-44444-44444-44444-22222-22222-22222-22222-|
A|-22222-22222-22222-22222-22222-22222-22222-22222-|
E|-------------------------00000-00000-00000-00000-|

Riff A Pt.2
E|---------------------------------------|
B|---------------------------------------|
G|---------------------------------------|
D|-66666-66666-44444-44444-22222-22222-2-|
A|-66666-66666-44444-44444-22222-22222-2-|
E|-44444-44444-22222-22222-00000-00000-0-|

Riff B
E|------------------------------------------------|
B|------------------------------------------------|
G|------------------------------------------------|
D|-1-----4-2----1----4-2----1----4-2----1---1-2---|
A|----2------------2-----------2----------2-----4-|
E|------------------------------------------------|

Bridge (Let ring through verse)
E|---|
B|---|
G|-4-|
D|-4-|
A|-2-|
E|---|

Interlude
E|------------|
B|------------|
G|------------|
D|-4--2--6--4-|
A|-2--2--6--4-|
E|------------|

Riff C
E|-------------------------------------------------|
B|-------------------------------------------------|
G|-44444-44444-44444-44444-------------------------|
D|-44444-44444-44444-44444-44444-44444-44444-44444-|
A|-22222-22222-22222-22222-44444-44444-44444-44444-|
E|-------------------------22222-22222-22222-22222-|

Last Chord
E|---|
B|---|
G|-4-|
D|-4-|
A|-2-|
E|---|

Order:
Riff A Pt.1  x 1
Riff A Pt.2  x 1
Riff B       x 2
Bridge       x 1
Riff A Pt.1  x 1
Riff A Pt.2  x 2
Riff B       x 2
Bridge       x 1
Riff A Pt.1  x 1
Riff A Pt.2  x 2
Interlude    x 4
Riff C       x 2
Riff A Pt.1  x 1
Riff A Pt.2  x 2
Last Chord
Вверх

Sex With His Sister

Whole Song:
E|-------------------------------------------------------------|
B|-------------------------------------------------------------|
G|-------------------------------------------------------------|
D|-------------------------------------------------------------|
A|---------------4-4-4-4-4-4-4-4-6-6-6-6-6-6-6-----------------|
E|-2-2-2-2-2-2-2-------------------------------7-7-7-7-7-7-7-7-|
Вверх

Shut Up mp3

Intro
e|--------------------|
B|--------------------|
G|--------------------|
D|-7-7-7-7-7-7-7------|
A|------------------0-|
E|--------------------|

Играем мелодию дважды

Мелодия (играется вместе с бас-гитарой)
e|---------------------------------|
B|---------------------------------|
G|------9-------9------9--------9--|
D|-7-7---7-7-7---------7---------7-|
A|---------------------------------|
E|-----------------9-9----10-10----|

дальше идёт бас с текстом:
Shut the fuck up she said
I?m going fucking deaf
you?re always too loud
everything?s too loud
Now that all my friends left
this place is fucking dead
I want to move out
when can we move out
this shit has got to stop
I?ll run away

Опять мелодию дважды,
а потом бас с текстом:
Get the fuck up she said
your life is meaningless
it?s going nowhere
you?re going nowhere
You?re just a fuck up she said
I?ll live alone instead
she said "you don?t care"
I know I don?t care

затем Комбинацию1 дважды с текстом:
I?ll never ask permission from you
Fuck off I?m not listening to you

Комбинация1:
"I’ll never…"
E|------------------------------------------|
B|------------------------------------------|
G|---------------------------14-14-14-14-14-|
D|-5-5-5-5-5--5-5-5-5-5-14-14-14-14-14------|
A|-5-5-5-5-5--5-5-5-5-5-12-12-12-12-12------|
E|-7-7-7-7-7---7-7-7-7-7--------------------|

потом Комбинацию2 дважды с текстом:
I?m not coming home
I?m never going to come back home

Комбинация2:
"I’m not coming home"
E|-----------------------------------------|
B|-----------------------------------------|
G|-----------------------------------------|
D|-9-9-9-9-9-9-9-9-12-12-12-12-12-12-12-12-|
A|-9-9-9-9-9-9-9-9-12-12-12-12-12-12-12-12-|
E|-7-7-7-7-7-7-7-7-10-10-10-10-10-10-10-10-|

Комбинация3 четырежды с текстом:
I got too fucked up again
and passed out on the plane
tried to forget you
I can?t forget you
No sleep on this flight
I?ll think about the nights
we had to get through
how did we get through?

Комбинация3:
E|--------------------------------------------|
B|--------------------------------------------|
G|--------------------------------------------|
D|-5-5-5-5-5-5-5-5--11-11-11-11-12-12-12-12---|
A|-5-5-5-5-5-5-5-5--11-11-11-11-12-12-12-12---|
E|-7-7-7-7-7-7-7-7----9--9--9--9--10-10-10-10-|

Комбинация1 дважды с текстом:
I?ll never ask permission from you
fuck off I?m not listening to you
Комбинация2 дважды с текстом:
I?m not coming home
I?m never going to come back home
I?ll run away
Сыграть Комбинацию4 шесть раз с текстом(2 раза без текста,
 а потом по строке на тройную комбинацию):
I think it?s time that I should leave
I think it?s time that I should leave
I think it?s time that I should leave
I think it?s time that I should leave

Комбинация4
E|----------------------------------------|
B|----------------------------------------|
G|-9-9-9-9-9-9-9-9--11-11-11-11-7-7-7-7---|
D|-9-9-9-9-9-9-9-9--11-11-11-11-7-7-7-7---|
A|-7-7-7-7-7-7-7-7---9--9--9--9---5-5-5-5-|
E|----------------------------------------|

Играем Комбинацию5, за ней Комбинацию6
Комбинация5
E|----------------------------------------------|
B|----------------------------------------------|
G|-14------13------7-----/18-----16------14-----|
D|---(x8)----(x4)----(x4)---(x8)----(x4)---(x4)-|
A|-12------11------9-----/16-----14------12-----|
E|----------------------------------------------|
Комбинация 6
E|----------------------------------------------|
B|----------------------------------------------|
G|-14------13------7-----/18-----16------19-----|
D|---(x8)----(x4)----(x4)---(x8)----(x4)---(x4)-|
A|-12------11------9-----/16-----14------17-----|
E|----------------------------------------------|
Комбинация 1 дважды с текстом:
I?ll never ask permission from you
fuck off I?m not listening to you
Комбинация2 дважды с текстом::
I?m not coming home
I?m never going to come back home
I?ll run away
Мелодия с текстом:
I think it?s time for me to leave (I?ll run away)
I think it?s time for me to leave (I?ll run away)
I think it?s time for me to leave (I?ll run away)
I think it?s time for me to leave (I?ll run away)
Вверх

Sometimes

Verse:
e|---------------------------------------------------|
B|---------------------------------------------------|
G|---------------------------------------------------|
D|--------------5--5--5--5----------------7--7--7--7-|
A|-2--2--2--2---3--3--3--3---5--5--5--5---5--5--5--5-|
E|-0--0--0--0----------------3--3--3--3--------------|

Solo:
e|---------------------------------------------------|
B|---------------------------------------------------|
G|-4-4-4-4-7-7-7-5-4-----------4-5-7-5-4-----4-5p4---|
D|-------------------7-7-7-5-7-----------5-7-------5-|
A|---------------------------------------------------|
E|---------------------------------------------------|

Chorus:
e|---------------------------------------------------|
B|---------------------------------------------------|
G|---------------------------------------------------|
D|-5--5--5--5-----------------------------5--5--5--5-|
A|-3--3--3--3---5--5--5--5---2--2--2--2---3--3--3--3-|
E|--------------3--3--3--3---0--0--0--0--------------|
Вверх

Stay Together For The Kids mp3

Главная Мелодия:

E|---------------------------------------------------------|
B|---------------------------------------------------------|
G|---------------------------------------------------------|
D|--0--7-0-0-4-0--0--7-0-0-4-0--0--4-0-0-5-0--0--2-2-4-2-0-|
A|-5-5-----------4-4-----------2-2-----------0-0-----------|
E|---------------------------------------------------------| x2

Куплет:

E|---------------------------------------------------------|
B|------3------3------3------3------3------3------3------3-|
G|------2------2------2------2------2------2------2------2-|
D|-0-0----0-0----0-0----0-0--------------------------------|
A|-----------------------------2-2----2-2----2-2----2-2----|
E|---------------------------------------------------------|

E|---------------------------------------------------------|
B|------3------3------3------3------5------5------2------2-|
G|------2------2------2------2------2------2------2------2-|
D|---------------------------------------------------------|
A|-0-0----0-0----0-0----0-0----0-0----0-0----0-0----0-0----|
E|---------------------------------------------------------| x2

Припев:

E|--------------------------------------------------------|
B|--------------------------------------------------------|
G|--------------------------------------------------------|
D|-5-5-5-5-5-5-5-5-5-5-5-5-5-4-4-4-4-4-4-4-4-4-4-4-4-4-4-4|
A|-5-5-5-5-5-5-5-5-5-5-5-5-5-5-5-5-5-5-5-5-5-5-5-5-5-5-5-5|
E|-5-5-5-5-5-5-5-5-5-5-5-5-5-5-5-5-5-5-5-5-5-5-5-5-5-5-5-5| x4

Соло Пианино:

E|---------|
B|-3--3---5|
G|-2--2---4|
D|---------|
A|---------|
E|---------| x4
Вверх

The Country Song

Intro:
e|---------------------------|
B|---------------------------|
G|---------------------------| 1x
D|-------------------------5-|
A|--------------------3------|
E|-3-----5-----7-------------|

Riff 1
e|---------------------------|
B|---------------------------|
G|-------------------------5-|
D|-------------------------5-| 1x
A|-----------------3---------|
E|-3----5----7---------------|

Riff 2
e|---------------------------------------------|
B|---------------------------------------------|
G|-------------5---------5---------5---------5-|
D|-------------5---5-5---5---5-5---5---5-5---5-| 4x
A|-------------3---------3---------3---------3-|
E|-3---5---7-------3-3-------3-3-------3-3-----|

e|-----------|
B|-----------|
G|-----------|
D|-----------|
A|-----------|
E|-3---5---7-|
Repeat Riff 2
Вверх

The Rock Show mp3

  Cm# Gm# Fm# Gm#
E|-4---4--2---4-|
B|-4---4--2---4-|
G|-6---4--2---4-|
D|-6---6--4---6-|
A|-4---6--4---6-|
E|-4---4--2---4-|

Hanging out behind the club on the weekends
Acting stupid, getting drunk with my best friends
I couldn?t wait for the summer and the Warped Tour
I remember that it?s the first time that I saw her there

She?s getting kicked out of school cause she?s failing
I?m kinda nervous, cause I think all her friends hate me
She?s the one, she?ll always be there
She took my hand and I made it I swear

Because I fell in love with the girl at the rock show
She said "what?" and I told her that I didn?t know
She?s so cool, better sneak me through her window
Everything?s better when she?s around
Can?t wait until her parents go out of town
I fell in love with the girl at the rock show

When we said we were gonna move to Vegas
I remember the look her mother gave us
17 without a purpose or direction
We don?t owe anyone a fuckin explanation

I fell in love with the girl at the rock show
She said "what?" and I told her that I didn?t know
She?s so cool, better sneak me through her window
Everything?s better when she?s around
Can?t wait until her parents go out of town
I fell in love with the girl at the rock show

Black and white picture of her on my wall
I waited for her call, she always kept me waiting
And if I ever got another chance I?d still ask her to dance
Because she kept me waiting

I fell in love with the girl at the rock show
She said "what?" and I told her that I didn?t know
She?s so cool, better sneak me through her window
Everything?s better when she?s around
Can?t wait until her parents go out of town
I fell in love with the girl at the rock show

with the girl at the rock show
with the girl at the rock show
(I?ll never forget tonight)
with the girl at the rock show...
Вверх

TV

Intro:
e|-----------------------------------------------------------|
B|-----------------------------------------------------------|
G|-----------------------------------------------------------|
D|-----------------------3-----3---3-------------------------|
A|-----3-----3---3-/-1-1---1-1---1---/-----3-----3---3-/-1-1-|
E|-1-1---1-1---1---/-----------------/-1-1---1-1---1---/-----|

E|-------------|                                        X 2
B|-------------|
G|-------------|
D|-3-----3---3-|
A|---1-1---1---|
E|-------------|

e|---------------------------------------------------------|
B|---------------------------------------------------------|
G|---------------------------------------------------------|
D|-----------------------3-----3---3--------10-----10---10-|
A|-----3-----3---3-/-1-1---1-1---1---/--8-8----8-8----8----|
E|-1-1---1-1---1---/-----------------/---------------------|

E|-------------------|
B|-------------------|
G|-------------------|
D|-------3-----3---3-|
A|-/-1-1---1-1---1---|
E|-/-----------------|

e|-----------------------------------------------------------|
B|-----------------------------------------------------------|
G|-----------------------------------------------------------|
D|-----------3-3-3-3-------------3-3-3-3-------------3-3-3-3-|
A|-3-3-3-3-/-1-1-1-1-/-3-3-3-3-/-1-1-1-1-/-3-3-3-3-/-1-1-1-1-|
E|-1-1-1-1-/---------/-5-5-5-5-/---------/-1-1-1-1-/---------|

E|------------|
B|------------|
G|--------3-3-|
D|--------3-3-|
A|/-5-5-/-1-1-|
E|/-3-3-/-----|

Distortion kicks in....
e|----------------------------------|
B|----------------------------------|
G|------------------3-3-3-3-3-3-3-3-|
D|-3-3-3-3-3-3-3-3--3-3-3-3-3-3-3-3-|x4
A|-3-3-3-3-3-3-3-3--1-1-1-1-1-1-1-1-|
E|-1-1-1-1-1-1-1-1------------------|

e|------------------------------------|
B|------------------------------------|
G|------------------------------------|
D|-3-3-3-3--5-5-5-5--7-7-7-7--8-8-8-8-|
A|-3-3-3-3--5-5-5-5--7-7-7-7--8-8-8-8-|
E|-1-1-1-1--3-3-3-3--5-5-5-5--6-6-6-6-|

Verse:
e|--------------------------|
B|--------------------------|
G|--------------3-3-3-3-1-0-|
D|-3-3-3-3-1-0--3-3-3-------|x4
A|-3-3-3--------1-1-1-------|
E|-1-1-1--------------------|
pm ...    ...

Chorus:
e|-----------------------------------------------|
B|----------------------6-4-3--------------------|
G|------------3-3-3-3-3-------------------3-3-3/-|
D|-3-3-3-3-3--3-3-3-3-3--------3-3-3-3-3--3-3-3/-|
A|-3-3-3-3-3--1-1-1-1-1--------3-3-3-3-3--1-1-1/-|
E|-1-1-1-1-1-------------------1-1-1-1-1---------|

Solo:
e|-----------------------------------------------------|
B|-----------------------------------------------------|
G|-----5-----5-----6-9-7------4-7-5------7-5-0-0-------|
D|-----------------------------------------------7-5-0-|x2
A|-3-3---3-3---6-6--------0-0--------0-0---------------|
E|-----------------------------------------------------|
pm ...   ...   ...        ...        ...

BASS:
intro:
G|---------------10--10-10---------------10--10-10-|
D|---10--10-10-88--88--8-----10--10-10-88--88--8---|
A|-88--88--8---------------88--88--8---------------|
E|-------------------------------------------------|

G|---------------10--10-10-|
D|---10--10-10-88--88--8---|
A|-88--88--8---------------|
E|-------------------------|

intro (cont.):
G|------17------17--17---10--10-10-|
D|-15-15--15-15---15---88--88--8---|
A|---------------------------------|
E|---------------------------------|

intro (part 2):
G|5555-10101010-7777-10101010-5555-10101010-7777-10101010-|
D|3333-8-8-8-8--5555-8-8-8-8--3333-8-8-8-8--5555-8-8-8-8--|
A|--------------------------------------------------------|
E|--------------------------------------------------------|

Chorus:
G|-----3333----3333-|
D|-3333----5555-----|
A|------------------|
E|------------------|

Mark throws this in every now and then...just listen for it:
G|-------------------------|
D|-33333-55555-77777-88888-|
A|-------------------------|
E|-------------------------|
Verse: (repeat many times...)
Вверх

TV (2 вариант)

G|----------------99-99---------------99-99-------------99-----|
D|----99----99-88-88-----99--99-88-88-----99---99-88-88---1515-|
A|-88----88-------------88--88--------------88---88------------|
E|-------------------------------------------------------------|

G|-99--1717-99-|
D|----88-------|
A|-------------|
E|-------------|

2nd part of intro + chorus

G|----3>---3>-|
D|-3>---5>----|
A|------------|
E|------------|

Verse

G|-----3>-|
D|-3>-----|
A|--------|
E|--------|

The lala.. Part

G|-5>-----------|
D|-----7>-5>-3>-|
A|--------------|
E|--------------|
Вверх

Untitled

gtrs. 1 & 2
E|-----------|---------------|-----------|---------------|
B|-----------|---------------|-----------|---------------|
G|---------^-|---------------|-----------|---------------| Play
D|-4-4-4-4-4-|-4-4-4-4-4-4-4-|---------^-|---------------|  6x
A|-2-2-2-2-2-|-2-2-2-2-2-2-2-|-2-2-2-2-2-|-4-4-4-4-4-4-4-|
E|-----------|---------------|-0-0-0-0-0-|-2-2-2-2-2-2-2-|

 gtr. 1
E|------------|-----------|-----------|-----------|-----------|
B|------------|-----------|-----------|-----------|-----------|
G|----------9-|-9-----94--|-4-----4/6-|-6-----6/8-|-8-----8/9-|
D|-6------6/9-|-9---------|-----------|-----------|-----------|
A|-6------6/7-|-7-----72--|-2-----2/4-|-4-----4/6-|-6-----6/7-|
E|-4------4/--|-----------|-----------|-----------|-----------|

 gtr. 2
E|-------|---|---|---|---|
B|-------|---|---|---|---|
G|-----9-|-9-|-4-|---|---|
D|-6-6/9-|-9-|-4-|-4-|-6-|
A|-6-6/7-|-7-|-2-|-4-|-6-|
E|-4-4/--|---|---|-2-|-4-|

E|-----------|------------|-----|
B|-----------|------------|-----|
G|-9------94-|-4------4/6-|-6-4-|
D|-----------|------------|-----|
A|-7------72-|-2------2/4-|-4-2-|
E|-----------|------------|-----|

E|---|---|-------|------------------|-----------------|
B|---|---|-------|------------------|-----------------|
G|-9-|-4-|-------|*-4-4-4-4-4-4-4-4-|-----------------|
D|-9-|-4-|-4--2--|*-4-4-4-4-4-4-4-4-|-6-6-6-6-6-6-6-6-|
A|-7-|-2-|-4--2--|--2-2-2-2-2-2-2-2-|-6-6-6-6-6-6-6-6-|
E|---|---|-2--0--|------------------|-4-4-4-4-4-4-4-4-|

(gtr. 2)
E|-----------------|------------------|------------------|
B|-----------------|------------------|------------------|
G|-----------------|-9-9-9-9-8-8-8-8-*|*-4-4-4-4-4-4-4-4-|
D|-4-4-4-4-4-4-4-4-|-9-9-9-9-8-8-8-8-*|*-4-4-4-4-4-4-4-4-|
A|-4-4-4-4-4-4-4-4-|-7-7-7-7-6-6-6-6--|--2-2-2-2-2-2-2-2-|
E|-2-2-2-2-2-2-2-2-|------------------|------------------|
 gtr. 1
E|------------------|
B|------------------|
G|*-4-4-4-4-4-4-4-4-|
D|*-----------------|
A|--2-2-2-2-2-2-2-2-|
E|------------------|

 (gtr. 2)
E|-----------------|------------------|-----------------|
B|-----------------|------------------|-----------------|
G|-----------------|-----------------*|-----------------|
D|-2-2-2-2-2-2-2-2-|-4-4-4-4-4-4-4-4-*|-6-6-6-6-6-6-6-6-|
A|-2-2-2-2-2-2-2-2-|-4-4-4-4-4-4-4-4--|-6-6-6-6-6-6-6-6-|
E|-0-0-0-0-0-0-0-0-|-2-2-2-2-2-2-2-2--|-4-4-4-4-4-4-4-4-|

 (gtr. 1)	     (not part of Fig. 1)
E|-----------------|
B|-----------------|
G|-----------------|
D|-6-6-6-6-6-6-6-6-|
A|-----------------|
E|-4-4-4-4-4-4-4-4-|

								 end Fig. 1
E|-----------------|-----------------|-----------------|
B|-----------------|-----------------|-----------------|
G|-9-9-9-9-9-9-9-9-|-4-4-4-4-4-4-4-4-|-----------------|
D|-9-9-9-9-9-9-9-9-|-4-4-4-4-4-4-4-4-|-4-4-4-4-4-4-4-4-|
A|-7-7-7-7-7-7-7-7-|-2-2-2-2-2-2-2-2-|-4-4-4-4-4-4-4-4-|
E|-----------------|-----------------|-2-2-2-2-2-2-2-2-|

E|-----------------|-----------------|-----------------|
B|-----------------|-----------------|-----------------|
G|-9-9-9-9-9-9-9-9-|-4-4-4-4-4-4-4-4-|-6-6-6-6-6-6-6-6-|
D|-----------------|-----------------|-----------------|
A|-7-7-7-7-7-7-7-7-|-2-2-2-2-2-2-2-2-|-4-4-4-4-4-4-4-4-|
E|-----------------|-----------------|-----------------|

E|-----------------|-----------------|-----------------|
B|-----------------|-----------------|-----------------|
G|-----------------|-9-9-9-9-9-9-9-9-|-4-4-4-4-4-4-4-4-|
D|-6-6-6-6-6-6-6-6-|-9-9-9-9-9-9-9-9-|-4-4-4-4-4-4-4-4-|
A|-6-6-6-6-6-6-6-6-|-7-7-7-7-7-7-7-7-|-2-2-2-2-2-2-2-2-|
E|-4-4-4-4-4-4-4-4-|-----------------|-----------------|

E|-----------------|-----------------|-----------------|
B|-----------------|-----------------|-----------------|
G|-8-8-8-8-8-8-8-8-|-9-9-9-9-9-9-9-9-|-4-4-4-4-4-4-4-4-|
D|-----------------|-----------------|-----------------|
A|-6-6-6-6-6-6-6-6-|-7-7-7-7-7-7-7-7-|-2-2-2-2-2-2-2-2-|
E|-----------------|-----------------|-----------------|

 gtrs. 1 & 2
E|-----------------|-----------------|--------|--------|-------|
B|-----------------|-----------------|--------|--------|-------|
G|-----------------|-----------------|-4------|-(4)----|--(4)--|
D|-4-4-4-4-4-4-4-4-|-2-2-2-2-2-2-2-2-|--------|--------|-------|
A|-4-4-4-4-4-4-4-4-|-2-2-2-2-2-2-2-2-|-2------|-(2)----|--(2)--|
E|-2-2-2-2-2-2-2-2-|-0-0-0-0-0-0-0-0-|--------|--------|-------|
 gtrs. 3 & 4
E|-----------------|-----------------|--------|--------|-------|
B|-----------------|-----------------|--------|--------|-------|
G|-6-6-6-6-6-6-6-6-|-4-4-4-4-4-4-4-4-|*-------|--------|-------|
D|-----------------|-----------------|*---1-4-|--4-2-1-|---1-4-|
A|-4-4-4-4-4-4-4-4-|-2-2-2-2-2-2-2-2-|--2-----|--------|-------|
E|-----------------|-----------------|--------|--------|-0-----|

(gtrs. 3 & 4)   gtrs. 1 & 2
E|---------|  -----------------|-^-|--|
B|---------|  -----------------|-5-|--|
G|--------*|  -4-4-4-4-4-4-4-4-|---|--|
D|--4-2-1-*|  -----------------|---|--|
A|---------|  -----------------|---|--|
E|---------|  -----------------|---|--|

gtr. 1, w/gtr. 2 - Fig. 1, 2x
E|------------------|-----------------|-----------------|
B|------------------|-----------------|-----------------|
G|*-8-8-8-8-8-8-8-8-|-9-9-9-9-9-9-9-9-|-8-8-8-8-8-8-8-8-|
D|*-----------------|-----------------|-----------------|
A|--6-6-6-6-6-6-6-6-|-7-7-7-7-7-7-7-7-|-6-6-6-6-6-6-6-6-|
E|------------------|-----------------|-----------------|

E|-----------------|------------------|-----------------|
B|-----------------|------------------|-----------------|
G|-6-6-6-6-6-6-6-6-|*-8-8-8-8-8-8-8-8-|-6-6-6-6-6-6-6-6-|
D|-----------------|*-----------------|-----------------|
A|-4-4-4-4-4-4-4-4-|--6-6-6-6-6-6-6-6-|-4-4-4-4-4-4-4-4-|
E|-----------------|------------------|-----------------|

 gtr. 2
E|------------------|-----------------|
B|------------------|-----------------|
G|*-4-4-4-4-4-4-4-4-|-----------------|
D|*-4-4-4-4-4-4-4-4-|-4-4-4-4-4-4-4-4-|
A|--2-2-2-2-2-2-2-2-|-4-4-4-4-4-4-4-4-|
E|------------------|-2-2-2-2-2-2-2-2-|

 Play 3x
E|------|
B|-^----|
G|-4----|
D|------|
A|-2----|
E|------|

E|------|
B|-^----|
G|-4----|
D|-4----|
A|-2----|
E|------|

 Untitled
I think of awhile ago
we might have had it all
I was so stupid then
you needed time to grow
But now just as things change
as well my feelings do
in time things rearrange
I am so sick of chasing you

But what do I get ?cause I just seem to lose
you make me regret those times I spent with you
and playing those games as I wait for your call
and now I give up, so goodbye and so long

It?s not a change of pace
this time I?ll get it right
it?s not a change of taste
I was the one there last night

You have your other friends
they were there when you cried
didn?t mean to hurt you then
best friends just won?t leave your side

But what do I get ?cause I just seem to lose
you make me regret those times I spent with you
and playing those games as I wait for your call
and now I give up, so goodbye and so long

It?s not a change of pace
this time I?ll get it right
it?s not a change of taste
I was the one there last night

When I needed you most
when I needed a friend
you let me down now
like I let you down then

So sorry, it?s over
Вверх

Waggy

INTRO: (x2)

E|---------------|
B|---------------|
G|----7-6--7-6---|
D|----7-7--7-7---|
A|-0-------------|
E|---------------|

Riff #1: (listen to the song for the exact picking)

E|------------------------------------------|
B|------------------------------------------|
G|------------------------------------------|
D|------------------------------------------|
A|---4---7---5---4---5---7-------5----------|
E|---------------------------7-------7---7--|  (x2)

Intro Riff (x8)

Watching your house shrink away in my rear-view mirror
As I drive away
Wishing that I could take back all those words
That meant nothing that I didn?t say

A5
I?m trying
F#5                       D5
To be what you want me to be
A5
But it?s so damn hard to keep playing the part
F#5                     D5
Of the fool, week after week.

CHORUS:

F#5         D5             B5
I think you need some time alone
(I think you need some time alone)
F#5         D5             A5
You say you want someone to call your own
F#5          D5            B5
Open your eyes, you can suck in your pride
F#5          D5
You can live your life all on your own.


Riff #1: (listen to the song for the exact picking)

E|------------------------------------------|
B|------------------------------------------|
G|------------------------------------------|
D|------------------------------------------|
A|---4---7---5---4---5---7-------5----------|
E|---------------------------7-------7---7--|  (x2)

Is this all going to be just another time
That we play this game?
I?ve tried to convince you that things could be different
But somehow they end up the same

A5
But what
F#5                 D5
Did you expect from me?  What am I supposed to do?
A5                                                       F#5
You say that you?re starting to feel like you?re getting lost
            D5
Well, I do, too.

F#5           D5            B5
I don?t wanna live this lie again
(I don?t wanna live this lie again)
F#5           D5            A5
I know I?ll get it right but I don?t know when
F#5           D5            B5
I?ll open my eyes, I?ve got something in side
F#5           D5                         A5
I?ll just jack off in my room until then.

Riff #4

E|-------------|
B|-------------|
G|-------------|
D|--P----P-----|
A|-0-5--0-4----|
E|-------------|

P: pich hitting

Riff #5 (x2)

E|------------------------------------------|
B|---6---9---7---6---7---9-------7---7------|
G|---------------------------6-----------6--|
D|------------------------------------------|
A|------------------------------------------|
E|------------------------------------------|

It?s never over ?til it?s done
And I don?t think that you?re the one

Intro Riff (x8)

It?s never over ?til it?s done
And I don?t think that you?re the one

Intro Riff (x4)

End with A5
Вверх

Whats My Age Again

Intro
e|-------6-----------6-----------6-----------6----|
B|----7-----7-----7-----7-----7-----7-----7-----7-|
G|-4----------------------------------------------|
D|-------------4----------------------------------|
A|-------------------------4-----------6----------|
E|------------------------------------------------|

I took her out, it was a Friday night, I wore cologne,
to get the feeling right. We started making out, and
she took off my pants, but then I turned on the tv, and
that?s about the time

1st Verse - Play the intro riff.

Chorus
e|----------------------------------------|
B|----------------------------------------|
G|---------6-6-------8-8-------4--4-4-4-0-|
D|-4----0--6-6----0--8-8----0--4--4-4-4-0-|
A|-4----0--4-4----0--6-6----0--2--2-2-2-0-|
E|-2----0---------0---------0-------------|

e|-------6-----------6-----------6-----------6----|
B|----7-----7-----7-----7-----7-----7-----7-----7-|
G|-4----------------------------------------------|
D|-------------4----------------------------------|
A|-------------------------4-----------6----------|
E|------------------------------------------------|

2nd Verse
e|------------------------------------|
B|------------------------------------|
G|-4-4-4-4-----------6-6-6-6--8-8-8---|
D|-4-4-4-4--4-4-4-0--6-6-6-6--8-8-8-0-|
A|-2-2-2-2--4-4-4-0--4-4-4-4--6-6-6-0-|
E|----------2-2-2-0-----------------0-|

she walked away from me.
Nobody likes you when your twenty-three
And I?m still more amused by tv shows.
What the hell is A.D.D.? My friends say I should
act my age. What?s my age again? What?s my age again?

Intro

Verse 2 (Palm Mute the Chorus)

Then later on, on the drive home, I called
her mom, from a pay phone. I said "I was the cops, and
your husband?s in jail. The state looks down on sodomy."
And that?s about the time

Chorus

that bitch hung up on me.
Nobody likes you when you?re twenty-three.
And I?m still more amused by prank phone calls,
what the hell is caller ID? My friends say I should
act my age. What?s my age again? What?s my age again?

Interlude
e|---6---6-----6---|
B|-----7---7-----7-|
G|-4---------4-----|
D|-----------------|
A|-----------------|
E|-----------------|
w/flanger
e|-6------------|---------------|
B|------7-----7-|---------------|
G|--------------|-----------3h4-|flanger part 4x
D|--------------|-4--4--4-------|
A|--------------|---------------|
E|--------------|---------------|
  w/flanger
e|----------2-------|-------------2---------|
B|------------------|-----------------------|
G|----3-----------3-|-------3-------------3-|
D|-4-----4-----4----|-4--4-----4-------4----|variate this
A|------------------|-----------------------|and repeat
E|------------------|-----------------------|

Outro
Play the chorus
Вверх

When You Fucked Grandpa

Verse:

E|-2--0--2--0-----------0---------|
B|---3--3--3--3---3---3---2---2-3-|
G|------------------0-------2-----|
D|-0--0--0--0---------------------|
A|------------------------0---0---|
E|----------------3---3-----------|

Chorus:

E|---------------------------------|
B|-3---3---3---3-----2---2---2---2-|
G|---0---0---0---0-----2---2---2---|
D|---------------------------------|
A|-------------------0---0---0---0-|
E|-3---3---3---3-------------------|
Вверх
English songs 109

ABBA
AC-DC
Adams Bryan
Adriano Celentano
Aerosmith
A-Ha
Animals
Antonio Banderos
Apocalyptica
Armstrong Louis
Billy's Band
Bjork
Blink 182
Blondie
Blur
Bob Dylan
Boney M
Bon Jovi
Bowie David
Brainstorm
Braxton Toni
Butch
Celine Dion
Chris De Burgh
Chris Isaak
Chuck Berry
Clapton Eric
Cohen Leonard
Cranberries
Deep Purple
Depeche Mode
Dire Straits
Donovan Jason
Eagles
Electric Light Orchestra
Elton John
Elvis Presley
Era
Europe
Evanescence
Garbage
Gary Moore
Glen Wiston
Gorillaz
Green Day
Guano Apes
Guns N Roses
Hendrix Jimi
Iggy Pop
Iron Maiden
Joe Dassin
Kansas
King Crimson
Kiss
Led Zeppelin
Leonard Cohen
Limp Bizkit
Linkin Park
Louis Amstrong
Madonna
Marilyn Manson
Marley Bob
Metallica
Moby
Morricone Ennio
Muse
Nazareth
Nelly Furtado
Nick Cave
Nirvana
No Doubt
Oasis
Offspring
Ottawan
Outkast
Ozzy Osbourne
Pain
Para Bellum
Pink Floyd
Placebo
P.O.D.
Queen
RadioHead
Rainbow
Rammstein
Rea Chris
Red Hot Chili Peppers
Ritchie Blackmore
Rolling Stones
Roxette
Rufus Wainwright
Santana
Sarah Brightman
Scorpions
Sex Pistols
Simon & Garfunkel
Shocking Blue
Soul Asylumx
Status Quo
Sting
System of a down
Sum 41
The Beatles
The Doors
Tito & Tarantula
U2
UB 40
Uriah Heep
Van Halen

Українські пісні 109

Boom Box
Escape
Flit
Kapela Drewutnia
Lama
LЮK
Mad Heads (XL)
Motor' rolla
NEON
Ot Vinta
The Вйо
Абздольц
Аероплан
Акорд
Ані Лорак
Бандурна розмова
Білик Ірина
Борщ
Брати Гадюкіни
Вася Club
Вій
Воплі Відоплясова
Гайдамаки
Гончар Олесь
Гринжоли
Гроно
Гуляйгород
Дарка і Славко
Дивні
Друга Ріка
Другий подих
Дударик
Експампей
Євтушенко Андрій
Жарівка (Дяк Олесь)
Журбовіз
Зібров Павло
Зінкевич Василь
Злотник Олександр
Івасюк Володимир
Калєкція
Карна
Карпа Ірена
Клямка
Козловський Віталій
Кому вниз
Крихітка Цахес
Курінь
Лесик-Band
Лорд Юрія
Львівські музики
Мандри
Менестрелі
Мері
Мертвий Півень
Міпеніум
Монте Крісто
Морозов Віктор
Нахтіґаль
Не журись!
Неборак Віктор
НеДІля
НЕМО
Нічлава блюз
Океан Ельзи
ПереBANDя
Перкалаба
Петрович
Піккардійська Терція
Піпа Олександр
Плач Єремїі
Пономарьов Олександр
Пророк
Росава
Ротару Софія
Руслана
Рутенія
С.К.А.Й.
САД
Самі свої
Серцевий Напад
Скрябін
Смерічка
Сокира Перука
Соколи
Таліта Кум
Тартак
Тінь сонця
Ткач Михайло
ТНМК
Тостер
Тріо Мареничів
Фарбований лис
Фестиваль Снів
Хвилю тримай
Цісик Квітка
Черемош
Черемшина
Четвертий кут
Чорний вересень
Чорні черешні
Шевченко Тарас
Щастя
Юркеш
Юрченко Юрко
Юрчишин Ярослав
Явір
Яка існуЄ
Яремчук Назарій

   
 sait@i.ua



Рейтинг@Mail.ru