accordS-land.ru Аккорды и табулатуры к гитаре.
Главная | Песенник | Аккорды | Учебник
Руссике песни 180
5nizza
7Б
9-й Район
Animal ДжаZ
Billy's Band
Butch
Para Bellum
TequilaJazzz
Worms
Zdob Si Zdub
Автоматические удовлетворители
Агата Кристи
Агузарова Жанна
Агутин Леонид
Адо
Аквариум
Алиса
Алсу
Амирамов Е.
Антонов Ю.
Арефьева Ольга
Ария
АукцЫон
Барыкин
Башаков Михаил
Башлачев Александр
БекХан
Бернес М.
Би - 2
Бони неМ
Борзов Найк
Боярский Михаил
Браво
Братья Грим
Ва-Банкъ
Вертинский Александр
Визбор Юрий
Високосный год
Воскресенье
Восьмая Марта
Высоцкий В.С.
Високосный год
Газманов О.
Галич Александр
Герман А.
Городницкий Александр
Глызин А.
Градский Александр
Гражданская Оборона
Гребещенков
Данко
ДДТ
Дидюля
Диоды
Дискотека Авария
Дягилева Янка
Ёлка
Жуки
Заблудовский Андрей
Запрещенные Барабанщики
Звери
Земляне
Земфира
Зинчук Виктор
Зоопарк
Иван Кайф
Иванов А.
Иваси
ИЗ КИНО И МУЛЬТФИЛЬМОВ
Империя
Калинов мост
Кашин Павел
Кельми К.
КИНО
Кипелов
Конец Фильма
Контингент
Корни
Король и Шут
Коррозия металла
Крематорий
Крупнов Анатолий
Кузьмин Владимир
Куликов Е.
Кукрыниксы
Курехин Сергей
Лаэртский Александр
Ласковый май
Ленинград
Леонидов Максим
Лесоповал
Лещенко Л.
Линда
Лицей
Лоза Юрий
Любэ
Люмен
Ляпис Трубецкой
Мальчишник
Манго-манго
Мара
Маркин В.
Маршал Александр
Маша и медведи
Машина времени
Мечтать
Мистер Кредо
Митяев Олег
Многоточье
Монгол Шуудан
Моральный Кодекс
Мультfильмы
Мумий Тролль
Настя
Науменко Майк
Наутилус Помпилиус
Непара
Неприкасаемые
Несчастный случай
Никоваев И.
Никольский Константин
Ногу свело
Ноль
Носков Николай
Ночные Снайперы
Окуджава Булат
Оркрист
Осин Е.
Оскар
Отиева И.
Паперный Т.А.М.
Парк Горького (Gorky Park)
Пикник
Пилот
Пламя
Полковник и однополчане
Пугачева А.
ПЭХ
Приключения Электроников
Просто прикольные песни
Рада и Терновник
Римский-Корсаков
Розенбаум Александр
Рок-Острова
Рондо
Сансара
Саруханов
Сегодня Ночью
Секрет
Сектор газа
Сенчина Л.
СерьГа
Смысловые Галлюцинации
Сплин
Солодуха А.
Старые блатные песни
Сукачев Гарик
Сурганова и Оркестр
Сюткин Валерий
Тальков Игорь
Танцы минус
Тараканы
Тату
Технология
УмаТурман
Умка и Броневичок
Ундервудъ
Фабрика звезд
Х.З. (Хуй Забей)
Центр
ЧайФ
Черный кофе
Черный Лукич
Чиж и Ко
Чистяков Федор
Шанхай
Щербаков Михаил
Ю-Питер

Классика 22

Албениз Исаак
Албениз Матео
Бах Иоган Себостьян
Бетховен Людвиг ван
Бизе Жорж
Брамс Иоганнес
Вивальди Антонио
Гендель Георг Фридрих
Гершвин Джордж
Григ Эдвард
Дебюсси Клод
Камиль Сен-Санс
Мендельсон
Моцарт Вольфгант Амадей
Мусоргский Модест Пертрович
Норис Крис
Огинский Михал Клеофас
Паганини Никколо
Рахманинов Сергей Васильевич
Римский-Корсаков
Чайковский Пётр Ильич
Шуберт Франц
 

 

Chris Isaak

Another Idea
Baby Did A Bad Bad Thing
Baby Did A Bad Thing
Beautiful Homes
Blue Hotel
Blue Moon
Blue Spanish Sky
Brightest Star
Can't Do A Thing (To Stop Me)
Changed Your Mind
Dancin
Dont Leave Me On My Own
Except The New Girl
Fade Away
Forever Blue
Funeral In The Rain
Going Nowhere
Gone Ridin
Go Walkin Down There
Graduation Day
Graduation Day (2 вариант)
Heart Full Of Soul
I Am Not Waiting
I Believe
Im Not Waiting
I Wonder
Kings Of The Highway
King Without A Castle
Let Me Down Easy
Life Will Go On
Lovers Game
Nothings Changed
Please
Pretty Girls Dont Cry
Round And Round
San Francisco Days
Shadows In A Mirror
Solitary Man
Somebodys Crying
Somebodys Crying (2 вариант)
Song: Lie To Me
Suspicion Of Love
The End Of Everything
There She Goes
There She Goes (2 вариант
Think Of Tomorrow
Waiting For The Rain
Wicked Game
Wicked Games
Wild Love
Wrong To Love You
You Owe Me Some Kind Of Love
Вверх

Another Idea

Intro.
Chords: Am-Em-Am-Em-Am-Em-Am-Em (Palm Mute)Am-Em-Am-Em

Verse 1:
Am Em Am Em
She never sleeps at night she's quiet but she dreams.
Am Em Am Em
Her mind is racing, she plans, she plots, she schemes.
Am Em Am Em
Another idea.

Verse 2:
Am Em Am Em
She takes apart the past and re-writes all her lines.
Am Em Am Em
She's tried to win him back a hundred different times,
Am Em Am Em
She's got another idea.

Chrous:
Am Em Am Em Am
She keeps waiting, hoping he'll come back some day,
Em Am Em Am Em
She'll leave me, until she does I can say.
F G
Wait, please don't go,
Am-Em-Am-Em-Am-Em-Am-Em
I've got another idea.

Verse 3:
Am Em Am Em
No fun to be the one that love is praticed on,
Am Em Am Em
Why should I leave her she wouldn't know I've gone
Am
I've got another idea.

Chrous:
Em Am Em Am
I'll keep waiting, hoping she'll love me someday,
Em Am Em Am Em
She'll want me until she does I can say.
F G
Wait, please don't go,
(Am-Em progression until fade)
I've got another idea.

Solo:Part of this is also played under the intro. chords
E|------------------------|----------------------|----------------------------|
B|------------------------|----------------------|----------------------------|
G|-9-11-12-9---9-11-12s16-|-9-11-12---9-11-12s18-|-17-19--12-15--17-19--12-15-|
D|------------------------|----------------------|----------------------------|
A|------------------------|----------------------|----------------------------|
E|------------------------|----------------------|----------------------------|

E|----------------------------|-19------------19-----------|
B|----------------------------|----19--15-17-----19--15-17-|
G|-17-19--12-15--17-19--12-15-|----------------------------| Fade Out
D|----------------------------|----------------------------|
A|----------------------------|----------------------------|
E|----------------------------|----------------------------|

Вверх

Baby Did A Bad Bad Thing

Intro: (Palm mute most of thge open E’s as close to the end of the strings as
possible with right hand)

E|----------------------|-------------------------|------------------------|
B|----------------------|-------------------------|------------------------|
G|----------------------|-------------------------|---2--2--2--2--2--------|
D|----------------------|-------------------------|---2--2--2--2--2--------|
A|----------------2-----|-------------------------|---0--0--0--0--0--------|
E|-0--0--0--0---0---3-5-|-0-0--0--0--0--0--0-3--5-|-0---------------0-3--5-|

E|--------------------------|-----|
B|--------------------------|-----|
G|--------------------------|-----|
D|--------------------------|-----|
A|---------------2----------|-----|
E|-0-0--0--0--0--0--0-3--5--|(x3)-|

Verse1:
Riff1:
E|-------------------------|
B|-------------------------|
G|-------------------------|
D|-------------------------|
A|---------------2---------|
E|-0-0--0--0--0--0--0-3--5-|
Baby did a bad bad thing. (x4)

E|----------------------------------------|
B|----------------------------------------|
G|---------------------------2--2-2--2--2-|
D|---------------------------2--2-2--2--2-|
A|---------------------------0--0-0--0--0-|
E|-0-0--0--0--0--0--0--0--0---------------|
1)You ever loved someone so much you thought
  your little heart was gonna break in two?
2)You ever try with all your heart and soul to get your lover back to you?
3)You ever prayed with all your heart and soul just to watch her walk away?

E|-----------|
B|-----------|
G|-----------|
D|-----------|
A|-----------|
E|-0-3--5--0-|
1)I didn't think so.
2)I wanna hope so.

Riff1:
Baby did a bad bad thing. (x3)

E|---------------|
B|*------------*-|
G|---------------|
D|---------------|
A|*-----5---5--*-|
E|--3h5---3------|
Feel like crying.
Feel like crying.

Verse 2:
1)You ever toss and turn your lying awake and thinking about the one you love?
2)You ever close your eyes your making
  believe your holding the one your dreaming of?
3)It hurts so bad when you finally know just how low,low,low,low,low, she'll go.
1)I don't think so.
2)If you say so.

Riff1:
Baby did a bad bad thing.
Baby did a bad bad thing.
Baby did a bad bad thing.

E|---------------|
B|*------------*-|
G|---------------|
D|---------------|
A|*-----5---5--*-|
E|--3h5---3------|
Feel like crying.
Feel like crying.

Bridge:
[A] Ewwww ew wa, Feel like crying [E] feel like crying
[A] Ewwww ew wa, Feel like crying! [E] feel like crying!

E|------------------------------------|-----------|---------|
B|*----------------------------------*|-----------|---------|
G|------------------------------------|-----------|-6-8p6h8-|
D|----------2----------2----------2---|-2---------|---------|
A|*-----2h4--------2h4--------2h4----*|-----------|---------|
E|--3h4--------5p3--------3h4---------|---5-b3-0--|---------|

Riff1: (Fade out)
Baby did a bad bad thing.
Baby did a bad bad thing.

Вверх

Baby Did A Bad Thing

Intro Riff:
E|-----------------------------|
B|-----------------------------|
G|-----------------------------|
D|-----------------------------|
A|------------2----------------|
E|0--0--0--0-----0--3--5--3--0-|
*- This riff is played almost throughout the entire song!

Verse 1:
Baby did a bad bad thing.
Baby did a bad bad thing.
Baby did a bad bad thing.
Baby did a bad bad thing.
You ever loved someone so much you thought
your little heart was gonna break in two?
I didn't think so.
You ever try with all your heart
and soul to get your lover back to you?
I wanna hope so.
You ever prayed with all your heart
and soul just to watch her walk away?
Baby did a bad bad thing.
Baby did a bad bad thing.
Baby did a bad bad thing.
Feel like crying.
Feel like crying.

Verse 2:
You ever toss and turn your lying awake
and thinking about the one you love?
I don't think so.
You ever close your eyes your making
believe your holding the one your dreaming of?
If you say so.
It hurts so bad when you finally
know just how low,low,low,low,low, she'll go.
Baby did a bad bad thing.
Baby did a bad bad thing.
Baby did a bad bad thing.
Feel like crying.
Feel like crying.

A E
Ohhhhh.......Feel like crying, feel like crying
A E
Ohhhhh.......Feel like crying, feel like crying

E|-A-E E-A-E
Repeat Main Riff
Baby did a bad bad thing.
Baby did a bad bad thing.

Вверх

Beautiful Homes

Intro: E chord

Verse 1:
E A
In beautiful houses, with beautiful gardens, and beautiful friends inside.
E A
And I stand all alone, the rain falling down, I stare at your window and I cry.
E A E
I love you so much, I love you too much, I love so much, so much,
A
Will you be mine?

Verse 2:
E A
In beautiful houses, with beautiful gardens, where beautiful dreams have died.
E A
And you stand all alone, with your friends all around,
and you stare at your window and cry.
E A E
I love you so much, I love you too much, I love so much, so much,
A
Will you be mine?

Bridge:
E A
And I'm sorry for the things I said, sorry for the things I did,
E A
Sorry for the way I said goodbye.
E A
And I'm sorry for the things I said, sorry for the things I did,
E A
Sorry that I ever made you cry.

Solo: E-A-E-A-E-A-E-A

Verse 3:
E A
In beautiful houses, with beautiful gardens, and beautiful friends inside.
E A
And I stand all alone, with my world falling down,
and I stare at your window and I cry.
E A E
I love you so much, I love you too much, I love so much, so much,
A
Will you be mine?
E A
I love you so much, so much, will you be mine?

Solo 2: E-A-E-A-E-A-E-A- Oh darling!-E-A-E-A

Вверх

Blue Hotel

Am Am D Dm
Blue Hotel, On a lonely highway
Am Am D Dm
Blue Hotel, Life don't work out my way

Intro:
E|---------0---|-0-|-X-|
B|-------1---1-|-1-|-X-|
G|-----2-------|-2-|-1-| Repeate This 3 Times
D|---2---------|-3-|-2-|
A|-0-----------|-3-|-2-|
E|-------------|-X-|-X-|

Am Am D Dm
Blue Hotel, On a lonely highway
Am Am D Dm
Blue Hotel, Life don't work out my way
F E
I wait alone each lonely night
Am Am D Dm
Blue Hotel
Am Am D Dm
Blue Hotel
Am Am D Dm
Blue Hotel, Every room is lonely
Am Am D Dm
Blue Hotel, I was waiting only
F E
The night and the light of her lonely dream
Am Am D Dm
Blue Hotel
Am Am D Dm
Blue Hotel

(Repeate Intro. 3 times) Leads Into Instrumental

Am-Am-D-Dm/Am-Am-D-Dm/F-E
Am-Am-D-Dm/Am-Am-D-Dm

Am Am D Dm
Blue Hotel, On a lonely highway
Am Am D Dm
Blue Hotel, Life don't work out my way
F E
I wait alone each lonely night
Am Am D Dm
Blue Hotel
Am Am D Dm
Blue Hotel

Am-D-Dm-Am ---Ending Rhythum

Вверх

Blue Moon

Intro. Chords: C-Am-F-G-C-Am-F-G


Verse 1:
C Am F G C Am F G C Am F
Blue moon, you saw me standing alone, without a dream in my heart.
G C Am F G
Without a love of my own.
C Am F G C Am F G C Am F
Blue moon, you knew just what I was there for, you heard me saying a prayer for.
G C Am F G
Someone to call my own.

C-Am-F-G G C Am F G
Oh, oh, someone to call my own.


C Am F G C Am F G C Am F
Blue moon, you saw me standing alone, without a dream in my heart.
G C Am F G
Without a love of my own.

C-Am-F-G G C Am F G
Ah, without a love of my own.

C Am F G C Am F G C Am F
Blue moon, oh blue moon, ah.
G C F F C
Without a love of my own.

Вверх

Blue Spanish Sky

E|-----------------------|---------------------------|
B|-----------------------|---------------------------|
G|-----------------------|---------------------------|
D|---------2h3-----------|----------2--0-------------|
A|2--3--5-------3--2-----|-2--3--5--------3--2--0----|
E|--------------------0--|-------------------------3-|

Intro Chords: Am-G-F-E

Am G F E
It's a big blue spanish sky
Am G F E
Lay on my back and watch clouds roll by
Am G F E
I've got the time to wonder why
Am G F E
She left me.
Am G F E
It's a slow sad spanish song
Am G F E
I knew the words but I sang them wrong
Am G F E
The one I love has left and gone
Am G F E
Without me.

C G
Now she's gone, our world has changed
E Am G F E
Watching a blue sky, thinking of rain

(Pre-Solo Riff)
E|-----------|
B|-----------|
G|-----------|
D|-----------|
A|2--3--5h6p-|
E|-----------|

Trumpet Solo Chords: Am-G-F-E played four times

Am G F E
It's a slow sad spanish song
Am G F E
I knew the words but I sang them wrong
Am G F E
The one that I love has left and gone
Am G F E
Without me.
Am G F E
It's a big blue spanish sky
Am G F E
I Lay on my back and watch clouds roll by
Am G F E
I only wish I could make you cry
Am G F E
Like I do.
Am G F E
Like I do
Am G F E
Like I do
Am G F E
Am G F E
(Ending Riff)
E|--------------|
B|--------------|
G|--------------|
D|--------------|
A|2h3p--3h2p--2-|
E|--------------|
Am

Вверх

Brightest Star

Em A D

Em A
I saw a star above the clouds
D
It was the brightest one
A D
And I have just begun to understand you
Em A
You give me reason to believe
D
And though I've doubted you
A
You always see me through
D G
I would owe to you
A D
Your love
Bm G
You give it away
A
I fall to my knees and I pray
Em A D
And from a cross they say you give your love to everyone
A
I think of all I've done
D G
And still you care for me
A D
Your love
Bm G
You give it away
A
I fall to my knees and I pray
Em
Your love

A D A D G A D Bm G A

Em A
And in the crowd I smile and listen
D
As the children sing
A
Their voices caroling
D G
Each lyric means one thing
A D
Your love
Bm G
You give it away
A
I fall to my knees and I pray
D Bm
Your love
D Bm
Your love
D Bm D
I praise your love

Вверх

Can't Do A Thing (To Stop Me)

Intro:Dbm-Abm-Dbm-Abm
E|----------------------------------------| A slightly modified
B|----------------------------------------| version of this gets
G|-1s15-15-15s13-13s15-15-15s20-18-15-13--| played under some of
D|----------------------------------------| the verses.
A|----------------------------------------|
E|----------------------------------------|

Verse 1:
Dbm Abm Dbm Abm
Here I go again, dreaming, here I go again.
Dbm Abm
(Can't do a thing to stop me now)
Dbm Abm
(Can't do a thing to stop me now)
Dbm Abm Dbm Abm
Having a good time baby, wish you were here.
Abm Dbm Abm Dbm Abm
Thinking about you baby, it feels like you're near,
Dbm Abm Dbm
And you can't do a thing, to stop me.
Abm
(Can't do a thing to stop me now)
Dbm Abm Dbm
No you can't do a thing, to stop me.
Abm
(Can't do a thing to stop me now)

Verse 2:
Dbm Abm Dbm Abm
Days can be lonely, nights dreams come true.
Abm Dbm Abm Dbm Abm
Making love with somebody, exactly like you.
Dbm Abm Dbm
And you can't do a thing, to stop me.
Abm
(Can't do a thing to stop me now)
Dbm Abm Dbm
No you can't do a thing, to stop me.
Abm
(Can't do a thing to stop me now)

Oh try.
Dbm Abm
(Can't do a thing to stop me now)

Can't do a thing to stop me
Dbm Abm
(Can't do a thing to stop me now) Oh.

(Can't do a thing to stop me)

Bridge:
Ebm B Db
Couldn't stop myself if I tried.
Ebm B Db
Because I got you too deep inside.

Refrain:
Dbm Abm Dbm
And you can't do a thing, to stop me.
Abm
(Can't do a thing to stop me now)
Dbm Abm Dbm
No you can't do a thing, to stop me.
Abm
(Can't do a thing to stop me now)
Dbm
Try.

(Repeate Refrain Until Fade)

Вверх

Changed Your Mind

Intro: Slow bass rumble, Em-Am

Verse 1:
Em
Over where the rainbow meets the darkened sky,
Am Em
I pretended there was hope for you and I.
G B
Now too late I guess the real world I find,
Am Em
You changed your mind, you changed your mind.

Verse 2:

Am Em
Over where tomorrow chases clouds away,
Am Em
I pretended that somehow you'd really stay.
G B
Now I'm left here with those dreams you've tossed away,
Am Em
You changed your mind, you changed your mind.

Solo: Am-Em-Am-Em-Am-Em-B-Am-Em

Verse 3:

Am Em
Over where the rainbow meets the darkened sky,
Am Em
I belived that we would never say goodbye.
G B
Now I'm standing here alone too late too cry,
Am Em
You changed your mind, you changed your mind,
Am Em
You changed your mind, you changed your mind.

Spoken Verse 4:

Am Em Am Em
" I want your love, I need your love, Too late you changed your mind."
Am Em Am Em
" I want your love, I still need your love, Too late you changed your mind."
C Cm G Em C Cm G Em
Ohhhhhhhhh, you changed your mind, ohhhhhhhhh, you changed your mind.
Em C Cm G Em
You changed your mind, ohhhhhhhhh, you changed your mind......
(Fade Out)

Вверх

Dancin

Verse 1:
Fm
I keep on dancin', Dancin'.
Fm
Nothing left to say, nothing left to do,
I find myself alone thinking just of you.
Fm
You got me dancin', dancin'
Fm
Why don't you help me, why don't you guide me,
why don't you promise, to stand beside me?

{Organ/Guitar Solo 1 :51}

Verse 2:
Fm
There was once a man in a foreign land,
in love with a woman that he didn't understand.
Fm
Love is not a thing you command,
love is something that keeps you and keeps you
Fm
Dancin', dancin'.
Fm
Why don't you help me, why don't you guide me,
why don't you promise to stand beside me?
Fm
{Organ/Guitar Solo 2 1:46}

Verse 3:
Fm
I keep on dancin', dancin'
Fm
Nothing left to say, nothing left to do,
I find myself alone thinking just of you.
Fm
You got me dancin', dancin'
Fm
Why don't you help me, why don't you guide me,
 why don't you promise to stand beside me?
Fm
{Organ/Guitar Solo 3 2:40}
Dancin' Dancin' Dancin' You Got me....Ohhhhhhh.Help me.
Guide me, why don't you promise to stand beside me, help me, ohhh.

Вверх

Dont Leave Me On My Own

Intro. Chords: Db- Ab- Db


Verse 1:
Db Ab
I've been thinking a lot about you, I'm so lonely here without you, please...
Db
Don't leave me on my own.
Db Ab
I was hoping that you would write me,
or come and see me or just invite me, please.....
Db
Don't leave me on my own.
Gb Db
If you'd come back here, I'd fix the place up,
I really love you, let's not give up, please....
Ab
Don't leave me on my own.
Db Ab
I stay up late now cause' I've been crying,
I'd say I'm ok but I'd be lieing, please.....
Db
Don't leave me on my own.

{Guitar Solo 1:17} Gb
Db Ab
Please! Don't leave me all alone!
Db Ab
I've been thinking a lot about you, I'm so lonely here without you, please...
Db
Don't leave me on my own.
Ab Db
Please, don't leave me on my own.
Ab Db
Please, don't leave me on my own.

Вверх

Except The New Girl

Intro: D chord with slide guitar

Verse 1:
D F# G
Drive your mustang down, to where you hang out
D
Alone without a friend.
D F#
Girls walk by you, some in fact have tried you
G D
But once they tried they never tried again.

Chrous:
G D
Except the new girl.
G D
Except the new girl.

Verse 2:
D F# G
Alone and lonesome, trusting no one they say
D
You never had a friend.
D F# G
People talk about you, they say they doubt you really
D
Ever let anybody in.

Chrous:
G D
Except the new girl.
G D
Except the new girl.

Solo: D-F#-G-D-D-F#-G-" I guess there's never been anyone." D

Chrous:
G D
Except the new girl.
G D
Except the new girl.

Verse 3:
D F# G
Last time I saw him, he was laughing
D
She was standing by his side.
D F# G
I've got a feeling, that they're still together
D
From the look that was in his eyes. There's no one,

Chrous:
G D
Except the new girl.
G D
Except the new girl.

Bridge:
G D
See him smile, he don't care.
A D
Says he loves her, and he'll always love her.
G D
See him smile, it seems fair.
A D F#
That he finally found her, finally hold her. There's no one,

Chrous:
G D
Except the new girl.
G D
Except the new girl.
G D
Except the new girl.

End on D

Вверх

Fade Away

Intro:
E F# E F#
Flowers and Gardens, abandoned from view.
E Bm F#
Cry for their love, like I do.

Verse 1:
F#
People throw their love to whisper, think of all the boys who've kissed her.
F#
But to me it doesn't matter they, fade away, they fade away.
F#
Fade away.

Verse 2:
F#
When we meet we fell together, now she's gone I can't forget her.
F#
Love is chance but time won't let her, fade away and fade away.
F#
Fade away, fade away.

Guitar Solo: F# all the way through!

Verse 3:
Bm E F#
Alot of flowers in this world are never seen.
Bm E F#
I wanna hold you love, I wanna win your love for me.
F#
Fade away.
F#
For me there was no sunshine, for me there was no rain.
F#
For me until I meet you, every day was the same.
F# Bm-E-F Bm-E-F
Fade away, fade away, fade away.
F#
Fade away, fade away, fade away, fade away.
F#
Fade, fade, fade, fade away
F#
Fade......away, fade away, fade away, fade away, fade away, fade away.

Вверх

Forever Blue

Intro:
A F#m C#m
A F#m C#m
D A E7 A
F E7 A E7

A F#m C#m A
Nobody ever warns you
F#m C#m D
or tells you what to do
A E7 A F
She walks away, you=92re left to stay
E7 A E7
Alone, forever blue

A F#m C#m A
The stars have all stopped shining
F#m C#m D
The sun just won=92t break through
A E7 A F
Each day=92s the same, more clouds more rain
E7
Life, forever blue

Q A Q
Forever blue =91cause you love her
A D
but she doesn=92t love you
A E7 A F
You did your best, life did the rest
E7 A E7
You=92re left forever blue

Repeat the intro part for the no-vocals part
(the first part, however, goes like this:
A F#m C#m =20
-4---3--|E
-5---4--|B
-6---5--|G
-6---5--|D =20
If you=92re confused, listen to the damned CD!

A F#m C#m A
No reason left for living
F#m C#m D
still there=92s a lot to do
A E7 A F
New tears to cry, old songs to sing
E7 A F
and feel forever blue
E7 Gm Em Dm A
and be forever blue

Вверх

Funeral In The Rain

Intro: Em using heavy synth.
Em C A Em
I wait, too long, I'll die, If I'm alone.
Em C A Em
I wait, too shy, love dies, I'm alone to cry.


Verse 1:
Em C
I'm walking, I keep on walking down the street.
Em C
I'm watching, I keep on searching every face I meet.
Em C
I loved her but now I've lost her, loves in vain.
F Em
I watch a funeral in the rain.


Verse 2:
Em C
I'm walking, I keep on walking around the world.
Em C
I'm talking, I keep on talking about a girl.
Em C
I loved her but now I've lost her, loves in vain.
F Em
I watch a funeral in the rain.
F Em
I watch a funeral in the rain.


Bridge:
Em C Em C
All the world, knows the girl.
Em C A
All the world, knows she's gone.
Em Em
She's gone...... She's gone....


Verse 3:
Em C
I'm walking, I keep on walking around the clock.
Em C
They're watching, they keep talking let them talk.
Em C
I loved her but now I've lost her, loves in vain.
F Em
I watch a funeral in the rain.
F Em
I watch a funeral in the rain.
F Em
I watch a funeral in...... the rain.
Em
She's gone........She's gone.......She's gone........She's gone.

Вверх

Going Nowhere

F
Like the clothes, like the tan, like the way your shaped
F
Your the kind of a girl I can tell you make it
F
Your the kind of a girl I can tell your going nowhere. Your going nowhere.
F
Like the lips, like the look, like the way you show
F
Your the kind of a girl that I like ya know
F
Your the kind of a girl I would say your going nowhere. Your going nowhere.

Chrous:

Bb
So take a ride with me now baby. Hop inside and maybe baby.
G C Bb
We can find a way to make it all ok. Yeah

Verse 2:

F
Like the stance, like the sky, like the way you shake it
F
Your the kind of a girl that looks better naked
F
Your the kind of a girl I would say is going nowhere. Your going nowhere.
F
(Some strange Indian like chant)

Chrous:

Bb
So take a ride with me now baby. Hop inside and maybe baby.
G C Bb
We can find a way to make it all ok. Yeah

Verse 3:

F
Like the clothes, like the tan, like the way your shaped
F
Your the kind of a girl I can tell you make it
F
Your the kind of a girl I would say is going nowhere. Your going nowhere.
F
(Repeate Indian Chant)
F
(Fade Out)

Вверх

Gone Ridin

Intro:
Main Riff:
|-----------------| Use this riff during the verses.
|-----------------|
|-----------------| Here is the second part of the intro:
|-----------------| |--------------|
|-----------------| |--------------| Stars at :09 secs. into the song.
|0-3-0-3-0-3-0-3--| |--------------|
|--------------|
|--------------|
|5b-7b-9b-10b--|

Verse 1:
Well the moon is on the highway, darkness fills the sky.
As long as I keep driving, I know that I won't die.

Chrous:
A (Hold A Chord Posistion and Slide Up Neck)
And I'm gone, gone gone.
N.C. (Main Riff)
Gone Ridin'.

Verse 2:
Well I broke up with my baby, told myself I won't cry.
Broke up with my baby, told myself a lie.

Chrous:
A (Hold A Chord Posistion and Slide Up Neck)
And I'm gone, gone gone.
N.C. (Main Riff) D-A-E-D-A-E-D-A-E-D-A-E-A-Slide A Up neck
Gone Ridin'. Get gone Cal.

Verse 3:
Well the moon is on the highway, darkness fills the sky.
As long as I keep driving, I know that I won't die.

Chrous:
A (Hold A Chord Posistion and Slide Up Neck)
And I'm gone, gone gone.
N.C. (Main Riff) D-A-E-D-A-E-D-A-E-D-A-E-A-Slide A Up neck
Gone Ridin'. Gone Ridin'.

Repeate Second Part of Intro. and fade.

Вверх

Go Walkin Down There

Main Riff:
E|-----------------------------------------------|
B|--------------------2----------------------2-2-|
G|-----------0------2---2-----------0------2---2-|
D|---------2------2---------------2------2-----2-|
A|----2--3------0------------2--3------0---------|
E|--0----------------------0---------------------|

Riff 1:           Riff 2:
E|------------|  |-----------|
B|------------|  |-----------|
G|------------|  |-----------|
D|------------|  |-----------|
A|--2-0-------|  |--2-0------|
E|-------3-2--|  |-------3-0-|

Verse 1:
Em C A Em C A
I go walking down there, I go searching down there,
Em C A Em C A
there's nothing left for you and me.
Em C A Em C A
I go walking down there, I go searching down there,
Em C A G Riff 1
but nobody there remembers me.

Bridge:
Em B Em C
It dosen't matter now to me, 'cause I lost my baby.
Em B Em C B Riff 2
Nothing means that much to me, without my baby anyway.

Chrous:
Em C A Em C A Em C A Em C A
Oh, Oh, Look at all you lucky people think of all the things you do.
Em C A Em C A
Look at all you happy people, wish I could be like you.
Em C A Em C A Em C A
Oh, Oh, Oh.

Verse 2:
Em C A Em C A
I go walking down there, I go searching down there,
Em C A G Riff 1
There's nothing left for you and me.

Bridge:
Em B Em C
It dosen't matter now to me, 'cause I lost my baby.
Em B Em C B Riff 2
Nothing means that much to me, without my baby anyway.

Chrous:
Em C A Em C A Em C A Em C A
Oh, Oh, Look at all you lucky people think of all the things you do.
Em C A Em C A
Look at all you happy people, wish I could be like you.
Em C A Em C A
Look at all your smiling faces, think of all the things you've done
Em C A Em C A
Look at all you laughing people, and I've lost my only one.
Em C A Em C A Em C A
Oh, Oh, Oh.

(Repeate main riff with chords end on Em)

Вверх

Graduation Day

Intro: F-G-D-Em
F-G-D-Em

Verse 1:

Em C G
Driving slowly, watching the headlights in the rain
D
Funny how things change.
Em C G
Think of the good times, wishing you were still with me
D Em
The way it used to be. Graduation day.
Em C G
Watching the stars fall, million dreams have all gone bad
D
Think of all we had.
Em C G
I knew it all then, thought you loved me I was wrong
D Em D Em
Life goes on. Graduation day, ohhhhh graduation day.

Chrous:
C G
Thinking of a time when everything was right
D Am
Thinking of a time with only you and I,
G D
Makes me sorry that it had to end that way
Am
Learned my lesson now there's nothing left to say.
Em D Em
Graduation day, ohhhh, graduation day.

Solo: Em-C-G-D-Em-C-G-D-Em

Chrous:
C G
Thinking of a time when everything was right
D Am
Thinking of a time with only you and I,
G D
Makes me sorry that it had to end that way
Am
Learned my lesson now there's nothing left to say.
Em D Em D Em
Graduation day, ohhhh, graduation day, ohhhh, graduation day.

Ending Chords: F-G-D-Em
F-G-D-Em
F-G-D-Em
End on Em

Вверх

Graduation Day (2 вариант)

Em C G D Em
e|---------------------12-----10-----7p5-5h7--------10---------------|
b|------9-11--9-----------------------------------10-----------------|
g|--10p9-------------------------------------------------------------|
d|-------------------------------------------------------------------|
a|-------------------------------------------------------------------|
E|-------------------------------------------------------------------|

Em C G D Em
e|---------------------14-----10-----15-14--10---15-14--12-----------|
b|-------------------------------------------------------------------|
g|------9-11--9------------------------------------------------------|
d|--10p9-------------------------------------------------------------|
a|-------------------------------------------------------------------|
E|-------------------------------------------------------------------|

Вверх

Heart Full Of Soul

Intro: Em

Verse 1:
Em A C Em
Sick at heart and lonely, deep in dark despair.
Em A C Em
When you want her only, tell me where is she, where?
Em A C Em
And if she says to you, that she don't love me.
Em A C Em
Just give her my message, tell her of my plea.

Chrous:
Em
And I know,
G A Em
If I could have her back again.
G A Em
I would never make her sad.
B A Em B A Em
I got a heart... full of soul, I got a heart... full of soul.

Verse 2:
Em A C Em
She's been gone such a long time, longer than I can bear.
Em A C Em
But if she says she wants me, tell her I'll be there.

Solo:
E|-5-0-3-5-3-0------0-0-3-5-0-7-10s12|--0-0-3-5-3-0-----0-0-3-5-3s7-7--|
B|-------------10s0------------------|-------------10s0----------------|
G|-----------------------------------|---------------------------------|
D|-----------------------------------|---------------------------------|
A|-----------------------------------|---------------------------------|
E|-----------------------------------|---------------------------------|

Chrous:
Em
And I know,
G A Em
If I could have her back again.
G A Em
I would never make her sad.
B A Em B A Em
I got a heart... full of soul, I got a heart... full of soul.

Verse 3:
Em A C Em
Sick at heart and lonely, deep in dark despair.
Em A C Em
When you want her only, tell me where is she, where?
Em A C Em
And if she says to you, that she don't love me.
Em A C Em
Just give her my message, tell her of my plea.

Chrous:
Em
And I know,
G A Em
If I could have her back again.
G A Em
I would never make her sad.
B A Em B A Em
I got a heart... full of soul, I got a heart... full of soul.
B A Em C-B-A-Em
I got a heart.. full of soul!

Вверх

I Am Not Waiting

Intro: D

Verse 1:
D
I'm not waiting, I'm not waiting.
D A G D
I have pictures in my troubled past, and they're shaped like broken glass.
D A G D
I have memories I kept of you, I return them with goodbyes.
D G D
'Cause I'm not waiting for you anymore, I don't care what might have been.
D G D
I'm not waiting for you anymore, I give up my love can't win.
A D
But in my heart, my heart I know that though I go I'll love you still.
A D
But in my heart, my heart I know that though I go I always will.
D
I'm not waiting, I'm not waiting.

Solo: A-D-A-D

Verse 2:
D
I still think about what used to be, I have dreams that might have been.
D
Someone else will walk beside you soon, now I know my love can't win.
D G D
So I'm not waiting for you anymore, I don't care what might have been.
D G D
I'm not waiting for you anymore, I give up so why pretend?
A D
But in my heart, my heart I know that though I go I'll love you still.
A D
But in my heart, my heart I know that though I go I always will.
D
I'm not waiting, I'm not waiting.

D until fade...

Вверх

I Believe

Intro: Bb-Eb-F-Bb-Eb-F

Verse 1:
Bb Eb F
I believe that the stars keep shining all through the night,
Bb Eb F
I believe if we just keep trying it will be alright.
Bb Eb F
I believe that someday we're gonna find our way,
Bb Eb F
And I believe, in a beautiful day.....

Verse 2:
Bb Eb F
I believe in lovers walking side by side,
Bb Eb F
I believe that someday you'll be satisfied.
Bb Eb F
I believe the angels listen god hears us pray,
Bb Eb F Bb Eb F
And I believe, in a beautiful day. Yeah I believe it's gonna work out ok.
Eb Bb
But not for me, and not for you.

Chrous:
Bb Eb F
I believe, I believe, I believe, I believe,
Bb Eb F
I believe, I believe, I believe, I believe.

Verse 3:
Bb Eb F
I believe there's an answer waiting when the day is done,
Bb Eb F
I believe if you just keep searching you'll find someone.
Bb Eb F
I believe that you an I just lost our way,
Bb Eb F Bb Eb F
And I believe, in a beautiful day. I still believe, in a beautiful day.
Eb Bb Eb Bb
But not for me, and not for you, I know you tried, I tried to,
F Eb Bb
Sometimes all our dreams just don't come true.

Chrous:
Bb Eb F
I believe, I believe, I believe, I believe,
Bb Eb F
I believe, I believe, I believe, I believe.
Bb Eb F
Oh.......Oh.
Bb Eb F
Oh.......Beautiful day!
Bb Eb F
Bb Eb F
Bb Eb F (Fade Out)

Вверх

Im Not Waiting

Intro: D

Verse 1:
D
I'm not waiting, I'm not waiting.
D A G D
I have pictures in my troubled past, and they're shaped like broken glass.
D A G D
I have memories I kept of you, I return them with goodbyes.
D G D
'Cause I'm not waiting for you anymore, I don't care what might have been.
D G D
I'm not waiting for you anymore, I give up my love can't win.
A D
But in my heart, my heart I know that though I go I'll love you still.
A D
But in my heart, my heart I know that though I go I always will.
D
I'm not waiting, I'm not waiting.

Solo: A-D-A-D

Verse 2:
D
I still think about what used to be, I have dreams that might have been.
D
Someone else will walk beside you soon, now I know my love can't win.
D G D
So I'm not waiting for you anymore, I don't care what might have been.
D G D
I'm not waiting for you anymore, I give up so why pretend?
A D
But in my heart, my heart I know that though I go I'll love you still.
A D
But in my heart, my heart I know that though I go I always will.
D
I'm not waiting, I'm not waiting.

D until fade...

Вверх

I Wonder

Intro: C-G-C


Verse 1:
C F G C
When I was younger I believed, that dreams came true.
C
Now I wonder.
C F G C
Cause' I've seen much more dark skies, than blue.
C
Now I wonder.


Chrous:
Am G C Am G C
I keep on praying for a blue sky, I keep on searching through the rain.
Am G C F G
I keep on thinking of the good times, will they ever come again?
C G F
Now I wonder.
C
Now I wonder.


{Guitar Solo}C-F-G-C-F-G-C


Chrous:
Am G C Am G C
I keep on praying for a blue sky, I keep on searching through the rain.
Am G C F G
I keep on thinking of the good times, will they ever come again?
C G F
Now I wonder.
C
Now I wonder.


Verse 2:
C F G C
When I was younger I believed, that I could win.
C
Now I wonder.
C F G C
There was a time when you and I, walked hand & hand.
C
Now I wonder.


Chrous:
Am G C Am G C
I keep on searching for the old me, I keep on thinking I can change.
Am G C F G
I keep on hoping for a new day, will I ever feel the same?
C G F
Now I wonder.
C G F
Oh I wonder.
C G F C
Now I wonder.

Вверх

Kings Of The Highway

Intro:
|--------0000000---------0--|
|--------0000000---------0--| Three open strings then strum the Em chord
|-----0--0000000---------0--| about seven or eight times till you play the
|---0----2222222---------2--| main riff then go back to the Em chord. This
|-0------2222222---------2--| pattern is played through most of the verses.
|----------------2b-2b-0----|
Main Riff:
------------|
------------| Tab Key: b= Bend
------------| *= See end notes
------------|
------------|
-2b-2b-0----|*

Verse 1:
Em
The one that I loved, used to laugh when I cried.
Em
The one that I loved, wouldn't stay by my side.
Em
If love could of lasted forever I'd be with her today.
Em
If love could of lasted forever I'd still hear her say darling,
G F# Em
Kings of the highway, we will be.

Verse 2:
Em
The faster you drive, the less you can feel.
Em
The lights on the road, are strange and unreal.
Em
When there's nothing to loose, there's nothing to win.
Em
In a night without day, on a road without end darling,
G F# Em
Kings of the highway, we will be.

Bridge:
C Em
And your hoping the sun won't rise.
C Em
Your hoping the sun won't rise.
G F# Em
Kings of the highway, we will be.

Solo: C-Em-C-Em-C-Em-C-Em

Verse 3:
Em
The one that I loved, used to laugh when I cried.
Em
The one that I loved, wouldn't stay by my side.
Em
If love could of lasted forever I'd be with her today.
Em
If love could of lasted forever I'd still hear her say darling,
G F# Em
Kings of the highway, we will be.
G F# Em
Darling kings...Of the highway...We will be.
G F# Em
Darling Kings....Of the highway....We will be.
Em
We will be.....Em until fade.

Вверх

King Without A Castle

{Intro} G Em7 G Em7 (Riff x2)
|-------------------------------------|
|----8-8-8---9-8-7-8-7----------------|
|--7-------7-----------7-7/9-9-9-7/9--|
|-------------------------------------|
|-------------------------------------|
|-------------------------------------|


{Verse 1}
G D
Like a king without a castle,
Am
like a knight without a home.
G D
I call your name but there's no answer,
Am
and I'm left here on my own.


{Chrous 1}
G
Just wondering, wondering...
D
Wondering, wondering...
Am C
Wondering, where did our love go.
Em
Does anybody know?


{Verse 2}
G D
A man alone he has no future,
Am
a man alone he has no friends.
G D
There was a time I thought I found her,
Am
the one that'd love me til' the end.


{Chrous 2}
G
Now I'm wondering, wondering...
D
Wondering, wondering...
Am C
Wondering, where did our love go.
Em
Does anybody know?


{Guitar Solo}G D Am G D Am G D Am C


{Verse 3}
G D
I'm like a king without a castle,
Am
with a heart condemended to roam.
G D
I'll keep searching til' I find you,
Am
until I do I'll be alone.


{Chrous 3}
G
Just wondering, wondering...
D
Wondering, wondering...
Am C
Wondering, where did our love go.
G
Does anybody know?
Em
Anybody know?
G
Does anybody know?
Em
Does anybody know?
G
Does anybody know?

Вверх

Let Me Down Easy

Main Riff:
(E) (A) (E) (B7)
E|--0--0-----0--0-----0--0---|--0----0---|--0-------|
B|---4--------4--------4-----|---0----0--|---0-0--0-|
G|-------2--------1--------4-|----2-2----|-----2--2-|
D|---------------------------|-----4-----|----4-----|
A|---------------------------|-----------|----------|
E|0--------------------------|-----------|----------|

The first time you play it, use ending 1, then use ending 2 for
the rest of the song. The chords in parenthesis are optional if
you have a second guitar, or don't want to play the tab.

Chords:
E - 022100
B7 - x2420x
Asus2 - x02200
F#m11 - 244200
Bsus4 - x24400

Intro:

Spoken: Here she comes. Don't say anything...

Verse 1:
E B7
At first you smile, then turn away
E Asus2
I've been thinking of what I should say
F#m11 Bsus4
All last night I stayed up dreaming
F#m11 Bsus4
I'm still dreaming

Verse 2:
E B7
I look at you, I'm just a guy
E Asus2
I know my place, but still I'll try
F#m11 Bsus4
You must be tired of people asking
F#m11 Bsus4
But I'm still asking, please

Chorus:
E|-Asus2 E Asus2
Oh please let me down easy
E|-Asus2 E Asus2
Please just let me down easy
F#m11 Bsus4
Don't you hear my heart is calling?
F#m11 Bsus4
You don't know how hard I've fallen for you

Verse 3:
E B7
Another day, you're passing by
E Asus2
Today's the day I'm gonna try
F#m11 Bsus4
You don't know how much I'm hoping
F#m11 Bsus4
How I'm hoping, please

Chorus:
E|-Asus2 E Asus2
Oh please let me down easy
E|-Asus2 E Asus2
Please just let me down easy
F#m11 Bsus4
Can't you hear my heart is calling?
F#m11 Bsus4
You don't know how far I've fallen for you

Bridge:
(played throughout Bridge)
(E) (A) (E) (B7)
If you told me to follow, you know I'd fly for you
(E) (A) (E) Asus2
Here I go, I may fall, but I will try

Chorus:
E|-Asus2 E Asus2
Oh please let me down easy
E|-Asus2 E Asus2
Please just let me down easy
E|-Asus2-E-Asus2-E-Asus2-E Asus2
Please,__________________ just let me down

Easy

Asus2
If you want me to follow, you know I'll fly

Вверх

Life Will Go On

Intro: Em ,C ,G ,D/F#

E|--------------------------------------------------3--5---3--2--0-|
B|-----------------------------------------------------------------|
G|-4---2---0---5----4---2---0---2---4--2--0------------------------|
D|-------------------------------------------4---2-----------------|
A|-----------------------------------------------------------------|
E|-----------------------------------------------------------------|

E|---------------------------------------------------------3--5--7-|
B|-----------------------------------------------------------------|
G|-4---2---0---5-------4---2---0---2---4--2--0---------------------|
D|--------------------------------------------------4---2----------|
A|-----------------------------------------------------------------|
E|-----------------------------------------------------------------|

Em C G D/F# Em
Broken skyes, heartakes flowers won't bend
Em C G D/F# Em
Say good bye, knowing that this is the end

Em B7 Em B7 Em
Tender dreams, shadows fall. Love too sweet, to recall
Em B7 Em C G D/F# Em
Dry your eyes, face the dawn. Life will go on, life will go on

Em C G D/F# Em
Holding on, thought that we still had a chance
Em C G D/F# Em
Letting go, this is the end of romance

Em B7 Em B7 Em
Broken Heart, find your way. Make it through, just this day.
Em B7 Em C G D/F# Em
Face the world, on your own. Life will go on, life will go on.

D C
There'll be blue skyes, there'll be true love.
B7 Em
Someday i'll hold you again.
D C B7 B7
There'll be blue skyes, your bitter world. Darling...

Em B7 Em B7 Em
Tender dreams, shadows fall. Love too sweet, to recall
Em B7 Em C G D/F# Em
Dry your eyes, face the dawn. Life will go on, life will go on

Em B7 Em B7 Em
Broken Heart, find your way. Make it through, just this day.
Em B7 Em C G D/F# Em
Face the world, on your own. Life will go on, life will go on.

C G D/F# Em
Life will go on, life will go on.

C G D/F# Em
Life will go on, life will go on.

Вверх

Lovers Game

Intro: /: Bbm - F :/ 4 times

Bbm F Bbm - F
I call you up and tell you that I love you,
Bbm F Bbm - F
I call you up and play my lovers game.
Ab
Love is just a game to me, yeah,
Bbm - F - Bbm - F
Love is just a game, I'd like to play.

I call you up and tell you that I love you,
What really to me every girl's just the same.
Love is just a game to me, yeah,
Love is just a game, I'd like to play.

Bbm F#m
If I really loved you, then I'd never call you,
Bbm C F
Cause I know I'd only hurt you.
Bbm F#m
If I really loved you, then I'd never call you,
Bbm C F Bbm - F - Bbm - F
Cause I know I'd only hurt you, my love.

{Guitar solo} ;; Maybe somebody can provide a tab for this
;; as I'm not into tab's and notes are too
;; difficult to transcribe into ascii.

I call you up and tell you that I love you,
I call you up and play my lovers game
Love is just a game to me, yeah,
Love is just a game, I'd like to play.

Вверх

Nothings Changed

Intro: C-D-Em until verse starts

Verse 1:
C D Em
Let's take a drive through the old town.
C D Em
Back past the place where we meet.
C D Em
Some things are hard to remember.
C D Em
Some things you'll never forget.

Verse 2:
C D Em
Let's take a walk down your old street.
C D Em
Who lives in your house today.
C D Em
Let's see if we can remember.
C D Em
All of the vows that we made.

Chrous:
Em C
Kisses you gave me.
Em C
The vows you made me.
Em C B C
None of these things have changed.
Em C Em C
Nothing's changed, nothing's changed.

Solo:Em-C-Em-C-Em-C-Em-C-D-Em-D-Em

Verse 3:
C D Em
Young lovers stand in the shadows.
C D Em
New lovers taking our place.
C D Em
Though your gone I remember.
C D Em
I can still see your face.

Chrous:
Em C
Kisses you gave me.
Em C
The vows you made me.
Em C B C
None of these things have changed.
Em C Em C
Nothing's changed, nothing's changed.

Вверх

Please

E|-------------------------------|-----------------------------|
B|-------6-----------------------|-----------------------------|
G|---6-------6-----------6-------|-------4--3----------4---3---|
D|-----6-------6-----7-------7---|---4--------4----4---------4-|
A|-4-------------------7-------7-|-----4-------------4---------|
E|-----------------5-------------|-2-------------2-------------|

During the chorus, the chords are

C# A5 F# F#

Вверх

Pretty Girls Dont Cry

Intro. Riff:

E|----------------------------------------------|
B|--9-9-9-10-7-7---9-9-9-10-7-7--9-9-9-10-7-9-9-|
G|----------------------------------------------|
D|----------------------------------------------|
A|----------------------------------------------|
E|----------------------------------------------|

Verse 1:
E
Pretty girls don't cry, they know exactly what they want.
E
Pretty girls walk by, with eyes that smile faces that haunt.
E
I watch them walk I wonder, turn away
I try but I can't find the words to say I know that you
E
don't love me but I'm watching you.

Verse 2:
E
Pretty girls don't cry, they know exactly what to do.
E
Pretty girls walk by, but they won't ever smile at you.
E
I watch them walk I wonder, turn away
I try but I can't find the words to say I know that you
E
don't love me but I'm watching you. Hit it!

{Guitar Solo 1:25}

Verse 3:
E
Pretty girls don't cry, they know exactly what they want.
E
I watch them walk I wonder, turn away
I try but I can't find the words to say I know that you
E
don't love me but I'm watching you.
E
I'm watching you, I'm watching you...

Вверх

Round And Round

Riff 1:
E|---------|
B|---------|
G|---------|
D|------7--|
A|------5--|
E|--0b-----|

Riff 2:
E|---------------------------|----------------------| This piece is played
B|--1h3-1h3-1h3-1h3----------|--1h3-1h3-1h3-1h3--0--| after a verse usually!
G|------------------3p1p0h1--|----------------------|
D|---------------------------|----------------------|
A|---------------------------|----------------------|
E|---------------------------|----------------------|

So Basically the song goes a lil' something like this!

Intro:
E|----------|---------|
B|----------|---------|
G|----------|---------|
D|--7----7--| Riff 1,-|
A|--5----5--|---------|
E|----------|---------|

Verse 1:
Riff 1 Riff 1
Here we go round & round State your case and then sit down.
Riff 1 Riff 2 Riff 1
Tell me why you want to go, I don't love you anymore.

Verse 2:
Riff 1 Riff 1
Here you go mad again Tell me that your just a friend.
Riff 1 Riff 2
Tell me something I don't know I don't love you anymore
I don't love you anymore, yeah.

Chrous:
Fm D
When I do go, I'll let you know.
Fm
It might hurt you, but I don't think so.

Вверх

San Francisco Days

Intro:
C G
I still love you, I still want you.
C Bb D
I still need you, don't hang up and say goodbye.

Verse 1:
G
Walking on the beach last night, hoping things would be all right, my baby
lying on her bed, it's you I saw instead.
C G
Thinking of the one I love, your the one I'm thinking of.
C G
San Francisco days, San Francisco nights.

Verse 2:
G
I meet a girl in Mexico I should of told her then I know, that I still think
of you, we never will be through.
C G
San Francisco days, San Francisco nights.
C G
San Francisco days, San Francisco nights.
C G
I still love you, I still want you.
C Bb D
I still need you, don't hang up and say goodbye.

Solo:G-C-G

Verse 3:
G
Walking down to market street feeling my heart skip a beat, to see someone
who looks like you, I guess that I'm not through.
C G
Dreaming of the one I love, you know what I'm dreaming of.
C G
San Francisco days, San Francisco nights.
G
I'm heading for that golden gate hoping I won't be to late, to find the one
that I still love.
C G
It's you I'm dreaming of, San Francisco nights.
C G
San Francisco days, San Francisco nights.
C G
San Francisco days, San Francisco nights.
G
San Francisco...

Вверх

Shadows In A Mirror

Intro: Basically it's a modified Am chord arppegiated to play like this:
|_________0_______|
|_______0___0_____| So play an Am minus the B string note, single
|_____2______2____| pick down then come back up and start the pattern
|___2__________2__| all over again.
|_0_______________|
|_________________|

Verse 1: * see special notes and fingering chart below!
Am F E Am
I'm watching, somebody's, heart break in two.
Am F E Am
And wondering, if somewhere, your crying too.

Chrous:
G C
Shadows in a mirror, tell me that I'm wrong.
E Am E
Shadows in a mirror, tell me that we're through.

Verse 2:
Am F E
I'm watching, somebody's, world at an end.
Am F E
And wondering, if someday, we'll love again.

Chrous:
G C
Shadows in a mirror, tell me that I'm wrong.
E Am
Shadows in a mirror, tell me that we're through.
G F
Oh and I, I still need you love.
E F
I can't see my life darling without you.
Am F Am
Shadows in a mirror, shadows in a mirror.

Solo: Am-F-E-Am-F-E Single Pick These
G-C-E-Am-E Strum These

Verse 3:
Am F E
I'm watching, somebody's, world at an end.
Am F E
And wishing, that somehow, we could love again.

Chrous:
G C
Shadows in a mirror, tell me that I'm wrong.
E Am
Shadows in a mirror, tell me that we're through.
G F
Oh and I, I still need you love.
E F
I can't see my life darling without you.
Am F Am
Shadows in a mirror, shadows in a mirror.
Am
Shadows is a mirror.

Single pick modified Am until fade......


Modified Am F E
________0________________0________________0________|
______0___0____________1___1____________0___0______|
____2_______2________2_______2________1_______1____| Repeats during the verse
__2___________2____3___________3____2___________2__|
0________________3________________2________________|
___________________________________________________|
This is the picking chart for the verses and single picking
portion of the solo.

Вверх

Solitary Man

Intro: Em with a few frills.

Verse 1:
Em Am G Em G
Belinda was mine 'til the time that I found her,
Am G Am
Holding Jim, loving him.
Em Am G Em G
Sue came along and loved me strong that's what I thought,
Am G Am
Me and Sue, that died too.

Chrous:
G C G D
Don't know if I will but until I can find me,
D C G D
A girl who will stay and won't play games behind me.
D Em D
I'll be what I am.
Em D Em
A Solitary man, solitary man.

Verse 2:
Em Am G Em G
I had it to here being where love is a small word,
Am G Am
Paper ring, part time thing.
Em Am G Em G
I know it's been done having one girl who loves you,
Am G Am
Right or wrong, weak or strong.

Chrous:
G C G D
Don't know if I will but until I can find me,
D C G D
A girl who will stay and won't play games behind me.
D Em D
I'll be what I am.
Em D Em
A Solitary man, solitary man.

Chrous:
G C G D
Don't know if I will but until I can find me,
D C G D
A girl who will stay and won't play games behind me.
D Em D
I'll be what I am.
Em D Em D Em
A Solitary man, solitary man, solitary man.

Вверх

Somebodys Crying

Intro

|------------|----------|----------|----------|------------|
|------------|----------|----------|----------|------------|
|------1-0---|-----3-5--|-1--------|-----3-5--|-1-----1-0--|
|----------3-|-1-1------|---1------|-1-1------|---1-------3|



Verse 1
|------------|----------|----------|--------|----------|-----------------|
|------------|----------|----------|--------|----------|-----------------|
|------3-5---|----------|------3-5-|--------|------3-5-|---------1--0----|
|-1--1-------|-6--1-----|-1--1-----|-6--1---|-1--1-----|-6--1----------3-|

|------------|----------|
|------------|----------|
|------3-5---|----------|
|-1--1-------|-6--1-----|



Verse 2
|------------|----------|----------|--------|----------|-----------------|
|------------|----------|----------|--------|----------|-----------------|
|------3-5---|----------|------3-5-|--------|------3-5-|---------1--0----|
|-1--1-------|-6--1-----|-1--1-----|-6--1---|-1--1-----|-6--1----------3-|

|------------|----------|
|------------|----------|
|------3-5---|----------|
|-1--1-------|-6--1-----|



Chorus (“So please return the love…”)
|--------------------|--------------------|--------------------|
|--------------------|--------------------|--------------------|
|--------0--1-1--3-3-|--------0--1-1--3-3-|--------0--1-1--3-3-|
|-1-1--3-------------|-1-1--3-------------|-1-1--3-------------|

|-------------------|
|-------------------|
|--------0--1-1-0---|
|-1-1--3----------3-|


(“please let me know…”)
|--------------------|--------------------|--------------------|
|--------------------|--------------------|--------------------|
|--------0--1-1--3-3-|--------0--1-1--3-3-|--------0--1-1--3-3-|
|-1-1--3-------------|-1-1--3-------------|-1-1--3-------------|

(“I know when somebody's lying…”)
|--------------------|--------|--------|------------|---------------|
|----------------0-2-|-3---0--|--------|-3--3-2-0---|---------------|
|--------0--1-1------|--------|--1-----|------------|--1------1-0---|
|-1-1--3-------------|--------|------1-|------------|------1------3-|



Bridge (same as chorus)
|--------------------|--------------------|--------------------|
|--------------------|--------------------|--------------------|
|--------0--1-1--3-3-|--------0--1-1--3-3-|--------0--1-1--3-3-|
|-1-1--3-------------|-1-1--3-------------|-1-1--3-------------|

|---------------------|
|---------------------|
|--------0--1-1--0----|
|-1-1--3-----------3--|

|--------------------|--------------------|--------------------|
|--------------------|--------------------|--------------------|
|--------0--1-1--3-3-|--------0--1-1--3-3-|--------0--1-1--3-3-|
|-1-1--3-------------|-1-1--3-------------|-1-1--3-------------|

(“I know that somebody's lying…”)
|--------------------|--------|--------|------------|----------|
|----------------0-2-|-3---0--|--------|-3--3-2-0---|----------|
|--------0--1-1------|--------|--1-----|------------|--1-------|
|-1-1--3-------------|--------|------1-|------------|------1---|



Verse 3
|------------|----------|----------|--------|----------|-----------------|
|------------|----------|----------|--------|----------|-----------------|
|------3-5---|----------|------3-5-|--------|------3-5-|---------1--0----|
|-1--1-------|-6--1-----|-1--1-----|-6--1--|-1--1------|-6--1----------3-|

|------------|----------|
|------------|----------|
|------3-5---|----------|
|-1--1-------|-6--1-----|


Chorus (“So please return the love…”)
|--------------------|--------------------|--------------------|
|--------------------|--------------------|--------------------|
|--------0--1-1--3-3-|--------0--1-1--3-3-|--------0--1-1--3-3-|
|-1-1--3-------------|-1-1--3-------------|-1-1--3-------------|

|-------------------|
|-------------------|
|--------0--1-1-0---|
|-1-1--3----------3-|

(“please let me know…”)
|--------------------|--------------------|--------------------|
|--------------------|--------------------|--------------------|
|--------0--1-1--3-3-|--------0--1-1--3-3-|--------0--1-1--3-3-|
|-1-1--3-------------|-1-1--3-------------|-1-1--3-------------|

(“I know that somebody's lying…”)
|--------------------|--------|--------|------------|----------------|
|----------------0-2-|-3---0--|--------|-3--3-2-0---|----------------|
|--------0--1-1------|--------|--1-----|------------|--1--3----1-0---|
|-1-1--3-------------|--------|------1-|------------|-------1------3-|



End (“oh ahhhhh ah ahh ah ah”)
|--------------------|--------------------|--------------------|
|--------------------|--------------------|--------------------|
|--------0--1-1--3-3-|--------1----1--3-3-|--------0--1-1--3-3-|
|-1-1--3-------------|-1-1--3-------------|-1-1--3-------------|

|--------------------|--------------------|-------------------|
|--------------------|--------------------|-------------------|
|--------1---1--0----|--------0--1-1--3-3-|--------1----1--3-3|
|-1-1--3----------3--|-1-1--3-------------|-1-1--3------------|

|-----------|------------|
|-----------|------------|
|----3--1---|-1--0-------|
|-1---------|-------3--1-|

Вверх

Somebodys Crying (2 вариант)

C Am F C
E|---------|-----0---|-------|---------|
B|-----1---|---1---1-|-1-----|-1-------|
G|---0---0-|---------|---2---|---0---0-|
D|---------|---------|-3---3-|-----2---|
A|-3-------|-0-------|-------|-3-------|
E|---------|---------|-------|---------|
I know somebody...

First part of the chorus, of "So please.." bit.

C Am F C
E|---------|---------|-------|---------|
B|-----1---|-----1---|-1-----|-1-------|
G|---0---0-|---2---2-|---2---|---0---0-|
D|---------|---------|-3---3-|-----2---|
A|-3-------|-0-------|-------|-3-------|
E|---------|---------|-------|---------|
So please...

Second part of the chorus,
the "Return the love.." and "Let me know.." bits.
C F C F
E|-------|---------|-------|---------|
B|-1-----|-1-------|-1-----|-1-------|
G|---0---|---2---2-|---0---|---2---2-|
D|-3---3-|-----3---|-3---3-|-----3---|
A|-------|-3-------|-------|-3-------|
E|-------|---------|-------|---------|
Return the love...

Here is the cord progession,
where each cord can be picked as shown above.

C Am F C
I know somebody and they cry for you

C Am F C
They lie awake at night and dream of you

C Am F C
I bet you never even know they do, but

C Am F C
Somebody's crying

C Am F C
I know somebody and they call your name

C Am F C
A million times and still you never came

C Am F C
They go on loving you just the same, I know that

C Am F C
Somebody's trying

CHORUS

C Am F C
So please....

C F C F
Return the love you took from me

C Am F C
Oh please....

C F C F
Let me know if it can't be me

C Am F C
I know when somebody's lying x2

C Am F C
I know that somebody's lying x2

C Am F C
Give me sign to let me know we're through

C Am F C
If you don't love me like I love you

C Am F C
But if you cry like the way I do, I know that

C Am F C
Somebody's lying

REPEAT CHORUS

C Am F C
Oh I....

C Am F F F C (Strum the three Fs and last C downwards)
Oh I....

Вверх

Song: Lie To Me

Verse 1:
Gm F C Bb F
There is a woman, far over the sea.
Gm F C Bb F
Standing and waiting, praying for me.
Gm F C Bb F
Here I lie sleeping, a girl by my side.
Gm F C Bb F
Who am I hurting, each time I lie?

Chrous:
Gm F C Bb F
Lie to me, lie.....
Gm F C Bb F
Lie to me, lie.....

Verse 2:
Gm F C Bb F
There is a woman, trying hard to be brave.
Gm F C Bb F
The way that I hurt her, has made her afraid.
Gm F C Bb F
Things that I'm doing, are breaking her heart.
Gm F C Bb F
Still she's pretending, that we'll never part.

Chrous:
Gm F C Bb F
Lie to me, lie.....
Gm F C Bb F
Lie to me, lie.....
Gm F C Bb F
I don't care what people may say, I know everybody lies.
Gm F C Bb F
I'm not trying to hurt my love, I'm only trying to get by.

Solo: Gm-F-C-Bb-F-Gm-F-C-Bb-F

Verse 3:
Gm F C Bb F
There is a woman, far over the sea.
Gm F C Bb F
Standing and waiting, praying for me.
Gm F C Bb F
Here I lie guilty, a girl by my side.
Gm F C Bb F
Who am I hurting, each time I lie?

Chrous:
Gm F C Bb F
Lie to me, lie.....
Gm F C Bb F
Lie to me, lie.....
Gm F C Bb F
Lie to me, lie.....
Gm F C Bb F
Lie to me, lie.....

Ending Chords:Gm-F-C-Bb-F-Gm-F-C-Bb-F-Gm-F-C-Bb-F-Gm-F-C-Gm

Вверх

Suspicion Of Love

Intro. Chords: Am-F Progression
First eight times with palm mute then open strum until chorus starts.


Verse 1:
Am F Am F
Pick me up and head up out, take me down to the station,
Am F Am F
Went through every pile they had, I finally made an identification.
Am F Am F
Picked her out of a thousand faces, said I could tell by the smile,
Am F Am F
Broke down started crying he put his hand on my shoulder,
                                            said it'll be all right in awhile.


Chrous:
Am F Am F
Suspicion of love, love.
Am F Am F
Suspicion of love, love.


Verse 2:
Am F Am F
I said go easy on her if you can, she treats me bad that is just her way,
Am F Am F
He said "Son won't you let me deal with this, I see these women every day".


Chrous:
Am F Am F
Suspicion of love, love.
Am F Am F
Suspicion of love, love.


Bridge:
C Bb F
I told him, she's wrong I'll pay.
C Bb F
How does it, hurt me this way?
Am
Suspicion of love.


Solo: Am-F Progression


Verse 3:
Am F Am F
Pick me up and head up out, took me down to the station,
Am F Am F
Went through every pile they had, I finally made an identification.


Chrous:
Am F Am F
Suspicion of love, love.
Am F Am F
Suspicion of love, love.

{Am-F Progression Until Fade}

Вверх

The End Of Everything

Riff A:

G
e -------------- Only the chords for the rythm guitar are included.
B -------------- My transcription of the lead guitar will be posted later.
G -------------- Chris does some picking sometimes (ie between the
D -----0-------- G-Em7-C-G and the D-G-C-G parts) which are not shown
A --0^2-2-0----- here.
E -3-------3----

G Em7 G Em7 G Em7 C G

G Em7 G Em7
This is the end of everything. This is the end I know
G Em7 C G
This is the end of everything. Take your love with you when you go

G Em7 G Em7
This is the end of happiness. This is the end of dreams
G Em7 C G
This the end of everything. It's the end for you and me


D G C G D G C G
I don't know, what to do. In my heart, I still love you

(Riff A)
[Solo on G Em7 G Em7 G Em7 C G]

D G C G D G C G
I don't know, what to say. I will always feel this way.

(Riff A)
G Em7 G Em7
This is the end of everything. This is the end I know
G Em7 C G
This is the end of everything. Take your love with you when you go ohh

(ending)

Corrections (no flames) are always welcome, especially on the lyrics.

Вверх

There She Goes

Intro: {Designated As Riff}
____________|
____________|
____________|* This riff is repeated though most of the song..
___3_3h4_3__|
_4__________|
____________|
There she goes, there she goes.

Verse 1:
Ab Db Ab Db
All dressed up and walking, you found somebody new.
Ab Db Ab Db
I don't want nobody, I was happy with you.
{Riff} Db
There she goes

Verse 2:
Ab Db Ab Db
I never said I love you, but you know that I do.
Ab Db Ab Db
I can't believe it's over, I keep thinking of you.

Bridge:
Ab Db
I see her everywhere, everywhere I go.
Ab Db
I see her everywhere, everywhere I go.
Db
There she goes, there she goes.

Solo:Ab-Db-Ab-Db-Ab There she goes.

Verse 3:
Ab Db Ab Db
Don't know why she left me, don't know what I'll do.
Ab Db Ab Db
I don't want no counselor, I was happy with you.

Bridge:
Ab Db
I see her everywhere, everywhere I go.
Ab Db
I see her everywhere, everywhere I go.
Db
There she goes, there she goes.
Gb Ab
I wanna cry, over you.
{Riff} Db
There she goes, there she goes.
Db
There she goes, there she goes.
Db
There she goes, there she goes, there she goes.

Вверх

There She Goes (2 вариант

e|-----3---5---2---3---0---0---0---0--|
B|---3---3---3---3---3---3---3---3----|
G|------------------------------------| (REPEAT)
D|------------------------------------|
A|------------------------------------|
E|------------------------------------|

Вверх

Think Of Tomorrow

Intro: E
If you can try to play this and the solo with a slide!

E|-----------------------------|
B|---------9-8-7-5~------------|
G|-9-7-9-7----------4b-2-------|
D|-----------------------4b-2~-|
A|-----------------------------|
E|-----------------------------|

Verse 1:
E
The future looks so bright ahead, the past is far behind.
E
I think of all the things we said, and you are on my mind.
A E A E
Think of tomorrow. Think of tomorrow.

Verse 2:
E
Mexico has sunny skies, Hawaii knows no rain.
E
Any place you want sweetheart, I will buy the ring.
A E A E
Think of tomorrow. Think of tomorrow.

Chrous:
Bb slide to B
Anything you want sweetheart, anything you do.
Bb slide to B
Anywhere you go sweetheart, I will follow you.
A E A E
Think of tomorrow. Think of tomorrow.

{Solo} E
A E A E
Think of tomorrow. Think of tomorrow.

Verse 3:
E
This car I drive is old and beat, it may not see me through.
E
This car I dirve is fine with me, it's headed back to you.
A E A E
Think of tomorrow. Think of tomorrow.

{2nd Solo}E

Вверх

Waiting For The Rain

Intro: E with a slide guitar

Verse 1:
E
You and I don't love each other,
E
We don't talk to one another,
E A
I don't think you love anyone in this world at all.
G E
I'm just waiting for the rain to fall.

Verse 2:
E
Tears may fall and clouds may gather,
E
I should go I think I'd rather,
E A
Wait until there's no chance left at all.
G E
I'm just waiting for the rain to fall.
A G E
I'm just waiting for the rain to fall.

Verse 3:
A G E
Rain will fall and leave me crying,
A G E
But there's no clouds up in the sky,
A G E
But you don't care there's no denying,
A G E
Cause there's no teardrops in your eyes.

Solo: Just strum the E chord all the way through it.

Verse 4:
E
You and I don't love each other,
E
We can only hurt each other,
E A
I think there's no love left at all,
A G E
I'm just waiting for the rain to fall.
A G E
I'm just waiting for the rain to fall.
A G E
I'm just waiting for the rain to fall.

Ending Chords: A-G-E-A-G-E-A-G-E

Вверх

Wicked Game

INTRO:Bm-A-E *Standard Tuning* |-------------------------------| |-2----0-----------------------------| |0b--7s0-0b--7-5-3-2-0----------| |---3----3--2------------------------| |-----------------------2---1---| |-------------4--2--1----1--2--4b----| |----------------------4---2----| |----------------------2-------------| |-------------------------------| |------------------------------------| |-------------------------------| |------------------------------------|Play 2x PART 1 00:00-00:17 PART 2 00:18-00:34 Melodic Fills: These are played at key parts in the song. Designated as 1 & 2. |------------| |-----------| |------------|Fill 1 |-----------| Fill 2 |----2---1---| |----1-2-4--| |--4---2-----| |--2--------| |------------| |-----------| |------------| |-----------| Verse 1: Bm A E {Fill 1} The world was on fire and no one could save me but you. Bm A E {Fill 2} It's strange what desire will make foolish people do. Bm A E {Fill 1} I never dreamed that I'd meet somebody like you. Bm A E {Fill 2} I never dreamed that I'd love somebody like you. Chrous: Bm A E {Fill 1} I don't want to fall in love. (This world is only gonna break your heart) Bm A E {Fill 2} I don't want to fall in love. (This world is only gonna break your heart) {Part 2} {Part 2} With you. With you. (This world is only gonna break your heart) Verse 2: Bm A E {Fill 1} What a wicked game to play, to make me feel this way. Bm A E {Fill 2} What a wicked thing to do, to let me dream of you. Bm A E {Fill 1} What a wicked thing to say, you never felt this way. Bm A E {Fill 2} What a wicked thing to do, to make me dream of you and, Chrous: Bm A E {Fill 1} I don't want to fall in love. (This world is only gonna break your heart) Bm A E {Fill 2} I don't want to fall in love. (This world is only gonna break your heart) {Part 1} {Part 2} With you. Verse 3: Bm A E {Fill 1} The world was on fire and no one could save me but you. Bm A E {Fill 2} It's strange what desire will make foolish people do. Bm A E {Fill 1} I never dreamed that I'd love somebody like you. Bm A E {Fill 2} I never dreamed that I'd loose somebody like you no, Chrous: Bm A E {Fill 1} I don't want to fall in love. (This world is only gonna break your heart) Bm A E {Fill 2} I don't want to fall in love. (This world is only gonna break your heart) {Part 2} {Part 2} With you. With you. (This world is only gonna break your heart) Bm A E Nobody loves no one.

Вверх

Wicked Games

Intro
|----------|----------|----------|-------------|---------|----------|
|----------|----------|----------|-------------|---------|----------|
|--2--2-2--|--0--0-0--|----------|----------01-|-2--2-2--|--0--0-0--|
|----------|----------|--0--0-0--|--0--0-0-----|---------|----------|

|----------|-------------|---------|-----------|----------|-------------|
|----------|-------------|---------|-----------|----------|-------------|
|----------|-------2-----|-2--2-2--|--0--0-0---|----------|-------2-----|
|--0--0-0--|--0--0----0--|---------|-----------|--0--0-0--|--0--0----0--|



Verse 1 0:35
|----------|----------|----------|-------------|---------|----------|
|----------|----------|----------|-------------|---------|----------|
|--2--2-2--|--0--0-0--|----------|----------01-|-2--2-2--|--0--0-0--|
|----------|----------|--0--0-0--|--0--0-0-----|---------|----------|

|----------|-------------|---------|-----------|----------|-------------|
|----------|-------------|---------|-----------|----------|-------------|
|----------|-------2-----|-2--2-2--|--0--0-0---|----------|-----------01|
|--0--0-0--|--0--0----0--|---------|-----------|--0--0-0--|--0--0-0-----|

|----------|----------|----------|-------------|----------|----------|
|----------|----------|----------|-------------|----------|----------|
|--2--2-2--|--0--0-0--|----------|-------2-----|--2--2-2--|--0--0-0--|
|----------|----------|--0--0-0--|--0--0-----0-|----------|----------|

|----------|--------------|
|----------|--------------|
|----------|-----------01-|
|--0--0-0--|--0--0-0------|


Chorus 1:10
|----------|-----------|----------|-------------|------------|-----------|
|------4---|-----------|----------|-------------|--------4---|-----------|
|-2--2---2-|--0--0-0---|----------|-------2-----|--2--2---2--|--0--0-0---|
|----------|-----------|--0--0-0--|--0--0-----0-|------------|-----------|

|----------|------------|
|----------|------------|
|----------|----------0-|
|--0--0-0--|--0--0-0----|


Bridge 1:26
|----------|-----------|----------|------------|----------|-----------|
|----------|-----------|----------|------------|-------4--|-----------|
|--2--2-2--|--0--0-0---|----------|-------2----|-2--2---2-|--0--0-0---|
|----------|-----------|--0--0-0--|--0--0----0-|----------|-----------|

|----------|--------------|
|----------|--------------|
|----------|-----------01-|
|--0--0-0--|--0--0-0------|



Verse 2 1:44
|---------|-----------|----------|-------------|---------|-----------|
|---------|-----------|----------|-------------|---------|-----------|
|-2--2-2--|--0--0-0---|----------|-------2-----|-2--2-2--|--0--0-0---|
|---------|-----------|--0--0-0--|--0--0----0--|---------|-----------|

|----------|-------------|-----------|----------|----------|----------|
|----------|-------------|------4----|----------|----------|----------|
|----------|------------0|--2--2---2-|--0--0-0--|----------|----------|
|--0--0-0--|--0--0-0-----|-----------|----------|--0--0-0--|--0--0-0--|

|----------|----------|----------|--------------|
|----------|----------|----------|--------------|
|--2--2-2--|--0--0-0--|----------|-----------01-|
|----------|----------|--0--0-0--|--0--0-0------|


Chorus 2:18
|----------|-----------|----------|-------------|-----------|----------|
|------4---|-----------|----------|-------------|--------4--|----------|
|-2--2---2-|--0--0-0---|----------|-------2-----|--2--2---2-|--0--0-0--|
|----------|-----------|--0--0-0--|--0--0-----0-|-----------|----------|

|----------|------------|
|----------|------------|
|----------|----------01|
|--0--0-0--|--0--0-0----|



Bridge 2:35
|------------|----------|----------|------------|-----------|-----------|
|-------4----|----------|----------|------------|-------4---|-----------|
|--2--2---2--|--0--0-0--|----------|-------2----|-2--2---2--|--0--0-0---|
|------------|----------|--0--0-0--|--0--0----0-|-----------|-----------|

|----------|-------------|------------|----------|----------|------------|
|----------|-------------|------------|----------|----------|------------|
|----------|-----------01|--2--2---2--|--0--0-0--|----------|-------2----|
|--0--0-0--|--0--0-0-----|--------2---|----------|--0--0-0--|--0--0----0-|

|-------------|----------|----------|------------|
|-------------|----------|----------|------------|
|--2--2---2---|--0--0-0--|----------|---------01-|
|--------2----|----------|--0--0-0--|--0--0-0----|


Verse 3 3:09
|---------|----------|----------|-------------|---------|-----------|
|---------|----------|----------|-------------|---------|-----------|
|-2--2-2--|--0--0-0--|----------|-------2-----|-2--2-2--|--0--0-0---|
|---------|----------|--0--0-0--|--0--0----0--|---------|-----------|

|----------|-------------|---------|----------|----------|-------------|
|----------|-------------|---------|----------|----------|-------------|
|----------|-----------01|--2--2-2-|--0--0-0--|----------|-------2-----|
|--0--0-0--|--0--0-0-----|---------|----------|--0--0-0--|--0--0----0--|

|----------|----------|----------|--------------|
|----------|----------|----------|--------------|
|--2--2-2--|--0--0-0--|----------|-----------01-|
|----------|----------|--0--0-0--|--0--0-0------|



Chorus – 3:42
|----------|-----------|----------|-------------|-----------|----------|
|------4---|-----------|----------|-------------|--------4--|----------|
|-2--2---2-|--0--0-0---|----------|-------2-----|--2--2---2-|--0--0-0--|
|----------|-----------|--0--0-0--|--0--0-----0-|-----------|----------|

|----------|------------|
|----------|------------|
|----------|----------01|
|--0--0-0--|--0--0-0----|


Outro – 4:00 (Repeat Outro 3X)
|----------|-----------|----------|-------------|-------------|----------|
|------4---|-----------|----------|-------------|--------4----|----------|
|-2--2---2-|--0--0-0---|----------|-------2-----|--2--2----2--|--0--0-0--|
|----------|-----------|--0--0-0--|--0--0-----0-|-------------|----------|
End
|----------|------------||---|
|----------|------------||---|
|----------|----------01||-2-|
|--0--0-0--|--0--0-0----||---|

Вверх

Wild Love

Intro. Chords:Gbm

Verse 1:
Gbm
I told you romance, this is your last chance.
Gbm
Why stand and whisper, go up and take her love.
Gbm
Why stand and tell her, how much you love her.
Gbm
You know you want her, there'll be no other love.
Gbm
Love............Wild love! Love............Wild love!

Chrous:
A A Gbm
If you want her love, tell her that you want it all.
A A Gbm
If you want her love, tell her that you want it all.

{Guitar Solo}Gbm

Verse 2:
Gbm
I told you romance, this is your last chance.
Gbm
Go up and show her, there'll be no other love.
Gbm
Love............Wild love! Love.........Wild love!

{2nd Guitar Solo}Gbm

Вверх

Wrong To Love You

Main Riff:
----------------------| Tab Key:
----------------------| B- Bend
----------------------| H- Hammer On
-------------2-0-2--0-| *- See end notes for explanation
---------0h2----------|
-2b-2b-0--------------|

Intro: Main Riffx2 then E and A chords played with the main riff.

Verse 1:
E A E A
Little girl standing, and I'm so alone,
E A E A
Little girl whispers, stranger come home.
E A E A
Sad little eyes, so much to say,
E A E A
Oh what a game, little girls play, and it must be.

Chrous:
E A E
Wrong to love you like I do, it must be
E A E A
Wrong to love you like I do.

Verse 2:
E A E A
Little girl talking, can't stand her spell,
E A E A
Little girl moving, moving slowly.
E A E A
I can hear music, sounds so far away,
E A E A
And I can hear voices, I know just what they say, it must be.

Chrous:
E A E
Wrong to love you like I do, it must be
E A E A
Wrong to love you like I do.

Verse 3:
E A E A
My head, goes round and round,
E A E A
My heart, comes a tumbling down.
E A E A
Your hot kisses, only make me know it's true,
E A E A
Your hot loving, only makes me think of you. And it must be.

Solo: E-A-E-A-E-A-E-A

Bridge:
N.C.*
There will be no song of love there will be no sweet refrain.
N.C.
There will be no soft goodbye or slow walk in the rain.
E A E A
There will be no whispered words no vows that can't come true.
E A E A
There's only me, waiting here for you and it must be.

Chrous:
E A E A
Wrong to love you like I do, (Wrong to love you) it must be
E A E A
Wrong to love you like I do. (Wrong to love you)
E A
Wrong to love you, (Wrong to love you)
E A
Wrong to love you, (Wrong to love you)
E A E A
Wrong to love you, (Wrong to love you) Like I do!
E A E A
Do I do I do I do I do I do I do
E A E A
Do I do I do I do I do I do I
E*
I do!

Вверх

You Owe Me Some Kind Of Love

Signature Riff:
E|------------|
B|------------|
G|--------1vv-|
D|------3-----|
A|----3-------|
E|--1---------|

Intro:
Fb chord fading with volume control. The it's a Fm chord
overlayed with the main riff and a few neck slides her and ther
for variety.

Verse 1:
Fm
Think of all the things we've done and now,
Fm
you've decided I'm not the one.
Fm
A love like ours just can't go wrong,
Fm
run away baby have your fun but,
Fm Bbm Fm
I, I, I, I, don't wana hurt you I don't wanna see you cry.
Fm Bbm Fm Signautre Riff
I, I, I, I, just wanna hold your love tonight.
Fm Signature Riff
You owe me some kind of love.

Verse 2:
Fm
I don't want to see you sad I don't want ya,
Fm
feeling down I only want ya,
Fm
To say you love me and you need me,
Fm
the way I love you please believe me.
Fm Bbm Fm
I, I, I, I, don't wana hurt you I don't wanna see you cry.
Fm Bbm Fm Signature Riff
I, I, I, I, just wanna hold your love tonight.
Fm Signature Riff
You owe me some kind of love.
Fm
You owe me some kind of love.

Solo 1: Fm
E|------------------------------|------------------------------|
B|-18-18--13-13-6-6-1s4-6-6-4-6-|-18-18--13-13-6-6-1s4-6-6-4-6-|
G|------------------------------|------------------------------|
D|------------------------------|------------------------------|
A|------------------------------|------------------------------|
E|------------------------------|------------------------------|

E|--------------------------------|
B|--13-13-13-13--6-6-1s4-6-6-4-6--|
G|--------------------------------|
D|--------------------------------|
A|--------------------------------|
E|--------------------------------|

E|---------------------------------------------------------1--|
B|--18-18--13-13-6-6-1s4s1----------1s4s1------------------1--|
G|-------------------------3-1-1----------3-1-1------------1--|
D|-----------------------------------------------1h3-3-1---3--|
A|-------------------------------------------------------1-3--|
E|---------------------------------------------------------1--|

Verse 3:
Fm
Think of all the things we've done and now,
Fm
you've decided I'm not the one.
Fm
A love like ours just can't go wrong,
Fm
run away baby have your fun but,
Fm Bbm Fm
I, I, I, I, don't wana hurt you I don't wanna see you cry.
Fm Bbm Fm
I, I, I, I, just want you back I don't want to fight.
Fm Bbm Fm Signature Riff
I, I, I, I, just wanna hold you love tonight.
Fm Signautre Riff
You owe me some kind of love.
Fm Signature Riff
You owe me some kind of love.
Fm
Help!

Solo 2: Fm
E|--------------------------------------|------------------------------------|
B|-18-18-18-18--13-13-13-13--10------10-|-13-13-13-13--10-10-9-10-10-10-9-10-|
G|-17-17-17-17--13-13-13-13--10--13--10-|-13-13-13-13--10-10-9-10-10-10-9-10-|
D|-------------------------------13-----|------------------------------------|
A|--------------------------------------|------------------------------------|
E|--------------------------------------|------------------------------------|

E|--------------------------------------|------------------------------------|
B|-18-18-18-18--13-13-13-13--10------10-|-13-13-13-13--10-10-9-10-10-10-9-10-|
G|-17-17-17-17--13-13-13-13--10--13--10-|-13-13-13-13--10-10-9-10-10-10-9-10-|
D|-------------------------------13-----|------------------------------------|
A|--------------------------------------|------------------------------------|
E|--------------------------------------|------------------------------------|

E|------------------------------------------| Lead needs to use distortion on
B|--18-18--13-13--10-10-9-10-10-10-10-9-10--| this last solo to really nail a
G|--17-17--13-13--10-10-9-10-10-10-10-9-10--| blues kind of riff.
D|------------------------------------------|
A|------------------------------------------|
E|------------------------------------------|

E|------------------------------------|
B|--18-18--13-13--10-10-9-10-10-10-9--|
G|--17-17--13-13--10-10-9-10-10-10-9--|
D|------------------------------------|
A|------------------------------------|
E|------------------------------------|

E|-1-------------1-------------1-------------1------------1--|
B|-1-------------1-------------1-------------1------------1--|
G|-1----1-1------1----1-1------1----1-1------1----1-1-1---1--|
D|-3---3---------3---3---------3---3---------3---3-----3--3--|
A|-3--3----------3--3----------3--3----------3--3-------3-3--|
E|-1-1------1s12-1-1------1s12-1-1------1s12-1-1----------1--|

Вверх
English songs 109

ABBA
AC-DC
Adams Bryan
Adriano Celentano
Aerosmith
A-Ha
Animals
Antonio Banderos
Apocalyptica
Armstrong Louis
Billy's Band
Bjork
Blink 182
Blondie
Blur
Bob Dylan
Boney M
Bon Jovi
Bowie David
Brainstorm
Braxton Toni
Butch
Celine Dion
Chris De Burgh
Chris Isaak
Chuck Berry
Clapton Eric
Cohen Leonard
Cranberries
Deep Purple
Depeche Mode
Dire Straits
Donovan Jason
Eagles
Electric Light Orchestra
Elton John
Elvis Presley
Era
Europe
Evanescence
Garbage
Gary Moore
Glen Wiston
Gorillaz
Green Day
Guano Apes
Guns N Roses
Hendrix Jimi
Iggy Pop
Iron Maiden
Joe Dassin
Kansas
King Crimson
Kiss
Led Zeppelin
Leonard Cohen
Limp Bizkit
Linkin Park
Louis Amstrong
Madonna
Marilyn Manson
Marley Bob
Metallica
Moby
Morricone Ennio
Muse
Nazareth
Nelly Furtado
Nick Cave
Nirvana
No Doubt
Oasis
Offspring
Ottawan
Outkast
Ozzy Osbourne
Pain
Para Bellum
Pink Floyd
Placebo
P.O.D.
Queen
RadioHead
Rainbow
Rammstein
Rea Chris
Red Hot Chili Peppers
Ritchie Blackmore
Rolling Stones
Roxette
Rufus Wainwright
Santana
Sarah Brightman
Scorpions
Sex Pistols
Simon & Garfunkel
Shocking Blue
Soul Asylumx
Status Quo
Sting
System of a down
Sum 41
The Beatles
The Doors
Tito & Tarantula
U2
UB 40
Uriah Heep
Van Halen

Українські пісні 109

Boom Box
Escape
Flit
Kapela Drewutnia
Lama
LЮK
Mad Heads (XL)
Motor' rolla
NEON
Ot Vinta
The Вйо
Абздольц
Аероплан
Акорд
Ані Лорак
Бандурна розмова
Білик Ірина
Борщ
Брати Гадюкіни
Вася Club
Вій
Воплі Відоплясова
Гайдамаки
Гончар Олесь
Гринжоли
Гроно
Гуляйгород
Дарка і Славко
Дивні
Друга Ріка
Другий подих
Дударик
Експампей
Євтушенко Андрій
Жарівка (Дяк Олесь)
Журбовіз
Зібров Павло
Зінкевич Василь
Злотник Олександр
Івасюк Володимир
Калєкція
Карна
Карпа Ірена
Клямка
Козловський Віталій
Кому вниз
Крихітка Цахес
Курінь
Лесик-Band
Лорд Юрія
Львівські музики
Мандри
Менестрелі
Мері
Мертвий Півень
Міпеніум
Монте Крісто
Морозов Віктор
Нахтіґаль
Не журись!
Неборак Віктор
НеДІля
НЕМО
Нічлава блюз
Океан Ельзи
ПереBANDя
Перкалаба
Петрович
Піккардійська Терція
Піпа Олександр
Плач Єремїі
Пономарьов Олександр
Пророк
Росава
Ротару Софія
Руслана
Рутенія
С.К.А.Й.
САД
Самі свої
Серцевий Напад
Скрябін
Смерічка
Сокира Перука
Соколи
Таліта Кум
Тартак
Тінь сонця
Ткач Михайло
ТНМК
Тостер
Тріо Мареничів
Фарбований лис
Фестиваль Снів
Хвилю тримай
Цісик Квітка
Черемош
Черемшина
Четвертий кут
Чорний вересень
Чорні черешні
Шевченко Тарас
Щастя
Юркеш
Юрченко Юрко
Юрчишин Ярослав
Явір
Яка існуЄ
Яремчук Назарій

   
 sait@i.ua



Рейтинг@Mail.ru