accordS-land.ru Аккорды и табулатуры к гитаре.
Главная | Песенник | Аккорды | Учебник
Руссике песни 180
5nizza
7Б
9-й Район
Animal ДжаZ
Billy's Band
Butch
Para Bellum
TequilaJazzz
Worms
Zdob Si Zdub
Автоматические удовлетворители
Агата Кристи
Агузарова Жанна
Агутин Леонид
Адо
Аквариум
Алиса
Алсу
Амирамов Е.
Антонов Ю.
Арефьева Ольга
Ария
АукцЫон
Барыкин
Башаков Михаил
Башлачев Александр
БекХан
Бернес М.
Би - 2
Бони неМ
Борзов Найк
Боярский Михаил
Браво
Братья Грим
Ва-Банкъ
Вертинский Александр
Визбор Юрий
Високосный год
Воскресенье
Восьмая Марта
Высоцкий В.С.
Високосный год
Газманов О.
Галич Александр
Герман А.
Городницкий Александр
Глызин А.
Градский Александр
Гражданская Оборона
Гребещенков
Данко
ДДТ
Дидюля
Диоды
Дискотека Авария
Дягилева Янка
Ёлка
Жуки
Заблудовский Андрей
Запрещенные Барабанщики
Звери
Земляне
Земфира
Зинчук Виктор
Зоопарк
Иван Кайф
Иванов А.
Иваси
ИЗ КИНО И МУЛЬТФИЛЬМОВ
Империя
Калинов мост
Кашин Павел
Кельми К.
КИНО
Кипелов
Конец Фильма
Контингент
Корни
Король и Шут
Коррозия металла
Крематорий
Крупнов Анатолий
Кузьмин Владимир
Куликов Е.
Кукрыниксы
Курехин Сергей
Лаэртский Александр
Ласковый май
Ленинград
Леонидов Максим
Лесоповал
Лещенко Л.
Линда
Лицей
Лоза Юрий
Любэ
Люмен
Ляпис Трубецкой
Мальчишник
Манго-манго
Мара
Маркин В.
Маршал Александр
Маша и медведи
Машина времени
Мечтать
Мистер Кредо
Митяев Олег
Многоточье
Монгол Шуудан
Моральный Кодекс
Мультfильмы
Мумий Тролль
Настя
Науменко Майк
Наутилус Помпилиус
Непара
Неприкасаемые
Несчастный случай
Никоваев И.
Никольский Константин
Ногу свело
Ноль
Носков Николай
Ночные Снайперы
Окуджава Булат
Оркрист
Осин Е.
Оскар
Отиева И.
Паперный Т.А.М.
Парк Горького (Gorky Park)
Пикник
Пилот
Пламя
Полковник и однополчане
Пугачева А.
ПЭХ
Приключения Электроников
Просто прикольные песни
Рада и Терновник
Римский-Корсаков
Розенбаум Александр
Рок-Острова
Рондо
Сансара
Саруханов
Сегодня Ночью
Секрет
Сектор газа
Сенчина Л.
СерьГа
Смысловые Галлюцинации
Сплин
Солодуха А.
Старые блатные песни
Сукачев Гарик
Сурганова и Оркестр
Сюткин Валерий
Тальков Игорь
Танцы минус
Тараканы
Тату
Технология
УмаТурман
Умка и Броневичок
Ундервудъ
Фабрика звезд
Х.З. (Хуй Забей)
Центр
ЧайФ
Черный кофе
Черный Лукич
Чиж и Ко
Чистяков Федор
Шанхай
Щербаков Михаил
Ю-Питер

Классика 22

Албениз Исаак
Албениз Матео
Бах Иоган Себостьян
Бетховен Людвиг ван
Бизе Жорж
Брамс Иоганнес
Вивальди Антонио
Гендель Георг Фридрих
Гершвин Джордж
Григ Эдвард
Дебюсси Клод
Камиль Сен-Санс
Мендельсон
Моцарт Вольфгант Амадей
Мусоргский Модест Пертрович
Норис Крис
Огинский Михал Клеофас
Паганини Никколо
Рахманинов Сергей Васильевич
Римский-Корсаков
Чайковский Пётр Ильич
Шуберт Франц
 

 

Cohen Leonard

A Bunch of Lonesome Heroes
Ain't No Cure for Love
Alexandra Leaving
Always
Anthem
A Singer Must Die
A Thousand Kisses Deep
Avalanche
Ballad of the Absent Mare
Because of
Be for Real
Bird on the Wire
Bird on the Wire (2 вариант)
Boogie Street
By the Rivers Dark
Came So Far for Beauty
Chelsea Hotel
Closing Time
Coming Back to You
Dance Me to the End of Love
Dance Me to the End of Love (2 вариант)
Death of a Ladies' Man
Democracy
Diamonds in the Mine
Do I Have to Dance All Night
Don't Go Home with Your Hard-On
Dress Rehearsal Rag
Everybody Knows
Everybody Knows (2 вариант)
Famous Blue Raincoat
Field Commander Cohen
First We Take Manhattan
Go No More A-Roving
Hallelujah
Hallelujah (2 вариант)
Heart with No Companion
Here It Is
Hey, That's No Way to Say Goodbye
Humbled in Love
Hunter's Lullaby
I Can't Forget
If It Be Your Will
If It Be Your Will (2 вариант)
I Left a Woman Waiting
Improvisation
I'm Your Man
In My Secret Life
Iodine
Is This What You Wanted
I Tried to Leave You
Jazz Police
Joan of Arc
Joan of Arc (2 вариант)
Lady Midnight
Last Year's Man
Leaving Green Sleeves
Light As the Breeze
Love Calls You By Your
Love Calls You by Your Name (2 вариант)
Love Itself
Lover Lover Lover
Lover Lover Lover (2 вариант)
Master Song
Memories
Minute Prologue
Nancy
Never Any Good
Night Comes On
Nightingale
One of Us Cannot Be Wrong (2 вариант)
On That Day
Our Lady of Solitude
Paper Thin Hotel
Passing Through
Please Don't Pass Me By (A Disgrace)
Queen Victoria
Seems So Long Ago, Nancy
Sing Another Song, Boys
Sisters of Mercy
So Long, Marianne
Song of Bernadette
Stories of the Street
Story of Isaac
Suzanne
Tacoma Trailer
Take This Longing
Take This Waltz
Teachers
Tennessee Waltz
That Don't Make It Junk
The Butcher
The Captain
The Faith
The Future
The Guests
The Gypsy's Wife
The Land of Plenty
The Law
The Letters
The Lost Canadian (Un Canadien Errant)
The Old Revolution Intro: E
The Partisan
The Partisan (2 вариант)
There for You
There Is a War
The Smokey Life
The Stranger Song
The Stranger Song (2 вариант)
The Traitor
The Window
Tonight Will Be Fine
Tower of Song
True Love Leaves No Traces
Undertow
Waiting for the Miracle
Who by Fire
Why Don't You Try
Winter Lady
You Have Loved Enough
You Know Who I Am
Вверх

A Bunch of Lonesome Heroes

Intro: A

A                                       Bm
A bunch of lonesome and very quarrelsome heroes
E                  E7            A.. Asus4..|A.Asus2 A.Asus2|
Were smoking out along the open road
A                                     Bm
The night was very dark and thick between them
E            E7                A.. Asus4..|A.Asus2 A.Asus2|
Each man beneath his ordinary load
D                      A
"I'd like to tell my story,"
B                              E   E7
Said one of them so young and bold
D                      A
"I'd like to tell my story
F#m                 E    E7
Before I turn into gold."

But no one really could hear him
The night so dark and thick and green
Well I guess that these heroes must always live there
Where you and I have only been
Put out your cigarette, my love
You've been alone too long
And some of us are very hungry now
To hear what it is you've done that was so wrong

I sing this for the crickets
I sing this for the army
I sing this for your children
And for all who do not need me
"I'd like to tell my story,"
Said one of them so bold
"Oh yes, I'd like to tell my story
'cause you know I feel I'm turning into gold."

Вверх

Ain't No Cure for Love

Intro: G . . . |D . . . |Am7 . . . |C . . . |
       Em . . . |D . . . |C . . . |D . . . |. . . . |

G                  G7
I loved you for a long, long time
C
I know this love is real
          G
It don't matter how it all went wrong
      D
That don't change the way I feel
       G                  B
And I can't believe that time's
                 Em                     C      Eb7
Gonna heal this wound that I'm speaking of
       G
There ain't no cure
       D
There ain't no cure
       C                 G
There ain't no cure for love

I'm aching for you baby
I can't pretend I'm not
I need to see you naked
In your body and your thought
I've got you like a habit
And I'll never get enough
There ain't no cure
There ain't no cure
There ain't no cure for love

                Em            G
(There ain't no cure for love)
                Em         G
(There ain't no cure for love)
                           C
All the rocket ships are climbing through the sky
          C
The holy books are open wide
             D
The doctors working day and night
             D                   Em            G
But they'll never ever find that cure for love

                  C
(There ain't no drink, no drug)
          A                           D
(There's nothing pure enough to be a cure for love)

I see you in the subway
And I see you on the bus
I see you lying down with me
And I see you waking up
I see your hand, I see your hair
Your bracelets and your brush
And I call to you, I call to you
But I don't call soft enough
There ain't no cure
There ain't no cure
There ain't no cure for love

I walked into this empty church
I had no place else to go
When the sweetest voice I ever heard
Whispered to my soul
I don't need to be forgiven
For loving you so much
It's written in the scriptures
It's written there in blood
I even heard the angels
Declare it from above
There ain't no cure
There ain't no cure
There ain't no cure for love

(There ain't no cure for love)
(There ain't no cure for love)
All the rocket ships are climbing through the sky
The holy books are open wide
The doctors working day and night
But they'll never ever find that cure, that cure for love
     Em       G                    Em       G
(No cure for love, there ain't no cure for love...)

Вверх

Alexandra Leaving

Chords:

Am7/e:    002010
Bb6:      x13333

F                             Dm
Suddenly the night has grown colder.
C                   Bb     C      F
The god of love preparing to depart.
F                          Dm
Alexandra hoisted on his shoulder
Bb                             C          F
They slip between the sentries of the heart.

   Am7                          Bb
Upheld by the simplicities of pleasure
Gm                                       C
They gain the light, they formlessly entwine
F                               Dm
And radiant beyond your widest measure
Bb                         C          F
They fall among the voices and the wine.

             Bb         C            Dm
It's not a trick, your senses all deceiving
           Bb                       C
A fitful dream, the morning will exhaust
        F Am7/e Dm C      Bb
Say goodbye to Alexandra leaving.
  Bb6               C          F
Then say goodbye to Alexandra lost.

F                                 Dm
Even though she sleeps upon your satin
C                Bb        C         F
Even though she wakes you with a kiss.
F                           Dm
Do not say the moment was imagined
C                  Bb  C          F
Do not stoop to strategies like this.

Am7                                   Bb
As someone long prepared for this to happen
Gm                                C
Go firmly to the window. Drink it in.
           F                Dm
Exquisite music. Alexandra laughing.
Bb                           C     F
Your first commitments tangible again.

             Bb      C           Dm
And you who had the honor of her evening
             Bb                    C
And by that honor had your own restored
        F Am7/e Dm C      Bb
Say goodbye to Alexandra leaving
Bb6        C                F
Alexandra leaving with her lord.

                  Bb     C        Dm
Even though she sleeps upon your satin
                 Bb        C      Dm
Even though she wakes you with a kiss.
                Bb     C      Dm
Do not say the moment was imagined
                   Gm             C
Do not stoop to strategies like this.

F                                   Dm
As someone long prepared for the occasion
C                  Bb      C        F
In full command of every plan you wrecked
F                              Dm
Do not choose a coward's explanation
C                      Bb         C      F
That hides behind the cause and the effect.

             Bb     C             Dm
And you who were bewildered by a meaning
                 Bb                 C
Whose code was broken, crucifix uncrossed
        F Am7/e Dm C      Bb
Say goodbye to Alexandra leaving.
  Bb6               C          F
Then say goodbye to Alexandra lost.

        F Am7/e Dm C      Bb
Say goodbye to Alexandra leaving.
  Bb6               C          F
Then say goodbye to Alexandra lost.

Вверх

Always

Always
Chords:

C' (=C11+5):   x33334  or  x30111
Gm11:          333333

Intro: F.. ...|/c.. ...|F.. ...|Dm7.. C'..|

F                                Dm7 C' F
Oh friends... don't matter if you're a man or a woman
F           Dm7         C'
If you're in love with somebody,
F                              Dm7        C'   F
these are the words that you gotta learn to say
F
Now listen carefully
            Dm7.. C'..|F.. ...|/c.. ...|F.. F7..|C'.. Bb..|
Here it comes...

F               Dm7 C' F      F7/a  Bbsus4
I'll be loving you always
C                     Dm7 C F     Dm7  C'
With a love that's true, always
F                             G7  A
When the thing you've planned
A                      /f#   E
Needs my helping hand
E                     A   D7  G   C'.. Dm7..|
I will understand, always, always

F                  Dm7 C' F
Days may not be fair, always
F E7 Eb   D                            Gm..|/d..|Gm..|./a.|Bb..|
Yeah but that's when I'll be there, always
Bb               Bbm   F
Not for just an hour
F              G7  Gm
Not for just a day
Gm             C Gm11 Bb F
Not for just a year, always

F                            Dm7 C' F
I said that I'll be loving you, always
                  C                      Dm C   F      Dm7  C'
With a love that's true, a love that's true, always
F                            G7
When the thing you've planned
A
Needs my helping hand
   E                          A   D7   G   C
I will, I will understand, always, always

F.. ...|/c.. ...|F.. ...|/c.. ...|
F.. ...|/c.. ...|F.. ...|E7.. Eb..|
D.. ...|/a.. ...|D.. ...|/a.. ...|
Gm.. ...|/d.. ...|Gm.. ...|/d.. ...|
Bb.. ...|/f.. ...|Bbm.. ...|... ...|    (Oh that's pretty...)
F.. ...|/c.. ...|G7.. ...|... ...|      (That's pretty too...)
Gm... ...|... ...|C.. ...|... ...|      (Oh darling...)
F.. ...|... ...|... ...|... ...|

     F
The days may not be fair, always
F E7 Eb    D                           Gm
Yeah but that's when I'll be there, always
Bb                           Bbm
Not for just a second, or a minute, or an hour
 F                             G7
Not for just a weekend and a shake down in the shower
 Gm                              C
Not for just the summer and the winter going sour
    F
But always, always, always

F.. ...|/c.. ...|F.. ...|Dm7.. C'..|
F.. ...|/c.. ...|F.. ...|Dm7.. C'..|
F.. ...|/c.. ...|F.. ...|Dm7.. C'..|

F
Ok if you don't want to quit, let's try it one more time...

F.. ...|/c.. ...|F.. ...|Dm7.. C'..|

F               Dm7 C' F      F7/a   Bbsus4
I'll be loving you, always
C                   Dm7 C F     Dm7  C'
With a love that's true, always
F                                A
When the thing you've planned
A
Needs my helping hand
              E                              A   D7      G    C
I will understand, I will, I will understand, always, always

F
The days may not be fair, always... don't worry, baby
            D             Gm
That's when I'll be there, always
Bb               Bbm
Not for just an hour
F               G7
Not for just a day
Gm              C              F
Not for just a year, but always...

Вверх

Anthem

Intro: A#m.. ...|... ...|G#.. ...|... ...|... ...|... ...|

                C#
The birds they sang
C#sus4            C#    C#sus4
At the break of day
        G#
Start again
              C#    C#7
I heard them say
        F  F7
Don't dwell on what
     A#m        A#sus2
Has passed away
            G#sus4.. ...|G#6.. ...|G#7.. ...|G#.. ...|
Or what is yet to be

Ah the wars they will
Be fought again
The holy dove
She will be caught again
Bought and sold
And bought again
The dove is never free

          F#          B        F#   F#sus4
Ring the bells that still can ring
    F#       B           F#
Forget your perfect offering
             C#       B      F#
There is a crack, a crack in everything
                D#sus4.. ...|... ...|
That's how the light gets in

G#sus4.. ...|... ...|G#.. ...|... ...|
G#7.. ...|... ...|

We asked for signs
The signs were sent:
The birth betrayed
The marriage spent
Yeah the widowhood
Of every government
Signs for all to see

I can't run no more
With that lawless crowd
While the killers in high places
Say their prayers out loud
But they've summoned up, they've summoned up
A thundercloud
And they're going to hear from me

Ring the bells that still can ring
Forget your perfect offering
There is a crack, a crack in everything
That's how the light gets in

You can add up the parts
But you won't have the sum
You can strike up the march
There is no drum
Every heart, every heart
To love will come
But like a refugee

Ring the bells that still can ring
Forget your perfect offering
There is a crack, a crack in everything
That's how the light gets in

Ring the bells that still can ring
Forget your perfect offering
There is a crack, a crack in everything
That's how the light gets in
That's how the light gets in
That's how the light gets in



Guitarist friendly version
Capo 1st fret

Chords:

Csus4:     x32011  or  x33010
C7:        x32310
Asus2:     x02200
Gsus4:     320013  or  330003
G6:        320000  or  322003
G7:        320001  or  323003
Fsus4:     133311
Dsus4:     xx0233

Intro: Am.. ...|... ...|G.. ...|... ...|... ...|... ...|

                C
The birds they sang
Csus4            C    Csus4
At the break of day
        G
Start again
              C    C7
I heard them say
        E  E7
Don't dwell on what
     Am        Asus2
Has passed away
            Gsus4.. ...|G6.. ...|G7.. ...|G.. ...|
Or what is yet to be

Ah the wars they will
Be fought again
The holy dove
She will be caught again
Bought and sold
And bought again
The dove is never free

          F           Bb       F   Fsus4
Ring the bells that still can ring
    F        Bb          F
Forget your perfect offering
             C        Bb     F
There is a crack, a crack in everything
                Dsus4.. ...|... ...|
That's how the light gets in

Gsus4.. ...|... ...|G.. ...|... ...|
G7.. ...|... ...|

We asked for signs
The signs were sent:
The birth betrayed
The marriage spent
Yeah the widowhood
Of every government
Signs for all to see

I can't run no more
With that lawless crowd
While the killers in high places
Say their prayers out loud
But they've summoned up, they've summoned up
A thundercloud
And they're going to hear from me

Ring the bells that still can ring
Forget your perfect offering
There is a crack, a crack in everything
That's how the light gets in

You can add up the parts
But you won't have the sum
You can strike up the march
There is no drum
Every heart, every heart
To love will come
But like a refugee

Ring the bells that still can ring
Forget your perfect offering
There is a crack, a crack in everything
That's how the light gets in

Ring the bells that still can ring
Forget your perfect offering
There is a crack, a crack in everything
That's how the light gets in
That's how the light gets in
That's how the light gets in

Вверх

A Singer Must Die

Chords:

Asus2:     x02200
Cmaj7:     x32000
Dsus2:     xx0230
E/b:       x22100

Intro: Bb

         Bb                      Asus2
Now the courtroom is quiet, but who will confess
       Bb                        Asus2
Is it true you betrayed us, the answer is yes
      Cmaj7                    F
Then read me the list of the crimes that are mine
       Dsus2                       G
I will ask for the mercy that you love to decline
             C                        E/b
And all the ladies go moist, and the judge has no choice
   Am                      G
A singer must die for the lie in his voice

And I thank you, I thank you for doing your duty
You keepers of truth, you guardians of beauty
Your vision is right, my vision is wrong
I'm sorry for smudging the air with my song
La la la la la la la la la la la la la la la la
La la

Oh the night it is thick, my defences are hid
In the clothes of a woman I would like to forgive
In the rings of her silk, in the hinge of her thighs
Where I have to go begging in beauty's disguise
Oh goodnight, goodnight, my night after night
My night after night, after night, after night, after night

And I am so afraid that I listen to you
Your sun glassed protectors they do that to you
It's their ways to detain, it's their ways to disgrace
Their knee in your balls and their fist in your face
Yes and long live the state by whoever it's made
Sir, I didn't see nothing, I was just getting home late

      Bb
La la la la la la la la
       Asus2
La la la la la
Bb
La la la la la
          Asus2
La la la la la la
Cmaj7
La la la la la la la
F
La la la la la la
Dsus2
La la la la la la la la
G
La la la la la la la la la la la...




Intro:

    Bb
    |   .   .   .   .   .   |   .   .   .   .   .
E|---------------------------------------------------|
B|----------3-----------3-----------3-------3---3----|
G|----------3-----------3-----------3-------3---3----|
D|--------3---3-------3---3-------3---3---3---3---3--|
A|--1-----------------------1------------------------|
E|--------------1-----------------------1------------|


Verse:

    Bb                      Asus2
    |   .   .   .   .   .   |   .   .   .   .   .
E|---------------------------------------------------|
B|------3---3-------3---3-------0---0-------0---0----|
G|------3---3-------3---3-------2---2-------2---2----|
D|----3---3---3---3---3---0---2---2---2---2---2---0--|
A|--1-----------------------0------------------------|
E|--------------1-----------------------0------------|

    Bb                      Asus2
    |   .   .   .   .   .   |   .   .   .   .   .
E|---------------------------------------------------|
B|------3---3-------3---3-------0---0-------0---0----|
G|------3---3-------3---3-------2---2-------2---2----|
D|----3---3---3---3---3---0---2---2---2---2---2---0--|
A|--1-----------------------0------------------------|
E|--------------1-----------------------0------------|

    Cmaj7                   F
    |   .   .   .   .   .   |   .   .   .   .   .
E|---------------------------------------------------|
B|------0---0-------0---0-------1---1-------1---1----|
G|------0---0-------0---0-------2---2-------2---2----|
D|----2---2---2---2---2---0---3---3---3---3---3---0--|
A|--3-----------3-----------------------3------------|
E|--------------------------1------------------------|

    Dsus2                   G
    |   .   .   .   .   .   |   .   .   .   .   .
E|------0---0-------0---0----------------------------|
B|------3---3-------3---3-------3---3-------3---3----|
G|----2---2---2---2---2---0-----4---4-------4---4----|
D|--0-----------0-------------5---5---5---5---5---0--|
A|---------------------------------------------------|
E|--------------------------3-----------3------------|

    C                       E/b
    |   .   .   .   .   .   |   .   .   .   .   .
E|------0---0-------0---0-------0---0-------0---0----|
B|------1---1-------1---1-------0---0-------0---0----|
G|----0---0---0---0---0---0---1---1---1---1---1---1--|
D|---------------------------------------------------|
A|--3-----------3-----------2-----------2------------|
E|---------------------------------------------------|

    Am                      G
    |   .   .   .   .   .   |   .   .   .   .   .
E|------0---0-------0---0----------------------------|
B|------1---1-------1---1-------3---3-------3---3----|
G|----2---2---2---2---2---2-----4---4-------4---4----|
D|----------------------------5---5---5---5---5---5--|
A|--0-----------0-----------------------5------------|
E|--------------------------3------------------------|


Outro (La la la...):

    Bb
    |   .   .   .   .   .   |   .   .   .   .   .
E|---------------------------------------------------|
B|------3---3-------3---3-------3---3-------3---3----|
G|------3---3-------3---3-------3---3-------3---3----|
D|----3---3---3---3---3---3---3---3---3---3---3---0--|
A|--1-----------------------1------------------------|
E|--------------1-----------------------1------------|

    Asus2
    |   .   .   .   .   .   |   .   .   .   .   .
E|---------------------------------------------------|
B|------0---0-------0---0-------0---0-------0---0----|
G|------2---2-------2---2-------2---2-------2---2----|
D|----2---2---2---2---2---2---2---2---2---2---2---0--|
A|--0-----------------------0------------------------|
E|--------------0-----------------------0------------|

    Bb
    |   .   .   .   .   .   |   .   .   .   .   .
E|---------------------------------------------------|
B|------3---3-------3---3-------3---3-------3---3----|
G|------3---3-------3---3-------3---3-------3---3----|
D|----3---3---3---3---3---3---3---3---3---3---3---0--|
A|--1-----------------------1------------------------|
E|--------------1-----------------------1------------|

    Asus2
    |   .   .   .   .   .   |   .   .   .   .   .
E|---------------------------------------------------|
B|------0---0-------0---0-------0---0-------0---0----|
G|------2---2-------2---2-------2---2-------2---2----|
D|----2---2---2---2---2---2---2---2---2---2---2---0--|
A|--0-----------------------0------------------------|
E|--------------0-----------------------0------------|

    Cmaj7
    |   .   .   .   .   .   |   .   .   .   .   .
E|---------------------------------------------------|
B|------0---0-------0---0-------0---0-------0---0----|
G|------0---0-------0---0-------0---0-------0---0----|
D|----2---2---2---2---2---2---2---2---2---2---2---0--|
A|--3-----------3-----------3-----------3------------|
E|---------------------------------------------------|

    F
    |   .   .   .   .   .   |   .   .   .   .   .
E|---------------------------------------------------|
B|------1---1-------1---1-------1---1-------1---1----|
G|------2---2-------2---2-------2---2-------2---2----|
D|----3---3---3---3---3---3---3---3---3---3---3---0--|
A|--------------3-----------------------3------------|
E|--1-----------------------1------------------------|

    Dsus2
    |   .   .   .   .   .   |   .   .   .   .   .
E|------0---0-------0---0-------0---0-------0---0----|
B|------3---3-------3---3-------3---3-------3---3----|
G|----2---2---2---2---2---2---2---2---2---2---2---0--|
D|--0-----------0-----------0-----------0------------|
A|---------------------------------------------------|
E|---------------------------------------------------|

    G
    |   .   .   .   .   .   |   .   .   .   .   .
E|---------------------------------------------------|
B|------3---3-------3---3-------3---3-------3---3----|
G|------4---4-------4---4-------4---4-------4---4----|
D|----5---5---5---5---5---5---5---5---5---5---5---5--|
A|---------------------------------------------------|
E|--3-----------3-----------3-----------3------------|

Вверх

A Thousand Kisses Deep

Intro: Fm . . . |C . . . |Fm . . . |. . /c . |

            Fm                 C
The ponies run, the girls are young
               Fm           /c
The odds are there to beat
            Fm                  C
You win a while, and then it's done
             Db
Your little winning streak
              Bbm    C
And summoned now to deal
         Fm       (/g)  Dm-5
With your invincible defeat
               Bbm7            C
You live your life as if it's real
Db          Eb     Fm
A Thousand Kisses Deep

I'm turning tricks, I'm getting fixed
I'm back on Boogie Street
You loose your grip, and then you slip
Into the Masterpiece
And maybe I had miles to drive
And promises to keep
You ditch it all to stay alive
A Thousand Kisses Deep

Fm . . . |C . . . |Fm . /c . |Fm . /c . |
Fm . . . |C . . . |Db . . . |. . . . |

                Bbm               C
And sometimes when the night is slow
Fm           (/g)     Dm-5
The wretched and the meek
          Bbm7               C
We gather up our hearts and go
Db          Eb     Fm
A Thousand Kisses Deep

Confined to sex, we pressed against
The limits of the sea
I saw there were no oceans left
For scavengers like me
I made it to the forward deck
I blessed our remnant fleet
And then consented to be wrecked
A Thousand Kisses Deep

I'm turning tricks, I'm getting fixed
I'm back on Boogie Street
I guess they won't exchange the gifts
That you were meant to keep
And quiet is the thought of you
The file on you complete
Except what we forgot to do
A Thousand Kisses Deep

Fm . . . |C . . . |Fm . /c . |Fm . /c . |
Fm . . . |C . . . |Db . . . |. . . . |

And sometimes when the night is slow
The wretched and the meek
We gather up our hearts and go
A Thousand Kisses Deep

The ponies run, the girls are young
The odds are there to beat
You win a while, and then it's done
Your little winning streak
And summoned now to deal
With your invincible defeat
You live your life as if it's real
A Thousand Kisses Deep



Guitarist friendly version
Capo 1st fret

Chords:

C#m-5:    x42020
Em/f#:    222000

Intro: Em . . . |B . . . |Em . . . |. . /b . |

            Em                 B
The ponies run, the girls are young
               Em           /b
The odds are there to beat
            Em                  B
You win a while, and then it's done
             C
Your little winning streak
              Am     B
And summoned now to deal
         Em      (/f#)  C#m-5
With your invincible defeat
               Am7             B
You live your life as if it's real
C           D      Em
A Thousand Kisses Deep

...

Вверх

Avalanche

Tuning: C F A# D# G C (standard, two full steps down)

Chords:

E/b:    x22100
E':     033200

Intro: Am

Am                     F
Well I stepped into an avalanche
Am         G      Am
It covered up my soul
Am                  F
When I am not this hunchback that you see
Am          G             Am
I sleep beneath a golden hill
C               E/b
You who wish to conquer pain
          Am                       F       E'      E
You must learn, learn to serve me well

You strike my side by accident
As you go down for your gold
The cripple here that you clothe and feed
Is neither starved nor cold
He does not ask for your company
Not at the centre, the centre of the world

When I am on a pedestal
You did not raise me there
Your laws do not compel me
To kneel grotesque and bare
I myself am the pedestal
For this ugly hump at which you stare

You who wish to conquer pain
You must learn what makes me kind
The crumbs of love that you offer me
They're the crumbs I've left behind
Your pain is no credential here
It's just the shadow, shadow of my wound

I have begun to long for you
I who have no greed
I have begun to ask for you
I who have no need
You say you've gone away from me
But I can feel you when you breathe

Do not dress in those rags for me
I know you are not poor
You don't love me quite so fiercely now
When you know that you are not sure
It is your turn, beloved
It is your flesh that I wear



Intro:

     Am
     |           .           .           .
 C|------0-----0-----0-----0-----0-----0-----0-----0--|
 G|------1-----1-----1-----1-----1-----1-----1-----1--|
D#|----2-----2-----2-----2-----2-----2-----2-----2----|
A#|--------2-----------2-----------2-----------2------|
 F|--0-----------------------0------------------------|
 C|--------------0-----------------------0------------|     (repeat)


Verse:

     Am
     |           .           .           .
 C|------0-----0-----0-----0-----0-----0-----0-----0--|
 G|------1-----1-----1-----1-----1-----1-----1-----0--|
D#|----2-----2-----2-----2-----2-----2-----2-----0----|
A#|--------2-----------2-----------2-----------0------|
 F|--0-----------------------0------------------------|
 C|--------------0-----------------------0------------|

     F
     |           .           .           .
 C|------1-----1-----1-----1-----1-----1-----1-----0--|
 G|------1-----1-----1-----1-----1-----1-----1-----0--|
D#|----2-----2-----2-----2-----2-----2-----2-----0----|
A#|--------3-----------3-----------3-----------0------|
 F|--------------3-----------------------3------------|
 C|--1-----------------------1------------------------|

     Am                      G
     |           .           .           .
 C|------0-----0-----0-----0-----3-----3-----3-----0--|
 G|------1-----1-----1-----0-----0-----0-----0-----0--|
D#|----2-----2-----2-----0-----0-----0-----0-----0----|
A#|--------2-----------0-----------0-----------0------|
 F|--0------------------------------------------------|
 C|--------------0-----------3-----------3------------|

     Am
     |           .           .           .
 C|------0-----0-----0-----0-----0-----0-----0-----0--|
 G|------1-----1-----1-----1-----1-----1-----1-----1--|
D#|----2-----2-----2-----2-----2-----2-----2-----2----|
A#|--------2-----------2-----------2-----------2------|
 F|--0-----------------------0------------------------|
 C|--------------0-----------------------0------------|

     Am
     |           .           .           .
 C|------0-----0-----0-----0-----0-----0-----0-----0--|
 G|------1-----1-----1-----1-----1-----1-----1-----0--|
D#|----2-----2-----2-----2-----2-----2-----2-----0----|
A#|--------2-----------2-----------2-----------0------|
 F|--0-----------------------0------------------------|
 C|--------------0-----------------------0------------|

     F
     |           .           .           .
 C|------1-----1-----1-----1-----1-----1-----1-----0--|
 G|------1-----1-----1-----1-----1-----1-----1-----0--|
D#|----2-----2-----2-----2-----2-----2-----2-----0----|
A#|--------3-----------3-----------3-----------0------|
 F|--------------3-----------------------3------------|
 C|--1-----------------------1------------------------|

     Am                      G
     |           .           .           .
 C|------0-----0-----0-----0-----3-----3-----3-----0--|
 G|------1-----1-----1-----0-----0-----0-----0-----0--|
D#|----2-----2-----2-----0-----0-----0-----0-----0----|
A#|--------2-----------0-----------0-----------0------|
 F|--0------------------------------------------------|
 C|--------------0-----------3-----------3------------|

     Am
     |           .           .           .
 C|------0-----0-----0-----0-----0-----0-----0-----0--|
 G|------1-----1-----1-----1-----1-----1-----1-----0--|
D#|----2-----2-----2-----2-----2-----2-----2-----0----|
A#|--------2-----------2-----------2-----------0------|
 F|--0-----------------------0------------------------|
 C|--------------0-----------------------0------------|

     C
     |           .           .           .
 C|------0-----0-----0-----0-----0-----0-----0-----0--|
 G|------1-----1-----1-----1-----1-----1-----1-----1--|
D#|----0-----0-----0-----0-----0-----0-----0-----0----|
A#|--------2-----------2-----------2-----------2------|
 F|--3-----------3-----------3-----------3------------|
 C|---------------------------------------------------|

     E/b
     |           .           .           .
 C|------0-----0-----0-----0-----0-----0-----0-----0--|
 G|------0-----0-----0-----0-----0-----0-----0-----0--|
D#|----1-----1-----1-----1-----1-----1-----1-----0----|
A#|--------2-----------2-----------2-----------0------|
 F|--2-----------------------2------------------------|
 C|--------------0-----------------------0------------|

     Am
     |           .           .           .
 C|------0-----0-----0-----0-----0-----0-----0-----0--|
 G|------1-----1-----1-----1-----1-----1-----1-----0--|
D#|----2-----2-----2-----2-----2-----2-----2-----0----|
A#|--------2-----------2-----------2-----------0------|
 F|--0-----------------------0------------------------|
 C|--------------0-----------------------0------------|

     F
     |           .           .           .
 C|------1-----1-----1-----1-----1-----1-----1-----1--|
 G|------1-----1-----1-----1-----1-----1-----1-----1--|
D#|----2-----2-----2-----2-----2-----2-----2------2---|
A#|--------3-----------3-----------3-----------3------|
 F|--------------3-----------------------3------------|
 C|--1-----------------------1------------------------|

     F
     |           .           .           .
 C|------1-----1-----1-----1-----1-----1-----1-----1--|
 G|------1-----1-----1-----1-----1-----1-----1-----1--|
D#|----2-----2-----2-----2-----2-----2-----2-----2----|
A#|--------3-----------3-----------3-----------3------|
 F|--------------3-----------------------3------------|
 C|--1-----------------------1------------------------|

     E'
     |           .           .           .
 C|------0-----0-----0-----0-----0-----0-----0-----0--|
 G|------0-----0-----0-----0-----0-----0-----0-----0--|
D#|----2-----2-----2-----2-----2-----2-----2-----2----|
A#|--------3-----------3-----------3-----------3------|
 F|--------------3-----------------------3------------|
 C|--0-----------------------0------------------------|

     E'
 C|------0-----0-----0-----0-----0-----0-----0-----0--|
 G|------0-----0-----0-----0-----0-----0-----0-----0--|
D#|----2-----2-----2-----2-----2-----2-----2-----0----|
A#|--------3-----------3-----------3-----------0------|
 F|--------------3-----------------------3------------|
 C|--0-----------------------0------------------------|

     E
     |           .           .           .
 C|------0-----0-----0-----0-----0-----0-----0-----0--|
 G|------0-----0-----0-----0-----0-----0-----0-----0--|
D#|----1-----1-----1-----1-----1-----1-----1-----0----|
A#|--------2-----------2-----------2-----------0------|
 F|--------------2-----------------------2------------|

Вверх

Ballad of the Absent Mare

Intro: A..
       E.. ...|E.. D..|A.. ...|A.. ...|

        A
Say a prayer for the cowboy, his mare's run away
           D
And he'll walk till he finds her, his darling, his stray
         A
But the river's in flood and the roads are awash
          E                      D        A
And the bridges break up in the panic of loss

And there's nothing to follow, there's nowhere to go
She's gone like the summer, gone like the snow
And the crickets are breaking his heart with their song
As the day caves in and the night is all wrong

Did he dream, was it she who went galloping past
And bent down the fern and broke open the grass
And printed the mud with the iron and the gold
That he nailed to her feet when he was the lord

And although she goes grazing a minute away
He tracks her all night and he tracks her all day
Oh blind to her presence except to compare
His injury here with her punishment there

Then at home on his branch in the highest tree
A songbird sings out so suddenly
Oh the sun is warm and the soft winds ride
On the willow trees by the riverside

Oh the world is sweet and the world is wide
And she's there where the light and the darkness divide
And the steam's coming off her, she's huge and she's shy
And she steps on the moon when she paws at the sky

And she comes to his hand but she's not really tame
She longs to be lost and he longs for the same
And she'll bolt and she'll plunge through the first open pass
To roll and to feed in the sweet mountain grass

Or she'll make a break for the high plateau
Where there's nothing above and there's nothing below
And it's time for their burden, it's time for the whip
Will she walk through the flame, can he shoot from the hip

So he binds himself to the galloping mare
And she binds herself to the rider there
And there is no space but there's left and right
And there is no time but there's day and night

And he leans on her neck and he whispers low
Wither thou goest, I will go
And they turn as one and they head for the plain
No need for the whip, no need for the rein

Now the clasp of this union who fastens it tight
Who snaps it asunder the very next night
Some say the rider, some say the mare
Or that love's like the smoke, beyond all repair

But my darling says, Leonard, just let it go by
That old silhouette on the great Western sky
So I pick out a tune and they move right along
And they're gone like the smoke and they're gone like this song



Intro:

                A
    |   .   .   .   .   .   |   .   .   .   .   .
E|---------------------------------------------------|
B|--------------2-----------0------------------------|
G|--------------------------------------2------------|
D|---------------------------------------------------|
A|---------------------------------------------------|
E|---------------------------------------------------|

    E                                   D
    |   .   .   .   .   .   |   .   .   .   .   .
E|------0---0-------0---0-------0---0---2---0--------|
B|------0---0-------0---0-----------------------3----|
G|----1---1---1---1---1---1---1---1---1---2---2---2--|
D|--------------2-----------------------0------------|
A|---------------------------------------------------|
E|--0-----------------------0------------------------|

    A
    |   .   .   .   .   .   |   .   .   .   .   .
E|------0---0-------0---0-------0---0----------------|
B|------2---2-------2---2-------2---2-------2---3----|
G|----2---2---2---2---2---2---2---2---2---2---2---2--|
D|--------------2-----------------------2------------|
A|--0-----------------------0------------------------|
E|---------------------------------------------------|


Verse:

    A
    |   .   .   .   .   .   |   .   .   .   .   .
E|--0-----------------------0-------------------0----|
B|------2---2-------0---2-------2---2-------2--------|
G|----2---2---2---2---2---2---2---2---2---2---2---2--|
D|---------------------------------------------------|
A|--0-----------0-----------0-----------0------------|
E|---------------------------------------------------|

    D
    |   .   .   .   .   .   |   .   .   .   .   .
E|--2-------2---2---0-------2-------2---2-------2----|
B|------3---------------3-------3-----------3--------|
G|----2---2---2---2---2---2---2---2---2---2---2---2--|
D|--0-----------0-----------0-----------0------------|
A|---------------------------------------------------|
E|---------------------------------------------------|

    A
    |   .   .   .   .   .   |   .   .   .   .   .
E|--0-----------------------0------------------------|
B|------2---2-------0---2-------2---2-------0---2----|
G|----2---2---2---2---2---2---2---2---2---2---2---2--|
D|---------------------------------------------------|
A|--0-----------0-----------0-----------0------------|
E|---------------------------------------------------|

    E                                   D
    |   .   .   .   .   .   |   .   .   .   .   .
E|------0---0-------0---0-----------0---2-------2----|
B|------0---0-------0---0-------0-----------3--------|
G|----1---1---1---1---1---1---1---1---1---2---2---2--|
D|--------------2-----------------------0------------|
A|---------------------------------------------------|
E|--0-----------------------0------------------------|

    A
    |   .   .   .   .   .   |   .   .   .   .   .
E|------0---0-------0---0-------0---0----------------|
B|------2---2-------2---2-------2---2-------2---3----|
G|----2---2---2---2---2---2---2---2---2---2---2---2--|
D|--------------2-----------------------2------------|
A|--0-----------------------0------------------------|
E|---------------------------------------------------|

Вверх

Because of

Intro: Bm

              Bm
Because of a few songs
            Em/b
Wherein I spoke of their mystery,
            Bm
Women have been

Exceptionally kind
          A
to my old age.
                     Bm
They make a secret place

In their busy lives
Em/b
And they take me there.
        Bm
They become naked

In their different ways
          Asus4
and they say,
G
"Look at me, Leonard
                     D
Look at me one last time."
           A
Then they bend over the bed
G
And cover me up
                      D
Like a baby that is shivering.
        A                    D/a
Like a baby (Like a baby)

              F#7
Because of a few songs
                          Bm
Wherein I spoke of their mystery,
            F#7/a#
Women have been

Exceptionally kind
          Bm
to my old age.
                     Em/b
They make a secret place

In their busy lives
          Bm
And they take me there.
             Em/b
They become naked

In their different ways
          A   A6  A7
and they say,
              G
"Look at me, Leonard
             D/a
Look at me, Leonard
           A         A7
Look at me one last time.
              G
Look at me, Leonard
             D/a
Look at me, Leonard
           A                G
Look at me one last time.
          D/a    A   Asus4   A7
One last time."
               G
(Look at me, Leonard)
           Bm
(One last time)
              G
(Look at me, Leonard)
                      Bm
(Look at me one last time)
             G
Look at me, Leonard
             Bm
Look at me, Leonard
           A               A7
Look at me one last time
           Bm
(One last time)

Вверх

Be for Real

Intro: E.. ...|... B..|A/e.. ...|... ..B|
       E.. ...|... ...|A/e.. ...|Am/e.. ...|

         E          A/f# E   B/d#
Are you back in my life to stay
   C#m    B/g#       C#m
Or is it just for today
       B              A      A/b
Oh that you're gonna need me?
             E        A/f# E     B/d#
If it's a thrill you're looking for
      C#m B/g# C#m
Honey, I'm flexible
B  A
Oh yeah

    E/g# A   E/b             A/b
Just be for real won't you, Baby
E/g# A  E/b     A/b
Be for real oh, Baby
G#7/c   C#m         E/b       A  E/g# A/f# A/b E
You see I, I don't want to be hurt by love again

E.. ...|... B..|A/e.. ...|Am/e.. ...|

So you see I'm not naive
I just would like to believe
Ah what you tell me
So don't give me the world today
And tomorrow take it away
Don't do that to me, darling

Just be for real won't you, Baby
Be for real won't you, Baby
You see I, I don't want to be hurt by love again

      B            A/e
Been hurt so many times
        C#m         E/b       A  E/g# A/f# A/b E   B   A/e
You see I, I don't want to be hurt by love again

E  A/f#         E               B/d#
I don't give a damn about the truth, Baby
       C#m B/g#     C#m     B   A
Except for the naked truth, oh yeah

    E/g# A   E/b             A/b
Just be for real won't you, Baby
E/g# A  E/b            A/b
Be for real won't you, Baby
G#7/c   C#m         E/b       A  E/g# A/f# A/b E    B   A/e
You see I, I don't want to be hurt by love again, oh no, no, no
      G#7/c    C#m         E/b       A  E/g# A/f# A/b A/e    E/g#
It's just that I, I don't want to be hurt by love again

  A/f#              E
Thanks for the song Mr. Knight



Guitarist friendly version
Capo 2nd fret

Chords:

G/d:     xx0003  or  x55433
Gm/d:    xx0333  or  x55333
G/e:     020003  or  xx2003
A/c#:    x42220
A/f#:    202220
G/a:     x00003
D/f#:    200232
D/a:     x00232
F#7/a#:  x14320  (if you really want to emphasize the a# in the bass)

Intro: D.. ...|... A..|G/d.. ...|... ..A|
       D.. ...|... ...|G/d.. ...|Gm/d.. ...|

         D          G/e  D   A/c#
Are you back in my life to stay
   Bm     A/f#       Bm
Or is it just for today
       A              G      G/a
Oh that you're gonna need me?
             D        G/e  D     A/c#
If it's a thrill you're looking for
      Bm  A/f# Bm
Honey, I'm flexible
A  G
Oh yeah

    D/f# G   D/a             G/a
Just be for real won't you, Baby
D/f# G  D/a     G/a
Be for real oh, Baby
F#7/a#  Bm          D/a       G  D/f# G/e G/a D
You see I, I don't want to be hurt by love again

D.. ...|... A..|G/d.. ...|Gm/d.. ...|

So you see I'm not naive
I just would like to believe
Ah what you tell me
So don't give me the world today
And tomorrow take it away
Don't do that to me, darling

Just be for real won't you, Baby
Be for real won't you, Baby
You see I, I don't want to be hurt by love again

      A            G/d
Been hurt so many times
        Bm          D/a       G  D/f# G/e G/a D   A   G/d
You see I, I don't want to be hurt by love again

D  G/e          D               A/c#
I don't give a damn about the truth, Baby
       Bm  A/f#     Bm      A   G
Except for the naked truth, oh yeah

    D/f# G   D/a             G/a
Just be for real won't you, Baby
D/f# G  D/a            G/a
Be for real won't you, Baby
F#7/a#  Bm          D/a       G  D/f# G/e G/a D     A   G/d
You see I, I don't want to be hurt by love again, oh no, no, no
      F#7/a#   Bm          D/a       G  D/f# G/e  G/a G/d    D/f#
It's just that I, I don't want to be hurt by love again

  G/e               D
Thanks for the song Mr. Knight

Вверх

Bird on the Wire

Tuning: D G C F A D (standard, full step down)

Intro: A

("Comme l'oiseau sur la branche
Comme l'ivrogne dans le coeur de la nuit
J'ai cherche ma liberte")

A.. ...|E.. ...|A.. ...|D.. ...|
A.. ...|E.. ...|A.. Asus4..|A.. ...|

        A           E
Like a bird on the wire
         A                      D
Like a drunk in some midnight choir
         A          E          A.. Asus4..|A.. ...|
I have tried in my way to be free

Like a worm on a hook
Like a knight bent down in some old fashioned book
It was the shape, the shape of our love twisted me

D                       A
If I, if I have been unkind
   Bm                                              A
I hope you can, I hope you can just let it all go by, go by
D                            A
And if I, if I have been untrue
                   Bm                                         E.Esus4..|E...|
It's just that I thought a lover had to be some kind of liar too

Like a baby, stillborn
Like a beast with his horn
I have torn everyone who reached out for me

But I swear by this song
And by all that I have done wrong
I will make it all up to thee

I saw a beggar, he was leaning on his wooden crutch
He says to me, "Come on now, you must not ask for so much."
And another pretty woman, she was leaning in her darkened door
She cried out to me, "Come on now, why don't you ask,
Why don't you ask for just a little more?
Just a little more?"

Like a bird on the wire
Like a drunk in some old midnight choir
         A          E          D  A
I have tried in my way to be free



Intro:

    A
    |   .   .   .   .
D|-----------------------|
A|----------2...----2----|
F|----------2...---------|
C|------2-------------2--|
G|--0--------------------|
D|-----------------------|

    A
    |   .   .   .   .   .   |   .   .   .   .   .
D|---------------------------------------------------|
A|--3-------3---2-------0---2------------------------|
F|------2-----------2-----------2---2-------2---2----|
C|----2---2---2---2---2---2---2---2---2---2---2---2--|
G|--0-----------0-----------0-----------0------------|
D|---------------------------------------------------|

    A
    |   .   .   .   .   .   |   .   .   .   .   .
D|---------------------------------------------------|
A|------------------2---2-------2---2-------2---2----|
F|------2---2-------2---2-------2---2-------2---2----|
C|----2---2---2---2---2---2---2---2---2---2---2---2--|
G|--0-----------0-----------0------------------------|
D|---------------------------------------------------|

    A
    |   .   .   .   .   .   |   .   .   .   .   .
D|---------------------------------------------------|
A|------2---2-------2---2-------2---2-----------2----|
F|------2---2-------2---2-------------------2--------|
C|----2---2---2---2---2---2---2---2---2---2---2---2--|
G|--0-----------0-----------0-----------0------------|
D|---------------------------------------------------|

    E                       A
    |   .   .   .   .   .   |   .   .   .   .   .
D|----------------------------------------------0----|
A|--0-------------------0---2-------2-------3--------|
F|------1---0h1-----1-----------2--------------------|
C|----2---2-------2---2---2---2---2---2---2---2---2--|
G|--------------------------0-----------0------------|
D|--0-----------0------------------------------------|

    D                       A
    |   .   .   .   .   .   |   .   .   .   .   .
D|------2---2h3-2---0-----------0--------------------|
A|--3-------------------3---0h2-----0h2-----3---2----|
F|----2---2---2---2---2---2-------2------------------|
C|--0-------------------------------------2---2---2--|
G|--------------------------------------0------------|
D|---------------------------------------------------|

    E                       A
    |   .   .   .   .   .   |   .   .   .   .   .
D|---------------------------------------------------|
A|--0-------------------0-----------2---3-------3----|
F|------1---0h1-----1-------2---2-----------2--------|
C|----2---2-------2---2---2---2---2---2---2---2---2--|
G|--------------------------0-----------0------------|
D|--0-----------0------------------------------------|

    A
    |   .   .   .   .   .
D|---------------------------|
A|--2-------0---2------------|
F|------2-----------2---2----|
C|----2---2---2---2---2---2--|
G|--0-----------0------------|
D|---------------------------|

Вверх

Bird on the Wire (2 вариант)

E           B
Like a bird on the wire
         E                  A
Like a drunk in an old midnight choir
         E          B          E      B
I have tried in my way to be free

        E         B
Like a worm on a hook
         E                        A
Like a knight bent down in some old fashioned book
             E           B             E     E7
It was the shape of our love that twisted me

           A                             E
If I have been unkind, if I have been unkind
              F#m                           E
Oh I hope you can find a way to let it all go right on by
           A                                            E
If I have been un, if I have been untrue, if I have been untrue
                            F#m                               B     Bsus4   B
It's just that I thought a lover had to be some kind of liar too

Like a little baby, stillborn
Like a beast with his horn
I have torn everyone who reached out for me

But I swear by this song
By all that I have done wrong
I will make it all up to thee

Ah don't cry, don't, don't cry, don't cry no more
It's over now, it's over, babe, don't cry no more
I say don't cry, don't cry, don't cry, don't cry anymore
It's over, it's finished, it's completed and has, it has been paid for

Like a bird on the wire
Like a drunk in some old midnight choir
         E          B          A   E
I have tried in my way to be free

Вверх

Boogie Street

F#m               Bm7
(O Crown of Light, O Darkened One)
                       C#7
(I never thought we'd meet)
              F#m                   Bm7
(You kiss my lips, and then you're gone)
C#7                           F#m
(And I'm back on Boogie Street)

          F#m
A sip of wine, a cigarette
C#m7
And then it's time to go
D6
I tidied up the kitchenette
   Bm               C#7
I tuned the old banjo
     Dmaj7
I'm wanted at the traffic-jam
       F#m
They're saving me a seat
   E6
I'm what I am, and what I am
    Dmaj7            C#7
Is back on Boogie Street

And O my love, I still recall
The pleasures that we knew
The rivers and the waterfall
Wherein I bathed with you
Bewildered by your beauty there
I'd kneel to dry your feet
By such instructions you prepare
   Dnaj7            F#m
A man for Boogie Street

             F#m             A6
(O Crown of Light, Crown of Light)
            D6                                    Bm
(O Darkened One, Darkened One, Darkened One)
                       C#7
(I never thought we'd meet, never thought we'd meet)
              F#m           A6
(You kiss my lips, kiss my lips)
                D6
(And then it's done, then it's done, then it's done)
          Bm6   C#7              D      E      F#m
(And I'm back, back on Boogie Street)

So come, my friends, be not afraid
We are so lightly here
It is in love that we are made
In love we disappear
Though all the maps of blood and flesh
Are posted on the door
There's no one who has told us yet
What Boogie Street is for

(O Crown of Light, Crown of Light)
(O Darkened One, Darkened One, Darkened One)
(I never thought we'd meet, never thought we'd meet)
(You kiss my lips, kiss my lips)
(And then it's done, then it's done, then it's done)
(And I'm back, back on Boogie Street)

A sip of wine, a cigarette
And then it's time to go
I tidied up the kitchenette
I tuned the old banjo
I'm wanted at the traffic-jam
They're saving me a seat
I'm what I am, and what I am
Is back on Boogie Street...



Guitarist friendly version
Capo 2nd fret

Chords:

Am7:      x02010
B7:       x21202  or  x24242
Bm7:      x24232
C6:       x32210  or  x35555
Cmaj7:    x32000  or  x35453
D6:       xx0202
Am6:      x02212

             Em                Am7
(O Crown of Light, O Darkened One)
                       B7
(I never thought we'd meet)
              Em                    Am7
(You kiss my lips, and then you're gone)
B7                            Em
(And I'm back on Boogie Street)

          Em
A sip of wine, a cigarette
Bm7
And then it's time to go
C6
I tidied up the kitchenette
   Am               B7
I tuned the old banjo
     Cmaj7
I'm wanted at the traffic-jam
       Em
They're saving me a seat
   D6
I'm what I am, and what I am
    Cmaj7            B7
Is back on Boogie Street

And O my love, I still recall
The pleasures that we knew
The rivers and the waterfall
Wherein I bathed with you
Bewildered by your beauty there
I'd kneel to dry your feet
By such instructions you prepare
   Cmaj7            Em
A man for Boogie Street

             Em              G6
(O Crown of Light, Crown of Light)
            C6                                    Am
(O Darkened One, Darkened One, Darkened One)
                       B7
(I never thought we'd meet, never thought we'd meet)
              Em            G6
(You kiss my lips, kiss my lips)
                C6
(And then it's done, then it's done, then it's done)
          Am6   B7               C      D      Em
(And I'm back, back on Boogie Street)

So come, my friends, be not afraid
We are so lightly here
It is in love that we are made
In love we disappear
Though all the maps of blood and flesh
Are posted on the door
There's no one who has told us yet
What Boogie Street is for

(O Crown of Light, Crown of Light)
(O Darkened One, Darkened One, Darkened One)
(I never thought we'd meet, never thought we'd meet)
(You kiss my lips, kiss my lips)
(And then it's done, then it's done, then it's done)
(And I'm back, back on Boogie Street)

A sip of wine, a cigarette
And then it's time to go
I tidied up the kitchenette
I tuned the old banjo
I'm wanted at the traffic-jam
They're saving me a seat
I'm what I am, and what I am
Is back on Boogie Street...

Вверх

By the Rivers Dark

Intro: Fm . . . |. . Eb . |Fm . . . |. . . . |
       Dbmaj7 . . . |. . Eb . |Fm . . . |. . . . |

Fm
By the rivers dark
   Eb      Fm
I wandered on
Dbmaj7
I lived my life
Eb  Fm
In Babylon

And I did forget
My holy song:
And I had no strength
In Babylon

Ab             Bb6
By the rivers dark
                   Fm
Where I could not see
Db                Eb
Who was waiting there
                 Fm
Who was hunting me

And he cut my lip
And he cut my heart
So I could not drink
From the rivers dark

And he covered me
And I saw within
My lawless heart
And my wedding ring

I did not know
And I could not see
Who was waiting there
Who was hunting me

By the rivers dark
I panicked on
I belong at last
To Babylon

Then he struck my heart
With a deadly force
And he said, "This heart:
It is not yours"

        Db       Eb
And he gave the wind
Fm
My wedding ring
        Db     Eb/db
And he circled us
     Bbm7  C  C7
With everything

By the rivers dark
In a wounded dawn
I live my life
In Babylon

Though I take my song
From a withered limb
Both song and tree
They sing for him

Be the truth unsaid
And the blessing gone
If I forget
My Babylon

I did not know
And I could not see
Who was waiting there
Who was hunting me

By the rivers dark
Where it all goes on:
By the rivers dark
In Babylon



Guitarist friendly version
Capo 1st fret

Chords:

Cmaj7:    x32000  or  x35453
A6:       x02222
D/c:      x3x232

Intro: Em . . . |. . D . |Em . . . |. . . . |
       Cmaj7 . . . |. . D . |Em . . . |. . . . |

Em
By the rivers dark
   D       Em
I wandered on
Cmaj7
I lived my life
D   Em
In Babylon

...

G              A6
By the rivers dark
                   Em
Where I could not see
C                 D
Who was waiting there
                 Em
Who was hunting me

...

        C        D
And he gave the wind
Em
My wedding ring
        C      D/c
And he circled us
     Am7  B  B7
With everything

...

Вверх

Came So Far for Beauty

Chords:

G+:             321003  or  355443
C' (=C7sus4):   x32311  or  x35363
F13:            131231
Bb/d:           xx0331
Cm7/bb:         635343

Intro: G7 . . |G+ . G7 |C7sus4 . . |C . . |
       F . . |F13 . F |Bb . . |/bb /a /ab |

G          G+  G7  C' C
I came so far for beauty
   F       F13  F Bb   /bb /a /ab
I left so much behind
G         G+  G7    C' C
My patience and my family
F         F13  F  Bb   /bb /a /ab
My masterpiece unsigned

I thought I'd be rewarded
For such a lonely choice
And surely she would answer
F             F13   F    Bb      Eb Fm Gm
To such a very hopeless voice

Ab                 G       G+ G7
I practiced on my sainthood
Ab                 G    G+ G7
I gave to one and all
          Eb    Bb/d   Cm    Cm7/bb
But the rumours of my virtue
       Ab    Bb7       Eb    Eb Fm Gm
They moved her not at all

I changed my style to silver
I changed my clothes to black
And where I would surrender
Ab  Bb7        Eb
Now I would attack

I stormed the old casino
For the money and the flesh
And I myself decided
What was rotten and what was fresh

And men to do my bidding
And broken bones to teach
The value of my pardon
The shadow of my reach

But no I could not touch her
With such a heavy hand
Her star beyond my order
Her nakedness unmanned

I came so far for beauty
I left so much behind
My patience and my family
My masterpiece unsigned



Guitarist friendlier version
Chords:

A+:             x02221
D' (=D7sus4):   xx0213
G13:            323000
C/e:            032010
Dm7/c:          x30211

A          A+  A7  D' D
I came so far for beauty
   G       G13  G C   /c /b /bb
I left so much behind
A         A+  A7    D' D
My patience and my family
G         G13  G  C    /c /b /bb
My masterpiece unsigned

I thought I'd be rewarded
For such a lonely choice
And surely she would answer
G             G13   G    C       F Gm Am
To such a very hopeless voice

Bb                 A       A+ A7
I practiced on my sainthood
Bb                 A    A+ A7
I gave to one and all
          F     C/e   Dm    Dm7/c
But the rumours of my virtue
       Bb    C7        F     F Gm Am
They moved her not at all

I changed my style to silver
I changed my clothes to black
And where I would surrender
Bb  C7         F
Now I would attack

I stormed the old casino
For the money and the flesh
And I myself decided
What was rotten and what was fresh

And men to do my bidding
And broken bones to teach
The value of my pardon
The shadow of my reach

But no I could not touch her
With such a heavy hand
Her star beyond my order
Her nakedness unmanned

I came so far for beauty
I left so much behind
My patience and my family
My masterpiece unsigned

Вверх

Chelsea Hotel

Capo 5th fret

Intro: C

     C          G            F        C
I remember you well in the Chelsea Hotel
                      G            Am
You were talking so brave and so sweet
 C         G          F       C
Giving me head on the unmade bed
           F                        G
While the limousines wait in the street
  Am                         F
Those were the reasons and that was New York
         C               E/b            Am
We were running for the money and the flesh
      F                           C
And that was called love for the workers in song
           F                         G
Probably still is for those of them left

        F             C
Ah but you got away, didn't you babe
                      E/b          Am
You just turned your back on the crowd
 F                          C
You got away, I never once heard you say
   F                 C
I need you, I don't need you
   F                 C
I need you, I don't need you
    F                    Am      G
And all of that jiving around

I remember you well in the Chelsea Hotel
You were famous, your heart was a legend
You told me again you preferred handsome men
But for me you would make an exception
And clenching your fist for the ones like us
Who are oppressed by the figures of beauty
You fixed yourself, you said, "Well never mind
We are ugly but we have the music."

And then you got away, didn't you babe
You just turned your back on the crowd
You got away, I never once heard you say
I need you, I don't need you
I need you, I don't need you
And all of that jiving around

         C          G                      F      C
I don't mean to suggest that I loved you the best
                      G            Am
I can't keep track of each fallen robin
     C          G            F        C
I remember you well in the Chelsea Hotel
       F                                   G
That's all, I don't even think of you that often



Intro:

    C
    |
A|--------0~~--|
E|--------1~~--|
C|-----0-------|
G|-------------|
D|--3----------|
A|-------------|


Verse:

    C           G           F           C
    |   .   .   .   .   .   |   .   .   .   .   .
A|-----(0)-(0)-----(3)-(3)-----(1)-(1)-----(0)-(0)---|
E|------1---1-------3---3-------1---1-------1---1----|
C|----0---0---0---4---4---0---2---2---0---0---0---0--|
G|---------------------------------------------------|
D|--3-----------------------------------3------------|
A|--------------3-----------1------------------------|

    C           G           Am
    |   .   .   .   .   .   |   .   .   .   .   .
A|-----(0)-(0)-----(3)-(3)-----(0)-(0)-----(0)-(0)---|
E|------1---1-------3---3-------1---0h1-----1---1----|
C|----0---0---0---4---4---0---2---2-------2---2---0--|
G|--------------------------------------2------------|
D|--3-----------------------0------------------------|
A|--------------3------------------------------------|

    C           G           F           C
    |   .   .   .   .   .   |   .   .   .   .   .
A|---------------------------------------------------|
E|------1---1-------3---3-------1---1-------1---1----|
C|----0---0---0---4---4---0---2---2---0---0---0---0--|
G|---------------------------------------------------|
D|--3-----------------------------------3------------|
A|--------------3-----------1------------------------|

    F                       G
    |   .   .   .   .   .   |   .   .   .   .   .
A|---------------------------------------------------|
E|------1---1-------1---1-------3---3-------3---3----|
C|----2---2---2---2---2---0---4---4---4---4---4---0--|
G|--------------3-----------------------5------------|
D|---------------------------------------------------|
A|--1-----------------------3------------------------|

    Am                      F
    |   .   .   .   .   .   |   .   .   .   .   .
A|---------------------------------------------------|
E|------1---0h1-----1---0-------1---1-------1---1----|
C|----2---2-------2---2---0---2---2---2---2---2---0--|
G|--------------2-----------------------3------------|
D|--0------------------------------------------------|
A|--------------------------1------------------------|

    C           E/b         Am
    |   .   .   .   .   .   |   .   .   .   .   .
A|---------------------------------------------------|
E|------1---1-------0---0-------1---0h1-----1---0----|
C|----0---0---0---1---1---0---2---2-------2---2---0--|
G|--------------------------------------2------------|
D|--3-----------2-----------0------------------------|
A|---------------------------------------------------|

    F                       C
    |   .   .   .   .   .   |   .   .   .   .   .
A|---------------------------------------------------|
E|------1---1-------1---1-------1---1-------1---1----|
C|----2---2---2---2---2---0---0---0---0---0---0---0--|
G|--------------3-----------------------2------------|
D|--------------------------3------------------------|
A|--1------------------------------------------------|

    F                       G
    |   .   .   .   .   .   |   .   .   .   .   .
A|---------------------------------------------------|
E|------1---1-------1---1-------3---3-------3---3----|
C|----2---2---2---2---2---0---4---4---4---4---4---0--|
G|--------------3-----------------------5------------|
D|---------------------------------------------------|
A|--1-----------------------3------------------------|


Chorus:

    F                       C
    |   .   .   .   .   .   |   .   .   .   .   .
A|---------------------------------------------------|
E|------1---1-------1---1-------1---1-------1---1----|
C|----2---2---2---2---2---0---0---0---0---0---0---0--|
G|--------------3-----------------------2------------|
D|--------------------------3------------------------|
A|--1------------------------------------------------|

    C           E/b         Am
    |   .   .   .   .   .   |   .   .   .   .   .
A|---------------------------------------------------|
E|------1---1-------0---0-------1---0h1-----1---0----|
C|----0---0---0---1---1---0---2---2-------2---2---0--|
G|--------------------------------------2------------|
D|--3-----------2-----------0------------------------|
A|---------------------------------------------------|

    F                       C
    |   .   .   .   .   .   |   .   .   .   .   .
A|---------------------------------------------------|
E|------1---1-------1---1-------1---1-------1---1----|
C|----2---2---2---2---2---0---0---0---0---0---0---0--|
G|--------------3-----------------------2------------|
D|--------------------------3------------------------|
A|--1------------------------------------------------|

    F                       C
    |   .   .   .   .   .   |   .   .   .   .   .
A|---------------------------------------------------|
E|------1---1-------1---1-------1---1-------1---1----|
C|----2---2---2---2---2---0---0---0---0---0---0---0--|
G|--------------3-----------------------2------------|
D|--------------------------3------------------------|
A|--1------------------------------------------------|

    F                       C
    |   .   .   .   .   .   |   .   .   .   .   .
A|---------------------------------------------------|
E|------1---1-------1---1-------1---1-------1---1----|
C|----2---2---2---2---2---0---0---0---0---0---0---0--|
G|--------------3-----------------------2------------|
D|--------------------------3------------------------|
A|--1------------------------------------------------|

    F                       Am
    |   .   .   .   .   .   |   .   .   .   .   .
A|---------------------------------------------------|
E|------1---1-------1---1-------1---0h1-----0h1-0----|
C|----2---2---2---2---2---0---2---2-------2-------0--|
G|--------------3-----------------------2------------|
D|--------------------------0------------------------|
A|--1------------------------------------------------|

    G
    |   .   .   .   .   .
A|---------------------------|
E|------3---3-------3---3----|
C|----4---4---4---4---4---0--|
G|--------------5------------|
D|---------------------------|
A|--3------------------------|

Вверх

Closing Time

Intro: G . . . |. . . . |D . . . |. . . . |
       G . . . |. . . . |D . . . |. . . . |

           G
Ah we're drinking and we're dancing
         G
And the band is really happening
         Em
And the Johnny Walker wisdom running high
        Bm
And my very sweet companion
          Bm
She's the Angel of Compassion
       Em
She's rubbing half the world against her thigh
            C
And every drinker every dancer
         C
Lifts a happy face to thank her
     G               B7              Em
The fiddler fiddles something so sublime
         D
All the women tear their blouses off
         D
And the men they dance on the polka-dots
          C
And it's partner found, it's partner lost
          C
And it's hell to pay when the fiddler stops:
       G
It's closing time

          C
Yeah the women tear their blouses off
         C
And the men they dance on the polka-dots
          G                   B
And it's partner found, it's partner lost
          Em                   C
And it's hell to pay when the fiddler stops:
       G            D
It's closing time

Ah we're lonely, we're romantic
And the cider's laced with acid
And the Holy Spirit's crying, "Where's the beef?"
And the moon is swimming naked
And the summer night is fragrant
With a mighty expectation of relief
So we struggle and we stagger
Down the snakes and up the ladder
To the tower where the blessed hours chime
And I swear it happened just like this:
A sigh, a cry, a hungry kiss
The Gates of Love they budget an inch
I can't say much has happened since
But closing time

I swear it happened just like this:
A sigh, a cry, a hungry kiss
The Gates of Love they budget an inch
I can't say much has happened since
But closing time, closing time

   Em
I loved you for your beauty
          Em
But that doesn't make a fool of me:
 D
You were in it for your beauty too
       Em
And I loved you for your body
           Em
There's a voice that sounds like God to me
    A                     D
Declaring, declaring, declaring that your body's
really, really, really, really you

       C
And I loved you when our love was blessed
       C
And I love you now there's nothing left
     G            B7           Em
But sorrow and a sense of overtime
       D
And I missed you since the place got wrecked
       D
And I just don't care what happens next
 C
Looks like freedom but it feels like death
      C
It's something in between, I guess
       G
It's closing time

Yeah I missed you since the place got wrecked
By the winds of change and the weeds of sex
Looks like freedom but it feels like death
It's something in between, I guess
It's closing time

Yeah we're drinking and we're dancing
But there's nothing really happening
And the place is dead as Heaven on a Saturday night
And my very close companion
Gets me fumbling gets me laughing
She's a hundred but she's wearing something tight
And I lift my glass to the Awful Truth
Which you can't reveal to the Ears of Youth
Except to say it isn't worth a dime
And the whole damn place goes crazy twice
And it's once for the devil and it's once for Christ
But the Boss don't like these dizzy heights
We're busted in the blinding lights
Of closing time

The whole damn place goes crazy twice
And it's once fore the devil and it's once for Christ
But the Boss don't like these dizzy heights
We're busted in the blinding lights, busted in the blinding lights
Of closing time, closing time

        G
Oh the women tear their blouses off
         G
And the men they dance on the polka-dots
       D
It's closing time

And it's partner found, it's partner lost
And it's hell to pay when the fiddler stops
It's closing time

I swear it happened just like this:
A sigh, a cry, a hungry kiss
It's closing time

The Gates of Love they budget an inch
I can't say much has happened since
But closing time

I loved you when our love was blessed
I love you now there's nothing left
But closing time

I miss you since the place got wrecked
By the winds of change and the weeds of sex
It's closing time...

Вверх

Coming Back to You

Intro: F.. ...|Dm.. ...|Bb.. Csus4..|F.. ...|F.. ...|

 F               Dm
Maybe I'm still hurting
   Bb       C            F
I can't turn the other cheek
          F                Dm
But you know that I still love you
      C        Bb        F
It's just that I can't speak
   Bb               F
I looked for you in everyone
          A                 Bb   C
And they called me on that too
   F      C/e     Dm    Am/c
I lived alone but I was only
 Bb     Csus4   F
Coming back to you

Ah they're shutting down the factory now
Just when all the bills are due
And the fields they're under lock and key
Though the rain and the sun come through
And springtime starts but then it stops
In the name of something new
And all the senses rise against this
Coming back to you

             Bb              F
And they're handing down my sentence now
        Bb      Csus4   F
And I know what I must do
  A              Bb
Another mile of silence while I'm
 G              C
Coming back to you

There are many in your life
And many still to be
Since you are a shining light
There's many that you'll see
But I have to deal with envy
When you choose the precious few
Who've left their pride on the other side of
Coming back to you

Even in your arms I know
I'll never get it right
Even when you bend to give me
Comfort in the night
I've got to have your word on this
Or none of it is true
And all I've said was just instead of
Coming back to you

Вверх

Dance Me to the End of Love

Chords:

Adim:     x01212

Intro: Em7 . . . |. . . . |Am7 . . . |. . . . |
       Em7 . . . |. . . . |Am7 . . . |. . . . |
       Em7 . . . |. . . . |Adim . . . |. . . . |
       Em . . . |. . . . |

 Am                Em              B7            Em
La la la la la la la la la la la la la la la la la
 Am                Em              B7            Em
La la la la la la la la la la la la la la la la la

 Am                             Em
Dance me to your beauty with a burning violin
 Am                                  Em
Dance me through the panic till I'm gathered safely in
 Am                               Em
Lift me like an olive branch and be my homeward dove
 B7                     Em
Dance me to the end of love
 B7                     Em
Dance me to the end of love

Let me see your beauty when the witnesses are gone
Let me feel you moving like they do in Babylon
Show me slowly what I only know the limits of
Dance me to the end of love
Dance me to the end of love

D . . . |. . . . |Em . . . |. . . . |
D . . . |. . . . |Em . . . |. . . . |

Dance me to the wedding now, dance me on and on
Dance me very tenderly and dance me very long
We're both of us beneath our love, we're both of us above
Dance me to the end of love
Yeah, dance me to the end of love

Dance me to the children who are asking to be born
Dance me through the curtains that our kisses have outworn
Raise a tent of shelter now, though every thread is torn
Dance me to the end of love

D . . . |. . . . |Em . . . |. . . . |
D . . . |. . . . |Em . . . |. . . . |

La la la la la la la la la la la la la la la la la
La la la la la la la la la la la la la la la la la

Dance me to your beauty with a burning violin
Dance me through the panic till I'm gathered safely in
Touch me with your naked hand or touch me with your glove
Dance me to the end of love
Dance me to the end of love
Dance me to the end of love

D . . . |. . . . |Em . . . |. . . . |
D . . . |. . . . |Em . . . |. . . . |

La la la la la la la la la la la la la la la la la
La la la la la la la la la la la la la la la la la

Вверх

Dance Me to the End of Love (2 вариант)

Intro: Gm

 Cm                Gm              D7            Gm
La la la la la la la la la la la la la la la la la
 Cm                Gm              D7            Gm
La la la la la la la la la la la la la la la la la

 Cm                             Gm
Dance me to your beauty with a burning violin
 Cm                                  Gm
Dance me through the panic till I'm gathered safely in
 Cm                               Gm
Lift me like an olive branch and be my homeward dove
 D7                     Gm
Dance me to the end of love
 D7                     Gm
Dance me to the end of love

Oh let me see your beauty when the witnesses are gone
Let me feel you moving like they do in Babylon
Show me slowly what I only know the limits of
Dance me to the end of love
Dance me to the end of love

F . . . |Gm . . . |F . . . |Gm . . . |

Dance me to the wedding now, dance me on and on
Dance me very tenderly and dance me very long
We're both of us beneath our love, we're both of us above
Dance me to the end of love
Dance me to the end of love

Dance me to the children who are asking to be born
Dance me through the curtains that our kisses have outworn
Raise a tent of shelter now, though every thread is torn
Dance me to the end of love

F . . . |Gm . . . |F . . . |Gm . . . |

La la la la la la la la la la la la la la la la la
La la la la la la la la la la la la la la la la la

Dance me to your beauty with a burning violin
Dance me through the panic till I'm gathered safely in
Touch me with your naked hand or touch me with your glove
Dance me to the end of love
Dance me to the end of love
Dance me to the end of love



Guitarist friendly version
Capo 3rd fret

Intro: Em

 Am                Em              B7            Em
La la la la la la la la la la la la la la la la la
 Am                Em              B7            Em
La la la la la la la la la la la la la la la la la

 Am                             Em
Dance me to your beauty with a burning violin
 Am                                  Em
Dance me through the panic till I'm gathered safely in
 Am                               Em
Lift me like an olive branch and be my homeward dove
 B7                     Em
Dance me to the end of love
 B7                     Em
Dance me to the end of love

Oh let me see your beauty when the witnesses are gone
Let me feel you moving like they do in Babylon
Show me slowly what I only know the limits of
Dance me to the end of love
Dance me to the end of love

D . . . |Em . . . |D . . . |Em . . . |

Вверх

Death of a Ladies' Man

Intro: F . . . |G . . . |Gm . C . |Bb . F . |
       F . . . |G . . . |Gm . C . |Bb . F . |
       F . . . |F .

        F                               G
Ah the man she wanted all her life was hanging by a thread
    Gm          C              Bb               F
"I never even knew how much I wanted you," she said
     F                                   G
His muscles they were numbered and his style was obsolete
    Gm           C                    Bb              F
"O baby, I have come too late." She knelt beside his feet

"I'll never see a face like yours in years of men to come
I'll never see such arms again in wrestling or in love."
And all his virtues burning in the smokey Holocaust
She took unto herself most everything her lover lost

Dm
Now the master of this landscape he was standing there at the view
         Gm
With a sparrow of St. Francis that he was preaching to
     Am
She beckoned to the sentry of his high religious mood
                 Gm               /f#                F           C      F
She said, "I'll make a place between my legs, I'll show you solitude."

He offered her an orgy in a many mirrored room
He promised her protection for the issue of her womb
She moved her body hard against a sharpened metal spoon
She stopped the bloody rituals of passage to the moon

She took his much admired oriental frame of mind
And the heart-of-darkness alibi his money hides behind
She took his blonde madonna and his monastery wine
"This mental space is occupied and everything is mine."

He tried to make a final stand beside the railway track
She said, "The art of longing's over and it's never coming back."
She took his tavern parliament, his cap, his cocky dance
She mocked his female fashions and his working-class moustache

The last time that I saw him he was trying hard to get
A woman's education but he's not a woman yet
And the last time that I saw her she was living with some boy
Who gives her soul an empty room and gives her body joy

So the great affair is over but whoever would have guessed
It would leave us all so vacant and so deeply unimpressed
It's like our visit to the moon or to that other star
I guess you go for nothing if you really want to go that far

It's like our visit to the moon or to that other star
I guess you go for nothing if you really want to go that far

It's like our visit to the moon or to that other star
I guess you go for nothing if you really want to go that far



Guitarist-friendly version
Capo 5th fret

Intro: C . . . |D . . . |Dm . G . |F . C . |
       C . . . |D . . . |Dm . G . |F . C . |
       C . . . |C .

        C                               D
Ah the man she wanted all her life was hanging by a thread
    Dm          G              F                C
"I never even knew how much I wanted you," she said
     C                                   D
His muscles they were numbered and his style was obsolete
    Dm           G                    F               C
"O baby, I have come too late." She knelt beside his feet

...

Am
Now the master of this landscape he was standing there at the view
         Dm
With a sparrow of St. Francis that he was preaching to
     Em
She beckoned to the sentry of his high religious mood
                 Dm               /c#                C           G      C
She said, "I'll make a place between my legs, I'll show you solitude."

...

Вверх

Democracy

Intro: C#

      C#             F#           C#
It's coming through a hole in the air
            C#        G#          C#
From those nights in Tiananmen Square
      F#
It's coming from the feel
          B              F#
That this ain't exactly real
         C#
Or it's real, but it ain't exactly there
          F     Fsus4    F
From the wars against disorder
          A#m/f  Fsus4     A#m/f
From the sirens night and day
          F    Fsus4       F
From the fires of the homeless
         A#m/f Fsus4   A#m/f
From the ashes of the gay:
   G#              F#          C# . . . |F#m . . . |C# . . . |F#m . . . |
Democracy is coming to the U.S.A.

C# . . . |. . . . |. . . . |. . . . |

It's coming through a crack in the wall
On a visionary flood of alcohol
From the staggering account
Of the Sermon on the Mount
Which I don't pretend to understand at all
It's coming from the silence
On the dock of the bay
From the brave, the bold, the battered
Heart of Chevrolet:
Democracy is coming to the U.S.A.

It's coming from the sorrow on the street
The holy places where the races meet
From the homicidal bitchin'
That goes down in every kitchen
To determine who will serve and who will eat
From the wells of disappointment
Where the women kneel to pray
For the grace of God in the desert here
And the desert far away:
Democracy is coming to the U.S.A.

     G#       F#
Sail on, sail on
   C#
O mighty Ship of State!
         G#
To the Shores of Need
          F#
Past the Reefs of Greed
              C#
Through the Squalls of Hate
     D#m  G#       F#       C#
Sail on, sail on, sail on, sail on

It's coming to America first
The cradle of the best and of the worst
It's here they got the range
And the machinery for change
And it's here they got the spiritual thirst
It's here the family is broken
And it's here the lonely say
That the heart has got to open
In a fundamental way:
Democracy is coming to the U.S.A.

It's coming from the women and the men
O baby, we'll be making love again
We'll be going down so deep
That the river's going to weep
And the mountain's going to shout Amen!
It's coming like the tidal flood
Beneath the lunar sway
Imperial, mysterious
In amorous array:
Democracy is coming to the U.S.A.

Sail on, sail on
O mighty Ship of State!
To the Shores of Need
Past the Reefs of Greed
Through the Squalls of Hate
Sail on, sail on, sail on, sail on

I'm sentimental, if you know what I mean:
I love the country but I can't stand the scene
And I'm neither left or right
I'm just staying home tonight
Getting lost in that hopeless little screen
But I'm stubborn as those garbage bags
That Time cannot decay
I'm junk but I'm still holding up
This little wild bouquet:
Democracy is coming to the U.S.A.



Guitarist friendly version
Capo 1st fret

Intro: C

      C              F            C
It's coming through a hole in the air
            C         G           C
From those nights in Tiananmen Square
      F
It's coming from the feel
          Bb             F
That this ain't exactly real
         C
Or it's real, but it ain't exactly there
          E     Esus4    E
From the wars against disorder
          Am/e   Esus4     Am/e
From the sirens night and day
          E    Esus4       E
From the fires of the homeless
         Am/e  Esus4   Am/e
From the ashes of the gay:
   G               F           C . . . |Fm . . . |C . . . |Fm . . . |
Democracy is coming to the U.S.A.

C . . . |. . . . |. . . . |. . . . |

...

     G        F
Sail on, sail on
   C
O mighty Ship of State!
         G
To the Shores of Need
          F
Past the Reefs of Greed
              C
Through the Squalls of Hate
     Dm   G        F        C
Sail on, sail on, sail on, sail on

...

Вверх

Diamonds in the Mine

Intro: A

     A                   G
The woman in blue, she's asking for revenge
A                              G
The man in white - that's you - says he has no friends
     A                      G
The river is swollen up with rusty cans
          A                      E
And the trees are burning in your promised land

          D                      A
And there are no letters in the mailbox
          D                       A
And there are no grapes upon the vine
          D                         A
And there are no chocolates in the boxes anymore
          A       E               A
And there are no diamonds in the mine
          A       E               A
And there are no diamonds in the mine

Well, you tell me that your lover has a broken limb
You say you're kind of restless now and it's on account of him
Well, I saw the man in question, it was just the other night
He was eating up a lady where the lions and Christians fight

And there are no letters in the mailbox
And there are no grapes upon the vine
And there are no chocolates in the boxes anymore
And there are no diamonds in the mine
And there are no diamonds in the mine

You tell them now

Ah, there is no comfort in the covens of the witch
Some very clever doctor went and sterilized the bitch
And the only man of energy, yes the revolution's pride
He trained a hundred women just to kill an unborn child

And there are no letters in the mailbox
Oh no, there are no, no grapes upon your vine
And there are, there are no chocolates in your boxes anymore
And there are no diamonds in your mine

And there are no letters in the mailbox
And there are no grapes upon the vine
And there are no chocolates in your boxes anymore
And there are no diamonds in your mine
And there are no diamonds in your mine

Вверх

Do I Have to Dance All Night

Intro: Gm

Gm
I'm Forty-One, the moon is full
     Bb
You make love very well
Gm
You touch me like I touch myself
   Bb              D7
I like you Mademoiselle

You're so fresh and you're so new
I do enjoy you, Miss
There's nothing I would rather do
Than move around just like this

Bb        Eb                Bb
But do I have to dance all night?
          Eb                Bb
But do I have to dance all night?
              Eb          Bb
Ooh tell me, Bird of Paradise
      Eb                Bb
Do I have to dance all night?

You never have to tell me what
It is you really think of me - alright
Let's say I'm doing fine
But do I have to dance all night?

But do I have to dance all night?
But do I have to dance all night?
Ooh tell me, Bird of Paradise
Do I have to dance all night?

Gm                            Dm
I learned this step a while ago
           Gm                          Dm
I had to practice it while everybody slept
   C                       G
I waited half my life for you, you know
   Bb                             F
I didn't even think that you'd accept
     Ab                             Eb
And here you are before me in the flesh
         Gm   Bb   D7
Saying "Yes, yes, yes!"

But do I have to dance all night?
Do I have to dance all night?
Come on tell me, Bird of Paradise
Do I have to dance all night?

I learned this step a while ago
I had to practice it while everybody slept
I waited half my life for you, you know
I never really thought that you'd accept
And here you are before me in the flesh
Saying "Yes, yes, yes!"

But do I have to dance all night?
Do I have to dance all night?
Ooh tell me, Bird of Paradise
Do I have to dance all night?

"Goodnight friends, thank you very much!"



Guitarist friendly version
Capo 1st fret

Intro: F#m

F#m
I'm Forty-One, the moon is full
     A
You make love very well
F#m
You touch me like I touch myself
   A               C#7
I like you Mademoiselle

You're so fresh and you're so new
I do enjoy you, Miss
There's nothing I would rather do
Than move around just like this

A         D                 A
But do I have to dance all night?
          D                 A
But do I have to dance all night?
              D           A
Ooh tell me, Bird of Paradise
      D                 A
Do I have to dance all night?

You never have to tell me what
It is you really think of me - alright
Let's say I'm doing fine
But do I have to dance all night?

But do I have to dance all night?
But do I have to dance all night?
Ooh tell me, Bird of Paradise
Do I have to dance all night?

F#m                           C#m
I learned this step a while ago
           F#m                         C#m
I had to practice it while everybody slept
   B                       F#
I waited half my life for you, you know
   A                              E
I didn't even think that you'd accept
     G                              D
And here you are before me in the flesh
         F#m  A    C#7
Saying "Yes, yes, yes!"

But do I have to dance all night?
Do I have to dance all night?
Come on tell me, Bird of Paradise
Do I have to dance all night?

I learned this step a while ago
I had to practice it while everybody slept
I waited half my life for you, you know
I never really thought that you'd accept
And here you are before me in the flesh
Saying "Yes, yes, yes!"

But do I have to dance all night?
Do I have to dance all night?
Ooh tell me, Bird of Paradise
Do I have to dance all night?

"Goodnight friends, thank you very much!"

Вверх

Don't Go Home with Your Hard-On

Intro: F . Bb . |F . Bb . |F . Bb . |F . Bb . |  (x4)

       Fm               C7
I was born in a beauty salon
                            Fm
My father was a dresser of hair
                                Bbm
My mother was a girl you could call on
          Fm            C7       Fm
When you called she was always there
                                 C7
When you called she was always there
                                 Fm
When you called she was always there
                                 Bbm
When you called she was always there
          Fm            C7       Fm
When you called she was always there

        F        Bb             F     Bb
Ah but don't go home with your hard-on
F              Bb         F     Bb
It will only drive you insane
            F            Bb                 F     Bb
You can't shake it (or break it) with your Motown
     F             Bb          F     Bb
You can't melt it down in the rain
     F             Bb          F     Bb
You can't melt it down in the rain
     F             Bb          F     Bb
You can't melt it down in the rain
     F             Bb          F     Bb
You can't melt it down in the rain

I've looked behind all of the faces
That smile you down to your knees
And the lips that say, "Come on, taste us."
And when you try to they make you say Please
When you try to they make you say Please
When you try to they make you say Please
When you try to they make you say Please
When you try to they make you say Please

Ah but don't go home with your hard-on
It will only drive you insane
You can't shake it (or break it) with your Motown
You can't melt it down in the rain
You can't melt it down in the rain
You can't melt it down in the rain
You can't melt it down in the rain

Here comes your bride with her veil on
Approach her, you wretch, if you dare
Approach her, you ape, with your tail on
Once you have her she'll always be there
Once you have her she'll always be there
Once you have her she'll always be there
Once you have her she'll always be there
Once you have her she'll always be there

Ah but don't go home with your hard-on
It will only drive you insane
You can't shake it (or break it) with your Motown
You can't melt it down in the rain
You can't melt it down in the rain
You can't melt it down in the rain
You can't melt it down in the rain

So I work in that same beauty salon
I'm chained to the old masquerade
The lipstick, the shadow, the silicone
I follow my father's trade
Yes I follow my father's trade
I follow my father's trade
I follow my father's trade
I follow my father's trade

Ah but don't go home with your hard-on
It will only drive you insane
You can't shake it (or break it) with your Motown
You can't melt it down in the rain
You can't melt it down in the rain
You can't melt it down in the rain
You can't melt it down in the rain
You can't melt it down in the rain
You can't melt it down in the rain
You can't melt it down in the rain
You can't melt it down in the rain
You can't melt it down in the rain...



Guitarist-friendly version
Capo 1st fret

Intro: E . A . |E . A . |E . A . |E . A . |  (x4)

       Em               B7
I was born in a beauty salon
                            Em
My father was a dresser of hair
                                Am
My mother was a girl you could call on
          Em            B7       Em
When you called she was always there
                                 B7
When you called she was always there
                                 Em
When you called she was always there
                                 Am
When you called she was always there
          Em            B7       Em
When you called she was always there

        E        A              E     A
Ah but don't go home with your hard-on
E              A          E     A
It will only drive you insane
            E            A                   E     A
You can't shake it (or break it) with your Motown
     E             A           E     A
You can't melt it down in the rain
     E             A           E     A
You can't melt it down in the rain
     E             A           E     A
You can't melt it down in the rain
     E             A           E     A
You can't melt it down in the rain

Вверх

Dress Rehearsal Rag

Intro: Bm

Bm                                 C#m
Four o'clock in the afternoon and I didn't feel like very much
Bm                                                      C#m
I said to myself, "Where are you golden boy, where's your famous golden touch?"
Bm                                  C#m
I thought you knew where all of the elephants lie down
Bm                                               C#m
I thought you were the crown prince of all the wheels in Ivory Town
Bm                               Am
Just take a look at your body now, there's nothing much to save
       Bm                                       Am
And a bitter voice in the mirror cries, "Hey, Prince, you need a shave."
Bm                                           C#m
Now if you can manage to get your trembling fingers to behave
     Bm                                    C#m
Why don't you try unwrapping a stainless steel razor blade?
                  Bm                       Am
That's right, it's come to this, yes it's come to this
A#               D        G   A#              D         G
And wasn't it a long way down, wasn't it a strange way down?

There's no hot water and the cold is running thin
Well, what do you expect from the kind of places you've been living in?
Don't drink from that cup, it's all caked and cracked along the rim
That's not the electric light, my friend, that is your vision growing dim
Cover up your face with soap, there, now you're Santa Claus
And you've got a gift for anyone who will give you his applause
I thought you were a racing man, ah, but you couldn't take the pace
That's a funeral in the mirror and it's stopping at your face
That's right, it's come to this, yes it's come to this
And wasn't it a long way down, ah wasn't it a strange way down?

Once there was a path and a girl with chestnut hair
And you passed the summers picking all of the berries that grew there
There were times she was a woman, oh there were times she was just a child
And you held her in the shadows where the raspberries grow wild
And you climbed the twilight mountains and you sang about the view
And everywhere that you wandered love seemed to go along with you
That's a hard one to remember, yes it makes you clench your fist
And then the veins stand out like highways, all along your wrist
And yes, it's come to this, it's come to this
And wasn't it a long way down, wasn't it a strange way down?

You can still find a job, go out and talk to a friend
On the back of every magazine there are those coupons you can send
Why don't you join the Rosicrucians, they will give you back your hope
You can find your love with diagrams on a plain brown envelope
But you've used up all your coupons except the one that seems
To be written on your wrist along with several thousand dreams
Now Santa Claus comes forward, that's a razor in his mitt
And he puts on his dark glasses and he shows you where to hit
And then the cameras pan, the stand in stunt man
Dress rehearsal rag, it's just the dress rehearsal rag
You know this dress rehearsal rag, it's just a dress rehearsal rag

Вверх

Everybody Knows

Intro: Dm . . . |A . . . |Dm . . . |. . . . |

            Dm
Everybody knows that the dice are loaded
           Bb
Everybody rolls with their fingers crossed
            Dm
Everybody knows the war is over
      Bb
Everybody knows the good guys lost
            Gm                      A
Everybody knows that the fight was fixed
               C                    Dm
The poor stay poor, the rich get rich
               Eb    A
That's how it goes
            Dm
Everybody knows

Everybody knows that the boat is leaking
Everybody knows that the captain lied
Everybody got this broken feeling
Like their father or their dog just died
Everybody talking to their pockets
Everybody wants a box of chocolates
And a long stem rose
Everybody knows

Everybody knows that you love me, baby
Everybody knows that you really do
And everybody knows that you've been faithful
Give or take a night or two
Everybody knows that you've been discreet
But there were so many people you just had to meet
Without your clothes
Everybody knows

            F                C
Everybody knows, everybody knows
               Dm     C
That's how it goes
     Bb     F
Everybody knows

Everybody knows, everybody knows
That's how it goes
Everybody knows

And everybody knows that it's now or never
Everybody knows that it's me or you
Everybody knows that you live forever
When you've done a line or two
Everybody knows the deal is rotten
Old Black Joe's still picking cotton
For your ribbons and bows
And everybody knows

Everybody knows that the Plague is coming
Everybody knows that it's moving fast
Everybody knows that your naked man and woman
Are just a shining artifact of the past
Everybody knows the scene is dead
But there's gonna be a meter on your bed
That will disclose
What everybody knows

And everybody knows you're in trouble
Everybody knows what you've been through
From the bloody cross on top of Calvary
To the beach of Malibu
Everybody knows it's coming apart
Take one last look at this Mighty Heart
Before it blows
And everybody knows

Everybody knows, everybody knows
That's how it goes
Everybody knows

Everybody knows, everybody knows
That's how it goes
Everybody knows

Everybody knows, everybody knows
That's how it goes
Everybody knows

Вверх

Everybody Knows (2 вариант)

Intro: C#m . . . |G# . . . |C#m . . . |. . . . |

            C#m
Everybody knows that the dice are loaded
           A
Everybody rolls with their fingers crossed
            C#m
Everybody knows the war is over
            A
Everybody knows the good guys lost
            F#m                G#
Everybody knows the fight was fixed
               B                  C#m
The poor stay poor, the rich get rich
               D    G#
That's how it goes
            C#m
Everybody knows

Everybody knows that the boat is leaking
Everybody knows the captain lied
Everybody got this broken feeling
Like their father or their dog just died
Everybody talking to their pockets
Everybody wants a box of chocolates
And a long stem rose
Everybody knows

Everybody knows that you love me, baby
Everybody knows that you really do
Everybody knows that you've been faithful
Ah give or take a night or two
Everybody knows you've been discreet
But there were so many people you just had to meet
Without your clothes
And everybody knows

            E                B
Everybody knows, everybody knows
               C#m     B
That's how it goes
A           E
Everybody knows

            E                B
Everybody knows, everybody knows
               C#m     B
That's how it goes
A           E       C#m
Everybody knows

And everybody knows that it's now or never
Everybody knows that it's me or you
And everybody knows that you live forever
Ah when you've done a line or two
Everybody knows the deal is rotten
Old Black Joe's still picking cotton
For your ribbons and bows
And everybody knows

Everybody knows that the Plague is coming
Everybody knows that it's moving fast
Everybody knows that the naked man and woman
Are just a shining artifact of the past
Everybody knows the scene is dead
But there's gonna be a meter on your bed
That will disclose
What everybody knows

And everybody knows that you're in trouble
Everybody knows what you've been through
From the bloody cross on top of Calvary
To the beach of Malibu
Everybody knows it's coming apart
Take one last look at this Sacred Heart
Before it blows
And everybody knows

Everybody knows, everybody knows
That's how it goes
Everybody knows

Everybody knows, everybody knows
That's how it goes
Everybody knows

Everybody knows, everybody knows
That's how it goes
Everybody knows

Everybody knows, everybody knows...



Guitarist friendly version
Capo 4th fret

Intro: Am . . . |E . . . |Am . . . |. . . . |

            Am
Everybody knows that the dice are loaded
           F
Everybody rolls with their fingers crossed
            Am
Everybody knows the war is over
            F
Everybody knows the good guys lost
            Dm                 E
Everybody knows the fight was fixed
               G                  Am
The poor stay poor, the rich get rich
               Bb    E
That's how it goes
            Am
Everybody knows

Everybody knows that the boat is leaking
Everybody knows the captain lied
Everybody got this broken feeling
Like their father or their dog just died
Everybody talking to their pockets
Everybody wants a box of chocolates
And a long stem rose
Everybody knows

Everybody knows that you love me, baby
Everybody knows that you really do
Everybody knows that you've been faithful
Ah give or take a night or two
Everybody knows you've been discreet
But there were so many people you just had to meet
Without your clothes
And everybody knows

            C                G
Everybody knows, everybody knows
               Am      G
That's how it goes
F           C
Everybody knows

            C                G
Everybody knows, everybody knows
               Am      G
That's how it goes
F           C        Am
Everybody knows

And everybody knows that it's now or never
Everybody knows that it's me or you
And everybody knows that you live forever
Ah when you've done a line or two
Everybody knows the deal is rotten
Old Black Joe's still picking cotton
For your ribbons and bows
And everybody knows

Everybody knows that the Plague is coming
Everybody knows that it's moving fast
Everybody knows that the naked man and woman
Are just a shining artifact of the past
Everybody knows the scene is dead
But there's gonna be a meter on your bed
That will disclose
What everybody knows

And everybody knows that you're in trouble
Everybody knows what you've been through
From the bloody cross on top of Calvary
To the beach of Malibu
Everybody knows it's coming apart
Take one last look at this Sacred Heart
Before it blows
And everybody knows

Everybody knows, everybody knows
That's how it goes
Everybody knows

Everybody knows, everybody knows
That's how it goes
Everybody knows

Everybody knows, everybody knows
That's how it goes
Everybody knows

Everybody knows, everybody knows...

Вверх

Famous Blue Raincoat

Tuning: D G C F A D (standard, full step down)

Chords:

Bm7:      x24232
F#m7:     242222
C#m7:     x46454

Intro: Bm7.. ...|G.. ...|Em.. ...|F#m7.. ...|
       Bm7.. ...|G.. ...|Em.. ...|F#m7.. ...|

     Bm7                      G
It's four in the morning, the end of December
Em                           F#m7
I'm writing you now just to see if you're better
 Bm7                   G
New York is cold, but I like where I'm living
       Em                       F#m7
There's music on Clinton Street all through the evening
Bm7                 C#m7                 Bm7               C#m7
I hear that you're building your little house deep in the desert
Bm7                A                          Bm7                  A
You're living for nothing now, I hope you're keeping some kind of record

          D                                A
Yes, and Jane came by with a lock of your hair
                              Bm7
She said that you gave it to her
                                    C#m7   A
That night that you planned to go clear
G                 F#m7
Did you ever go clear?

Ah, the last time we saw you you looked so much older
Your famous blue raincoat was torn at the shoulder
You'd been to the station to meet every train
And you came home without Lili Marlene
And you treated my woman to a flake of your life
And when she came back she was nobody's wife

Well I see you there with the rose in your teeth
One more thin gypsy thief
Well I see Jane's awake
She sends her regards

Bm7.. ...|G.. ...|Em.. ...|F#m7.. ...|

And what can I tell you my brother, my killer
What can I possibly say?
I guess that I miss you, I guess I forgive you
I'm glad you stood in my way
If you ever come by here, for Jane or for me
Well your enemy is sleeping, and his woman is free

Yes, and thanks, for the trouble you took from her eyes
I thought it was there for good
So I never tried

And Jane came by with a lock of your hair
She said that you gave it to her
That night that you planned to go clear
Sincerely, L. Cohen

Bm7.. ...|G.. ...|Em.. ...|F#m7.. ...|



Intro:

    Bm7                     G
    |   .   .   .   .   .   |   .   .   .   .   .
D|---------------------------------------------------|
A|------3---3-------3---3-------0---0-------0---0----|
F|------2---2-------2---2-------0---0-------0---0----|
C|----4---4---4---4---4---0---0---0---0---0---0---0--|
G|--2-----------2------------------------------------|
D|--------------------------3-----------3------------|

    Em                      F#m7
    |   .   .   .   .   .   |   .   .   .   .   .
D|---------------------------------------------------|
A|------0---0-------0---0-------2---2-------2---2----|
F|------0---0-------0---0-------2---2-------2---2----|
C|----2---2---2---2---2---0---2---2---2---2---2---2--|
G|---------------------------------------------------|     (x2)
D|--0-----------0-----------2-----------2------------|


Verse:

    Bm7                     G
    |   .   .   .   .   .   |   .   .   .   .   .
D|---------------------------------------------------|
A|------3---3-------3---3-------0---0-------0---0----|
F|------2---2-------2---2-------0---0-------0---0----|
C|----4---4---4---4---4---0---0---0---0---0---0---0--|
G|--2-----------2------------------------------------|
D|--------------------------3-----------3------------|

    Em                      F#m7
    |   .   .   .   .   .   |   .   .   .   .   .
D|---------------------------------------------------|
A|------0---0-------0---0-------2---2-------2---2----|
F|------0---0-------0---0-------2---2-------2---2----|
C|----2---2---2---2---2---0---2---2---2---2---2---2--|
G|---------------------------------------------------|
D|--0-----------0-----------2-----------2------------|

    Bm7                     G
    |   .   .   .   .   .   |   .   .   .   .   .
D|---------------------------------------------------|
A|------3---3-------3---3-------0---0-------0---0----|
F|------2---2-------2---2-------0---0-------0---0----|
C|----4---4---4---4---4---0---0---0---0---0---0---0--|
G|--2-----------2------------------------------------|
D|--------------------------3-----------3------------|

    Em                      F#m7
    |   .   .   .   .   .   |   .   .   .   .   .
D|---------------------------------------------------|
A|------0---0-------0---0-------2---2-------2---2----|
F|------0---0-------0---0-------2---2-------2---2----|
C|----2---2---2---2---2---0---2---2---2---2---2---2--|
G|---------------------------------------------------|
D|--0-----------0-----------2-----------2------------|

    Bm7                     C#m7
    |   .   .   .   .   .   |   .   .   .   .   .
D|---------------------------------------------------|
A|------3---3-------3---3-------5---5-------5---5----|
F|------2---2-------2---2-------4---4-------4---4----|
C|----4---4---4---4---4---0---6---6---6---6---6---0--|
G|--2-----------2-----------4-----------4------------|
D|---------------------------------------------------|

    Bm7                     C#m7
    |   .   .   .   .   .   |   .   .   .   .   .
D|---------------------------------------------------|
A|------3---3-------3---3-------5---5-------5---5----|
F|------2---2-------2---2-------4---4-------4---4----|
C|----4---4---4---4---4---0---6---6---6---6---6---0--|
G|--2-----------2-----------4-----------4------------|
D|---------------------------------------------------|

    Bm7                     A
    |   .   .   .   .   .   |   .   .   .   .   .
D|---------------------------------------------------|
A|------3---3-------3---3-------2---2-------2---2----|
F|------2---2-------2---2-------2---2-------2---2----|
C|----4---4---4---4---4---0---2---2---2---2---2---0--|
G|--2-----------2-----------0-----------0------------|
D|---------------------------------------------------|

    Bm7                     A
    |   .   .   .   .   .   |   .   .   .   .   .
D|---------------------------------------------------|
A|------3---3-------3---3-------2---2-------2---2----|
F|------2---2-------2---2-------2---2-------2---2----|
C|----4---4---4---4---4---0---2---2---2---2---2---0--|
G|--2-----------2-----------0-----------0------------|
D|---------------------------------------------------|


Chorus:

    D
    |   .   .   .   .   .   |   .   .   .   .   .
D|------2---2-------2---2-------2---2-------2---2----|
A|------0---3-------0---3-------0---3-------0---3----|
F|----2---2---2---2---2---2---2---2---2---2---2---0--|
C|--0-----------0-----------0-----------0------------|
G|---------------------------------------------------|
D|---------------------------------------------------|

    A
    |   .   .   .   .   .   |   .   .   .   .   .
D|---------------------------------------------------|
A|------0---2-------0---2-------0---2-------0---2----|
F|------2---2-------2---2-------2---2-------2---2----|
C|----2---2---2---2---2---2---2---2---2---2---2---0--|
G|--0-----------0-----------0-----------0------------|
D|---------------------------------------------------|

    Bm7
    |   .   .   .   .   .   |   .   .   .   .   .
D|---------------------------------------------------|
A|------3---3-------3---3-------3---3-------3---3----|
F|------2---2-------2---2-------2---2-------2---2----|
C|----4---4---4---4---4---4---4---4---4---4---4---0--|
G|--2-----------2-----------2-----------2------------|
D|---------------------------------------------------|

    C#m7                    A
    |   .   .   .   .   .   |   .   .   .   .   .
D|---------------------------------------------------|
A|------5---5-------5---5-------5---5-------5---5----|
F|------4---4-------4---4-------6---6-------6---6----|
C|----6---6---6---6---6---0---7---7---7---7---7---7--|
G|--4-----------4-----------------------7------------|
D|--------------------------5------------------------|

    G                       F#m7
    |   .   .   .   .   .   |   .   .   .   .   .
D|---------------------------------------------------|
A|------3---3-------3---3-------2---2-------2---2----|
F|------4---4-------4---4-------2---2-------2---2----|
C|----5---5---5---5---5---0---2---2---2---2---2---2--|
G|--------------5------------------------------------|
D|--3-----------------------2-----------2------------|

Вверх

Field Commander Cohen

Intro: F

F                                  C               Eb
Field Commander Cohen, he was our most important spy
Bb
Wounded in the line of duty
Gm                     F          Cm
Parachuting acid into diplomatic cocktail parties
Eb                       Bb                Fm
Urging Fidel Castro to abandon fields and castles
         Eb              Gm
Leave it all and like a man
         Eb               Gm
Oh come back to nothing special
         Dm
Such as waiting rooms and ticket lines
     Gm             Dm
And silver bullet suicides
   Gm         Dm
And messianic ocean tides
   Gm              Dm
And racial roller-coaster rides
    Eb                           D               /a
And other forms of boredom advertised as poetry

Em                     G
I know you need your sleep now
    D
I know your life's been hard
Em                 G
But many men have fallen
            D
Where you promised to stand guard

   F                                          C                  Eb
I never asked but I heard that you cast your lot along with the poor
Bb
How come I overheard your prayer
Gm
That you be this and nothing more
    F                    Cm             Eb
Than just some grateful faithful woman's favourite singing millionaire
     Bb             Fm             Eb          Gm
The patron Saint of envy and the grocer of despair
 A                      D
Working for the Yankee dollar

          D
Drinkin' rum and Coca-Cola
               A
Go down Point Koomahnah

Both mother and daughter
                        D      /a
Working for the Yankee dollar

Em                     G
I know you need your sleep now
    D
I know your life's been hard
Em                 G
But many men have fallen
            D
Where you promised to stand guard

     F                                 C                      Eb
Ah, lover come and lie with me, if my lover is who you really are
Bb                              Gm
And be your sweetest self awhile until I ask for more, my child
    F                Cm                  Eb
Then let your other selves be wrong, yeah, let them manifest and come
Bb                        Fm
Till love is pierced and love is hung
Eb                 Gm
And every taste is on the tongue
Eb                  Gm
And every kind of freedom done, then
Dm     Bb   Dm         Bb   Dm     Bb
Oh my love, oh, oh my love, oh my love
Dm     Bb    Dm
Oh my love

Вверх

First We Take Manhattan

Intro: A#m . . . |. . . . |Fm . . . |. . . . |
       A#m . . . |. . . . |Fm . . . |. . . . |
       A#m . . . |. . . . |Fm . . . |. . . . |
       D# . . . |C# . . . |C7 . . . |. . . . |
       Fm . . . |. . . . |

      A#m                             Fm
They sentenced me to twenty years of boredom
      A#m                                Fm
For trying to change the system from within
     A#m                         Fm
I'm coming now, I'm coming to reward them
 D#               C#    C7                Fm
First we take Manhattan, then we take Berlin

I'm guided by a signal in the heavens
I'm guided by this birthmark on my skin
I'm guided by the beauty of our weapons
First we take Manhattan, then we take Berlin

     G#             G#sus4 G#        D#   C#
I'd really like to live beside you, baby
   D#        G#             G#sus4 G#       Fm   Fsus4   Fm
I love your body and your spirit and your clothes
         G#                  G#sus4   G#         Fm    Fsus4   Fm
But you see that line there moving through the station?
   D#          C#          C7                      Fm
I told you, I told you, I told you, I was one of those

Ah you loved me as a loser, but now you're worried that I just might win
You know the way to stop me, but you don't have the discipline
How many nights I prayed for this, to let my work begin
First we take Manhattan, then we take Berlin

I don't like your fashion business, mister
And I don't like these drugs that keep you thin
I don't like what happened to my sister
First we take Manhattan, then we take Berlin

I'd really like to live beside you, baby
I love your body and your spirit and your clothes
But you see that line there moving through the station?
I told you, I told you, I told you, I was one of those

And I thank you for those items that you sent me
The monkey and the plywood violin
I practiced every night and now I'm ready
First we take Manhattan, then we take Berlin

Ah remember me, I used to live for music
Remember me, I brought your groceries in
Well it's Father's Day and everybody's wounded
First we take Manhattan, then we take Berlin



Guitarist friendly version
Capo 1st fret

Intro: Am . . . |. . . . |Em . . . |. . . . |
       Am . . . |. . . . |Em . . . |. . . . |
       Am . . . |. . . . |Em . . . |. . . . |
       D . . . |C . . . |B7 . . . |. . . . |
       Em . . . |. . . . |

      Am                              Em
They sentenced me to twenty years of boredom
      Am                                 Em
For trying to change the system from within
     Am                          Em
I'm coming now, I'm coming to reward them
 D                C    B7                Em
First we take Manhattan, then we take Berlin

...

     G              Gsus4 G          D    C
I'd really like to live beside you, baby
   D         G              Gsus4 G         Em   Esus4   Em
I love your body and your spirit and your clothes
         G                   Gsus4   G           Em    Esus4   Em
But you see that line there moving through the station?
   D           C          B7                      Em
I told you, I told you, I told you, I was one of those

Вверх

Go No More A-Roving

Intro: C# . . . |G#6 . . . |F# . . . |G# . . . |
       C# . . . |G#6/c . . . |F# . . . |G# . . . |

          C#           G#6/c
So we'll go no more a-roving
    F#              G#
So late into the night,
            C#                 G#6/c
Though the heart be still as loving,
         F#                G#
And the moon be still as bright.

          F#                 B/f#
For the sword outwears its sheath,
         F#                 B/f#
And the soul outwears the breast,
         F#maj7               Adim
And the heart must pause to breathe,
             A#m      C#/g#   G#sus4   G#
And love itself have rest.

            C#                 G#6/c
Though the night was made for loving,
         F#              G#
And the day returns too soon,
           C#            G#6/c
Yet we'll go no more a-roving
        F#           G#
By the light of the moon.
        F#            F#m     C#  D#m7  C#/f  G#  F#
By the light...    ...of the moon.

F# . . . |B/f# . . . |           (For the sword outwears its sheath)
F# . . . |B/f# . . . |           (And the soul outwears the breast)
F#maj7 . . . |Adim . . . |
A#m . . . |C# . . . |            (And love itself have rest)
G# . . . |                       (Love have rest)

            C#                 G#6/c
Though the night was made for loving,
         F#              G#
And the day returns too soon,
           C#            G#6/c
Yet we'll go no more a-roving
        F#           G#
By the light of the moon.
       F#    G#     A#m
We'll go no more a-roving
       F#    G#     A#m
We'll go no more a-roving
       F#    G#     A#m
We'll go no more a-roving
        D#           G#      C#     G#6
By the light...   ...of the moon.
          F#
(So we'll go no more)
G#          C#
(No more a-roving...)



Guitarist friendly version
Capo 1st fret

Chords:

G6:       320000  or  322003
G6/b:     x20000  or  x22003
Bb/f:     113331
Fmaj7:    133210  or  xx3210
G#dim:    xx0101
C/g:      332010  or  335553
Gsus4:    320013  or  355533
C/e:      032010  or  xx2010

Intro: C . . . |G6 . . . |F . . . |G . . . |
       C . . . |G6/b . . . |F . . . |G . . . |

          C            G6/b
So we'll go no more a-roving
    F               G
So late into the night,
            C                  G6/b
Though the heart be still as loving,
         F                 G
And the moon be still as bright.

          F                  Bb/f
For the sword outwears its sheath,
         F                  Bb/f
And the soul outwears the breast,
         Fmaj7               G#dim
And the heart must pause to breathe,
             Am       C/g   Gsus4   G
And love itself have rest.

            C                  G6/b
Though the night was made for loving,
         F               G
And the day returns too soon,
           C             G6/b
Yet we'll go no more a-roving
        F            G
By the light of the moon.
        F             Fm      C   Dm7  C/e  G   F
By the light...    ...of the moon.

F . . . |Bb/f . . . |            (For the sword outwears its sheath)
F . . . |Bb/f . . . |            (And the soul outwears the breast)
Fmaj7 . . . |G#dim . . . |
Am . . . |C . . . |              (And love itself have rest)
G . . . |                        (Love have rest)

            C                  G6/b
Though the night was made for loving,
         F               G
And the day returns too soon,
           C             G6/b
Yet we'll go no more a-roving
        F            G
By the light of the moon.
       F     G      Am
We'll go no more a-roving
       F     G      Am
We'll go no more a-roving
       F     G      Am
We'll go no more a-roving
        D            G       C      G6
By the light...   ...of the moon.
          F
(So we'll go no more)
G           C
(No more a-roving...)

Вверх

Hallelujah

Intro: C.. ...|G.. ...|

          C                 Am
Now I've heard there was a secret chord
      C                     Am
That David played, and it pleased the Lord
     F                G              C      G
But you don't really care for music, do you?
    C
It goes like this
     F           G
The fourth, the fifth
     Am              F
The minor fall, the major lift
     G               E7          Am
The baffled king composing Hallelujah
      F           Am          F         C G C    G
Hallelujah, Hallelujah, Hallelujah, Hallelujah

Your faith was strong, but you needed proof
You saw her bathing on the roof
Her beauty and the moonlight overthrew you
She tied you
To a kitchen chair
She broke your throne and she cut your hair
And from your lips she drew the Hallelujah
Hallelujah, Hallelujah, Hallelujah, Hallelujah

You say I took the Name in vain
I don't even know the Name
But if I did, well really, what's it to you?
There's a blaze of light
In every word
It doesn't matter which you heard
The holy or the broken Hallelujah
Hallelujah, Hallelujah, Hallelujah, Hallelujah

I did my best, it wasn't much
I couldn't feel, so I tried to touch
I've told the truth, I didn't come to fool you
And even though
It all went wrong
I'll stand before the Lord of Song
With nothing on my tongue but Hallelujah
Hallelujah, Hallelujah, Hallelujah, Hallelujah
Hallelujah, Hallelujah, Hallelujah, Hallelujah
Hallelujah, Hallelujah, Hallelujah, Hallelujah
Hallelujah, Hallelujah, Hallelujah, Hallelujah
Hallelujah, Hallelujah...

Вверх

Hallelujah (2 вариант)

Intro: Bb.. ...|F.. ...|Bb.. ...|F.. ...|

Bb               Gm
Baby, I've been here before
    Bb                  Gm
I know this room, I've walked this floor
  Eb             F              Bb     F
I used to live alone before I knew you
               Bb
Yeah and I've seen your flag
        Eb    F
On the marble arch
          Gm                               Eb
But this love, love is not some kind of a victory march
            F                     D7         Gm
No, it's a cold and it's a very broken Hallelujah!
      Eb          Gm          Eb        Bb F Bb         F
Hallelujah, Hallelujah, Hallelujah, Hallelujah, Hallelujah

There was a time you let me know
What's really going on below
Ah but now you never show it to me, do you?
Yeah but I remember
Yeah when I moved in you
And the holy dove she was moving too
Yes and every single breath that we drew was Hallelujah!
Hallelujah, Hallelujah, Hallelujah, Hallelujah

Maybe there's a God above
As for me all I ever seem to learn from love
Is how to shot at someone who outdrew you
Yeah but it's not a complaint
That you hear tonight
It's not a laughter of someone who claims to have seen the light
No, it's a cold and it's a very lonely Hallelujah!
Hallelujah, Hallelujah, Hallelujah, Hallelujah

I did my best, it wasn't much
I couldn't feel, so I learned to touch
I've told the truth, I didn't come all this way to fool you
Yeah and even though
It all went wrong
I'll stand right here before the Lord of Song
With nothing on my tongue but Hallelujah
Hallelujah, Hallelujah, Hallelujah, Hallelujah
Hallelujah, Hallelujah, Hallelujah, Hallelujah

Вверх

Heart with No Companion

Intro: G

        G      C         G
Now I greet you from the other side
    G    D        G
Of sorrow and despair
        G       C            G
With a love so vast and so shattered
         G        D      G
It will reach you everywhere

And I sing this for the captain
Whose ship has not been built
For the mother in confusion
Her cradle still unfilled

For the heart with no companion
For the soul without a king
For the prima ballerina
Who cannot dance to anything

Through the days of shame that are coming
Through the nights of wild distress
Though your promise count for nothing
You must keep it nonetheless

You must keep it for the captain
Whose ship has not been built
For the mother in confusion
Her cradle still unfilled

For the heart with no companion
For the soul without a king
For the prima ballerina
Who cannot dance to anything

Now I greet you from the other side
Of sorrow and despair
Ah with a love so vast and so shattered
It will reach you everywhere

And I sing this for the captain
Whose ship has not been built
For the mother in confusion
Her cradle still unfilled

For the heart with no companion
For the soul without a king
For the prima ballerina
Who cannot dance to anything

Вверх

Here It Is

Intro: Ebm

Ebm
(Here it is)
(Here it is)
(Here it is)
(Here it is)

Ebm
(Here is your crown)
(And your seal and rings)
(And here is your love)
(For all things)

Ebm
Here is your cart
And your cardboard and piss
And here is your love
For all of this

              Abm
May everyone live
Bbm7          Ebm
May everyone die
        Abm
Hello, my love
Bb7               Ebm
And my love, Goodbye

(Here it is)
(Here it is)

(Here is your wine)
(And your drunken fall)
(And here is your love)
(Your love for it all)

Here is your sickness
Your bed and your pan
And here is your love
For the woman, the man

May everyone live
May everyone die
Hello, my love
And my love, Goodbye

(Here it is)
(Here it is)

(And here is the night)
(The night has begun)
(And here is your death)
(In the heart of your son)

And here is the dawn
Until death do us part
And here is your death
In your daughter's heart

May everyone live
And may everyone die
Hello, my love
And my love, Goodbye

(And may everyone live)
(May everyone die)
Hello, my love
And my love, Goodbye

(Here it is)
(Here it is)

(And here you are hurried)
(And here you are gone)
(And here is the love)
(It's all built upon)

Here is your cross
Your nails and your hill
And here is the love
That lists where it will

May everyone live
And may everyone die
Hello, my love
And my love, Goodbye

And may everyone live
And may everyone die
Hello, my love
And my love, Goodbye

(Here it is)
(Here it is)
(Here it is)
(Here it is)
(Here it is)
(Here it is)...



Guitarist friendly version
Down tune one half-step

Basic bass figure:

    Em
    |   .   .   .   |   .   .   .
E|--0------------------------------|
B|--0------------------------------|
G|--0------------------------------|
D|--2-----2-----------------0------|
A|--2-----------0---2--------------|
E|--0------------------------------|

Intro: Em

Em
(Here it is)
(Here it is)
(Here it is)
(Here it is)

Em
(Here is your crown)
(And your seal and rings)
(And here is your love)
(For all things)

Em
Here is your cart
And your cardboard and piss
And here is your love
For all of this

              Am
May everyone live
Bm7           Em
May everyone die
        Am
Hello, my love
B7                Em
And my love, Goodbye

...

Вверх

Hey, That's No Way to Say Goodbye

Intro: E

          A
Oh yes I loved you in the morning, our kisses deep and warm
         F#m
Oh your hair upon the pillow like a sleepy golden storm
    D
Yes, many loved before us, I know we are not new
  A
In city and in forest they smiled like me and you
        F#m
Oh but now it's come to distances and both of us must try
     D
Your eyes are soft with sorrow
E                             A E
Hey, that's no way to say goodbye

No I'm not looking for another as I wander in my time
Walk me to the corner now, our steps will always rhyme
You know my love goes with you as your love stays with me
It's just the way it changes, like the shoreline and the sea
Oh but let's not talk of love or chains and things we can't untie
Your eyes are soft with sorrow
Hey, that's no way to say goodbye

Yes I loved you in the morning, our kisses deep and warm
Oh your hair upon the pillow like a sleepy golden storm
Many loved before us, I know that we are not new
In city and in forest they smiled like me and you
Oh but now it's come to distances and both of us must try
Your eyes are soft with sorrow
Hey that's no way to say goodbye

Вверх

Humbled in Love

Chords:

Cadd9:        x32033
G#dim:        456464  or  xx0101
Fmaj7:        xx3210

Intro: E.. ...|
       E.. Am6/e..|E7.. Am/e..|E7.. Am/e..|E.. ...|         (see tab below)

       E.. Am/e..|E7.. Am/e..|E7.. Am/e..|Cadd9.. ...|
       G#7.. ...|G7.. ...|G7.. ...|

G         G#dim             Am
Do you remember all those pledges
           G            G#dim      Am
That we pledged in the passionate night
              C                              G
Ah, they're soiled now, they're torn at the edges
      Cm                      G#7     G7
Like moths on a stale yellow light

Nor penance serves to renew them,
Nor massive transfusions of trust
Why not even revenge can undo them
     Cm                        G
So twisted these vows and so crushed

                         A#
And you say you've been humbled in love
     F
Cut down in your love
            A#
Forced to kneel in the mud
        F
Next to me
        A#
Ah, but why so bitterly
 F
Turn from the one
      Am
Who kneels there
    Fmaj7      E
As deeply as thee

Children have taken these pledges
They have ferried them out of the past
Oh beyond all the graves and the hedges
Where love must go hiding at last

And here where there is no description
Oh here in the moment at hand
No sinner need rise up forgiven
No victim need limp to the stand

And you say you've been humbled in love
Cut down in your love
Forced to kneel in the mud
Next to me
Ah, but why so bitterly
Turn from the one
Who kneels there
As deeply as thee

And look dear heart, look at the virgin
Look how she welcomes him into her gown
Yes and mark how the stranger's cold armor
Dissolves like a star falling down

Why trade this vision for desire
When you may have them both
You will never see a man this naked
I will never hold a woman this close

And you say you've been humbled in love
Cut down in your love
Forced to kneel in the mud
Next to me
Ah, but why so bitterly
Turn from the one
Who kneels there
As deeply as thee



The intro can be played like this:


    E
    | .  .  .  .  .
E|--0----------------|
B|--0----------------|
G|--1----------------|
D|--2----------------|
A|--2----------------|
E|--0----------------|

    E        Am6/e    E7       Am/e
    |  .  .  .  .  .  |  .  .  .  .  .
E|--0--------2--------4--------5--------|
B|--0--------1--------2--------5--------|
G|--1--------2--------4--------5--------|
D|--------------------------------------|
A|--------------------------------------|
E|--0--------0--------0--------0--------|

    E7       Am/e     E
    |  .  .  .  .  .  |  .  .  .  .  .
E|--7--------8--------0-----------------|
B|--5--------5--------0-----------------|
G|--7--------5--------1-----------------|
D|--------------------2-----------------|
A|--------------------2-----------------|
E|--0--------0--------0-----------------|

    E        Am/e     E7       Am/e
    |  .  .  .  .  .  |  .  .  .  .  .
E|--4--------5--------7--------8--------|
B|--5--------5--------5--------5--------|
G|--4--------5--------7--------5--------|
D|--------------------------------------|
A|--------------------------------------|
E|--0--------0--------0--------0--------|

    E        Am/e     Cadd9
    |  .  .  .  .  .  |  .  .  .  .  .
E|--7--------5--------3-----------------|
B|--5--------5--------3-----------------|
G|--7--------5--------0-----------------|
D|--------------------2-----------------|
A|--------------------3-----------------|
E|--0--------0--------------------------|

    G#7               G7
    |  .  .  .  .  .  |  .  .  .  .  .
E|--4-----------------3-----------------|
B|--4-----------------3-----------------|
G|--5-----------------4-----------------|
D|--4-----------------3-----------------|
A|--6-----------------5-----------------|
E|--4-----------------3-----------------|

Вверх

Hunter's Lullaby

Intro: G     C     G

      C        F      C
Your father's gone a-hunting
      C           F         C
He's deep in the forest so wild
        G               G7
And he cannot take his wife with him
    F                C
He cannot take his child

Your father's gone a-hunting
Through the quicksand and the clay
And a woman cannot follow him
Although she knows the way

      G               Am
Your father's gone a-hunting
             F               G
Through the silver and the glass
      C      E7/b    Am    /g
Where only greed can enter
      F                    C     G
But spirit, spirit cannot pass

Your father's gone a-hunting
For the beast he'll never bind
And he leaves a baby sleeping
And his blessings all behind

Your father's gone a-hunting
And he's lost his lucky charm
And he's lost the guardian heart
That keeps the hunter from the harm

Your father's gone a-hunting
He asked me to say goodbye
And he warned me not to stop him
I wouldn't, I wouldn't even try

Вверх

I Can't Forget

Intro: C# . . . |. . . . |. . . . |F# . . . |
       B . . . |F# . . . |B . . . |D . . . |
       E . . . |F# . . . |C# . . . |. . . . |

    F#
I stumbled out of bed
       D#m
I got ready for the struggle
F#
I smoked a cigarette
     D#m               C#
And I tightened up my gut
   B         Bm       G#m
I said this can't be me
 A#          E    D#m
Must be my double
F#              B                F#
And I can't forget, (I can't forget)
            B
I can't forget, (I can't forget)
   D                  E               F# . . . |B . . . |
I can't forget but I don't remember what

F# . . . |B . . . |D . . . |E . . . |
F# . . . |C# . . . | . . . |

I'm burning up the road
I'm heading down to Phoenix
I got this old address
Of someone that I knew
It was high and fine and free
Ah, you should have seen us
And I can't forget, (I can't forget)
I can't forget, (I can't forget)
I can't forget but I don't remember who

          A#
I'll be there today
        D#m            A#
With a big bouquet of cactus
   E                 D#m     C#
I got this rig that runs on memories
        D#m              B
And I promise, cross my heart
               F#      D#m
They'll never catch us
    D                                  C#
But if they do, just tell them it was me

Yeah I loved you all my life
And that's how I want to end it
The summer's almost gone
The winter's tuning up
Yeah, the summer's gone
But a lot goes on forever
And I can't forget, (I can't forget)
I can't forget, (I can't forget)
I can't forget but I don't remember what



Guitarist friendly version
Capo 4th fret

Intro: A . . . |. . . . |. . . . |D . . . |
       G . . . |D . . . |G . . . |Bb . . . |
       C . . . |D . . . |A . . . |. . . . |

    D
I stumbled out of bed
       Bm
I got ready for the struggle
D
I smoked a cigarette
     Bm               A
And I tightened up my gut
   G         Gm       Em
I said this can't be me
 F#          C    Bm
Must be my double
D               G                D
And I can't forget, (I can't forget)
            G
I can't forget, (I can't forget)
   Bb                 C               D . . . |G . . . |
I can't forget but I don't remember what

D . . . |G . . . |Bb . . . |C . . . |
D . . . |A . . . |. . . . |

I'm burning up the road
I'm heading down to Phoenix
I got this old address
Of someone that I knew
It was high and fine and free
Ah, you should have seen us
And I can't forget, (I can't forget)
I can't forget, (I can't forget)
I can't forget but I don't remember who

          F#
I'll be there today
        Bm             F#
With a big bouquet of cactus
   C                 Bm      A
I got this rig that runs on memories
        Bm               G
And I promise, cross my heart
               D       Bm
They'll never catch us
    Bb                                 A
But if they do, just tell them it was me

Yeah I loved you all my life
And that's how I want to end it
The summer's almost gone
The winter's tuning up
Yeah, the summer's gone
But a lot goes on forever
And I can't forget, (I can't forget)
I can't forget, (I can't forget)
I can't forget but I don't remember what

Вверх

If It Be Your Will

Intro: Dm.. ...|Bb.. ...|C.. ...|

C              Dm
If it be your will
Bb               Am
That I speak no more
C                 Dm
And my voice be still
F            C
As it was before
Am               G
I will speak no more
    Am           G
I shall abide until
F            C
I am spoken for
       G
If it be your will

If it be your will
If a voice be true
From this broken hill
I will sing to you
From this broken hill
All your praises they shall ring
If it be your will
To let me sing

If it be your will
If there is a choice
Let the rivers fill
Let the hills rejoice
Let your mercy spill
On all these burning hearts in hell
If it be your will
To make us well

And draw us near
Oh bind us tight
All your children here
In their rags of light
In our rags of light
All dressed to kill
And end this night
If it be your will
               C
If it be your will

Вверх

If It Be Your Will (2 вариант)

Capo 4th fret

Intro: G.. ...|G.. ...|

C              Dm
If it be your will
Bb               Am
That I speak no more
C                 Dm
And my voice be still
F            C
As it was before
Am               G
I will speak no more
    Am           G
I shall abide until
F            C
I am spoken for
       G
If it be your will

If it be your will
That a voice be true
From this broken hill
I will sing to you
From this broken hill
All your praises they shall ring
If it be your will
To let me sing

C.. ...|Dm.. ...|Bb.. ...|Am.. ...|
C.. ...|Dm.. ...|F.. ...|C.. ...|

Am                G
From this broken hill
           Am                G
All your praises they shall ring
F              C
If it be your will
    G
To let me sing

If it be your will
If there is a choice
Let the rivers fill
Let the hills rejoice
Let your mercy spill
On all these burning hearts in hell
If it be your will
To make us well

And draw us near
And bind us tight
All your children here
In their rags of light
In our rags of light
All dressed to kill
And end this night
If it be your will
               C
If it be your will



Intro:

     G
     |   .   .   .   .   .   |   .   .   .   .   .
G#|---------------------------------------------------|
D#|------3---3-------3---3-------3---3-------3---3----|
 B|----4---4---4---4---4---4---4---4---4---4---4---4--|
F#|--5-----------5-----------5-----------5------------|
C#|---------------------------------------------------|
G#|---------------------------------------------------|


Verse:

     C                       Dm
     |   .   .   .   .   .   |   .   .   .   .   .
G#|----------------------------------0---1------------|
D#|------5---5-------5---5-------3-----------3--------|
 B|----5---5---5---5---5---5---2---2---2---2---2---2--|
F#|--------------------------0------------------------|
C#|--3-----------3-------------------------------0----|
G#|---------------------------------------------------|

     Bb                      Am
     |   .   .   .   .   .   |   .   .   .   .   .
G#|---------------------------------------------------|
D#|------3---3-------3---3-------1---1-------1---1----|
 B|----3---3---3---3---3---3---2---2---2---2---2---2--|
F#|--------------------------------------2------------|
C#|--1-----------1-----------0------------------------|
G#|---------------------------------------------------|

     C                       Dm
     |   .   .   .   .   .   |   .   .   .   .   .
G#|----------------------------------0---1------------|
D#|------5---5-------5---5-------3-----------3--------|
 B|----5---5---5---5---5---5---2---2---2---2---2---2--|
F#|--------------------------0------------------------|
C#|--3-----------3------------------------------------|
G#|----------------------------------------------0----|

     F                       C
     |   .   .   .   .   .   |   .   .   .   .   .
G#|---------------------------------------------------|
D#|------1---1-------1---1-------5---5-------5---5----|
 B|----2---2---2---2---2---2---5---5---5---5---5---5--|
F#|--------------3------------------------------------|
C#|--------------------------3-----------3------------|
G#|--1------------------------------------------------|

     Am                      G
     |   .   .   .   .   .   |   .   .   .   .   .
G#|---------------------------------------------------|
D#|------1---1-------1---1-------0---0-------0---0----|
 B|----2---2---2---2---2---2---0---0---0---0---0---0--|
F#|--------------2-----------------------0------------|
C#|--0------------------------------------------------|
G#|--------------------------3------------------------|

     Am                      G
     |   .   .   .   .   .   |   .   .   .   .   .
G#|---------------------------------------------------|
D#|------1---1-------1---1-------0---0-------0---0----|
 B|----2---2---2---2---2---2---0---0---0---0---0---0--|
F#|--------------2-----------------------0------------|
C#|--0------------------------------------------------|
G#|--------------------------3------------------------|

     F                       C
     |   .   .   .   .   .   |   .   .   .   .   .
G#|---------------------------------------------------|
D#|------1---1-------1---1-------5---5-------5---5----|
 B|----2---2---2---2---2---2---5---5---5---5---5---5--|
F#|--------------3------------------------------------|
C#|--------------------------3-----------3------------|
G#|--1------------------------------------------------|

     G
     |   .   .   .   .   .   |   .   .   .   .   .
G#|---------------------------------------------------|
D#|------3---3-------3---3-------3---3-------3---3----|
 B|----4---4---4---4---4---4---4---4---4---4---4---4--|
F#|--5-----------5-----------5-----------5------------|
C#|---------------------------------------------------|
G#|---------------------------------------------------|

Вверх

I Left a Woman Waiting

Intro: D . . G|. . . .|A . . G|. . . .|
       D . . G|. . . .|A . . G|. . . .|

D  G                 A     G
I left a woman waiting
D  G                A     G  A
I met her sometime later
G    F#m     Em          D G      D   G  F#m  Em  D
She said, "I see your eyes are dead
                  Em
What happened to you, lover?
A                 D
What happened to you, my lover?
Bm                Em
What happened to you, lover?
A                 D . . G|. . . .|A . . G|. . . .|
What happened to you?"

And since she spoke the truth to me
I tried to answer truthfully
"Whatever happened to my eyes
Happened to your beauty
Happened to your beauty
What happened to your beauty
Happened to me."

We took ourselves to someone's bed
And there we fell together
Quick as dogs and truly dead were we
And free as running water
Free as running water
Free as running water
Free as you and me
Bm                   Em
The way it's got to be
A                    D
The way it's got to be, lover...

Вверх

Improvisation

Tuning: C F Bb Eb G C (standard, two full steps down)

First couple of bars:

     Am
     |   .   .   .   .   .   |   .   .   .   .   .
 C|------------------0---1---0---3---1---0-----------|
 G|------0---1---3---------------------------3---1---|
Eb|----2---2---2---2---2---2---2---2---2---2---2---2-|
Bb|--------------------------------------------------|
 F|--0-----------------------------------------------|
 C|--------------------------------------------------|

     Am
     |   .   .   .   .   .   |   .   .   .   .   .
 C|--------------0---1---0---3---1---0---------------|
 G|--0---1---3---------------------------3---1---0---|
Eb|----2---2---2---2---2---2---2---2---2---2---2---2-|
Bb|--------------------------------------------------|
 F|--------------------------------------------------|
 C|--------------------------------------------------|

     Am
     |   .   .   .   .   .   |   .   .   .   .   .
 C|--------------------------------------------------|
 G|--1---3---1---0---1---0h1-----0---1---3---1---0h1-|
Eb|----2---2---2---2---2---2---2---2---2---2---2---2-|
Bb|--------------------------------------------------|
 F|--------------------------0-----------------------|
 C|--------------------------------------------------|

Вверх

I'm Your Man

Intro: Fm . . . |. . . . |Cm . . . |. . . . |
       G# . . . |G . . . |Cm . . . |. . . . |

                  Fm
If you want a lover
                     D#
I'll do anything you ask me to
                  Fm
If you want another kind of love
                     D#
I'll wear my little mask for you
               Cm
If you want a partner

Take my hand
                     G#
Or if you want to strike me down in anger
 A#
Here I stand
          Cm
I'm your man

If you want a boxer
I will step into the ring for you
If you want a jewish doctor
I'll uncover every inch of you
If you want a driver
Climb inside
Or if you want to take me for a ride
Well you know you can
I'm your man

          D#
Yeah the moon's too bright
          G#
And the chain's too tight
         A#                 D#
And the beast won't go to sleep
           Gm
I've been running through these promises to you
        Cm
That I made and I could not keep
          G
Ah but a man never got a woman back
        Cm
Not by begging on his knees
         G#
Or I'd crawl to you baby
         G
And I'd fall at your feet
         G#
And I'd howl at your beauty
        G
Like a dog in heat
          G#
And I'd claw at your heart
         F
And I'd tear at your sheet
          A#
I'd say please
          Cm
I'm your man

Fm . . . |. . . . |Cm . . . |. . . . |
Fm . . . |. . . . |D# . . . |. . . . |
Cm . . . |. . . . |G# . . . |. . . . |
G . . . |. . . . |Cm . . . |. . . . |

And if want to sleep for a minute on the road
I will steer for you
And if you want to work the street alone
I'll, I'll disappear for you
If you want a father
For your child
Or only want to walk with me another mile
Across this sand
I'm your man

Yeah the moon's too bright
The chain's too tight
And the beast won't go to sleep
I've been running through these promises to you
That I made and I could not keep
Ah but a man never got a woman back
Not by begging on his knees
Or I'd crawl to you baby
And I'd fall at your feet
And I'd howl at your beauty
Like a dog in heat
And I'd claw at your heart
And I'd tear at your sheet
I'd say please
I'm your man

Вверх

In My Secret Life

Chords:

C/e:       032010  or  xx2010
Bbmaj7:    x13231

Dm         C/e F
(In My Secret Life)
Dm         C/e F
(In My Secret Life)
Dm         C/e F
(In My Secret Life)
Dm         C/e F
(In My Secret Life)

F
I saw you this morning
                    Dm
You were moving so fast
               Bb
Can't seem to loosen my grip
        C
On the past
       F
And I miss you so much
                   Dm
There's no one in sight
            Bbmaj7      C
And we're still making love
Dm        C/e F
In My Secret Life
Dm        C/e F
In My Secret Life

I smile when I'm angry
I cheat and I lie
I do what I have to do
To get by
But I know what is wrong
And I know what is right
And I'd die for the truth
In My Secret Life
In My Secret Life

     Dm       C        Bb
Hold on, hold on, my brother
    Dm      C       Bb
My sister, hold on tight
   Dm      C     Bb
I finally got my orders
         Gm7
I'll be marching through the morning
 Am7
Marching through the night
 Bbmaj7
Moving cross the borders
     C
Of My Secret Life

Looked through the paper
Makes you want to cry
Nobody cares if the people
Live or die
And the dealer wants you thinking
That it's either black or white
       Bbmaj7
Thank G-d it's not that simple
C
In My Secret Life

I bite my lip
I buy what I'm told
From the latest hit
To the wisdom of old
But I'm always alone
And my heart is like ice
And it's crowded and cold
In My Secret Life
In My Secret Life
In My Secret Life
In My Secret Life
In My Secret Life
In My Secret Life
In My Secret Life
In My Secret Life...

Вверх

Iodine

Intro: F . . . |F . . . |A7 . . . |A7 . . . |
       Dm . . . |Dm . . . |Gm . . . |C7 . . . |

   F         A7                Dm
I needed you, I knew I was in danger
    F            A7                 Dm
Of losing what I used to think was mine
Bb          F      Bb             F
You let me love you till I was a failure
Bb          F      Bb             F
You let me love you till I was a failure
      A                          Dm  /c#  /c  /b     Gm  /f#  /f  /e
Your beauty on my bruise like iodine

I asked you if a man could be forgiven
And though I failed at love, was this a crime?
You said, "Don't worry, don't worry, darling."
You said, "Don't worry, don't you worry, darling
There are many ways a man can serve his time."

You covered up that place I could not master
It wasn't dark enough to shut my eyes
So I was with you, o sweet compassion
Yes I was with you, o sweet compassion
    A                           Dm  /c#  /c  /b
Compassion with the sting of iodine

      A                          Dm  /c#  /c  /b
Your saintly kisses reeked of iodine
Your fragrance with a fume of iodine
And pity in the room like iodine
Your sister fingers burned like iodine
And all my wanton lust was iodine
My masquerade of trust was iodine
And everywhere the flare of iodine...

Вверх

Is This What You Wanted

Capo 5th fret

A                           A7
You were the promise at dawn
D                    A
I was the morning after
A                            A7
You were Jesus Christ my Lord
D                   A
I was the money lender
D
You were the sensitive woman
A
I was the very reverend Freud
D
You were the manual orgasm
A                       E
I was the dirty little boy

        F#m
And is this what you wanted
    G                        F#m
To live in a house that is haunted
         E               A
By the ghost of you and me

     F#m
Is this what you wanted
    G                        F#m
To live in a house that is haunted
         E              A
By the ghost of you and me

You were Marlon Brando
I was Steve McQueen
You were K.Y. Jelly
I was Vaseline
You were the father of modern medicine
I was Mr. Clean
You were the whore and the beast of Babylon
I was Rin Tin Tin

And is this what you wanted
To live in a house that is haunted
By the ghost of you and me

And is this what you wanted
To live in a house that is haunted
By the ghost of you and me

You got old and wrinkled
I stayed seventeen
You lusted after so many
I lay here with one
You defied your solitude
I came through alone
You said you could never love me
I undid your gown

And is this what you wanted
To live in a house that is haunted
By the ghost of you and me

And is this what you wanted
To live in a house that is haunted
By the ghost of you and me

I mean is this what you wanted
To live in a house that is haunted
By the ghost of you and me

That's right, is this what you wanted
To live in a house that is haunted...



The E and A chords in the chorus are played like this:

    E                               A
    |   .   .   .   |   .   .   .   |   .   .   .   |   .   .   .
A|--0---0-0-0---0---0---0-0-0---0---0---0-0-0---0---0---0-0-0---0--|
E|--0---0-0-0---0---0---0-0-0---0---2---2-2-2---0---2---2-2-2---0--|
C|--1---1-1-1---0---1---1-1-1---0---2---2-2-2---0---2---2-2-2---0--|
G|--2---2-2-2---0---2---2-2-2---0---2---2-2-2---0---2---2-2-2---0--|
D|--2---2-2-2---0---2---2-2-2---0---0---0-0-0---0---0---0-0-0---0--|
A|--0---0-0-0---0---0---0-0-0---0----------------------------------|

Вверх

I Tried to Leave You

Intro: E . . . |Bm . . . |E . . . |Bm . . . |

E         Bm         E          Bm
I tried to leave you, I don't deny
E             Bm             D               A
I closed the book on us, at least a hundred times
     C             G               B
I'd wake up every morning by your side

The years go by, you lose your pride
The baby's crying, so you do not go outside
And all your work it's right before your eyes

Goodnight, my darling, I hope you're satisfied
The bed is kind of narrow, but my arms are open wide
And here's a man still working for your smile



Verse:

    E                       Bm
    |     .     .     .     |     .     .     .
E|---------------------------------------------------|
B|--------0-----0-----0-----3------------------------|
G|--------0h1---0h1---0h1---4------------------------|
A|------2-----2-----2-----0-4---------------4--------|
D|--------------------------2------------------------|
E|--0-----------------------------------------2------|

    E                       Bm
    |     .     .     .     |     .     .     .
E|---------------------------------------------------|
B|--------0-----0-----0-----3------------------------|
G|--------0h1---0h1---0h1---4------------------------|
A|------2-----2-----2-----0-4---------------4--------|
D|--------------------------2------------------------|
E|--0-----------------------------------------2------|

    E                       Bm
    |     .     .     .     |     .     .     .
E|---------------------------------------------------|
B|--------0-----0-----0-----3-----3-----3-----3------|
G|--------0h1---0h1---0h1---4-----4-----4-----4------|
A|------2-----2-----2-----0-4-----4-----4-----4------|
D|--------------------------2-----2-----2-----2------|
E|--0------------------------------------------------|

    D                       A
    |     .     .     .     |     .     .     .
E|--2-----2-----2-----2-----0-----0-----0-----0------|
B|--3-----3-----3-----3-----2-----2-----2-----2------|
G|--2-----2-----2-----2-----2-----2-----2-----2------|
D|--0-----0-----0-----0------------------------------|
A|--------------------------0-----0-----0-----0------|
E|---------------------------------------------------|

    C                       G
    |     .     .     .     |     .     .     .
E|--0-----0-----0-----0-----3-----3-----3-----3------|
B|--1-----1-----1-----1-----3-----3-----3-----3------|
G|--0-----0-----0-----0-----4-----4-----4-----4------|
D|---------------------------------------------------|
A|--3-----3-----3-----3------------------------------|
E|--------------------------3-----3-----3-----3------|

    B
    |     .     .     .     |     .     .     .
E|--2------------------------------------------------|
B|--4------------------------------------------------|
G|--4-----------------------4-----2-----0------------|
D|--------------------------------------------4---0--|
A|--2------------------------------------------------|
E|---------------------------------------------------|

Вверх

Jazz Police

Gm                              Eb7
Can you tell me why the bells are ringing?
 Gm                              Ebm7  Dbm7
Nothing's happened in a million years
Gm                                      Gm13
I've been sitting here since Wednesday morning
 Eb7               Ab7             Gm
Wednesday morning can't believe my ears

Jazz police are looking through my folders
Jazz police are talking to my niece
Jazz police have got their final orders
Jazzer, drop your axe, it's Jazz police!

 Am9                    F/a
Jesus taken serious by many
 Am9         Asus2       Fm  Ebm
Jesus taken joyous by a few
 Am                              Am6
Jazz police are paid by J. Paul Getty
 F9                           Am
Jazzers paid by J. Paul Getty II

 Bb     Bbsus4 Gm11     D-5   Am  Am/e
Jazz police I hear you calling
 Bb     Bb-5   C11     E   Emaj7
Jazz police I feel so blue
 Db     Db-5    Absus4   F/a
Jazz police I think I'm falling
     Dmaj7       Bb+
I'm falling for you

Wild as any freedom loving racist
I applaud the actions of the chief
Tell me now oh beautiful and spacious
Am I in trouble with the Jazz police?

Jazz police are looking through my folders
Jazz police are talking to my niece
Jazz police have got their final orders
Jazzer, drop your axe, it's Jazz police!

They will never understand our culture
They'll never understand the Jazz police
Jazz police are working for my mother
Blood is thicker margarine than grease

 Am                     F/a
Let me be somebody I admire
 Am                               Fm  Ebm
Let me be that muscle down the street
  Am                         Am6
Stick another turtle on the fire
 Bb                              Am
Guys like me are mad for turtle meat

Jazz police I hear you calling
Jazz police I feel so blue
Jazz police I think I'm falling
I'm falling for you

 Gm                        Eb
Jazz police are looking through my folders
 Gm                         Eb
Jazz police have got their final orders
 Gm                        Eb
Jazz police are looking through my folders
 Gm                         Eb
Jazz police have got their final orders
 Gm
Jazz police are looking...



Guitarist (somewhat) friendlier version
Capo 3rd fret

Chords:

Em13:         020020
F#m9:         202120  or  242224
D/f#:         200323
F#sus2:       244x24
F#m6:         244324
D9:           x54555  or  xx0555
Gsus4:        320013  or  355533
Em11:         000002
B-5:          x2344x
G-5:          3456x3
A11:          x00000
C#maj7:       x46564
Bb-5:         x12330
Fsus4:        133311
Bmaj7:        x24342
G+:           321003

 Em                               C7
Can you tell me why the bells are ringing?
 Em                               Cm7  Bbm7
Nothing's happened in a million years
Em                                      Em13
I've been sitting here since Wednesday morning
  C7                F7             Em
Wednesday morning can't believe my ears

Jazz police are looking through my folders
Jazz police are talking to my niece
Jazz police have got their final orders
Jazzer, drop your axe, it's Jazz police!

 F#m9                   D/f#
Jesus taken serious by many
 F#m9        F#sus2      Dm   Cm
Jesus taken joyous by a few
 F#m                             F#m6
Jazz police are paid by J. Paul Getty
 D9                           F#m
Jazzers paid by J. Paul Getty II

 G      Gsus4  Em11     B-5   F#m F#m/e
Jazz police I hear you calling
 G      G-5    A11     C#   C#maj7
Jazz police I feel so blue
 Bb     Bb-5    Fsus4    D/f#
Jazz police I think I'm falling
     Bmaj7       G+
I'm falling for you

Wild as any freedom loving racist
I applaud the actions of the chief
Tell me now oh beautiful and spacious
Am I in trouble with the Jazz police?

Jazz police are looking through my folders
Jazz police are talking to my niece
Jazz police have got their final orders
Jazzer, drop your axe, it's Jazz police!

They will never understand our culture
They'll never understand the Jazz police
Jazz police are working for my mother
Blood is thicker margarine than grease

 F#m                    D/f#
Let me be somebody I admire
 F#m                              Dm   Cm
Let me be that muscle down the street
  F#m                        F#m6
Stick another turtle on the fire
 G                              Am
Guys like me are mad for turtle meat

Jazz police I hear you calling
Jazz police I feel so blue
Jazz police I think I'm falling
I'm falling for you

 Em                        C
Jazz police are looking through my folders
 Em                         C
Jazz police have got their final orders
 Em                        C
Jazz police are looking through my folders
 Em                         C
Jazz police have got their final orders
 Em
Jazz police are looking...

Вверх

Joan of Arc

B                            F#m
La la la, la la la, la la la la la la
                A                  E  B               E
La la la la la la, la la la la la la, la la la la la la

          E                   B
Now the flames they followed Joan of Arc
             A                  E
As she came riding through the dark
    F#              B
No moon to keep her armour bright
        F#                          E                B        B7
And no man to get her through this dark, this very smoky night

She said, "I'm tired of the war
I want the kind of work I had before
With a wedding dress or something white
To wear upon my swollen appetite."

La la la, la la la, la la la la la la
La la la la la la, la la la la la la, la la la la la la

Well, I'm glad to hear, to hear you talk this way
You know I've watched you riding almost every single day
And there's something in me that just yearns to win
Such a very cold and such a very lonesome heroine

"Well then who are you?" she sternly spoke
To the one beneath the smoke
"Why I'm, I'm fire," he replied
"And I love your solitude and oh how I love your sense of pride."

La la la, la la la, la la la la la la
La la la la la la, la la la la la la, la la la la la la

"Well then fire, make your body cold
I'm going to give you mine to hold,"
Saying this she climbed inside
To be his one, to be his only bride

It was deep into his fiery heart
He took the dust of our Joan of Arc
And high above all of these assembled wedding guests
He hung the ashes of her very lovely wedding dress

La la la, la la la, la la la la la la
La la la la la la, la la la la la la, la la la la la la

It was deep, deep into his fiery heart
That he took the dust of our precious Joan of Arc
And then she clearly, she clearly understood
If, if he was fire, oh she must be wood

I saw her wince, I saw her cry
Saw the glory in her eye
Myself I long, I long for love and light
But must it come so cruel and must it, must it be so very bright?

La la la, la la la, la la la la la la
La la la la la la, la la la la la la, la la la la la la

Вверх

Joan of Arc (2 вариант)

Tuning: D G C F A D (standard, full step down)

Intro: A

          A                   E
Now the flames they followed Joan of Arc
D                     A
As she came riding through the dark
B                   E
No moon to keep her armour bright
    B                       A              E    E7
No man to get her through this very smoky night

She said, "I'm tired of the war
I want the kind of work I had before
A wedding dress or something white
To wear upon my swollen appetite."

       E                            Bm
La la la, la la la, la la la la la la
                D                  A  E               A
La la la la la la, la la la la la la, la la la la la la

Well, I'm glad to hear you talk this way
You know I've watched you riding every day
And something in me yearns to win
Such a cold and lonesome heroine

"And who are you?" she sternly spoke
To the one beneath the smoke
"Why, I'm fire," he replied
"And I love your solitude, I love your pride."

La la la, la la la, la la la la la la
La la la la la la, la la la la la la, la la la la la la

"Then fire, make your body cold
I'm going to give you mine to hold,"
Saying this she climbed inside
To be his one, to be his only bride

And deep into his fiery heart
He took the dust of Joan of Arc
And high above the wedding guests
He hung the ashes of her wedding dress

La la la, la la la, la la la la la la
La la la la la la, la la la la la la, la la la la la la

It was deep into his fiery heart
He took the dust of Joan of Arc
And then she clearly understood
If he was fire, oh then she must be wood

I saw her wince, I saw her cry
I saw the glory in her eye
Myself I long for love and light
But must it come so cruel, and oh so bright?

La la la, la la la, la la la la la la
La la la la la la, la la la la la la, la la la la la la



Intro:

    A
    |   .   .   .   .   .   |   .   .   .   .   .
D|---------------------------------------------------|
A|------2---2-------2---2-------2---2-------2---2----|
F|------2---2-------2---2-------2---2-------2---2----|
C|----2---2---2---2---2---2---2---2---2---2---2---2--|
G|--0-----------0-----------0-----------0------------|    (x2)
D|---------------------------------------------------|


Verse:

    A                       E
    |   .   .   .   .   .   |   .   .   .   .   .
D|----------------------------------------------0----|
A|------2---2-------2---2-------0---0-------1---1----|
F|------2---2-------2---2-------1---1-----2---2---0--|
C|----2---2---2---2---2---0---2---2---2--------------|
G|--0-----------0------------------------------------|
D|--------------------------0-----------0------------|

    D                       A
    |   .   .   .   .   .   |   .   .   .   .   .
D|------2---2-------2---2----------------------------|
A|------3---3-------3---3-------2---2-------2---2----|
F|----2---2---2---2---2---0-----2---2-------2---2----|
C|--0-----------0-------------2---2---2---2---2---0--|
G|--------------------------0-----------0------------|
D|---------------------------------------------------|

    B                       E
    |   .   .   .   .   .   |   .   .   .   .   .
D|------------------------------4---4-------4---4----|
A|------4---4-------4---4-------5---5-------5---5----|
F|------4---4-------4---4-----4---4---4---4---4---4--|
C|----4---4---4---4---4---2-2-----------2------------|
G|--2-----------2------------------------------------|
D|---------------------------------------------------|

    B                       A
    |   .   .   .   .   .   |   .   .   .   .   .
D|---------------------------------------------------|
A|------4---4-------4---4-------2---2-------2---2----|
F|------4---4-------4---4-------2---2-------2---2----|
C|----4---4---4---4---4---4---2---2---2---2---2---0--|
G|--2-----------2-----------0-----------0------------|
D|---------------------------------------------------|

    E                       E7
    |   .   .   .   .   .   |   .   .   .   .   .
D|---------------------------------------------------|
A|------0---0-------0---0-------0---0-------0---0----|
F|------1---1-------1---1-------1---1-------1---1----|
C|----2---2---2---2---2---2---0---0---0---0---0---0--|
G|---------------------------------------------------|
D|--0-----------0-----------0-----------0------------|


Chorus:

    E
    |   .   .   .   .   .   |   .   .   .   .   .
D|----------4-------4---4-------4---4-------4---4----|
A|----------5-------5---5-------5---5-------5---5----|
F|------------4---4---4---4---4---4---4---4---4---4--|
C|--------------2-----------2-----------2------------|
G|--2~~~---------------------------------------------|
D|---------------------------------------------------|

    Bm
    |   .   .   .   .   .   |   .   .   .   .   .
D|------2---2-------2---2-------2---2-------2---2----|
A|------3---3-------3---3-------3---3-------3---3----|
F|----4---4---4---4---4---4---4---4---4---4---4---0--|
C|---------------------------------------------------|
G|--2-----------2-----------2-----------2------------|
D|---------------------------------------------------|

    D
    |   .   .   .   .   .   |   .   .   .   .   .
D|------2---2-------2---2-------2---2-------2---2----|
A|------3---3-------3---3-------3---3-------3---3----|
F|----2---2---2---2---2---2---2---2---2---2---2---0--|
C|--0-----------0-----------0-----------0------------|
G|---------------------------------------------------|
D|---------------------------------------------------|

    A                       E
    |   .   .   .   .   .   |   .   .   .   .   .
D|------0---0-------0---0----------------------------|
A|------2---2-------2---2-------0---0-------2---3----|
F|----2---2---2---2---2---0-----1---1-------1---1----|
C|--------------2-------------2---2---2---2---2---0--|
G|--0------------------------------------------------|
D|--------------------------0-----------0------------|

    A
    |   .   .   .   .   .   |   .   .   .   .   .
D|------0---0-------0---0-------0---0-------0---0----|
A|------2---2-------2---2-------2---2-------2---2----|
F|----2---2---2---2---2---2---2---2---2---2---2---0--|
C|--------------2-----------------------2------------|
G|--0-----------------------0------------------------|
D|---------------------------------------------------|

Вверх

Lady Midnight

Intro: C

   G         G7        F             C
I came by myself to a very crowded place
G                  G7              F            C
I was looking for someone who had lines in her face
   C             C7            F
I found her there but she was past all concern
  C             F      Dm
I asked her to hold me, I said, "Lady unfold me."
          C                 F
But she scorned me and she told me
       G  G7                    C
I was dead and I could never return

Well, I argued all night like so many have before
Saying, "Whatever you give me, I seem to need so much more."
Then she pointed at me where I kneeled on her floor
She said, "Don't try to use me or slyly refuse me
Just win me or lose me
It is this that the darkness is for."

I cried, "Oh, Lady Midnight, I fear that you grow old
The stars eat your body and the wind makes you cold."
"If we cry now," she said, "It will just be ignored."
So I walked through the morning, sweet early morning
I could hear my lady calling
"You've won me, you've won me, my lord
You've won me, you've won me my lord
Yes, you've won me, you've won me, my lord
Ah, you've won me, you've won me, my lord
Ah, you've won me, you've won me, my lord."

Вверх

Last Year's Man

Tuning: Eb Bb Gb Db Ab Eb (standard, half step down)

B                       G#m
The rain falls down on last year's man
          A
That's a jew's harp on the table
           E
That's a crayon in his hand
         B                            G#m
And the corners of the blueprint are ruined since they rolled
     A
Far past the stems of thumbtacks
                   E
That still throw shadows on the wood
          A                F#         B              F#
And the skylight is like skin for a drum I'll never mend
    B                   G#m
And all the rain falls down, amen
        A                    E
On the works of last year's man

I met a lady, she was playing with her soldiers in the dark
Oh one by one she had to tell them
That her name was Joan of Arc
I was in that army, yes I stayed a little while
I want to thank you, Joan of Arc
For treating me so well
And though I wear a uniform I was not born to fight
All these wounded boys you lie beside
Goodnight, my friends, goodnight

I came upon a wedding that old families had contrived
Bethlehem the bridegroom
Babylon the bride
Great Babylon was naked, oh she stood there trembling for me
And Bethlehem inflamed us both
Like the shy one at some orgy
And when we fell together all our flesh was like a veil
That I had to draw aside to see
The serpent eat its tail

Some women wait for Jesus, and some women wait for Cain
So I hang upon my altar
And I hoist my axe again
And I take the one who finds me back to where it all began
When Jesus was the honeymoon
And Cain was just the man
And we read from pleasant Bibles that are bound in blood and skin
That the wilderness is gathering
All its children back again

The rain falls down on last year's man
An hour has gone by
And he has not moved his hand
But everything will happen if he only gives the word
The lovers will rise up
And the mountains touch the ground
But the skylight is like skin for a drum I'll never mend
And all the rain falls down, amen
On the works of last year's man



1st verse:

     B
     |   .   .   .   .   .   |   .   .   .   .   .
E |---------------------------------------------------|
B |--4------------------------------------------------|
Gb|--4------------------------------------------------|
Db|--4------------------------------------------------|
A |--2------------------------------------------------|
E |---------------------------------------------------|

     G#m
     |   .   .   .   .   .   |   .   .   .   .   .
E |---------------------------------------------------|
B |--4------------------------------------------------|
Gb|--4------------------------------------------------|
Db|--6------------------------------------------------|
A |---------------------------------------------------|
E |--4------------------------------------------------|

     A
     |   .   .   .   .   .   |   .   .   .   .   .
E |---------------------------------------------------|
B |--2------------------------------------------------|
Gb|--2------------------------------------------------|
Db|--2------------------------------------------------|
A |--0------------------------------------------------|
E |---------------------------------------------------|

     E
     |   .   .   .   .   .   |   .   .   .   .   .
E |---------------------------------------------------|
B |--0------------------------------------------------|
Gb|--1------------------------------------------------|
Db|--2------------------------------------------------|
A |---------------------------------------------------|
E |--0------------------------------------------------|

     B
     |   .   .   .   .   .   |   .   .   .   .   .
E |---------------------------------------------------|
B |--4------------------------------------------------|
Gb|--4------------------------------------------------|
Db|--4------------------------------------------------|
A |--2------------------------------------------------|
E |---------------------------------------------------|

     G#m
     |   .   .   .   .   .   |   .   .   .   .   .
E |---------------------------------------------------|
B |--4------------------------------------------------|
Gb|--4------------------------------------------------|
Db|--6------------------------------------------------|
A |---------------------------------------------------|
E |--4------------------------------------------------|

     A
     |   .   .   .   .   .   |   .   .   .   .   .
E |---------------------------------------------------|
B |--2------------------------------------------------|
Gb|--2------------------------------------------------|
Db|--2------------------------------------------------|
A |--0------------------------------------------------|
E |---------------------------------------------------|

     E
     |   .   .   .   .   .   |   .   .   .   .   .
E |---------------------------------------------------|
B |--0------------------------------------------------|
Gb|--1------------------------------------------------|
Db|--2------------------------------------------------|
A |---------------------------------------------------|
E |--0------------------------------------------------|

     A                       F#
     |   .   .   .   .   .   |   .   .   .   .   .
E |---------------------------------------------------|
B |----------2-------2---------------2-------2--------|
Gb|----------2-------2---------------3-------3--------|
Db|------2-------2-------2-------4-------4-------4----|
A |--0------------------------------------------------|
E |--------------------------2------------------------|

     B                       F#
     |   .   .   .   .   .   |   .   .   .   .   .
E |---------------------------------------------------|
B |----------4-------4---------------2-------2--------|
Gb|----------4-------4---------------3-------3--------|
Db|------4-------4-------4-------4-------4-------4----|
A |--2------------------------------------------------|
E |--------------------------2------------------------|

     B                       G#m
     |   .   .   .   .   .   |   .   .   .   .   .
E |---------------------------------------------------|
B |------4---4-------4---4-------4--------------------|
Gb|------4---4-------4---4-------4--------------------|
Db|----4---4---4---4---4---0---6----------------------|
A |--2-----------2------------------------------------|
E |--------------------------4------------------------|

     A                       E
     |   .   .   .   .   .   |   .   .   .   .   .
E |---------------------------------------------------|
B |------2---2-------2---2-------0---0-------0---0----|
Gb|------2---2-------2---2-------1---1-------1---1----|
Db|----2---2---2---2---2---2---2---2---2---2---2---2--|
A |--0-----------0------------------------------------|
E |--------------------------0-----------0------------|

     E
     |   .   .   .   .   .
E |------------------0---0----|
B |------0---0-------0---0----|
Gb|------1---1-----1---1---1--|
Db|----2---2---2--------------|
A |---------------------------|
E |--0-----------0------------|


Next verse:

     B
     |   .   .   .   .   .   |   .   .   .   .   .
E |---------------------------------------------------|
B |------4---4-------4---4-------4---4-------4---4----|
Gb|------4---4-------4---4-------4---4-------4---4----|
Db|----4---4---4---4---4---4---4---4---4---4---4---0--|
A |--2-----------2-----------2-----------2------------|
E |---------------------------------------------------|

     G#m
     |   .   .   .   .   .   |   .   .   .   .   .
E |---------------------------------------------------|
B |------4---4-------4---4-------4---4-------4---4----|
Gb|------4---4-------4---4-------4---4-------4---4----|
Db|----6---6---6---6---6---6---6---6---6---6---6---0--|
A |---------------------------------------------------|
E |--4-----------4-----------4-----------4------------|

     A
     |   .   .   .   .   .   |   .   .   .   .   .
E |---------------------------------------------------|
B |------2---2-------2---2-------2---2-------2---2----|
Gb|------2---2-------2---2-------2---2-------2---2----|
Db|----2---2---2---2---2---2---2---2---2---2---2---2--|
A |--0-----------0-----------0-----------0------------|
E |---------------------------------------------------|

     E
     |   .   .   .   .   .   |   .   .   .   .   .
E |------------------------------------------0---0----|
B |------0---0-------0---0-------0---0-------0---0----|
Gb|------1---1-------1---1-------1---1-----1---1---1--|
Db|----2---2---2---2---2---2---2---2---2--------------|
A |---------------------------------------------------|
E |--0-----------0-----------0-----------0------------|

     B
     |   .   .   .   .   .   |   .   .   .   .   .
E |---------------------------------------------------|
B |------4---4-------4---4-------4---4-------4---4----|
Gb|------4---4-------4---4-------4---4-------4---4----|
Db|----4---4---4---4---4---4---4---4---4---4---4---0--|
A |--2-----------2-----------2-----------2------------|
E |---------------------------------------------------|

     G#m
     |   .   .   .   .   .   |   .   .   .   .   .
E |---------------------------------------------------|
B |------4---4-------4---4-------4---4-------4---4----|
Gb|------4---4-------4---4-------4---4-------4---4----|
Db|----6---6---6---6---6---6---6---6---6---6---6---0--|
A |---------------------------------------------------|
E |--4-----------4-----------4-----------4------------|

     A
     |   .   .   .   .   .   |   .   .   .   .   .
E |---------------------------------------------------|
B |------2---2-------2---2-------2---2-------2---2----|
Gb|------2---2-------2---2-------2---2-------2---2----|
Db|----2---2---2---2---2---2---2---2---2---2---2---0--|
A |--0-----------0-----------0-----------0------------|
E |---------------------------------------------------|

     E
     |   .   .   .   .   .   |   .   .   .   .   .
E |---------------------------------------------------|
B |------0---0-------0---0-------0---0-------0---0----|
Gb|------1---1-------1---1-------1---1-------1---1----|
Db|----2---2---2---2---2---2---2---2---2---2---2---0--|
A |---------------------------------------------------|
E |--0-----------0-----------0-----------0------------|

     A                       F#
     |   .   .   .   .   .   |   .   .   .   .   .
E |---------------------------------------------------|
B |------2---2-------2---2-------2---2-------2---2----|
Gb|------2---2-------2---2-------3---3-------3---3----|
Db|----2---2---2---2---2---2---4---4---4---4---4---4--|
A |--0-----------0-----------------------4------------|
E |--------------------------2------------------------|

     B                       F#
     |   .   .   .   .   .   |   .   .   .   .   .
E |---------------------------------------------------|
B |------4---4-------4---4-------2---2-------2---2----|
Gb|------4---4-------4---4-------3---3-------3---3----|
Db|----4---4---4---4---4---4---4---4---4---4---4---4--|
A |--2-----------2------------------------------------|
E |--------------------------2-----------2------------|

     B                       G#m
     |   .   .   .   .   .   |   .   .   .   .   .
E |---------------------------------------------------|
B |------4---4-------4---4-------4---4-------4---4----|
Gb|------4---4-------4---4-------4---4-------4---4----|
Db|----4---4---4---4---4---0---6---6---6---6---6---0--|
A |--2-----------2------------------------------------|
E |--------------------------4-----------4------------|

     A                       E
     |   .   .   .   .   .   |   .   .   .   .   .
E |---------------------------------------------------|
B |------2---2-------2---2-------0---0-------0---0----|
Gb|------2---2-------2---2-------1---1-------1---1----|
Db|----2---2---2---2---2---2---2---2---2---2---2---2--|
A |--0-----------0------------------------------------|
E |--------------------------0-----------0------------|

     E
     |   .   .   .   .   .
E |------------------0---0----|
B |------0---0-------0---0----|
Gb|------1---1-----1---1---1--|
Db|----2---2---2--------------|
A |---------------------------|
E |--0-----------0------------|

Вверх

Leaving Green Sleeves

Am                          G
Alas, my love, you did me wrong
F                  E
To cast me out discourteously
Am                    G
For I have loved you so long
F         E              Am
Delighting in your very company

Now if you intend to show me disdain
Don't you know it all the more enraptures me
For even so I still remain
Your lover in captivity

C                     G
Green sleeves, you're all alone
Am                           Em
The leaves have fallen, the men have gone
C                     G
Green sleeves, there's no one home
Am            E           Am
Not even the Lady Green Sleeves

I sang my songs, I told my lies
To lie between your matchless thighs
And ain't it fine, ain't it wild
To finally end our exercise

Then I saw you naked in the early dawn
Oh, I hoped you would be someone new
I reached for you but you were gone
So lady I'm going too

Green sleeves, you're all alone
The leaves have fallen, the men have gone
Green sleeves, there's no one home
Not even the Lady Green Sleeves

Green sleeves, you're all alone
The leaves have fallen, the men have all gone home
Green sleeves, it's so easily done
I mean, leaving the Lady Green Sleeves

Вверх

Light As the Breeze

Chords:

G#dim:     xx0101  or  456464
Gsus4:     320013  or  355533

Intro: C . . |/g . . |C . . |/g . . |  (x2)

      C
She stands before you naked
         Dm
You can see it, you can taste it
         G               G7         C
And she comes to you light as the breeze
              C
Now you can drink it or you can nurse it
          Dm
It don't matter how you worship
    G
As long as you're
               C
Down on your knees

So I knelt there at the delta
At the alpha and the omega
At the cradle of the river and the seas
And like a blessing come from heaven
For something like a second
I was healed and my heart
Was at ease

   E7
O baby I waited
    Am
So long for your kiss
     E7
For something to happen
F                   C . . |/g . . |
Oh something like this

G#dim . . |/d . . |Gsus4 . . |/d . . |G . . |/d . . |

And you're weak and you're harmless
And you're sleeping in your harness
And the wind going wild in the trees
And it ain't exactly prison
But you'll never be forgiven
For whatever you've done
With the keys

O baby I waited
So long for your kiss
For something to happen
Oh something like this

It's dark now and it's snowing
O my love I must be going
The river has started to freeze
And I'm sick of pretending
I'm broken from bending
I've lived too long
On my knees

Then she dances so graceful
And your heart's hard and hateful
And she's naked but that's just a tease
And you turn in disgust
From your hatred and from your love
And she comes to you
Light as the breeze

O baby I waited
So long for your kiss
For something to happen
Oh something like this
                 G#dim
Something like this

There's blood on every bracelet
You can see it, you can taste it
And it's Please baby please baby please
And she says, Drink deeply, pilgrim
But don't forget there's still a woman
Beneath this
Resplendent chemise

       E7
So I knelt there at the delta
       Am
At the alpha and the omega
    E7                        F
I knelt there like one who believes
          C
And the blessings come from heaven
         G#dim
And for something like a second
     Gsus4
I'm cured and my heart
      G
Is at ease

Вверх

Love Calls You By Your

Струнный кусочек из аранжировки:

A|---1-3--1-0---|

Ноту С на 5-ой струне Коэн иногда использует при
переходе с Bb на Am и наоборот - с Am на Bb.
Приблизительно так:

   Bb         (C) Am                     (C) Bb
E|--------------------------------------------------|
B|--------------------------------------------------|
G|--3--3--3--3-----2--2--2--2--2--2--2--------3--3--|
D|---3--3--3--3-----2--2--2--2--2--2--2--------3--3-|
A|-1--1--1--1--3--0--0--0--0--0--0--0--0--3--1--1---|
E|--------------------------------------------------|

Bb Am Bb Am

Bb                               Am
You thought that it could never happen
   Bb                        Am
to all the people that you became,
Bb                  Gm     Bb                    Gm
your body lost in legend,    the beast so very tame.
     Em
But here, right here,
             Am                 G
between the birthmark and the stain,
             Am                  G
between the ocean and your open vein,
              Am             G
between the snowman and the rain,
       F    D        F
once again,   once again,
   C           G          C
love calls you   by your name.

The women in your scrapbook
whom you still praise and blame,
you say they chained you to your fingernails
and you climb the halls of fame.
Oh but here, right here,
between the peanuts and the cage,
between the darkness and the stage,
between the hour and the age,
once again, once again,
love calls you by your name.

Shouldering your loneliness
like a gun that you will not learn to aim,
you stumble into this movie house,
then you climb, you climb into the frame.
Yes, and here, right here
between the moonlight and the lane,
between the tunnel and the train,
between the victim and his stain,
once again, once again,
love calls you by your name.

I leave the lady meditating
on the very love which I, I do not wish to claim,
I journey down the hundred steps,
but the street is still the very same.
And here, right here,
between the dancer and his cane,
between the sailboat and the drain,
between the newsreel and your tiny pain,
once again, once again,
love calls you by your name.

Where are you, Judy, where are you, Anne?
Where are the paths your heroes came?
Wondering out loud as the bandage pulls away,
was I, was I only limping, was I really lame?
Oh here, come over here,
between the windmill and the grain,
between the sundial and the chain,
between the traitor and her pain,
once again, once again,
love calls you by your name.

Вверх

Love Calls You by Your Name (2 вариант)

Tuning: D G C F A D (standard, full step down)

Intro: C . . . |Em/b . . . |C . . . |Em/b . . . |

C                                Em/b
You thought that it could never happen
            C                 Em/b
To all the people that you became
C                  A
Your body lost in legend
C                  A
The beast so very tame
     F#m
But here, right here
              Bm                A
Between the birthmark and the stain
             Bm                  A
Between the ocean and your open vein
              Bm             A
Between the snowman and the rain
       G   E       G
Once again, once again
 D          A           D
Love calls you by your name

The women in your scrapbook
Whom you still praise and blame
You say they chained you to your fingernails
And you climb the halls of fame
Oh but here, right here
Between the peanuts and the cage
Between the darkness and the stage
Between the hour and the age
Once again, once again
Love calls you by your name

Shouldering your loneliness
Like a gun that you will not learn to aim
You stumble into this movie house
Then you climb, you climb into the frame
Yes and here, right here
Between the moonlight and the lane
Between the tunnel and the train
Between the victim and his stain
Once again, once again
Love calls you by your name

I leave the lady meditating
On the very love which I, I do not wish to claim
I journey down the hundred steps
But the street is still the very same
And here, right here
Between the dancer and his cane
Between the sailboat and the drain
Between the newsreel and your tiny pain
Once again, once again
Love calls you by your name

Where are you, Judy, where are you, Anne?
Where are the paths your heroes came?
Wondering out loud as the bandage pulls away
Was I, was I only limping, was I really lame?
Oh here, come over here
Between the windmill and the grain
Between the sundial and the chain
Between the traitor and her pain
Once again, once again
Love calls you by your name



Intro:

    C
    |           .           .           .
D|------0-----0-----0-----0-----0-----0-----0-----0--|
A|------1-----1-----1-----1-----1-----1-----1-----0--|
F|----0-----0-----0-----0-----0-----0-----0-----0----|
C|--------2-----------2-----------2-----------0------|
G|--3-----------3-----------3-----------3------------|
D|---------------------------------------------------|

    Em/b
    |           .           .           .
D|------0-----0-----0-----0-----0-----0-----0-----0--|
A|------0-----0-----0-----0-----0-----0-----0-----0--|
F|----0-----0-----0-----0-----0-----0-----0-----0----|
C|--------2-----------2-----------2-----------0------|
G|--2-----------2-----------2-----------2------------|  (x2)
D|---------------------------------------------------|


Verse:

    C
    |           .           .           .
D|------0-----0-----0-----0-----0-----0-----0-----0--|
A|------1-----1-----1-----1-----1-----1-----1-----0--|
F|----0-----0-----0-----0-----0-----0-----0-----0----|
C|--------2-----------2-----------2-----------0------|
G|--3-----------3-----------3-----------3------------|
D|---------------------------------------------------|

    Em/b
    |           .           .           .
D|------0-----0-----0-----0-----0-----0-----0-----0--|
A|------0-----0-----0-----0-----0-----0-----0-----0--|
F|----0-----0-----0-----0-----0-----0-----0-----0----|
C|--------2-----------2-----------2-----------0------|
G|--2-----------2-----------2-----------2------------|
D|---------------------------------------------------|  (x2)

    C
    |           .           .           .
D|------0-----0-----0-----0-----0-----0-----0-----0--|
A|------1-----1-----1-----1-----1-----1-----1-----0--|
F|----0-----0-----0-----0-----0-----0-----0-----0----|
C|--------2-----------2-----------2-----------0------|
G|--3-----------3-----------3-----------3------------|
D|---------------------------------------------------|

    A
    |           .           .           .
D|------0-----0-----0-----0-----0-----0-----0-----0--|
A|------2-----2-----2-----2-----2-----2-----2-----0--|
F|----2-----2-----2-----2-----2-----2-----2-----0----|
C|--------2-----------2-----------2-----------0------|
G|--0-----------0-----------0-----------0------------|
D|---------------------------------------------------|

    C
    |           .           .           .
D|------0-----0-----0-----0-----0-----0-----0-----0--|
A|------1-----1-----1-----1-----1-----1-----1-----0--|
F|----0-----0-----0-----0-----0-----0-----0-----0----|
C|--------2-----------2-----------2-----------0------|
G|--3-----------3-----------3-----------3------------|
D|---------------------------------------------------|

    A
    |           .           .           .
D|------0-----0-----0-----0-----0-----0-----0-----0--|
A|------2-----2-----2-----2-----2-----2-----2-----0--|
F|----2-----2-----2-----2-----2-----2-----2-----0----|
C|--------2-----------2-----------2-----------0------|
G|--0-----------0-----------0-----------0------------|
D|---------------------------------------------------|

    F#m
    |           .           .           .
D|------2-----2-----2-----2-----2-----2-----2-----2--|
A|------2-----2-----2-----2-----2-----2-----2-----2--|
F|----2-----2-----2-----2-----2-----2-----2-----2----|
C|--------4-----------4-----------4-----------4------|
G|--------------4-----------------------4------------|
D|--2-----------------------2------------------------|

    F#m
D|------2-----2-----2-----2-----2-----2-----2-----2--|
A|------2-----2-----2-----2-----2-----2-----2-----2--|
F|----2-----2-----2-----2-----2-----2-----2-----2----|
C|--------4-----------4-----------4-----------2------|
G|--------------4-----------------------4------------|
D|--2-----------------------2------------------------|

    Bm
    |           .           .           .
D|------2-----2-----2-----2-----2-----2-----2-----0--|
A|------3-----3-----3-----3-----3-----3-----3-----0--|
F|----4-----4-----4-----4-----4-----4-----4-----0----|
C|--------4-----------4-----------4-----------0------|
G|--2-----------2-----------2-----------2------------|
D|---------------------------------------------------|

    A
    |           .           .           .
D|------0-----0-----0-----0-----0-----0-----0-----0--|
A|------2-----2-----2-----2-----2-----2-----2-----0--|
F|----2-----2-----2-----2-----2-----2-----2-----0----|
C|--------2-----------2-----------2-----------0------|
G|--0-----------0-----------0-----------0------------|
D|---------------------------------------------------|

    Bm
    |           .           .           .
D|------2-----2-----2-----2-----2-----2-----2-----0--|
A|------3-----3-----3-----3-----3-----3-----3-----0--|
F|----4-----4-----4-----4-----4-----4-----4-----0----|
C|--------4-----------4-----------4-----------0------|
G|--2-----------2-----------2-----------2------------|
D|---------------------------------------------------|

    A
    |           .           .           .
D|------0-----0-----0-----0-----0-----0-----0-----0--|
A|------2-----2-----2-----2-----2-----2-----2-----0--|
F|----2-----2-----2-----2-----2-----2-----2-----0----|
C|--------2-----------2-----------2-----------0------|
G|--0-----------0-----------0-----------0------------|
D|---------------------------------------------------|

    Bm
    |           .           .           .
D|------2-----2-----2-----2-----2-----2-----2-----0--|
A|------3-----3-----3-----3-----3-----3-----3-----0--|
F|----4-----4-----4-----4-----4-----4-----4-----0----|
C|--------4-----------4-----------4-----------0------|
G|--2-----------2-----------2-----------2------------|
D|---------------------------------------------------|

    A
    |           .           .           .
D|------0-----0-----0-----0-----0-----0-----0-----0--|
A|------2-----2-----2-----2-----2-----2-----2-----0--|
F|----2-----2-----2-----2-----2-----2-----2-----0----|
C|--------2-----------2-----------2-----------0------|
G|--0-----------0-----------0-----------0------------|
D|---------------------------------------------------|

    G                       E
    |           .           .           .
D|------3-----3-----3-----0-----0-----0-----0-----0--|
A|------3-----3-----3-----0-----0-----0-----0-----0--|
F|----4-----4-----4-----0-----1-----1-----1-----0----|
C|--------5-----------0-----------2-----------0------|
G|--------------5-----------------------2------------|
D|--3-----------------------0------------------------|

    G
    |           .           .           .
D|------3-----3-----3-----3-----3-----3-----3-----3--|
A|------3-----3-----3-----3-----3-----3-----3-----3--|
F|----4-----4-----4-----4-----4-----4-----4-----4----|
C|--------5-----------5-----------5-----------5------|
G|--------------5-----------------------5------------|
D|--3-----------------------3------------------------|

    G
    |           .           .           .
D|------3-----3-----3-----3-----3-----3-----3-----0--|
A|------3-----3-----3-----3-----3-----3-----3-----0--|
F|----4-----4-----4-----4-----4-----4-----4-----0----|
C|--------5-----------5-----------5-----------0------|
G|--------------5------------------------------------|
D|--3-----------------------3-----------3------------|

    D
    |           .           .           .
D|------2-----2-----2-----2-----2-----2-----2-----0--|
A|------3-----3-----3-----3-----3-----3-----3-----0--|
F|----2-----2-----2-----2-----2-----2-----2-----0----|
C|--------0-----------0-----------0-----------0------|
G|--0-----------0-----------0-----------0------------|
D|---------------------------------------------------|

    A
    |           .           .           .
D|------0-----0-----0-----0-----0-----0-----0-----0--|
A|------2-----2-----2-----2-----2-----2-----2-----0--|
F|----2-----2-----2-----2-----2-----2-----2-----0----|
C|--------2-----------2-----------2-----------0------|
G|--0-----------0-----------0-----------0------------|
D|---------------------------------------------------|

    D
    |           .           .           .
D|------2-----2-----2-----2-----2-----2-----2-----0--|
A|------3-----3-----3-----3-----3-----3-----3-----0--|
F|----2-----2-----2-----2-----2-----2-----2-----0----|
C|--------0-----------0-----------0-----------0------|
G|--0-----------0-----------0-----------0------------|
D|---------------------------------------------------|

Вверх

Love Itself

Intro: F.. ...|... ...|Bb.. ...|... ...|  (x2)

F                           Bb
The light came through the window
F                       Bb
Straight from the sun above
Gm                C
And so inside my little room
Gm      C                  F
There plunged the rays of love

In streams of light I clearly saw
The dust you seldom see
Out of which the Nameless makes
A Name for one like me

             Bb           C
I'll try to say a little more:
 F               Bb
Love went on and on
Gm                  A
Until it reached an open door
      Bb
Then Love Itself
 C               F
Love Itself was gone

All busy in the sunlight
The flecks did float and dance
And I was tumbled up with them
In formless circumstance

I'll try to say a little more:
Love went on and on
Until it reached an open door
Then Love Itself
Love Itself was gone

             Bb                  C
Then I came back from where I'd been
Dm
My room, it looked the same
Gsus4                  G
But there was nothing left between
Csus4       C                       F
The Nameless and the Name (and the Name)

All busy in the sunlight
The flecks did float and dance
And I was tumbled up with them
In formless circumstance

I'll try to say a little more:
Oh love went on and on
Until it reached an open door
Then Love Itself
Love Itself was gone
Love Itself
Love Itself was gone



Guitarist friendly version
Capo 3rd fret

Chords:

Esus4:    022200
Asus4:    x02230

Intro: D.. ...|... ...|G.. ...|... ...|  (x2)

D                           G
The light came through the window
D                       G
Straight from the sun above
Em                A
And so inside my little room
Em      A                  D
There plunged the rays of love

In streams of light I clearly saw
The dust you seldom see
Out of which the Nameless makes
A Name for one like me

             G            A
I'll try to say a little more:
 D               G
Love went on and on
Em                  F#
Until it reached an open door
      G
Then Love Itself
 A               D
Love Itself was gone

All busy in the sunlight
The flecks did float and dance
And I was tumbled up with them
In formless circumstance

I'll try to say a little more:
Love went on and on
Until it reached an open door
Then Love Itself
Love Itself was gone

             G                   A
Then I came back from where I'd been
Bm
My room, it looked the same
Esus4                  E
But there was nothing left between
Asus4       A                       D
The Nameless and the Name (and the Name)

All busy in the sunlight
The flecks did float and dance
And I was tumbled up with them
In formless circumstance

I'll try to say a little more:
Oh love went on and on
Until it reached an open door
Then Love Itself
Love Itself was gone
Love Itself
Love Itself was gone

Вверх

Lover Lover Lover

Начало:
Em (VII)  D(V) Em(VII)...

   Em          D Em          D Em
E|-7---7-7-7---5-7---7-7-7---5-7---7-7-7-|
B|-8---8-8-8---7-8---8-8-8---7-8---8-8-8-|
G|-9---9-9-9---7-9---9-9-9---7-9---9-9-9-|
D|-9---9-9-9---7-9---9-9-9---7-9---9-9-9-|
A|-7---7-7-7---5-7---7-7-7---5-7---7-7-7-|
E|-0---0-0-0-----0---0-0-0-----0---0-0-0-|

[Также можно использовать упрощенный вариант:

   Em          D Em          D Em
E|-7---7-7-7-----7---7-7-7-----7---7-7-7-|
B|-8---8-8-8---7-8---8-8-8---7-8---8-8-8-|
G|-9---9-9-9---7-9---9-9-9---7-9---9-9-9-|
D|-9---9-9-9---7-9---9-9-9---7-9---9-9-9-|
A|-7---7-7-7-----7---7-7-7-----7---7-7-7-|
E|-0---0-0-0-----0---0-0-0-----0---0-0-0-|

Далее "Em (VII)" включает в себя и рифф "D-Em".
Используйте, где необходимо, "глушение" струн.

Em (VII)   Am (V)
I asked my father,
                           Em (VII)
I said, "Father change my name."
            Am (V)
The one I?m using now it?s covered up
                                       Em (VII)
with fear and filth and cowardice and shame.

         C (III)
Yes and lover, lover, lover, lover, lover,
                   G (III)
lover, lover come back to me,
         C (III)
yes and lover, lover, lover, lover, lover,
                   G (III)
lover, lover come back to me.

             Am (V)...
He said, "I locked you in this body,
I meant it as a kind of trial.
You can use it for a weapon,
or to make some woman smile."

 yes and lover, lover, lover, lover, lover,
 lover, lover come back to me.

"Then let me start again," I cried,
"please let me start again,
I want a face that?s fair this time,
I want a spirit that is calm."

Yes and lover, lover, lover, lover, lover,
lover, lover come back to me
yes and lover, lover, lover, lover, lover,
lover, lover come back to me.

"I never never turned aside," he said,
"I never walked away.
It was you who built the temple,
it was you who covered up my face."

yes and lover, lover, lover, lover, lover,
lover, lover come back to me.

And may the spirit of this song,
may it rise up pure and free.
May it be a shield for you,
a shield against the enemy.

Yes and lover, lover, lover, lover, lover,
lover, lover come back to me
yes and lover, lover, lover, lover, lover,
lover, lover come back to me.

Вверх

Lover Lover Lover (2 вариант)

Intro: Am . . . |. . . . |Em . . . |. . . . |
       Am . . . |. . . . |Em . . . |. . . . |   (x4)

            Am
I asked my father
                           Em
I said, "Father change my name."
            Am
The one I'm using now, it's covered up
                                        Em
With fear and filth and cowardice and shame

         C                                                    G
Yes and lover, lover, lover, lover, lover, lover, lover come back to me
         C                                                    G
Yes and lover, lover, lover, lover, lover, lover, lover come back to me

He said, "I locked you in this body
I meant it as a kind of trial
You can use as a weapon
Or to make some woman smile."

Yes and lover, lover, lover, lover, lover, lover, lover come back to me
Yes and lover, lover, lover, lover, lover, lover, lover come back to me

"Then let me start again," I cried
"Please let me start again
I want a face that's fair this time
I want a spirit that is calm."

Yes and lover, lover, lover, lover, lover, lover, lover come back to me
Yes and lover, lover, lover, lover, lover, lover, lover come back to me

"I never turned aside," he said
"I never ever walked away
It was you who built the temple
It was you who covered up my face."

Yes and lover, lover, lover, lover, lover, lover, lover come back to me
Lover, lover, lover, lover, lover, lover, lover come back to me

Am . . . |. . . . |Em . . . |. . . . |
Am . . . |. . . . |Em . . . |. . . . |   (x3)

You may come to me in happiness
Or you may come to me in grief
You may come to me in deepest faith
Or you may come in disbelief

Oh and lover, lover, lover, lover, lover, lover, lover come back to me
Yes and lover, lover, lover, lover, lover, lover, lover come back to me

Yes and lover, lover, lover, lover, lover, lover, lover come back to me
Yes and lover, lover, lover, lover, lover, lover, lover come back to me...

Вверх

Master Song

Tuning: D G C F A D (standard, full step down)

Intro: Am/e.. ...|C.. /e..|Am.. ...|C.. /e..|

     Bb                        Am
I believe that you heard your master sing
Bb                 Am
When I was sick in bed
      Bb                    Am
I suppose that he told you everything
        Bb                     Am
That I keep locked away in my head
      Bb               Dm
Your master took you travelling
         F                    G
Well at least that's what you said
     C      Em/b     C        Em/b
And now do you come back to bring
       F                 E       Am      C
Your prisoner wine and bread?

You met him at some temple
Where they take your clothes at the door
He was just a numberless man in a chair
Who'd just come back from the war
And you wrap up his tired face in your hair
And he hands you the apple core
Then he touches your lips now so suddenly bare
Of all the kisses we put on some time before

And he gave you a German Shepherd to walk
With a collar of leather and nails
And he never once made you explain or talk
About all of the little details
Such as who had a word and who had a rock
And who had you through the mails
Now your love is a secret all over the block
And it never stops not even when your master fails

And he took you up in his aeroplane
Which he flew without any hands
And you cruised above the ribbons of rain
That drove the crowd from the stands
Then he killed the lights in a lonely lane
And an ape with angel glands
Erased the final wisps of pain
With the music of rubber bands

And now I hear your master sing
You kneel for him to come
His body is a golden string
That your body is hanging from
His body is a golden string
My body has grown numb
Oh now you hear your master sing
Your shirt is all undone

And will you kneel beside this bed
That we polished so long ago
Before your master chose instead
To make my bed of snow?
Your eyes are wild and your knuckles are red
And you're speaking far too low
No I can't make out what your master said
Before he made you go

Then I think you're playing far too rough
For a lady who's been to the moon
I've lain by this window long enough
To get used to an empty room
And your love is some dust in an old man's cuff
Who is tapping his foot to a tune
And your thighs are a ruin, you want too much
Let's say you came back some time too soon

I loved your master perfectly
I taught him all that he knew
He was starving in some deep mystery
Like a man who is sure what is true
And I sent you to him with my guarantee
I could teach him something new
And I taught him how you would long for me
No matter what he said, no matter what you'd do

I believe that you heard your master sing
While I was sick in bed
I'm sure that he told you everything
I must keep locked away in my head
Your master took you travelling
Well at least that's what you said
And now do you come back to bring
Your prisoner wine and bread?



Intro:

    Am/e                    C           /e
    |   .   .   .   .   .   |   .   .   .   .   .
D|------0---0-------0---0-------0---0-------0---0----|
A|------0---1-------0---1-------0---1-------0---1----|
F|----2---2---2---2---2---2---0---0---0---0---0---0--|
C|--2-----------2-----------------------2------------|
G|--------------------------3------------------------|
D|---------------------------------------------------|

    Am                      C           /e
    |   .   .   .   .   .   |   .   .   .   .   .
D|------0---0-------0---0-------0---0-------0---0----|
A|------0---1-------0---1-------0---1-------0---1----|
F|----2---2-------2---2-------2---2-------2---2---2--|
C|--------------------------------------2------------|
G|--0---------0-0---------0-3---------3--------------|
D|---------------------------------------------------|


Verse:

    Bb                      Am
    |   .   .   .   .   .   |   .   .   .   .   .
D|------1---1-------1---1-------0---0-------0---0----|
A|------3---3-------3---3-------0---1-------1---0----|
F|----3---3---3---3---3---3---2---2---2---2---2---2--|
C|--------------3-----------------------2------------|
G|--1-----------------------0------------------------|
D|---------------------------------------------------|  (x4)

    Bb                      Dm
    |   .   .   .   .   .   |   .   .   .   .   .
D|------1---1-------1---1-------1---1-------1---1----|
A|------3---3-------3---3-------3---3-------3---3----|
F|----3---3---3---3---3---3---2---2---2---2---2---2--|
C|--------------3-----------0-----------0------------|
G|--1------------------------------------------------|
D|---------------------------------------------------|

    F                       G
    |   .   .   .   .   .   |   .   .   .   .   .
D|------1---1-------1---1-------3---3-------3---3----|
A|------1---1-------1---1-------3---3-------3---3----|
F|----2---2---2---2---2---2---4---4---4---4---4---4--|
C|--------------3-----------------------5------------|
G|---------------------------------------------------|
D|--1-----------------------3------------------------|

    C           Em          C           Em
    |   .   .   .   .   .   |   .   .   .   .   .
D|------0---0-------0---0-------0---0-------0---0----|
A|------1---1-------0---0-------1---1-------0---0----|
F|----0---0---0---0---0---0---0---0---0---0---0---0--|
C|---------------------------------------------------|
G|--3-----------2-----------3-----------2------------|
D|---------------------------------------------------|

    F
    |   .   .   .   .   .   |   .   .   .   .   .
D|------1---1-------1---1-------1---1-------1---1----|
A|------1---1-------1---1-------1---1-------1---1----|
F|----2---2---2---2---2---2---2---2---2---2---2---2--|
C|--------------3-----------------------3------------|
G|---------------------------------------------------|
D|--1-----------------------1------------------------|

    E                       Am                      C
    |   .   .   .   .   .   |   .   .   .   .   .   |   .   .   .   .   .
D|------0---0-------0---0-------0---0-------0---0-------0---0-------0---0----|
A|------0---0-------0---0-------0---1-------0---1-------0---1-------0---1----|
F|----1---1---1---1---1---1---2---2---2---2---2---2---0---0---0---0---0---0--|
C|--------------2-----------------------2-----------------------2------------|
G|--------------------------0-----------------------3------------------------|
D|--0------------------------------------------------------------------------|

Вверх

Memories

Intro: A...
       D.. ...|Bm.. ...|G.. ...|A.. ...|
       D.. ...|Bm.. ...|G.. ...|A.. ...|

D           Bm        G           A
Frankie Laine he was singing Jezebel
D           Bm        G         A
I pinned an Iron Cross to my lapel
   D                F#               Bm
I walked up to the tallest and the blondest girl
          D                       F#      Bm
I said, "Look, you don't know me now but very soon you will
    G                D
So won't you let me see?"
          G                D
I said, "Won't you let me see?"
          G
I said, "Won't you let me see
            D.. ...|Bm.. ...|G.. ...|A.. ...|
Your naked body?"

"Just dance me to the dark side of the gym
Chances are I will let you do most anything
I know you're hungry, I can hear it in your voice
And there are many parts of me to touch, you have your choice
Ah but no you cannot see,"
"No you cannot see,"
She said, "No you cannot see
My naked body."

We're dancing close, the band is playing Stardust
Balloons and paper streamers they're floating down on us
She says, "You've got one minute left to fall in love."
In solemn moments such as this I've put my trust
Yes and all my faith to see
All my faith to see
All my faith to see
Her naked body

Вверх

Minute Prologue

Tuning: D G C F A D (standard, full step down)

Intro: A

           A
I've been listening
                C#m
To all the dissention
           A
I've been listening
            C#m
To all the pain
Bm
And I feel that no matter

What I do for you
A
It's going to come back again
C#m                     F#m
But I think that I can heal it
        C#m             F#m
But I think that I can heal it
       C#m                          D
I'm a fool, but I think that I can heal it
           A    E
With this song



Intro:

    A
    |   .   .
E|------0---0----|
B|------2---2----|
G|----2---2---2--|
D|---------------|
A|--0------------|
E|---------------|


Verse:

    A                       C#m
    |   .   .   .   .   .   |   .   .   .   .   .
E|---------------------------------------------------|
B|------2---2-------2---2-------5---5-------5---5----|
G|------2---2-------2---2-------6---6-------6---6----|
D|----2---2---2---2---2---2---6---6---6---6---6---6--|
A|--0-----------0-----------4-----------4------------|
E|---------------------------------------------------|

    A                       C#m
    |   .   .   .   .   .   |   .   .   .   .   .
E|---------------------------------------------------|
B|------2---2-------2---2-------5---5-------5---5----|
G|------2---2-------2---2-------6---6-------6---6----|
D|----2---2---2---2---2---2---6---6---6---6---6---0--|
A|--0-----------0-----------4-----------4------------|
E|---------------------------------------------------|

    Bm
    |   .   .   .   .   .   |   .   .   .   .   .
E|---------------------------------------------------|
B|------3---3-------3---3-------3---3-------3---3----|
G|------4---4-------4---4-------4---4-------4---4----|
D|----4---4---4---4---4---4---4---4---4---4---4---4--|
A|--2-----------2-----------2-----------2------------|
E|---------------------------------------------------|

    A
    |   .   .   .   .   .   |   .   .   .   .   .
E|---------------------------------------------------|
B|------2---2-------2---2-------2---2-------2---2----|
G|------2---2-------2---2-------2---2-------2---2----|
D|----2---2---2---2---2---2---2---2---2---2---2---0--|
A|--0-----------0-----------0-----------0------------|
E|---------------------------------------------------|

    C#m                     F#m
    |   .   .   .   .   .   |   .   .   .   .   .
E|------------------------------5---5-------5---5----|
B|------5---5-------5---5-------7---7-------7---7----|
G|------6---6-------6---6-----6---6---6---6---6---6--|
D|----6---6---6---6---6---6-4-----------4------------|
A|--4-----------4------------------------------------|
E|---------------------------------------------------|

    C#m                     F#m
    |   .   .   .   .   .   |   .   .   .   .   .
E|------------------------------5---5-------5---5----|
B|------5---5-------5---5-------7---7-------7---7----|
G|------6---6-------6---6-----6---6---6---6---6---6--|
D|----6---6---6---6---6---6-4-----------4------------|
A|--4-----------4------------------------------------|
E|---------------------------------------------------|

    C#m                     D
    |   .   .   .   .   .   |   .   .   .   .   .
E|------------------------------2---2-------2---2----|
B|------5---5-------5---5-------3---3-------3---3----|
G|------6---6-------6---6-----2---2---2---2---2---2--|
D|----6---6---6---6---6---6-0-----------0------------|
A|--4-----------4------------------------------------|
E|---------------------------------------------------|

    A                       E
    |   .   .   .   .   .   |   .   .   .   .   .
E|----------------------------------------------------|
B|------2---2-------2---2--------0---0-------0---0----|
G|------2---2-------2---2--------1---1-------1---1----|
D|----2---2---2---2---2---2----2---2---2---2---2---2--|
A|--0-----------0-------------------------------------|
E|--------------------------0------------0------------|

Вверх

Nancy

Tuning: C F Bb Eb G C (standard, two full steps down)

Intro: Bm

    Bm       F#    Bm
The morning had not come
F#m    C#m  F#m
Nancy was alone
A                 Bm
Looking at the Late Late show
         A       E        A
Through a semi-precious stone
C#               F#m
In the House of Honesty
     D               A
Her father was on trial
E                F#m
In the House of Mystery
       C#           D
There was no one at all
            A      E      F#m
There was no one there at all

It seems so long ago
None of us were very strong
Ah but, Nancy wore green stockings
And she, she slept with everyone
She never said she'd wait for us
Even though she was alone
I think she fell in love for us
In nineteen sixty one
In nineteen sixty one

Ah the morning would not come
Nancy was alone
A forty five beside her head
An open telephone
Yes, we told her she was beautiful
We all told her she was free
But none of us could meet her in
The House of Mystery
The House of Mystery

And now why don't you look around you
See her everywhere
Many of you use her body
Many comb her hair
And in the hollow of the night
When you are cold and numb
You hear her talking freely then
She's happy that you've come
She's happy that you've come

Bm.. ...|E.. ...|A.. ...|

Вверх

Never Any Good

Intro: B

       B                 F#
I was never any good at loving you
                                  B
I was never any good at coming through for you
        E
You're going to feel much better
       Em
When you cut me loose forever
       B
I was never any good
       G#
I was never any good
 C#                F#
Never any good at loving you

I was dying when we met, I bet my life on you
But you called me and I folded like you knew I'd do
You called my ace, my king, my bluff
Okay, you win, enough's enough
I was never any good
Never any good
I was never any good at loving you

        D#
I was pretty good at taking out the garbage
  G#m
Pretty good at holding up the wall
  D#
Dealing with the fire and the earthquake
     E                  Fdim
But that don't count, that don't count
 B/f#             G#
That don't count, that don't count
 C#                                  F#
That don't count for nothing much at all

I was never any good at loving you
I was just some kind of tourist in your bed looking at the view
But I can't forget where my lips have been
Those holy hills, that deep ravine
I was never any good
I was never any good
Never any good at loving you

I was pretty good at taking out the garbage
I was pretty good at holding up the wall
I'm sorry for my crimes against the moonlight
I didn't think, I didn't think
I didn't think, I didn't think
I just didn't think the moon would mind at all

I was never any good at loving you
At doing what a woman really wants a man to do
You're going to feel much better
When you cut me loose forever
I was never any good
Never any good
I was never any good at loving you



Guitarist friendly version
Capo 2nd fret

Chords:

D#dim:    xx1212
A/e:      xx2220  or  002220

Intro: A

       A                 E
I was never any good at loving you
                                  A
I was never any good at coming through for you
        D
You're going to feel much better
       Dm
When you cut me loose forever
       A
I was never any good
       F#
I was never any good
 B                 E
Never any good at loving you

I was dying when we met, I bet my life on you
But you called me and I folded like you knew I'd do
You called my ace, my king, my bluff
Okay, you win, enough's enough
I was never any good
Never any good
I was never any good at loving you

        C#
I was pretty good at taking out the garbage
  F#m
Pretty good at holding up the wall
  C#
Dealing with the fire and the earthquake
     D                  D#dim
But that don't count, that don't count
 A/e               F#
That don't count, that don't count
 B                                   E
That don't count for nothing much at all

I was never any good at loving you
I was just some kind of tourist in your bed looking at the view
But I can't forget where my lips have been
Those holy hills, that deep ravine
I was never any good
I was never any good
Never any good at loving you

I was pretty good at taking out the garbage
I was pretty good at holding up the wall
I'm sorry for my crimes against the moonlight
I didn't think, I didn't think
I didn't think, I didn't think
I just didn't think the moon would mind at all

I was never any good at loving you
At doing what a woman really wants a man to do
You're going to feel much better
When you cut me loose forever
I was never any good
Never any good
I was never any good at loving you

Вверх

Night Comes On

Chords:

Dsus4:          xx0233
Dsus2:          xx0230
C/g:            332010   or   3x2013

Intro: D.. Dsus4..|D.. Dsus2..|  (x2)

        D            Dsus4
I went down to the place
          D           Dsus2
Where I knew she lay waiting
D          Dsus4           A
Under the marble and the snow
         D            Dsus4
I said, Mother, I'm frightened
      D              Dsus2
The thunder and the lightning
      D            Dsus4        A
I'll never come through this alone
     G             C/g
She said, I'll be with you
     G             C/g
My shawl wrapped around you
    G            C/g           G
My hand on your head when you go
         D
And the night came on
    Am
It was very calm
   F                      C
I wanted that night to go on and on
         G                             D   Dsus4   D   Dsus4
But she said, Go back, go back to the World

We were fighting in Egypt
When they signed this agreement
That nobody else had to die
There was this terrible sound
And my father went down
With a terrible wound in his side
He said, Try to go on
Take my books, take my gun
And remember, my son, how they lied
And the night comes on
And it's very calm
I'd like to pretend that my father was wrong
But you don't want to lie, not to the young

We were locked in this kitchen
I took to religion
And I wondered how long she would stay
I needed so much
To have nothing to touch
I've always been greedy that way
But my son and my daughter
Climbed out of the water
Crying, Papa, you promised to play
And they lead me away
To the great surprise
It's Papa don't peek, Papa, cover your eyes
And they hide, they hide in the world

Now I look for her always
I'm lost in this calling
I'm tied to the threads of some prayer
Saying, When will she summon me
When will she come to me
What must I do to prepare
When she bends to my longing
Like a willow, like a fountain
She stands in the luminous air
And the night comes on
And it's very calm
I lie in her arms and she says, When I'm gone
I'll be yours, yours for a song

Now the crickets are singing
The vesper bells ringing
The cat's curled asleep in his chair
I'll go down to Bill's Bar
I can make it that far
And I'll see if my friends are still there
Yes, and here's to the few
Who forgive what you do
And the fewer who don't even care
And the night comes on
It's very calm
I want to cross over, I want to go home
But she says, Go back, go back to the World

Вверх

Nightingale

I built my house beside the wood
So I could hear you singing
And it was sweet and it was good
And love was all beginning

Fare thee well my nightingale
'Twas long ago I found you
Now all your songs of beauty fail
The forest closes 'round you

B . . . |E . . . |B/f# . . . |F#7 . B . |

     B             E
The sun goes down behind a veil
      B                       F#
'Tis now that you would call me
    B                E
So rest in peace my nightingale
   B                    F#  B
Beneath your branch of holly

 B                 E      B
Fare thee well my nightingale
       B                F#
'Twas long ago I found you
    B                  E
Now all your songs of beauty fail
     B               F#    B
The forest closes 'round you

B . . . |E . . . |B . . . |B . F# . |
B . . . |E . . . |B . . . |B F# B . |

Fare thee well my nightingale
I lived but to be near you
Tho' you are singing somewhere still
I can no longer hear you

B . . . |E . . . |B . . .|B F# B .

Вверх

One of Us Cannot Be Wrong (2 вариант)

Intro: A

A                   Bm     D                      A
I lit a thin green candle to make you jealous of me
                                     Bm
But the room just filled up with mosquitos,
      D                       E
they heard that my body was free
     F#m                   C#m
Then I took the dust of a long
                       D                      A
sleepless night and I put it in your little shoe
      Bm                   G
And then I confess that I tortured the dress that you
 Bm           A               G     A
wore for the world to look through

I showed my heart to the doctor, he said I just have to quit
Then he wrote himself a prescription and your name was mentioned in it
Then he locked himself in a library shelf with the details of our honeymoon
And I hear from the nurse that he's gotten
much worse and his practice is all in a ruin

I heard of a saint who had loved you, so I studied all night in his school
He taught that the duty of lovers is to tarnish the golden rule
And just when I was sure that his teachings
were pure he drowned himself in the pool
His body is gone but back here on the lawn his spirit continues to drool

An Eskimo showed me a movie he'd recently taken of you
The poor man could hardly stop shivering, his lips and his fingers were blue
I suppose that he froze when the wind took your
clothes and I guess he just never got warm
But you stand there so nice, in your blizzard of ice,
oh please let me come into the storm

La, la ,la ,la...


Intro:

    A
    |   .   .   .   .   .   |   .   .   .   .   .
E|---------------------------------------------------|
B|------2---2-------2---2-------2---2-------2---2----|
G|------2---2-------2---2-------2---2-------2---2----|
D|----2---2---2---2---2---2---2---2---2---2---2---2--|
A|--0-----------0-----------0-----------0------------|
E|---------------------------------------------------|


Verse:

    A                       Bm
    |   .   .   .   .   .   |   .   .   .   .   .
E|---------------------------------------------------|
B|------2---2-------2---2-------3---3-------3---3----|
G|------2---2-------2---2-------4---4-------4---4----|
D|----2---2---2---2---2---0---4---4---4---4---4---0--|
A|--0-----------0-----------2-----------2------------|
E|---------------------------------------------------|

    D                       A
    |   .   .   .   .   .   |   .   .   .   .   .
E|------2---2-------2---2----------------------------|
B|------3---3-------3---3-------2---2-------2---2----|
G|----2---2---2---2---2---0-----2---2-------2---2----|
D|--0-----------0-------------2---2---2---2---2---2--|
A|--------------------------0-----------0------------|
E|---------------------------------------------------|

    A                       Bm
    |   .   .   .   .   .   |   .   .   .   .   .
E|---------------------------------------------------|
B|------2---2-------2---2-------3---3-------3---3----|
G|------2---2-------2---2-------4---4-------4---4----|
D|----2---2---2---2---2---2---4---4---4---4---4---4--|
A|--0-----------0-----------2-----------2------------|
E|---------------------------------------------------|

    D                       E
    |   .   .   .   .   .   |   .   .   .   .   .
E|------2---2-------2---2-------0---0-------0---0----|
B|------3---3-------3---3-------0---0-------0---0----|
G|----2---2---2---2---2---0---1---1---1---1---1---0--|
D|--0-----------0-----------------------2------------|
A|---------------------------------------------------|
E|--------------------------0------------------------|

    F#m                     C#m
    |   .   .   .   .   .   |   .   .   .   .   .
E|------5---5-------5---5-------4---4-------4---4----|
B|------7---7-------7---7-------5---5-------5---5----|
G|----6---6---6---6---6---0---6---6---6---6---6---0--|
D|--------------4-----------------------6------------|
A|--4-----------------------4------------------------|
E|---------------------------------------------------|

    D                       A
    |   .   .   .   .   .   |   .   .   .   .   .
E|------2---2-------2---2-------0---0-------0---0----|
B|------3---3-------3---3-------2---2-------2---2----|
G|----2---2---2---2---2---0---2---2---2---2---2---0--|
D|--0-----------0-----------------------2------------|
A|--------------------------0------------------------|
E|---------------------------------------------------|

    Bm                      G
    |   .   .   .   .   .   |   .   .   .   .   .
E|---------------------------------------------------|
B|------3---3-------3---3-------3---3-------3---3----|
G|------4---4-------4---4-------4---4-------4---4----|
D|----4---4---4---4---4---0---5---5---5---5---5---5--|
A|--2-----------2-----------------------5------------|
E|--------------------------3------------------------|

    Bm          A           G
    |   .   .   .   .   .   |   .   .   .   .   .
E|---------------------------------------------------|
B|------3---3-------2---2-------0---0-------0---0----|
G|------4---4-------2---2-------0---0-------0---0----|
D|----4---4---0---2---2---0---0---0---0---0---0---0--|
A|--2-----------0-----------------------2------------|
E|--------------------------3------------------------|

Вверх

On That Day

Chords:

D11:      xx0010  or  x55555
G9:       300001  or  320201
G9/b:     x20201
G9/d:     xx0201
G/d:      xx0003  or  xx0433
C/e:      xx2010  or  032010
D/f#:     xx4232  or  200232
C6:       x35555  or  x32210

Intro: G . . . Am Bm |C . . D11 . . |

G
Some people say
G9/b   C        G
It's what we deserve

For sins against g-d
      A7           D
For crimes in the world
G
I wouldn't know
   G9/b   C           A
I'm just holding the fort
            G/d
Since that day
      D11         G    D11
They wounded New York

G . . . . /a |G/b . . C . . |
G/d . . D11 . . |G . . . /a G9/b |
C . . D11 . . |

G
Some people say
G9/d  C         G
They hate us of old

Our women unveiled
      A7            D   C/e  D/f#
Our slaves and our gold
G              G9
I wouldn't know
          C           A
I'm just holding the fort
    G            D11
But answer me this
         G           D11
I won't take you to court
 G           D11
Did you go crazy
    G         D11
Or did you report
         G     G/b
On that day
C6       G/d
On that day
      D11         G     D11
They wounded New York

G . . /b /a /g |G/b . . C6 . . |
G/d . . D11 . . |G . . . /a /b |    (On that day they wounded New York)

Вверх

Our Lady of Solitude

Intro: E

      A        D      A
All summer long she touched me
A            D       A
She gathered in my soul
D                                A
From many a thorn, from many a thicket
     E     D        C#m     Bm           A
Her fingers like a weaver's, quick and cool

         C#m        F#m      C#m
And the light came from her body
         F#m                    C#m
And the night went through her grace
D                            A
All summer long she touched me
        E      D   C#m    Bm        A
And I knew her, I knew her face to face

And her dress was blue and silver
And her words were few and small
She is the vessel of the whole wide world
 E   D C#m Bm  E             A    D    A
Mistress, oh mistress of us all

Dear Lady, Queen of Solitude
I thank you with my heart
For keeping me so close to Thee
While so many, oh so many stood apart

And the light came from her body
And the night went through her grace
All summer long she touched me
I knew her, I knew her face to face

Вверх

Paper Thin Hotel

Chords:

F6:       xx3231
Fmaj7:    xx3210
D7/f#:    200212

Intro: F . . . |F6 . . . |Fmaj7 . . . |F6 . . . |
       Gm . . . |C7 . . . |Gm . . . |C7 . . . |
       F . . . |F6 . . . |Fmaj7 . . . |F6 . . . |
       Gm . . . |C7 . . . |Gm . . . |C7 . . . |

F              D7/f#   Gm           C7
The walls of this hotel are paper-thin
F             D7/f#            Gm      C7
Last night I heard you making love to him
Am            /g#                /g      /f#
The struggle mouth to mouth and limb to limb
Dm           /c#         /c     /b
The grunt of unity when he came in

Fmaj7                       F6
I stood there with my ear against the wall
Fmaj7                        F6
I was not seized by jealousy at all
F                         Gm
In fact a burden lifted from my soul
C7                            F
I heard that love was out of my control
                        Gm
A heavy burden lifted from my soul
C7                              F . . . |F6 . . . |Fmaj7 . . . |F6 . . . |
I learned that love was out of my control

Gm . . . |C7 . . . |Gm . . . |C7 . . . |

I listened to your kisses at the door
I never heard the world so clear before
You ran your bath and you began to sing
I felt so good I couldn't feel a thing

I stood there with my ear against the wall
I was not seized by jealousy at all
In fact a burden lifted from my soul
I heard that love was out of my control
A heavy burden lifted from my soul
I learned that love was out of my control

Gm . . . |C7 . . . |Gm . . . |C7 . . . |

F            D7/f#          Gm        C7
And I can't wait to tell you to your face
F            D7/f#         Gm         C7
And I can't wait for you to take my place
Fmaj7                   Gm
You are The Naked Angel In My Heart
Fmaj7                       Gm
You are The Woman With Her Legs Apart
F                              Gm
It's written on the walls of this hotel
C7                            F . . . |F6 . . . |Fmaj7 . . . |F6 . . . |
You go to heaven once you've been to hell

Gm . . . |Gm . . . |C7 . . . |C7 . . . |

F                       Gm
A heavy burden lifted from my soul
C7                              F . . . |F6 . . . |Fmaj7 . . . |F6 . . . |
I learned that love was out of my control

Gm . . . |C7 . . . |Gm . . . |C7 . . . |

F . . . |F6 . . . |Fmaj7 . . . |F6 . . . |
Gm . . . |C7 . . . |Gm . . . |C7 . . . |
F...

Вверх

Passing Through

Tuning: C F Bb Eb G C (standard, two full steps down)


Intro: E

       E                       A                E
I saw Jesus on the cross on a hill called Calvary
                                            B7
"Do you hate mankind for what they done to you?"
           E                E7              A                 E
He said, "Talk of love not hate, things to do - it's getting late
                            B7              E
I've so little time and I'm only passing through."

           E
Passing through, passing through
                             E7
Sometimes happy, sometimes blue
          A           E
Glad that I ran into you
                          B7               E
Tell the people that you saw me passing through

("Come a little closer, friends")

I saw Adam leave the Garden with an apple in his hand
I said, "Now you're out, what are you gonna do?"
"Plant some crops and pray for rain, maybe raise a little cane
I'm an orphan now and I'm only passing through." ("and so are you")

Passing through, passing through
Sometimes happy, sometimes blue
Glad that I ran into you
Tell the people that you saw me passing through

I was with Washington at Valley Ford, shivering in the snow
I said, "How come the men here suffer like they do?"
"Men will suffer, men will fight, even die for what is right
Even though they now they're only passing through."

Passing through, passing through
Sometimes happy, sometimes blue
Glad that I ran into you
Tell the people that you saw me passing through

I was at Franklin Roosevelt's side on the night before he died
He said, "One world must come out of World War Two" ("ah, the fool")
"Yankee, Russian, white or tan," he said, "A man is still a man
We're all on one road and we're only passing through."

Passing through, passing through
Sometimes happy, sometimes blue
Glad that I ran into you
Tell the people that you saw me passing through
("Let's do it one more time")

Passing through, passing through
Sometimes happy, sometimes blue
Glad that I ran into you
Tell the people that you saw me passing through

Вверх

Please Don't Pass Me By (A Disgrace)

I was walking in New York City and
I brushed up against the man in front of me.
I felt a cardboard placard on his back.
And when we passed a streetlight,
I could read it, it said
"Please don't pass me by - I am blind, but you can
see - I've been blinded totally - Please don't pass me by."
I was walking along 7th Avenue, when
I came to 14th Street I saw on the corner curious
mutilations of the human form;
It was a school for handicapped people.
And there were cripples, and people in
wheelchairs and crutches and it was snowing,
and I got this sense that the whole city was

A
singing this:
     A           E       A
Oh please don't pass me by,
     A           E       A
Oh please don't pass me by,
    D                 A
For I am  blind, but you can see,
D                     A
Yes, I've been blinded totally,
     A           E       A
Oh please don't pass me by.

And you know as I was walking
I thought it was them who were singing it,
I thought it was they who were singing it,
I thought it was the other who was singing it,
I thought it was someone else.
But as I moved along I knew it was me,
and that I was singing it to myself. It went:

Oh please don't pass me by,
Oh please don't pass me by,
For I am  blind, but you can see,
Yes, I've been blinded totally,
Oh please don't pass me by.
Oh please don't pass me by

Now I know that you're sitting there
deep in your velvet seats
and you're thinking
"Uh, he's up there saying something that he thinks about,
but I'll never have to sing that song."
But I promise you friends,
that you're going to be singing this song:
it may not be tonight,
it may not be tomorrow,
but one day
you'll be on your knees
and I want you to know the words
when the time comes.
Because you're going to have to sing it
to yourself,
or to another,
or to your brother.
You're going to have to learn
how to sing this song, it goes:

Oh please don't pass me by,
oh you don't have to sing this, not for you
Oh please don't pass me by,
For I am  blind, but you can see,
Yes, I've been blinded oh totally,
Oh please don't pass me by.

Well I sing this for the Jews and the Gypsies
and the smoke that they made.
And I sing this for the children of England,
their faces so grave.
And I sing this for a saviour with no one to save.
Hey, won't you be naked for me?
Hey, won't you be naked for me?
It goes:

Please don't pass me by,
Oh please don't pass me by,
For I am  blind, oh but you can see,
Yes, I've been blinded oh totally,
Oh now please don't pass me by.

Now there's nothing that I tell you that will
help you connect
the blood tortured night
with the day that comes next.
But I want it to hurt you,
I want it to end.
Oh, won't you be naked for me?
Oh now:

Please don't pass me by,
Oh please don't pass me by,
For I am blind, oh but you , you can see,
Oh yes, I, I've been blinded oh totally,
Oh please don't pass me by.

Well I sing this song for you Blonde Beasts,
I sing this song for you Venuses
upon your shells on the foam of the sea.
And I sing this for the freaks
and the cripples,
and the hunchback,
and the burned,
and the burning,
and the maimed,
and the broken,
and the torn,
and all of those
that you talk about
at the coffee tables,
at the meetings,
at the demonstrations,
on the streets,
in your music,
in my songs.
I mean the real ones that are burning,
I mean the real ones that are burning, I say:

Please don't pass me by,
Oh now please don't pass me by,
For I am  blind, yeah, but you, you can see,
But now, I've been blinded oh totally,
Oh now please don't pass me by.

I know that you still think its me.
I know that you think that there's somebody else.
I know that these words aren't yours.
But I tell you friends one day
you're gonna get down on your knees,
you're gonna get down on your knees,
you're gonna get down on your knees,
you're gonna get down on your knees,
you're gonna get down on your knees,
you're gonna get down on your knees,
you're gonna get down on your knees,
you're gonna get down on your knees,
you're gonna get down

Oh please don't pass me by,
Oh please don't pass me by,
For I am  blind, yeah but you, you can see,
Yes, I've been blinded oh totally,
Oh please don't pass me by.

Well you know I have my songs
and I have my poems.
I have my book and
I have the Army,
and sometimes I have your applause.
I make some money,
but you know what my friends,
I'm still out there on the corner.
I'm with the freaks,
I'm with the hunted,
I'm with the maimed, yes,
I'm with the torn,
I'm with the down,
I'm with the poor.
Come on now, oh

Oh please don't pass me by, I've got to go now friends
But please don't pass me by,
For I am  blind, yeah but you, you can see,
Oh, I've been blinded, I've been blinded to-, totally,
Oh now please don't pass me by.

Now I want to take away my dignity,
yes take my dignity, my friends.
Take my dignity,
take my form,
take my style,
take my honour,
take my courage,
take my time,
take my time,
take my time.
Cause you know I'm with you singing this song.
And I wish you would,
I wish you would,
I wish you would go home with someone else.
Wish you'd go home with someone else.
I wish you'd go home with someone else.
Don't be the person that you came with.
Oh, don't be the person that you came with,
Oh don't be the person that you came with.
Ah, I'm not gonna be, I can't stand him.
I can't stand who I am.
That's why I've got to get down on my knees.
Because I can't make it by myself.
I'm not by myself anymore because...
the man I was before...
he was a tyrant,
he was a slave,
he was in chains,
he was broken
and then he sang:

Oh please don't pass me by,
Oh please don't pass me by,
For I am  blind, but you can see,
Yes, I've been blinded totally,
Oh please don't pass me by.

Well I hope I see you up there on the corner.
Yeah I hope as
I go by that I hear you whispering with the breeze.
Because I'm going to leave you now,
I'm gonna find me someone new.
Find someone new.

And please don't pass me by.

Вверх

Queen Victoria

Tuning: Bb Eb Ab Db F Bb (standard, three(!) full-steps down)


Chords:
Am:     x02210
F:      133211
E:      022100
E':     033200
G:      320003
C:      x32010
E/b:    x22100

Am
Queen Victoria,
                         F
My father and all his tobacco loved you
                            Am
I love you too in all your forms
                           F
The slim unlovely virgin floating among German beards
          Am
The mean governess of the huge pink maps
       F                     E'   E
The solitary mourner of a prince

Am
Queen Victoria
      F
I am cold and rainy
      Am                             G
I am dirty as a glass roof in a train station
                          Am
I feel like an empty cast iron exhibition
           F
I want ornaments on everything
            E'                            E
Because my love, she gone with other boys

Am
Queen Victoria
               F
Do you have a punishment under the white lace
              Am                            F
Will you be short with her, make her read those little Bibles
           C                          E/b
Will you spank her with a mechanical corset
            Am                         F
I want her pure as power, I want her skin slightly musty with petticoats
                          E'              E
Will you wash the easy bidet out of her head?

Am
Queen Victoria
              F                   Am
I'm not much nourished by modern love
          C            G
Will you come into my life
           F                     E'
With your sorrow and your black carriages
                      E
And your perfect memories

Am
Queen Victoria
F                                         Am
The Twentieth Century belongs to you and me
               C             E/b                     Am
Let us be two severe giants not less lonely for our partnership
                 F                           E
Who discoloured test tubes in the halls of Science
                  C               G
Who turned up unwelcome at every World's Fair
             Am              G
Heavy with proverbs and corrections
   Am
Confusing the star-dazed tourists
           F                     E
With our incomparable sense of loss

Вверх

Seems So Long Ago, Nancy

Intro: Bm

    Bm       F#    Bm
It seems so long ago
F#m    C#m  F#m
Nancy was alone
A                 Bm
Looking at the Late Late show
         A       E        A
Through a semi-precious stone
C#               F#m
In the House of Honesty
     D              A
Her father was on trial
E                F#m
In the House of Mystery
       C#           D
There was no one at all
       A     E      F#m
There was no one at all

It seems so long ago
None of us were strong
Nancy wore green stockings
And she slept with everyone
She never said she'd wait for us
Although she was alone
I think she fell in love for us
In nineteen sixty one
In nineteen sixty one

It seems so long ago
Nancy was alone
A forty five beside her head
An open telephone
We told her she was beautiful
We told her she was free
But none of us would meet her in
The House of Mystery
The House of Mystery

And now you look around you
See her everywhere
Many use her body
Many comb her hair
In the hollow of the night
When you are cold and numb
You hear her talking freely then
She's happy that you've come
She's happy that you've come

Bm.. ...|E.. ...|A.. ...|



Intro:

    Bm
    |   .   .   .   .   .   |   .   .   .   .   .
E|---------------------------------------------------|
B|------3---3-------3---3-------3---3-------3---3----|
G|------4---4-------4---4-------4---4-------4---4----|
D|----4---4---4---4---4---4---4---4---4---4---4---4--|
A|--2-----------2-----------2-----------2------------|
E|---------------------------------------------------|


Verse:

    Bm          F#          Bm
    |   .   .   .   .   .   |   .   .   .   .   .
E|------------------------------------------2---2----|
B|------3---3-------2---2-------3---3-------3---3----|
G|------4---4-------3---3-------4---4-----4---4---0--|
D|----4---4---4---4---4---4---4---4---4-4------------|
A|--2-----------------------2------------------------|
E|--------------2------------------------------------|

    F#m         C#m         F#m
    |   .   .   .   .   .   |   .   .   .   .   .
E|------5---5-------4---4-------5---5-------5---5----|
B|------7---7-------5---5-------7---7-------7---7----|
G|----6---6---6---6---6---6---6---6---6---6---6---6--|
D|--4-----------------------4------------------------|
A|--------------4-----------------------4------------|
E|---------------------------------------------------|

    A                       Bm
    |   .   .   .   .   .   |   .   .   .   .   .
E|------0---0-------0---0-------2---2-------2---2----|
B|------2---2-------2---2-------3---3-------3---3----|
G|----2---2---2---2---2---2---4---4---4---4---4---4--|
D|--------------2-----------------------4------------|
A|--0-----------------------2------------------------|
E|---------------------------------------------------|

    A           E           A
    |   .   .   .   .   .   |   .   .   .   .   .
E|------0---0-------0---0-------0---0-------0---0----|
B|------2---2-------0---0-------2---2-------2---2----|
G|----2---2---2---1---1---1---2---2---2---2---2---0--|
D|--------------------------------------2------------|
A|--0-----------------------0------------------------|
E|--------------0------------------------------------|

    C#                      F#m
    |   .   .   .   .   .   |   .   .   .   .   .
E|------4---4-------4---4-------5---5-------5---5----|
B|------6---6-------6---6-------7---7-------7---7----|
G|----6---6---6---6---6---6---6---6---6---6---6---6--|
D|--------------6-----------4------------------------|
A|--4-----------------------------------4------------|
E|---------------------------------------------------|

    D                       A
    |   .   .   .   .   .   |   .   .   .   .   .
E|------2---2-------2---2-------0---0-------0---0----|
B|------3---3-------3---3-------2---2-------2---2----|
G|----2---2---2---2---2---2---2---2---2---2---2---2--|
D|--0-----------------------------------2------------|
A|--------------0-----------0------------------------|
E|---------------------------------------------------|

    E                       F#m
    |   .   .   .   .   .   |   .   .   .   .   .
E|---------------------------------------------------|
B|------0---0-------0---0-------2---2-------2---2----|
G|------1---1-------1---1-------2---2-------2---2----|
D|----2---2---2---2---2---2---4---4---4---4---4---4--|
A|--------------2-----------------------4------------|
E|--0-----------------------2------------------------|

    C#                      D
    |   .   .   .   .   .   |   .   .   .   .   .
E|------4---4-------4---4-------2---2-------2---2----|
B|------6---6-------6---6-------3---3-------3---3----|
G|----6---6---6---6---6---6---2---2---2---2---2---2--|
D|--------------6-----------0------------------------|
A|--4-----------------------------------0------------|
E|---------------------------------------------------|

    A           E           F#m
    |   .   .   .   .   .   |   .   .   .   .   .
E|------0---0----------------------------------------|
B|------2---2-------0---0-------2---2-------2---2----|
G|----2---2---2-----1---1-------2---2-------2---2----|
D|----------------2---2---2---4---4---4---4---4---4--|
A|--0-----------------------------------4------------|
E|--------------0-----------2------------------------|

    F#m
    |   .   .   .   .   .
E|---------------------------|
B|------2---2-------2---2----|
G|------2---2-------2---2----|
D|----4---4---4---4---4---4--|
A|--------------4------------|
E|--2------------------------|

Вверх

Sing Another Song, Boys

Tuning: D G C F A D (standard, full step down)

Chords:

A:         x02220
Asus4:     x02230
E:         022100
D:         xx0232
C#m:       x46654
F#m(iv):   x44675
F#m:       244222

"Let's sing another song, boys, this one has grown old and bitter..."

Intro: A

        A          E                A    Asus4 A
Ah his fingernails, I see they're broken
D                          A    Asus4 A
His ships, they're all on fire
Bm
The moneylender's lovely little daughter
   A                                    Asus4 A
Ah, she's eaten, she's eaten with desire
C#m                         F#m(iv)
She spies him through the glasses
          C#m      D              A    Asus4 A
From the pawnshops of her wicked father
C#m                   F#m(iv)
She hails him with a microphone
                C#m              D           A       Asus4 A
That some poor singer, just like me, had to leave her
Bm                      A     Asus4 A
She tempts him with a clarinet
F#m               E
She waves a Nazi dagger
A              E          A    Asus4 A
She finds him lying in a heap
             E       A    Asus4 A
She wants to be his woman
D
He says, "Yes, I just might go to sleep
            A                                     Asus4 A
But kindly leave, leave the future, leave it open."
Bm
He stands where it is steep
       A                                          Asus4 A
Oh I guess he thinks that he's the very first one
C#m                        F#m(iv)
His hand upon his leather belt now
                  C#m       D            A    Asus4 A
Like it was the wheel of some big ocean liner
C#m                             F#m(iv)
And she will learn to touch herself so well
            C#m        D       A    Asus4 A
As all the sails burn down like paper
Bm                   A    Asus4 A
And he has lit the chain
F#m                 E
Of his famous cigarillo
A                             E                  A    Asus4 A
Ah, they'll never, they'll never ever reach the moon
                  E              A    Asus4 A
At least not the one that we're after
Bm
It's floating broken on the open sea, look out there, my friends
         A
And it carries no survivors
C#m                           F#m(iv)
But let's leave these lovers wondering
      C#m        D       A    Asus4 A
Why they cannot have each other
C#m                     F#m(iv)
And let's sing another song, boys
              C#m   D       A    Asus4 A
This one has grown old and bitter
         Bm
La, la, la, la, la, la, la, la, la, la, la, la, la
A
La, la, la, la, la, la,...
Bm
La, la, la...
A
La...
Bm
...

Вверх

Sisters of Mercy

Tuning: D G C F A D (standard, full step down)

        A          D          A          E         A      D     A
Oh the sisters of mercy, they are not departed or gone
           C#m         G#m        C#m      G#m           E   Esus4   E
They were waiting for me when I thought I just cannot go on
           D               A        G           F#m            E   Esus4   E
And they brought me their comfort, later they brought me this song
          A           D           A                E           A   D Dsus4 A E
Oh yes I hope you run into them, you who've been travelling so long

Yes you who must leave everything that you cannot control
It begins with your family, but soon it comes around to your soul
Well I've been where you're hanging and I think I can see how you're pinned
When you're not feeling holy, your loneliness tells you you've sinned

Well they lay down beside me, I made my confession to them
They touched both my eyes I touched the dew on their hem
If your life is a leaf that the seasons tear off and condemn
Ah they will bind you with love that is graceful and green as a stem

When I left they were sleeping, I hope you run into them soon
Don't turn on the lights, you can read their address by the moon
And you won't make me jealous if I hear that they've sweetened your night
We weren't lovers like that and besides it would still be all right

Verse:

     A           D           A           E
     |   .   .   .   .   .   |   .   .   .   .   .
F#|------0---0-------2---2-------0---0---0------------|
C#|------2---2-------3---3-------2---2-----------0----|
 A|----2---2---2---2---2---2---2---2---2-----1--------|
 E|--------------0-------------------------2---2---2--|
 B|--0-----------------------0------------------------|
F#|--------------------------------------0------------|

     A           D           A
     |   .   .   .   .   .   |   .   .   .   .   .
F#|----------0---2-------2---0---------------0--------|
C#|------2-----------3-----------2---0---2-------0----|
 A|----2---2---2---2---2---2---2---2---2---2---2---2--|
 E|--------------0------------------------------------|
 B|--0-----------------------0------------------------|
F#|---------------------------------------------------|

     C#m         G#m/d#      C#m         G#m/d#
     |   .   .   .   .   .   |   .   .   .   .   .
F#|------4-----------4-----------4-----------4--------|
C#|------5---5-------4---4-------5---5-------4---4----|
 A|----6---6---6---4---4---4---6---6---6---4---4---4--|
 E|---------------------------------------------------|
 B|--4-----------4h6---------4-----------4h6----------|
F#|---------------------------------------------------|

     E
     |   .   .   .   .   .   |   .   .   .   .   .
F#|---------------------------------------------------|
C#|--0---------------0-----------0---------------0----|
 A|------1---1---2-------2---1-------1-------1--------|
 E|----2---2---2---2---2---2---2---2---2---2---2---2--|
 B|----------2---2-------2----------------------------|
F#|--0-----------------------0-----------0------------|

     D           A           G           F#m
     |   .   .   .   .   .   |   .   .   .   .   .
F#|--2-------2---0------------------------------------|
C#|------3-----------2---2---3-----------2------------|
 A|----2---2---2---2---2---2-----4---4-------2---2----|
 E|--0-------------------------5---5---5---4---4---4--|
 B|--------------0------------------------------------|
F#|--------------------------3-----------2------------|

     E
     |   .   .   .   .   .   |   .   .   .   .   .
F#|---------------------------------------------------|
C#|--0---------------0-----------0--------------------|
 A|------1---1---2-------2---1-------1-------1---1----|
 E|----2---2---2---2---2---2---2---2---2---2---2---2--|
 B|----------2---2-------2----------------------------|
F#|--0-----------------------0-----------0------------|

     A           D           A           E
     |   .   .   .   .   .   |   .   .   .   .   .
F#|------0-----------2-----------0-------0------------|
C#|----------2-----------3-----------2-----------0----|
 A|----2---2---2---2---2---2---2---2---2-----1--------|
 E|--------------0-------------------------2---2---2--|
 B|--0-----------------------0------------------------|
F#|--------------------------------------0------------|

     A           D
     |   .   .   .   .   .   |   .   .   .   .   .
F#|----------0---2-------2-------2---2---3---2---0----|
C#|------2-----------3--------------------------------|
 A|----2---2---2---2---2---2---2---2---2---2---2---2--|
 E|--------------0---------------0---0---0---0--------|
 B|--0-----------------------0------------------------|
F#|---------------------------------------------------|

     D                                   A
     |   .   .   .   .   .   |   .   .   .   .   .
F#|------2---2---3---2---0-------2---------------0----|
C#|--3-----------------------3-------3---0---2--------|
 A|----2---2---2---2---2---2---2---2---2---2---2---2--|
 E|------0---0---0---0-----------0--------------------|
 B|--0-----------------------0-------0---0---0--------|
F#|---------------------------------------------------|

     A           E
     |   .   .   .   .   .   |   .   .   .   .   .
F#|--------------0-----------0-----------0-----------0------------|
C#|------0---2-------0---0-------0---0-------0---0-------0---0----|
 A|----2---2---2---1---1---1---1---1---1---1---1---1---1---1---1--|
 E|----------------------2-----------2-----------2-----------2----|
 B|--0------------------------------------------------------------|
F#|--------------0-----------0-----------0-----------0------------|

Вверх

So Long, Marianne

Intro: A

               A                              Bm
Won't you come over to the window, my little darling
D                             A
I'd like to try to read your palm
G                                                 D
You know I used to think that I was some kind of Gypsy boy
F#m                       E.. Esus4..|E.. E7..|
Before I let you take me home

 A              F#m
So long, Marianne, it's time that we began
    E  Esus4  E  E7   E  Esus4 E
To laugh and cry and cry and laugh
 E7      A.. ...|Asus4.. ...|A.. ...|Asus4.. ...|
about it all again

Well you know that I love to live with you
But you make me forget so very much
I forget to pray for the angels
And then the angels forget to pray for us

So long, Marianne, it's time that we began
To laugh and cry and cry and laugh about it all again

Ah we met, when was it, we were almost young
It was down by the green lilac park
You held on to me like I was a crucifix
As we went kneeling through the dark

So long, Marianne, it's time that we began
To laugh and cry and cry and laugh about it all again

For now I need your hidden love
I'm cold as a new razor blade
You left when I told you I was curious
Did I ever say that I was brave

So long, Marianne, it's time that we began
To laugh and cry and cry and laugh about it all again

Oh, you are really such a perfect one
I see you've gone and changed your names again
And just when I climbed this whole mountainside
To wash my eyelids in the rain

So long, Marianne, it's time that we began
To laugh and cry and cry and laugh about it all again

So long, Marianne, it's time that we began
To laugh and cry and cry and laugh about it all again

Вверх

Song of Bernadette

Intro: Bb . F . |Eb . . . |Fsus4 . F . |Bb . . . |


Bb            F             Eb
There was a child named Bernadette
Fsus4         F        Bb
I heard the story long ago
              F          Eb
She saw the Queen of Heaven once
Fsus4         F           Bb
And kept the vision in her soul
Bb7       Cm7     Bb/d    Ebmaj7  Eb
No one believed what she had seen
C7sus4    C7              Fsus4  F
No one believed what she heard
Bb               F           Eb
That there were sorrows to be healed
     Fsus4  F             Bb
And mercy, mercy in this world

Cm7 Bb/d Eb
So many hearts I find
            Bb
Broke like yours and mine
 Eb/g               F7            F7sus4   F
Torn by what we've done and can't undo
Bb              F
I just want to hold you
 Eb             Bb   C7sus4
Come on let me hold you
      F             Bb   F   Eb  Fsus4   Bb
Like Bernadette would do

Bb            F                 Eb
We've been around, we fall, we fly
Fsus4      F             Bb
We mostly fall, we mostly run
           F          Eb
And every now and then we try
Fsus4        F            Bb
To mend the damage that we've done
Bb7         Cm7  Bb/d    Ebmaj7   Eb
Tonight, tonight I just cannot rest
C7sus4         C7       Fsus4         F
I've got this joy here inside my breast
Bb            F          Eb
To think that I did not forget
Fsus4           F          Bb
That child, that song of Bernadette

Cm7 Bb/d Eb
So many hearts I find
      Bb
Hearts like yours and mine
 Eb/g               F7            F7sus4  F
Torn by what we've done and can't undo
Bb              F
I just want to hold you
 Eb               Bb   C7sus4
Won't you let me hold you
      F           Bb
Like Bernadette would do
Bb              F
I just want to hold you
 Eb             Bb  C7sus4
Come on let me hold you
                       Bb   F   Eb  Fsus4   Bb
Like Bernadette would do



Guitarist friendly version
Capo 1st fret

Chords:

Esus4:     022200
A/c#:      x42220
Dmaj7:     xx0222
B7sus4:    x24232  or  x22202
B7:        x24242  or  x21202
E7sus4:    020200

Intro: A . E . |D . . . |Esus4 . E . |A . . . |


A             E             D
There was a child named Bernadette
Esus4         E        A
I heard the story long ago
              E          D
She saw the Queen of Heaven once
Esus4         E           A
And kept the vision in her soul
A7        Bm7     A/c#    Dmaj7  D
No one believed what she had seen
B7sus4    B7              Esus4  E
No one believed what she heard
A                E           D
That there were sorrows to be healed
     Esus4  E             A
And mercy, mercy in this world

Bm7 A/c# D
So many hearts I find
            A
Broke like yours and mine
 D/f#               E7            E7sus4   E
Torn by what we've done and can't undo
A               E
I just want to hold you
 D              A    B7sus4
Come on let me hold you
      E             A   E   D   Esus4   A
Like Bernadette would do

A             E                 D
We've been around, we fall, we fly
Esus4      E             A
We mostly fall, we mostly run
           E          D
And every now and then we try
Esus4        E            A
To mend the damage that we've done
A7          Bm7  A/c#    Dmaj7   D
Tonight, tonight I just cannot rest
B7sus4         B7       Esus4         E
I've got this joy here inside my breast
A             E          D
To think that I did not forget
Esus4           E          A
That child, that song of Bernadette

Bm7 A/c# D
So many hearts I find
      A
Hearts like yours and mine
 D/f#               E7            E7sus4  E
Torn by what we've done and can't undo
A               E
I just want to hold you
 D                A    B7sus4
Won't you let me hold you
      E           A
Like Bernadette would do
                E
I just want to hold you
 D              A   B7sus4
Come on let me hold you
                       A   E   D   Esus4   A
Like Bernadette would do

Вверх

Stories of the Street

Intro: Am

      Am              C                   Em(7)         Bm
The stories of the street are mine, the Spanish voices laugh
Am                 C                       Em(7)                Bm
The Cadillacs go creeping now through the night and the poison gas
    Am              F                  G      F#     B
And I lean from my window sill in this old hotel I chose
    E               A       E                D      A      Am
Yes one hand on my suicide, one hand on the rose

I know you've heard it's over now and war must surely come
The cities they are broke in half and the middle men are gone
But let me ask you one more time, o children of the dusk
All these hunters who are shrieking now oh do they speak for us?

And where do all these highways go, now that we are free?
Why are the armies marching still that were coming home to me?
O lady with your legs so fine, o stranger at your wheel
You are locked into your suffering and your pleasures are the seal

The age of lust is giving birth, and both the parents ask
The nurse to tell them fairy tales on both sides of the glass
And now the infant with his cord is hauled in like a kite
And one eye filled with blueprints, one eye filled with night

O come with me my little one, we will find that farm
And grow us grass and apples there and keep all the animals warm
And if by chance I wake at night and I ask you who I am
O take me to the slaughterhouse, I will wait there with the lamb

With one hand on the hexagram and one hand on the girl
I balance on a wishing well that all men call the world
We are so small between the stars, so large against the sky
And lost among the subway crowds I try to catch your eye

Вверх

Story of Isaac

Chords:

Am/f:  102210

Intro: Am

"This is a song called The Story of Isaac."
"And it's about those who would sacrifice one generation on behalf of another."

           Am              Am/f
Well, the door it opened slowly
    Am            Am/f
My father he came in
       G    F    E
I was nine years old
         Am            Am/f
And he stood so tall above me
      Am                  Am/f
His blue eyes they were shining
         G         F    E
And his voice was very cold
C
He said, "I've had a vision

And you know I'm strong and holy
        D      Am         B
I must do what I've been told."
        F             Bb
So we started up the mountain
       F               Bb
I was running, he was walking
        F   G                    A      Am
And his axe was made of burning gold

Well, the trees they got much smaller
Yes, the lake was like a lady's mirror
When we stopped to drink some wine
Then he threw the bottle over
Broke a minute later
And he put his hand on mine
Thought I saw an eagle
But it might have been a vulture
I never could decide
Then my father built an altar
He looked once behind his shoulder
I guess he knew I would not hide

You who build these altars now
To sacrifice our children
You must not do it anymore
A scheme is not a vision
And you never have been tempted
By a demon or a god
You who stand above them now
Your hatchets blunt and bloody
Ah you were not there before
When I lay upon a mountain
And my father's hand was trembling
With the beauty, I mean the beauty of the word

And if you call me brother now
Forgive me but I must inquire
"Just according to whose plan?"
When it all comes down to dust
I will kill you if I must
I will help you if I can
When it all comes down to dust
I will help you if I must
I will kill you if I can
And mercy, mercy on our uniform
Man of peace, man of war

Вверх

Suzanne

Tuning: Bb Eb Ab Db Gb Bb (standard, three full steps down)
* indicates a sus4 chord.

Intro: E . . . Esus4 E|E . . . Esus4 E|E . . . Esus4 E|

   E               * E
Suzanne takes you down
         E             * E
To her place near the river
         F#m              * F#m
You can hear the boats go by
              F#m              *   F#m
And you can spend the night beside her
         E                     * E
And you know that she's half crazy
            E               *   E
But that's why you want to be there
          G#m             *  G#m
And she feeds you tea and oranges
           A                 * A
That come all the way from China
          E                *    E
And just when you mean to tell her
          F#m             *   F#m
That you have no love to give her
     E               *   E
She gets you on her wavelength
         F#m           *  F#m
And she lets the river answer
       E                * E    Esus4  E
you've always been her lover
         G#m            * G#m
And you want to travel with her
         A               * A
And you want to travel blind
         E                   *  E
And you know that she will trust you
             F#m                * F#m          E
For you've touched her perfect body with your mind.

And Jesus was a sailor
When he walked upon the water
And he spent a long time watching
From a lonely wooden tower
And when he knew for certain
Only drowning men could see him
He said: "All men will be sailors then
Until the sea shall free them"
But he himself was broken
Long before the sky would open
Forsaken, almost human
He sank beneath your wisdom like a stone
And you want to travel with him
And you want to travel blind
And you know he will find you
For he's touched your perfect body with his mind.

Suzanne takes your hand now
And she leads you to the river
She is wearing rags and feathers
From Salvation Army counters
And the sun pours down like honey
On our lady of the harbour
And she shows you where to look
Amid the garbage and the flowers
There are heroes in the seaweed
There are children in the morning
They are leaning out for love
And they will lean that way forever
While Suzanne holds the mirror
And you want to travel with her
And you want to travel blind
And you know that she will find you
For she's touched your perfect body with her mind.

Вверх

Tacoma Trailer

(instrumental)


|Db . . . |. . . . |Ab7 . . . |. . . . |
|Db . . . |. . . . |Ab7 . . . |/c . /gb . |
|Db . . . |. . . . |

|Db . . . |. . . . |Ab . . . |. . . . |
|Ab7 . . . |Ab/c . /gb . |
|Db . . . |. . . . |

|Db . . . |. . . . |Ab . . . |. . . . |
|Ab/gb . . . |/c . /gb . |Bbm . . . |. . . . |
|Gb . . . |. . . . |Bbm . . . |. . . . |
|Ebm7 . . . |. . . . |Bbm . . . |. . . . |
|Ebm7 . . . |. . . . |Bbm . . . |. . . . |

|Edim . . . |. . . . |Db . . . |
|Edim . . . |. . . . |Db . . . |. . . . |
|Edim . . . |Db . . . |

|Bbm . . . |. . . . |Ebm7 . . . |. . . . |
|Bbm . Fm7 . |Bbm . Fm7 . |Bbm . Fm7 . |
|Gb . Db . |Gb . Db . |
|Bbm . Fm7 . |Bbm . Fm7 . |
|Gb . Db . |Gb . Db . |

|Bbm . Fm7 . |Bbm . Fm7 . |Ebm7 . Bbm7 . |Ebm7 . Bbm7 . |
|Bbm . Fm7 . |Bbm . Fm7 . |Ebm7 . Bbm7 . |Ebm7 . Bbm7 . |
|Bbm . Fm7 . |Bbm . Fm7 . |Ebm7 . Bbm7 . |Ebm7 . Bbm7 . |
|Bbm . Fm7 . |Bbm . Fm7 . |Ebm7 . Bbm7 . |Ebm7 . Bbm7 . |

|Bbm . . . |. . . . |
|Bbm . . . |. . . . |Ebm7 . . . |. . . . |
|Bbm . . . |. . . . |Ebm7 . . . |. . . . |
|Bbm . . . |. . . . |. . . . |

|Bbm . Fm7 . |Bbm . Fm7 . |Ebm7 . Bbm7 . |Ebm7 . Bbm7 . |
|Bbm . Fm7 . |Bbm . Fm7 . |Ebm7 . Bbm7 . |Ebm7 . Bbm7 . |
|Bbm . Fm7 . |Bbm . Fm7 . |Ebm7 . Bbm7 . |Ebm7 . Bbm7 . |
|Bbm . Fm7 . |Gb  . Db .  |Gb . Db . |
|Bbm . Fm7 . |Bbm . Fm7 . |Bbm . Fm7 . |Bbm . Fm7 . |

Вверх

Take This Longing

Tuning: C F A# D# G C (standard, two full steps down)

Intro: E

D                        A
Many men have loved the bells
D                    A
You fastened to the rein
F#m               Bm
And everyone who wanted you
F#m                       E    F#m       E
They found what they will always want again
G#m                          C#m
Your beauty lost to you yourself
     G#m                 C#m
Just as it was lost to them

    A                         E
Oh take this longing from my tongue
    A                                     E
Whatever useless things these hands have done
 A                             E
Let me see your beauty broken down
G#m             A              E
Like you would do for one you love

Your body like a searchlight
My poverty revealed
I would like to try your charity
Until you cry, "Now you must try my greed."
And everything depends upon
How near you sleep to me

Just take this longing from my tongue
All the lonely things my hands have done
Let me see your beauty broken down
Like you would do for one you love

Hungry as an archway
Through which the troops have passed
I stand in ruins behind you
With your winter clothes, your broken sandal straps
I love to see you naked over there
Especially from the back

Oh take this longing from my tongue
All the useless things my hands have done
Untie for me your hired blue gown
Like you would do for one that you love

You're faithful to the better man
I'm afraid that he left
So let me judge your love affair
In this very room where I have sentenced mine to death
I'll even wear these old laurel leaves
That he's shaken from his head

Just take this longing from my tongue
All the useless things my hands have done
Let me see your beauty broken down
Like you would do for one you love
                A              E
Like you would do for one you love



Intro:

     E
     |   .   .   .   .   .   |   .   .   .   .   .
 C|------------------------------------------0---0----|
 G|---------------------------------------------------|
D#|------1---1-------1---1-------1---1-----1---1---0--|
A#|----2---2---2---2---2---2---2---2---2--------------|
 F|---------------------------------------------------|
 C|--0-----------0-----------0-----------0------------|


Verse:

     D                       A
     |   .   .   .   .   .   |   .   .   .   .   .
 C|--0-------------------2---0-----------0-------0----|
 G|------3---3-------3-----------2---0h2-----2--------|
D#|----2---2---2---2---2---2---2---2---2---2---2---2--|
A#|--0-----------0------------------------------------|
 F|--------------------------0------------------------|
 C|---------------------------------------------------|

     D                       A
     |   .   .   .   .   .   |   .   .   .   .   .
 C|--0-------------------2---0-----------0-------0----|
 G|------3---3-------3-----------2---0h2-----2--------|
D#|----2---2---2---2---2---2---2---2---2---2---2---0--|
A#|--0-----------0------------------------------------|
 F|--------------------------0------------------------|
 C|---------------------------------------------------|

     F#m                     Bm
     |   .   .   .   .   .   |   .   .   .   .   .
 C|---------------------------------------------------|
 G|--2-------------------2---3-------------------3----|
D#|------2---2-------2-----------4---4-------4--------|
A#|----4---4---4---4---4---4---4---4---4---4---4---4--|
 F|--------------------------2-----------2------------|
 C|--2-----------2------------------------------------|

    F#m                     E           F#m
    |   .   .   .   .   .   |   .   .   .   .   .
 C|---------------------------------------------------|
 G|--2------------------------------------------------|
D#|------2---2-------2---2-------1---1-------2---2----|
A#|----4---4---4---4---4---4---2---2---2---4---4---4--|
 F|---------------------------------------------------|
 C|--2-----------2-----------0-----------2------------|

     E                       G#m
     |   .   .   .   .   .   |   .   .   .   .   .
 C|---------------------------------------------------|
 G|--------------0-------0---4-------------------4----|
D#|------1---0h1-----1-----------4---4-------4--------|
A#|----2---2---2---2---2---2---6---6---6---6---6---6--|
 F|---------------------------------------------------|
 C|--0-----------------------4-----------4------------|

     C#m                     G#m
     |   .   .   .   .   .   |   .   .   .   .   .
 C|---------------------------------------------------|
 G|--5-------------------5---4-------------------4----|
D#|------6---6-------6-----------4---4-------4--------|
A#|----6---6---6---6---6---6---6---6---6---6---6---6--|
 F|--4------------------------------------------------|
 C|--------------4-----------4-----------4------------|

     C#m                     A
     |   .   .   .   .   .   |   .   .   .   .   .
 C|---------------------------------------------------|
 G|--5-------------------5-------2---2-------2---2----|
D#|------6---6-------6-----------2---2-------2---2----|
A#|----6---6---6---6---6---6---2---2---2---2---2---2--|
 F|--4-----------------------0-----------0------------|
 C|--------------4------------------------------------|

     E                       A
     |   .   .   .   .   .   |   .   .   .   .   .
 C|---------------------------------------------------|
 G|------0---0-------0---0-------2---2-------2---2----|
D#|------1---1-------1---1-------2---2-------2---2----|
A#|----2---2---2---2---2---2---2---2---2---2---2---2--|
 F|--------------------------0-----------0------------|
 C|--0-----------0------------------------------------|

     E                       A
     |   .   .   .   .   .   |   .   .   .   .   .
 C|---------------------------------------------------|
 G|------0---0-------0---0-------2---2-------2---2----|
D#|------1---1-------1---1-------2---2-------2---2----|
A#|----2---2---2---2---2---2---2---2---2---2---2---2--|
 F|--------------------------0-----------0------------|
 C|--0-----------0------------------------------------|

     E                       G#m
     |   .   .   .   .   .   |   .   .   .   .   .
 C|---------------------------------------------------|
 G|--------------0-------0---4-------------------4----|
D#|------1---0h1-----1-----------4---4-------4--------|
A#|----2---2---2---2---2---2---6---6---6---6---6---6--|
 F|---------------------------------------------------|
 C|--0-----------------------4-----------4------------|

     A
     |   .   .   .   .   .   |   .   .   .   .   .
 C|---------------------------------------------------|
 G|------2---2-------2---2-------2---2-------2---2----|
D#|------2---2-------2---2-------2---2-------2---2----|
A#|----2---2---2---2---2---2---2---2---2---2---2---2--|
 F|--0-----------0-----------0-----------0------------|
 C|---------------------------------------------------|

     E
     |   .   .   .   .   .   |   .   .   .   .   .
 C|------------------------------------------0---0----|
 G|---------------------------------------------------|
D#|------1---1-------1---1-------1---1-----1---1---0--|
A#|----2---2---2---2---2---2---2---2---2--------------|
 F|---------------------------------------------------|
 C|--0-----------0-----------0-----------0------------|

Вверх

Take This Waltz

Intro: B . . |F#sus4 . . |F# . . |. . . |

         B                        G#m
Now in Vienna there's ten pretty women
          B               D#m/a#          G#m
There's a shoulder where Death comes to cry
          E                        F#
There's a lobby with nine hundred windows
          E               E    D#m C#m B   D#7/a#
There's a tree where the doves go to die
           G#m
There's a piece that was torn from the morning
        C#m          G#7        C#m . . |. . B/d# |
And it hangs in the Gallery of Frost
E  B/d# C#m B
Ay, Ay, Ay, Ay
           D#7/g            G#m
Take this waltz, take this waltz
           C#/f                        E . . |. . . |
Take this waltz with the clamp on its jaws

F# . . |G#m . . |F#/a# . . |F# . . |

      B           D#m/a#       G#m
Oh I want you, I want you, I want you
       B                    G#m
On a chair with a dead magazine
        E                      F#
In the cave at the tip of the lily
         E              E   D#m C#m  B   D#7/a#
In some hallways where love's never been
     G#m
On a bed where the moon has been sweating
     C#m              G#7           C#m . . |. . B/d# |
In a cry filled with footsteps and sand
E  B/d# C#m B
Ay, Ay, Ay, Ay
           D#7/g            G#7/f#
Take this waltz, take this waltz
           E6                  Fm7-5 . . |. . . |
Take its broken waist in your hand

Edim . . |Gdim . . |G#m . . |D# . . |

      G#m
This waltz, this waltz, this waltz, this waltz
          C#m                G#m
With its very own breath of brandy and Death
  E6                      B . . |. . . |F#sus4 . . |F# . . |
Dragging its tail in the sea

           B                G#m
There's a concert hall in Vienna
           B             D#m/a#    G#m
Where your mouth had a thousand reviews
           E                               F#
There's a bar where the boys have stopped talking
              E              E  D#m C#m  B    D#7/a#
They've been sentenced to death by the blues
        G#m
Ah, but who is it climbs to your picture
        C#m         G#7        C#m . . |. . B/d# |
With a garland of freshly cut tears?
E  B/d# C#m B
Ay, Ay, Ay, Ay
           D#7/g            G#m
Take this waltz, take this waltz
           C#m                       E . . |. . . |
Take this waltz it's been dying for years

B . . |. . . |F# . . |. . . |

            B            D#m/a#        G#m
There's an attic where children are playing
            B                        G#m
Where I've got to lie down with you soon
      E                   F#
In a dream of Hungarian lanterns
        E             E D#m C#m B    D#7/a#
In the mist of some sweet afternoon
         G#m
And I'll see what you've chained to your sorrow
         C#m             G#7        C#m . . |. . B/d# |
All your sheep and your lilies of snow
E  B/d# C#m B
Ay, Ay, Ay, Ay
           D#7/g            G#7/f#
Take this waltz, take this waltz
                E6                     Fm7-5 . . |. . . |
With its "I'll never forget you, you know!"

Edim . . |Gdim . . |G#m . . |D# . . |

      G#m
This waltz, this waltz, this waltz, this waltz
          C#m                G#m
With its very own breath of brandy and Death
  E6                      B . . |. . . |F#sus4 . . |F# . . |
Dragging its tail in the sea

          B                  G#m
And I'll dance with you in Vienna
          B        D#m/a#     G#m
I'll be wearing a river's disguise
      E                   F#
The hyacinth wild on my shoulder
     E           E  D#m C#m   B
My mouth on the dew of your thighs
          B                  G#m
And I'll bury my soul in a scrapbook
           B              D#m/a#     G#m
With the photographs there, and the moss
          E                          F#
And I'll yield to the flood of your beauty
     E       E  D#m C#m  B    D#7/a#
My cheap violin and my cross
            G#m
And you'll carry me down on your dancing
        C#m            G#7           C#m
To the pools that you lift on your wrist
C#m B/d# E  B/d# C#m B
Oh my love, Oh my love
           D#7/g            G#m
Take this waltz, take this waltz
      C#m                           E . . |. . . |
It's yours now, it's all that there is

B . . |. . . |F# . . |. . . |

 B           G#m
La, la, la... La, la, la...
 B      D#m/a# G#m
La, la, la... La, la, la...
 E             F#
La, la, la... La, la, la...
 E  E  D#m C#m B            D#7/a#
La, la, la... La, la, la...
 G#m
La, la, la... La, la, la...
 C#m    G#7    C#m         C#m B/d#
La, la, la... La, la, la...
E  B/d# C#m B      D#7/g
Ay, Ay, Ay, Ay



Guitarist friendly version
You'd have to downtune one half step to play along with the record.

Chords:

Gsus4:         320013
Em/b:          x22000
E7/b:          x20100
C/e:           032010  or  xx2010
E7/g#:         420100
D/f#:          200232
G/b:           x20003
A7/g:          3x2020
F6:            xx3231  or  100211
F#m7-5:        202212  or  xx3444
Fdim:          xx3434
G#dim:         xx6767

Intro: C . . |Gsus4 . . |G . . |. . . |

         C                        Am
Now in Vienna there's ten pretty women
          C               Em/b            Am
There's a shoulder where Death comes to cry
          F                        G
There's a lobby with nine hundred windows
          F               F    Em  Dm  C   E7/b
There's a tree where the doves go to die
           Am
There's a piece that was torn from the morning
        Dm           A7         Dm . . |. . C/e |
And it hangs in the Gallery of Frost
F  C/e  Dm  C
Ay, Ay, Ay, Ay
           E7/g#            Am
Take this waltz, take this waltz
           D/f#                        F . . |. . . |
Take this waltz with the clamp on its jaws

G . . |Am . . |G/b . . |G . . |

      C           Em/b         Am
Oh I want you, I want you, I want you
       C                    Am
On a chair with a dead magazine
        F                      G
In the cave at the tip of the lily
         F              F   Em  Dm   C   E7/b
In some hallways where love's never been
     Am
On a bed where the moon has been sweating
     Dm               A7            Dm . . |. . C/e |
In a cry filled with footsteps and sand
F  C/e  Dm  C
Ay, Ay, Ay, Ay
           E7/g#            A7/g
Take this waltz, take this waltz
           F6                  F#m7-5 . . |. . . |
Take its broken waist in your hand

Fdim . . |G#dim . . |Am . . |F . . |

      Am
This waltz, this waltz, this waltz, this waltz
          Dm                 Am
With its very own breath of brandy and Death
  F6                      C . . |. . . |Gsus4 . . |G . . |
Dragging its tail in the sea

           C                Am
There's a concert hall in Vienna
           C             Em/b      Am
Where your mouth had a thousand reviews
           F                               G
There's a bar where the boys have stopped talking
              F              F  Em  Dm   C    E7/b
They've been sentenced to death by the blues
        Am
Ah, but who is it climbs to your picture
        Dm          A7         Dm . . |. . C/e |
With a garland of freshly cut tears?
F  C/e  Dm  C
Ay, Ay, Ay, Ay
           E7/g#            Am
Take this waltz, take this waltz
           Dm                        F . . |. . . |
Take this waltz it's been dying for years

C . . |. . . |G . . |. . . |

            C            Em/b          Am
There's an attic where children are playing
            C                        Am
Where I've got to lie down with you soon
      F                   G
In a dream of Hungarian lanterns
        F             F Em  Dm  C    E7/b
In the mist of some sweet afternoon
         Am
And I'll see what you've chained to your sorrow
         Dm              A7         Dm . . |. . C/e |
All your sheep and your lilies of snow
F  C/e  Dm  C
Ay, Ay, Ay, Ay
           E7/g#            A7/g
Take this waltz, take this waltz
                F6                     F#m7-5 . . |. . . |
With its "I'll never forget you, you know!"

Fdim . . |G#dim . . |Am . . |F . . |

      Am
This waltz, this waltz, this waltz, this waltz
          Dm                 Am
With its very own breath of brandy and Death
  F6                      C . . |. . . |Gsus4 . . |G . . |
Dragging its tail in the sea

          C                  Am
And I'll dance with you in Vienna
          C        Em/b       Am
I'll be wearing a river's disguise
      F                   G
The hyacinth wild on my shoulder
     F           F  Em  Dm    C
My mouth on the dew of your thighs
                             Am
And I'll bury my soul in a scrapbook
           C              Em/b       Am
With the photographs there, and the moss
          F                          G
And I'll yield to the flood of your beauty
     F       F  Em  Dm   C    E7/b
My cheap violin and my cross
            Am
And you'll carry me down on your dancing
        Dm             A7            Dm
To the pools that you lift on your wrist
Dm  C/e  F  C/e  Dm  C
Oh my love, Oh my love
           E7/g#            Am
Take this waltz, take this waltz
      Dm                            F . . |. . . |
It's yours now, it's all that there is

C . . |. . . |G . . |. . . |

 C           Am
La, la, la... La, la, la...
 C      Em/b   Am
La, la, la... La, la, la...
 F             G
La, la, la... La, la, la...
 F     Em  Dm  C            E7/b
La, la, la... La, la, la...
 Am
La, la, la... La, la, la...
 Dm     A7     Dm          Dm  C/e
La, la, la... La, la, la...
F  C/e  Dm  C      E7/g#
Ay, Ay, Ay, Ay

Вверх

Teachers

Capo 2nd fret

Intro: Am

   Am          F
I met a woman long ago
     Am                   F
Her hair the black that black can go
     Am           F
Are you a teacher of the heart?
 Am
Soft she answered no

I met a girl across the sea
Her hair the gold that gold can be
Are you a teacher of the heart?
Yes, but not for thee

I met a man who lost his mind
In some lost place I had to find
Follow me the wise man said
But he walked behind

I walked into a hospital
Where none was sick and none was well
When at night the nurses left
I could not walk at all

Morning came and then came noon
Dinner time a scalpel blade
Lay beside my silver spoon

Some girls wander by mistake
Into the mess that scalpels make
Are you the teachers of my heart?
We teach old hearts to break

One morning I woke up alone
The hospital and the nurses gone
Have I carved enough my Lord?
Child, you are a bone

I ate and ate and ate
No I did not miss a plate, well
How much do these suppers cost?
We'll take it out in hate

I spent my hatred everyplace
On every work on every face
Someone gave me wishes
And I wished for an embrace

Several girls embraced me
Then I was embraced by men
Is my passion perfect?
No, do it once again

I was handsome, I was strong
I knew the words of every song
Did my singing please you?
No, the words you sang were wrong

Who is it whom I address
Who takes down what I confess?
Are you the teachers of my heart?
We teach old hearts to rest

Oh teachers are my lessons done?
I cannot do another one
They laughed and laughed and said, Well child
Are your lessons done?
Are your lessons done?
Are your lessons done?



Verse:

     Am                      F
     |           .           .           .
F#|------0-----0-----0-----0-----1-----1-----1-----0--|
C#|------1-----1-----1-----0-----1-----1-----1-----0--|
 A|----2-----2-----2-----0-----2-----2-----2-----0----|
 E|--------2-----------0-----------3-----------0------|
 B|--0------------------------------------------------|
F#|--------------0-----------1-----------1------------|

     Am                      F
     |           .           .           .
F#|------0-----0-----0-----0-----1-----1-----1-----0--|
C#|------1-----1-----1-----0-----1-----1-----1-----0--|
 A|----2-----2-----2-----0-----2-----2-----2-----0----|
 E|--------2-----------0-----------3-----------0------|
 B|--0------------------------------------------------|
F#|--------------0-----------1-----------1------------|

     Am                      F
     |           .           .           .
F#|------0-----0-----0-----0-----1-----1-----1-----0--|
C#|------1-----1-----1-----0-----1-----1-----1-----0--|
 A|----2-----2-----2-----0-----2-----2-----2-----0----|
 E|--------2-----------0-----------3-----------0------|
 B|--0------------------------------------------------|
F#|--------------0-----------1-----------1------------|

     Am
     |           .           .           .
F#|------0-----0-----0-----0-----0-----0-----0-----0--|
C#|------1-----1-----1-----1-----1-----1-----1-----1--|
 A|----2-----2-----2-----2-----2-----2-----2-----2----|
 E|--------2-----------2-----------2-----------2------|
 B|--0-----------------------0------------------------|
F#|--------------0-----------------------0------------|

     Am
     |           .           .           .
F#|------0-----0-----0-----0-----0-----0-----0-----0--|
C#|------1-----1-----1-----1-----1-----1-----1-----1--|
 A|----2-----2-----2-----2-----2-----2-----2-----2----|
 E|--------2-----------2-----------2-----------2------|
 B|--0-----------------------0------------------------|
F#|--------------0-----------------------0------------|

Вверх

Tennessee Waltz

Intro: G . . |D7 . . |G . . |G . . |

        G
I was dancing with my darlin'
                  C
to the Tennessee Waltz
        G                         D7
When an old friend I happened to see
      G
Introduced him to my darlin'
                     C
and while they were dancing
     G               D7             G
My friend stole my sweetheart from me.

     G          B7            C         G
I remember the night and the Tennessee Waltz
                                    D7
'Cause I know just how much I have lost
       G
Yes I lost my little darlin'
                      C
The night they were playing
     G         D7        G
The beautiful Tennessee Waltz.

G . . |. . . |. . . |C . . |
G . . |. . . |D7 . . |. . . |
G . . |. . . |. . . |C . . |
G . . |D7 . . |G . . |. . . |

I remember the night and the Tennessee Waltz
'Cause I know just how much I have lost
Yes I lost my little darlin'
The night they were playing
The beautiful Tennessee Waltz.

She comes dancing through the darkness
To the Tennessee Waltz
And I feel like I'm falling apart
And it's stronger than drink
And it's deeper than sorrow
This darkness she's left in my heart.

I'll remember the night and the Tennessee Waltz
'Cause I know just how much I have lost
Yes I lost my little darlin'
The night they were playing
The beautiful Tennessee Waltz
 G         D7        G
Beautiful Tennessee Waltz.

Вверх

That Don't Make It Junk

Intro: C#.. ...|... ...|G#.. ...|... ...|
       A#m.. ...|... ...|F#.. ...|G#.. ...|
       C#.. ...|... ...|... ...|... ...|

   C#                       F#
I fought against the bottle
       G#            C#     F#   G#
But I had to do it drunk
         C#                     F#
Took my diamond to the pawnshop
      G#                C#     F#   G#
But that don't make it junk

I know that I'm forgiven
But I don't know how I know
I don't trust my inner feelings
Inner feelings come and go

              F#        G#     A#m
How come you called me here tonight?
                  F#
And how come you bother
         G#      A#m
With my heart at all?
D#
You raise me up in grace
                       G#
Then you put me in a place
     G#7sus4  G#   G#7
Where I must fall

Too late to mix another drink
The lights are going out
I'll just listen to the darkness sing
I know what that's about

A#m G#               C#
I tried to love you my way
A#m    G#               C#
But I couldn't make it hold
A#m    G#                F#
So I closed the Book of Longing
                    G#.. ...|... ...|... G#6..|G#7.. G#..|
And I do what I am told

How come you called me here tonight?
How come you bother
With my heart at all?
You raise me up in grace
Then you put me in a place
Where I must fall

I fought against the bottle
But I had to do it drunk
Took my diamond to the pawnshop
But that don't make it junk

I fought against the bottle
But I had to do it drunk
Took my diamond to the pawnshop
But that don't make it junk
That don't make it junk
That don't make it junk



Guitarist friendly version
Capo 1st fret

Chords:

G7sus4:    353533  or  320011
G6:        320000  or  322003

Intro: C.. ...|... ...|G.. ...|... ...|
       Am.. ...|... ...|F.. ...|G.. ...|
       C.. ...|... ...|... ...|... ...|

   C                        F
I fought against the bottle
       G             C      F    G
But I had to do it drunk
         C                      F
Took my diamond to the pawnshop
      G                 C      F    G
But that don't make it junk

...

              F         G      Am
How come you called me here tonight?
                  F
And how come you bother
         G       Am
With my heart at all?
D
You raise me up in grace
                       G
Then you put me in a place
      G7sus4  G   G7
Where I must fall

...

Am  G                C
I tried to love you my way
Am     G                C
But I couldn't make it hold
Am     G                 F
So I closed the Book of Longing
                    G.. ...|... ...|... G6..|G7.. G..|
And I do what I am told



Вверх

The Butcher

Chords:

B7:  x21202

Intro: E

E
I came upon a butcher
    A
He was slaughtering a lamb
E
I accused him there
        B7
With his tortured lamb
           E
He said, "Listen to me, child
A
I am what I am
E        B7               A      E
And you, you are my only son."

Well, I found a silver needle
I put it into my arm
It did some good
Did some harm
But the nights were cold
And it almost kept me warm
How come the night is long?

I saw some flowers growing up
Where that lamb fell down
Was I supposed to praise my Lord
Make some kind of joyful sound?
He said, "Listen, listen to me now
I go round and round
And you, you are my only child."

Do not leave me now
Do not leave me now
I'm broken down
From a recent fall
Blood upon my body
And ice upon my soul
Lead on, my son, it is your world



Intro:

    E
    |   .   .   .   |   .   .   .
E|-----------------------------------|
B|-----------------------------------|
G|--1---1-0-1---1-0-1---1-0-1---1-0--|
D|--2---2-0-2---2-0-2---2-0-2---2-0--|
A|--2---2-0-2---2-0-2---2-0-2---2-0--|
E|--0---0-0-0---0-0-0---0-0-0---0-0--|

    E
    |   .   .   .   |   .   .   .
E|-----------------------------------|
B|-----------------------------------|
G|--1---1-0-1---1-0-1---1-0-1---1-0--|
D|--2---2-0-2---2-0-2---2-0-2---2-0--|
A|--2---2-0-2---2-0-2---2-0-2---2-0--|
E|--0---0-0-0---0-0-0---0-0-0---0-0--|


Verse:

    E
    |   .   .   .   |   .   .   .
E|-----------------------------------|
B|-----------------------------------|
G|--1---1-0-1---1-0-1---1-0-1---1-0--|
D|--2---2-0-2---2-0-2---2-0-2---2-0--|
A|--2---2-0-2---2-0-2---2-0-2---2-0--|
E|--0---0-0-0---0-0-0---0-0-0---0-0--|

    A
    |   .   .   .   |   .   .   .
E|-----------------------------------|
B|--2---2-0-2---2-0-2---2-0-2---2-0--|
G|--2---2-0-2---2-0-2---2-0-2---2-0--|
D|--2---2-0-2---2-0-2---2-0-2---2-0--|
A|--0---0-0-0---0-0-0---0-0-0---0-0--|
E|-----------------------------------|

    E
    |   .   .   .   |   .   .   .
E|-----------------------------------|
B|-----------------------------------|
G|--1---1-0-1---1-0-1---1-0-1---1-0--|
D|--2---2-0-2---2-0-2---2-0-2---2-0--|
A|--2---2-0-2---2-0-2---2-0-2---2-0--|
E|--0---0-0-0---0-0-0---0-0-0---0-0--|

    B7
    |   .   .   .   |   .   .   .
E|-----------------------------------|
B|--0---0-0-0---0-0-0---0-0-0---0-0--|
G|--2---2-0-2---2-0-2---2-0-2---2-0--|
D|--1---1-0-1---1-0-1---1-0-1---1-0--|
A|--2---2-0-2---2-0-2---2-0-2---2-0--|
E|-----------------------------------|

    E
    |   .   .   .   |   .   .   .
E|--0---0-0-0---0-0-0---0-0-0---0-0--|
B|--0---0-0-0---0-0-0---0-0-0---0-0--|
G|--1---1-0-1---1-0-1---1-0-1---1-0--|
D|--2---2-0-2---2-0-2---2-0-0---0-0--|
A|--2---2-0-2---2-0-2---2-0-2---2-0--|
E|--0---0-0-0---0-0-0---0-0-0---0-0--|

    A
    |   .   .   .   |   .   .   .
E|--0---0-0-0---0-0-0---0-0-0---0-0--|
B|--2---2-0-2---2-0-2---2-0-2---2-0--|
G|--2---2-0-2---2-0-2---2-0-2---2-0--|
D|--2---2-0-2---2-0-2---2-0-2---2-0--|
A|--0---0-0-0---0-0-0---0-0-0---0-0--|
E|-----------------------------------|

    E               B7
    |   .   .   .   |   .   .   .
E|--0---0-0-0---0-0-2---2-0-2---2-0--|
B|--0---0-0-0---0-0-0---0-0-0---0-0--|
G|--1---1-0-1---1-0-2---2-0-2---2-0--|
D|--2---2-0-2---2-0-1---1-0-1---1-0--|
A|--2---2-0-2---2-0-2---2-0-2---2-0--|
E|--0---0-0-0---0-0------------------|

    A               E
    |   .   .   .   |   .   .   .
E|--0---0-0-0---0-0------------------|
B|--2---2-0-2---2-0------------------|
G|--2---2-0-2---2-0-1---1-0-1---1-0--|
D|--2---2-0-2---2-0-2---2-0-2---2-0--|
A|--0---0-0-0---0-0-2---2-0-2---2-0--|
E|------------------0---0-0-0---0-0--|

    E
    |   .   .   .
E|-------------------|
B|-------------------|
G|--1---1-0-1---1-0--|
D|--2---2-0-2---2-0--|
A|--2---2-0-2---2-0--|
E|--0---0-0-0---0-0--|

Вверх

The Captain

Intro: C . . . |G . . . |F . . . |C . . . |

        C                 G
Now the Captain called me to his bed
    F              C
He fumbled for my hand
  F                 C
"Take these silver bars," he said
      G           C
"I'm giving you command."
    C                     C7
"Command of what, there's no one here
         F           C
There's only you and me
         G
All the rest are dead or in retreat
    F        C
Or with the enemy."

"Complain, complain, that's all you've done
Ever since we lost
If it's not the Crucifixion
Then it's the Holocaust."
"May Christ have mercy on your soul
For making such a joke
Amid these hearts that burn like coal
And the flesh that rose like smoke."

"I know that you have suffered, lad
But suffer this awhile
Whatever makes a soldier sad
Will make a killer smile."
"I'm leaving, Captain, I've got to go
There's blood upon your hand
But tell me, Captain, if you know
Of a decent place to stand."

"There is no decent place to stand
In a massacre
But if a woman take your hand
Then go and stand with her."
"I left a wife in Tennessee
And a baby in Saigon
I risked my life but not to hear
Some country-western song."

"Ah, but if you cannot raise your love
To a very high degree
Then you're just the man I've been thinking of
So come and stand with me."
"Your standing days are done," I cried,
"You'll rally me no more
I don't even know what side
We fought on, or what for."

"I'm on the side that's always lost
Against the side of Heaven
I'm on the side of Snake-eyes tossed
Against the side of Seven
And I've read the Bill of Human Rights
And some of it was true
But there wasn't any burden left
So I'm laying it on you."

         C              G
Now the Captain he was dying
         F              C
But the Captain wasn't hurt
     F               C
The silver bars were in my hand
    G                 C
I pinned them to my shirt

Вверх

The Faith

Intro: A.. D..|A.. ...|Bm.. E6. E|A.. ...|

     A
The sea so deep and blind
     F#m      D       E
The sun, the wild regret
                          A
The club, the wheel, the mind,
   Bm               C#7   F#m
O love, aren't you tired yet?
      A         D         A
The club, the wheel, the mind
   Bm               E     A      Bm   E   A
O love, aren't you tired yet?

The blood, the soil, the faith
These words you can't forget
Your vow, your holy place
O love, aren't you tired yet?
The blood, the soil, the faith
O love, aren't you tired yet?

A cross on every hill
A star, a minaret
So many graves to fill
O love, aren't you tired yet?
So many graves to fill
O love, aren't you tired yet?

The sea so deep and blind
Where still the sun must set
And time itself unwind
O love, aren't you tired yet?
And time itself unwind
O love, aren't you tired yet?

Вверх

The Future

Chords:

G#dim:          456464  or  xx0101

Intro: Am

 Am
Give me back my broken night
    Dm
My mirrored room, my secret life
      G#dim
It's lonely here
         E7             Am
There's no one left to torture
 Am
Give me absolute control
Dm
Over every living soul
     G#dim            E7
And lie beside me, baby
          Am
That's an order!

Give me crack and anal sex
Take the only tree that's left
And stuff it up the hole
In your culture
Give me back the Berlin wall
Give me Stalin and St. Paul
I've seen the future, brother:
It is murder

  Dm                         C
Things are going to slide (slide) in all directions
          Dm                                  C
Won't be nothing (won't be), nothing you can measure anymore
      Dm                           F
The blizzard, the blizzard of the world
                   F
Has crossed the threshold
           Fm
And it has overturned
                  C
The order of the soul
           G
When they said (they said) repent (repent), repent (repent)
           Am
I wonder what they meant
           G
When they said (they said) repent (repent), repent (repent)
           Am
I wonder what they meant
           G
When they said (they said) repent (repent), repent (repent)
           Am
I wonder what they meant

You don't know me from the wind
You never will, you never did
I'm the little jew
Who wrote the Bible
I've seen the nations rise and fall
I've heard their stories, heard them all
But love's the only engine
Of survival

Your servant here, he has been told
To say it clear, to say it cold:
It's over, it ain't going
Any further
And now the wheels of heaven stop
You feel the devil's riding crop
Get ready for the future:
It is murder

Things are going to slide (slide) in all directions
Won't be nothing (won't be), nothing you can measure anymore
The blizzard, the blizzard of the world
Has crossed the threshold
And it has overturned
The order of the soul
When they said (they said) repent (repent), repent (repent)
I wonder what they meant
When they said (they said) repent (repent), repent (repent)
I wonder what they meant
When they said (they said) repent (repent), repent (repent)
I wonder what they meant

                  Am
There'll be the breaking of the ancient western code
       Dm
Your private life will suddenly explode
              Am
There'll be phantoms, there'll be fires on the road
                   F      E7
And the white man dancing
                 Am
You'll see your woman hanging upside down
     Dm
Her features covered by her fallen gown
             Am
And all the lousy little poets coming round
                              F      E7
Trying to sound like Charlie Manson
                    Am
Yeah the white man dancing

Give me back the Berlin wall
Give me Stalin and St. Paul
Give me Christ
Or give me Hiroshima
Destroy another fetus now
We don't like children anyhow
I've seen the future, baby:
It is murder

Things are going to slide (slide) in all directions
Won't be nothing (won't be), nothing you can measure anymore
The blizzard, the blizzard of the world
Has crossed the threshold
And it has overturned
The order of the soul
When they said (they said) repent (repent), repent (repent)
I wonder what they meant
When they said (they said) repent (repent), repent (repent)
I wonder what they meant
When they said (they said) repent (repent), repent (repent)
I wonder what they meant
When they said (they said) repent (repent), repent (repent)

Вверх

The Guests

Chords:

Em':       x7605x
D':        x5403x

Intro: Em'

Em'        D'
One by one, The Guests arrive
C                        D'
The Guests are coming through
Em'               D'
The open-hearted many
C                  E
The broken-hearted few

     A                       D
And no one knows where the night is going
     A                    D
And no one knows why the wine is flowing
C         Dm/c  C     Dm/c  C     Dm/c  C     Dm/c  C
O love, I need you, I need you, I need you, I need you
E                 A
Oh... I need you now

And those who dance begin to dance
And those who weep begin
And Welcome, Welcome cries a Voice,
Let all my guests come in

And no one knows where the night is going
And no one knows why the wine is flowing
O love, I need you, I need you, I need you, I need you
Oh... I need you now

And all go stumbling through that house
In lonely secrecy
Saying, Do reveal yourself
Or, Why hast thou forsaken me

And no one knows where the night is going
And no one knows why the wine is flowing
O love, I need you, I need you, I need you, I need you
Oh... I need you now

All at once the torches flare
The inner door flies open
One by one they enter there
In every style of passion

And no one knows where the night is going
And no one knows why the wine is flowing
O love, I need you, I need you, I need you, I need you
Oh... I need you now

And here they take their sweet repast
While house and grounds dissolve
And one by one The Guests are cast
Beyond the garden walls

And no one knows where the night is going
And no one knows why the wine is flowing
O love, I need you, I need you, I need you, I need you
Oh... I need you now

And those who dance begin to dance
Those who weep begin
And those who earnestly are lost
Are lost and lost again

And no one knows where the night is going
And no one knows why the wine is flowing
O love, I need you, I need you, I need you, I need you
Oh... I need you now

One by one The Guests arrive
The Guests are coming through
The broken-hearted many
The open-hearted few

And no one knows where the night is going
And no one knows why the wine is flowing
O love, I need you, I need you, I need you, I need you
Oh... I need you now



Intro:

    Em'
    |   .   .   .   .   .   |   .   .   .   .   .
E|---------------------------------------------------|
B|------5---5-------5---5-------5---5-------5---5----|
G|------0---0-------0---0-------0---0-------0---0----|
D|----6---6---6---6---6---6---6---6---6---6---6---6--|
A|--7-----------7-----------7-----------7------------|
E|---------------------------------------------------|


Verse:

    Em'                     D'
    |   .   .   .   .   .   |   .   .   .   .   .
E|---------------------------------------------------|
B|------5---5-------5---5-------3---3-------3---3----|
G|------0---0-------0---0-------0---0-------0---0----|
D|----6---6---6---6---6---6---4---4---4---4---4---4--|
A|--7-----------7-----------5-----------5------------|
E|---------------------------------------------------|

    C                       D'
    |   .   .   .   .   .   |   .   .   .   .   .
E|---------------------------------------------------|
B|------1---1-------1---1-------3---3-------3---3----|
G|------0---0-------0---0-------0---0-------0---0----|
D|----2---2---2---2---2---2---4---4---4---4---4---4--|
A|--3-----------3-----------5-----------5------------|
E|---------------------------------------------------|

    Em'                     D'
    |   .   .   .   .   .   |   .   .   .   .   .
E|---------------------------------------------------|
B|------5---5-------5---5-------3---3-------3---3----|
G|------0---0-------0---0-------0---0-------0---0----|
D|----6---6---6---6---6---6---4---4---4---4---4---4--|
A|--7-----------7-----------5-----------5------------|
E|---------------------------------------------------|

    C                       E
    |   .   .   .   .   .   |   .   .   .   .   .
E|------------------------------0---0-------0---0----|
B|------1---1-------1---1-------0---0-------0---0----|
G|------0---0-------0---0-----1---1---1---1---1---1--|
D|----2---2---2---2---2---2-------------2------------|
A|--3-----------3------------------------------------|
E|--------------------------0------------------------|


Chorus:

    A                       D
    |   .   .   .   .   .   |   .   .   .   .   .
E|------0---0-------0---0-------2---2---2h3-2---2----|
B|------2---2-------2---2-------3---3---3---3---3----|
G|----2---2---2---2---2---2---2---2---2---2---2---2--|
D|--------------2-----------0------------------------|
A|--0------------------------------------------------|
E|---------------------------------------------------|

    A                       D
    |   .   .   .   .   .   |   .   .   .   .   .
E|------0---0-------0---0-------2---2---2h3-2---2----|
B|------2---2-------2---2-------3---3---3---3---3----|
G|----2---2---2---2---2---2---2---2---2---2---2---2--|
D|--------------2-----------0------------------------|
A|--0------------------------------------------------|
E|---------------------------------------------------|

    C
    |   .   .   .   .   .   |   .   .   .   .   .
E|------0---0-------0---0---0---0---0---0---0---0----|
B|------1---1-------1---1---3---1---1---3---1---1----|
G|----0---0---0---0---0---0---0---0---0---0---0---0--|
D|---------------------------------------------------|
A|--3-----------3-----------3-----------3------------|
E|---------------------------------------------------|

    C                       E
    |   .   .   .   .   .   |   .   .   .   .   .
E|--0---0---0---0---0---0-------0---0-------0---0----|
B|--3---1---1---3---1---1-------0---0-------0---0----|
G|----0---0---0---0---0---0---1---1---1---1---1---1--|
D|--------------------------------------2------------|
A|--3-----------3------------------------------------|
E|--------------------------0------------------------|

    E                       A
    |   .   .   .   .   .   |   .   .   .   .   .
E|------0---0-------0---0-------0---0-------0---0----|
B|------0---0-------0---0-------2---2-------2---2----|
G|----1---1---1---1---1---1---2---2---2---2---2---2--|
D|--------------2-----------------------2------------|
A|--------------------------0------------------------|
E|--0------------------------------------------------|

    A
    |   .   .   .   .   .
E|------0---0-------0---0----|
B|------2---2-------2---2----|
G|----2---2---2---2---2---0--|
D|--------------2------------|
A|--0------------------------|
E|---------------------------|

Вверх

The Gypsy's Wife

Intro:

    Em7                     E
    |   .   .   .   .   .   |   .   .   .   .   .
E|---------------------------------------------------|
B|------0---0-------0---0----------------------------|
G|------4---4-------4---4-------1---1-------1---1----|
D|----5---5---5---5---5---5---2---2---2---2---2---2--|
A|---------------------------------------------------|
E|--0-----------0-----------0-----------0------------|  (x4)

     C#m           G#m               C#m
And where, where, where is my Gypsy wife tonight
                          G#m                   C#m
I've heard all the wild reports, they can't be right
           B                                        A
But whose head is this she's dancing with on the threshing floor
        B                                          F#m
Whose darkness deepens in her arms a just a little more

      A                       E
And where, where is my Gypsy wife tonight
  A                       E            Em7.. ...|E.. ...|Em7.. ...|E.. ...|
Where, where is my Gypsy wife tonight

Ah the silver knives are flashing in that tired old cafe
A ghost climbs on the table in a bridal negligee
She says "My body is the light", she says "My body is the way"
I raise my arm against it all and I catch the bride's bouquet

So where, where is my Gypsy wife tonight
Where, where is my Gypsy wife tonight

It's too early for the rainbow, too early for the dove
These are your final days, this is the darkness, this is the flood
And there is no man, there is no woman can be touched
But you who come between them, you will surely be judged

So where, where is my Gypsy wife tonight
Where, where is my Gypsy wife tonight

Вверх

The Land of Plenty

Intro: G# . . |Fm . . |F#6 . . |. . . |  (x4)

       G#     Fm       F#6
Don't really have the courage
     G#        Fm       F#6
To stand where I must stand
       G#     Fm       F#6
Don't really have the temperament
    G#     Fm      F#6
To lend a helping hand

      G#add4/c Cm7     Fm
Don't really know who sent me
    A#9                D#
To raise my voice and say:
         G#            F#       C#
May the lights in The Land of Plenty
               D#        G#    Fm    F#6   G#    Fm    F#6
Shine on the truth some day

I don't know why I've come here
Knowing as I do
What you really think of me
What I really think of you

For the millions in a prison
That wealth has set apart
For the Christ who has not risen
From the caverns of the heart

        Fm    D#     G#
For the innermost decision
         Fm   D#     G#
That we cannot but obey
            C#     D#     Fm
For what's left of our religion
A#                    D#  D#sus4  D#
I lift my voice and pray:
         G#            C#/f     F#             G#    Fm    F#6
May the lights in The Land of Plenty (May the lights)
         G#            C#/f     F#             G#    Fm    F#6
May the lights in The Land of Plenty (May the lights)
         G#            F#       C#
May the lights in The Land of Plenty
               D#        G#    Fm    F#6   G#    Fm    F#6
Shine on the truth some day

I know I said I'd meet you
I'd meet you at the store
But I can't buy it, baby
I can't buy it anymore

And I don't really know who sent me
To raise my voice and say:
May the lights in The Land of Plenty
Shine on the truth some day

For the innermost decision
That we cannot but obey
For what's left of our religion
I lift my voice and pray:
May the lights in The Land of Plenty (May the lights)
May the lights in The Land of Plenty (May the lights)
May the lights in The Land of Plenty
Shine on the truth some day



Guitarist friendly version
Capo 1st fret

Chords:

F6:         xx1323  or  100211
Gadd4/b:    x20013
A9:         x02423  or  x02000

Intro: G . . |Em . . |F6 . . |. . . |  (x4)

       G      Em       F6
Don't really have the courage
     G         Em       F6
To stand where I must stand
       G      Em       F6
Don't really have the temperament
    G      Em      F6
To lend a helping hand

       Gadd4/b Bm7     Em
Don't really know who sent me
    A9                 D
To raise my voice and say:
         G             F        C
May the lights in The Land of Plenty
               D         G     Em    F6   G     Em    F6
Shine on the truth some day

I don't know why I've come here
Knowing as I do
What you really think of me
What I really think of you

For the millions in a prison
That wealth has set apart
For the Christ who has not risen
From the caverns of the heart

        Em    D      G
For the innermost decision
         Em   D      G
That we cannot but obey
            C      D      Em
For what's left of our religion
A                     D   Dsus4  D
I lift my voice and pray:
         G             C/e      F              G     Em    F6
May the lights in The Land of Plenty (May the lights)
         G             C/e      F              G     Em    F6
May the lights in The Land of Plenty (May the lights)
         G             F        C
May the lights in The Land of Plenty
               D         G    Em   F6    G    Em    F6
Shine on the truth some day

I know I said I'd meet you
I'd meet you at the store
But I can't buy it, baby
I can't buy it anymore

And I don't really know who sent me
To raise my voice and say:
May the lights in The Land of Plenty
Shine on the truth some day

For the innermost decision
That we cannot but obey
For what's left of our religion
I lift my voice and pray:
May the lights in The Land of Plenty (May the lights)
May the lights in The Land of Plenty (May the lights)
May the lights in The Land of Plenty
Shine on the truth some day

Вверх

The Law

Intro: Dm . . . |A7 . . .

                        Dm     Am7     Dm
How many times did you call me
                   Am     Em7     Am
And I knew it was late
             Dm     Am7     Dm
I left everybody
                    Am     Em7     Am
But I never went straight
                     F     C7     F
I don't claim to be guilty
                Dm     Am7     Dm
But I do understand
           Bb             A               Dm
There's a Law, there's an Arm, there's a Hand
           Bb             A               Dm    A7
There's a Law, there's an Arm, there's a Hand

Now my heart's like a blister
From doing what I do
If the moon has a sister
It's got to be you
I'm going to miss you forever
Though it's not what I planned
There's a Law, there's an Arm, there's a Hand
There's a Law, there's an Arm, there's a Hand

Now the deal has been dirty
Since dirty began
I'm not asking for mercy
Not from the man
You just don't ask for mercy
While you're still on the stand
There's a Law, there's an Arm, there's a Hand
There's a Law, there's an Arm, there's a Hand

Dm . Am7 . |Dm . . . |Am . Em7 . |Am . . . |
Dm . Am7 . |Dm . . . |Am . Em7 . |Am . . . |

                     F     C7     F
I don't claim to be guilty
               Dm     Am7     Dm
Guilty's too grand
           Bb             A               Dm
There's a Law, there's an Arm, there's a Hand
           Bb             A               Dm    A7
There's a Law, there's an Arm, there's a Hand

That's all I can say, baby
That's all I can say
It wasn't for nothing
That they put me away
I fell with my angel
Down the chain of command
There's a Law, there's an Arm, there's a Hand
There's a Law, there's an Arm, there's a Hand
There's a Law, there's an Arm, there's a Hand

Вверх

The Letters

Chords:

D7sus4:       x57585
D/a:          557775
D#maj7:       x68786
D#7sus4:      x68696
D#/a#:        668886
Emaj7:        x79897

Intro: Gm . . . |D7sus4 . D7 .|Gm . . . |Dm7 . D/a . |

     Gm                 D7sus4   D7
You never liked to get
     Gm                   Dm7   D/a
The letters that I sent.
     Gm                      D7sus4   D7
But now you've got the gist
            D#maj7         D7sus4  D
Of what my letters meant.

        Gm                  D7sus4   D7
You're reading them again,
    Gm                     Dm7   D/a
The ones you didn't burn.
      Gm                      D7sus4   D7
You press them to your lips,
         D#maj7     D7sus4  D
My pages of concern.

Cm7                     Gm
I said there'd been a flood.
Cm7                     Gm
I said there's nothing left.
F                        D#
I hoped that you would come.
                  D
I gave you my address.

       G#m              D#7sus4   D#7
Your story was so long,
      G#m                 D#m7   D#/a#
The plot was so intense,
G#m                         D#7sus4   D#7
It took you years to cross
              Emaj7       D#7sus4  D#
The lines of self-defense.

G#m                        D#7sus4   D#7
The wounded forms appear:
     G#m                    D#m7   D#/a#
The loss, the full extent;
G#m                     D#7sus4   D#7
And simple kindness here,
         Emaj7            D#7sus4  D#
The solitude of strength.

C#m7                    G#m
I said there'd been a flood.
C#m7                    G#m
I said there's nothing left.
F#                       E
I hoped that you would come.
                  D#7sus4  D#
I gave you my address.

     Gm                 D7sus4   D7
You walk into my room.
      Gm                    Dm7   D/a
You stand there at my desk,
  Gm                 D7sus4   D7
Begin your letter to
               Gm          Dm7   D/a
The one who's coming next.
    D#               D7
(Begin your letter to)
D#maj7  D7                        Gm
(Oooooooo... the one who's coming next)

			      Spoken:
Gm . . . |D7sus4 . D7 . |
(You never liked to get the letters that I sent.)
Gm . . . |Dm7 . D/a . |
(But now you've got the gist of what my letters meant.)
Gm . . . |D7sus4 . D7 . |
(You're reading them again, the ones you didn't burn.)
D#maj7 . . . |D7sus4 . D7 .|
(You press them to your lips, my pages of concern.)

Gm . . . |D7sus4 . D7 . |
(I said there'd been a flood. I said there's nothing left.)
Gm . . . |Dm7 . D/a . |
(I hoped that you would come. I gave you my address.)
Gm . . . |D7sus4 . D7 . |
(Your story was so long, the plot was so intense,)
D#maj7 . . . |D7sus4 . D7 .|
(It took you years to cross the lines of self-defense.)

Gm . . . |D7sus4 . D7 . |
(The wounded forms appear: the loss, the full extent;)
Gm...
(And simple kindness here, the solitude of strength.)

Вверх

The Lost Canadian (Un Canadien Errant)

Intro: F . . . Bb C7 |C7 . . . . . |C7 . . . . F |F . . . . . |
       F . . . Bb C7 |C7 . . . . . |C7 . . . . F |F . . . . . |
       F . . . . . | . . . . . . |

F
Un canadien errant
 Dm      Bb      C7
Banni de ses foyers
                   F
Parcourait en pleurant
  Gm     A7    Dm
Des pays etrangers
       F   Bb      F
Parcourait en pleurant
    Gm   C7    F
Des pays etrangers

Un jour, triste et pensif
Assis au bord des flots
Au courant fugitif
Il adressa ses mots
Au courant fugitif
Il adressa ses mots

Si tu vois mon pays
Mon pays malheureux
Va dire a mes amis
Que je me souviens d'eux
Va dire a mes amis
Que je me souviens d'eux

O jours si pleins d'appas
Vous etes disparus
Et mon pays, helas
Je ne le verrai plus
Et mon pays, helas
Je ne le verrai plus

Вверх

The Old Revolution Intro: E

Intro: E

   E     A                  E
I finally broke into the prison
B            B7           E     E7
I found my place in the chain
A                  E             Am
Even damnation is poisoned with rainbows
E                      G#                             C#m
All the brave young men they're waiting now to see a signal
            A              F#m          B     B7
Which some killer will be lighting for pay

A                   E               Am
Into this furnace I ask you now to venture
 E          B         A     E
You whom I cannot betray

I fought in the old revolution
On the side of the ghost and the King
Of course I was very young and I thought that we were winning
I can't pretend I still feel very much like singing
As they carry the bodies away

Into this furnace I ask you now to venture
You whom I cannot betray

Lately you've started to stutter
As though you had nothing to say
To all of my architects let me be traitor
Now let me say I myself gave the order
To sleep and to search and to destroy

Into this furnace I ask you now to venture
You whom I cannot betray

Yes, you who are broken by power
You who are absent all day
You who are kings for the sake of your children's story
The hand of your beggar is burdened down with money
The hand of your lover is clay

Into this furnace I ask you now to venture
You whom I cannot betray

Вверх

The Partisan

Leonard Cohen: The Partisan (La Complainte du Partisan)
               (French text: Bernard, Music: Anna Marly,
                English text: Hy Saret)
               from the CD's "Songs from a room", "Greatest Hits" and
               "Heart Housed in a Thorn Bush" (Live at Montreux, 1984)
the pattern I play I've learned from a friend (erwin). Its easier to play,
but may be there is a certain loss of quality.
 erwins pattern
  Am                          C*               E*
e|----------0---------------|-----------0---|-----------0--|
B|-------1-----1------------|--------1------|--------0-----|
G|----2-----------2-----2---|-----0---------|-----1--------|
D|-------------------2------|---------------|--------------|
A|-0------------------------|--3------------|--------------|
E|--------------------------|---------------|--0-----------|
   p  i  m  a  m  i  p  i      p  i  m  a      p  i  m  a
The pattern is played two times per bar (indicated by / in first verse).
In the first and second line of every verse there are three chords per bar
and i play the pattern C* and E*.
Cohen plays ?don't really know?
   Am                                  C*                    E*
e|------------------------0----------|--------------------|-------------------|
B|------1--------1-----1-----------1-|--------1--------1--|--------0--------0-|
G|---2--------2-----2-----------2----|-----0--------0-----|-----1--------1----|
D|---------2-----------------2-------|-----------2--------|-----------2-------|
A|0----------------------------------|--3-----------------|--2----------------|
E|-----------------------------------|--------------------|-------------------|
   p  i  m  p  i  m  p  i  m  p  i  m    etc.
 There are twentyfour notes (triplets) per bar, to much for my fingers.
Am  Am  / Am   Am
         /C*       E*        Am
When they poured a-cross the border
     /C*        E*     Am
I was cautioned to sur-render,
      /C         G   /G (2/4)
this I could not do;
F           F          /C       E  /Am  Am/Am  Am
  I took my gun and van-ished.
       C*         E*      Am
I have changed my name so often,
     C*      E*       Am
I've lost my wife and children
           C        G       G
but I have many fri-ends,
F           F                C    E /Am  Am/Am Am
   and some of them are with me.
       C*    E*      Am
An old woman gave us shelter,
        C*     E*     Am
kept us hidden in the garret,
         C        G      G
then the soldiers came;
F            F              C     E Am Am/Am Am
    she died without a whis-per.
           C*       E*      Am
There were three of us this morning              Hier encor nous ‚tions troi
        C*   E*       Am
I'm the only one this evening                    Il ne reste plu que moi
      C       G     G
but I must go on;                                Et je tourne en rond
F            F                C   E Am Am/Am Am
  the fron-tiers are my pri-son.                 Dans la prison des frontieres
        C*        E*      Am
Oh, the wind, the wind is blowing,               La vent passe sur les tombles
            C*         E*      Am
through the graves the wind is blowing,          La libert‚ reviendra
        C         G        G
freedom soon will come;                          Oh nous oubliera!
F              F                C  E /Am Am/Am Am
  then we'll come from the shad-ows.             Nous retrerons dans l'ombre.
         C*      E*          Am
Les Alle-mands ‚-taient chez moi,      [The Germans were at my home
        C*       E*    Am
ons m'a dit: "Re-signe toi,"            They said, "Sign yourself,"
        C        G    G
mais je n'ai pas peur;                      But I am not afraid
F       F             C   E /Am Am/Am Am
   j'ai repris mon ѓr-me.                  I have retaken my weapon
          C*      E       Am
J'ai chan-g‚ cent fois de nom,         I have changed names a hundred times
         C*       E*    Am
j'ai per-du femme et en-fants            I have lost wife and children
          C        G       G
mais j'ai tant d'a-mis;                     But I have so many friends
F                     C   E Am Am/Am Am
    j'ai la France en-tiЉre.                  I have all of France
         C*         E*     Am
Un vieil homme dans un gre-nier               An old man, in an attic
        C*        E*   Am
pour la nuit nous a ca-ch‚s,                  Hid us for the night
         C           G     G
les Alle-mands l'ont prisent;                     The Germans captured him
F         F                C  E Am Am/Am Am
   il est mort sans surpri-se.                  He died without surprise.]
        C*        E*      Am
Oh, the wind, the wind is blowing,
            C*         E*      Am
through the graves the wind is blowing,
        C         G        G
freedom soon will come;
F              F                  C      E   Am Am/Am Am (appregio)
    then we'll come from the shad-ows.
Improvements welcome! Adi.Heindl@chemie.uni-regensburg.de

Вверх

The Partisan (2 вариант)

Tuning: D G C F A D (standard, full step down)

Intro: Am

           C        E/b      Am
When they poured across the border
       C         E/b   Am
I was cautioned to surrender
  C               G
This I could not do
F                  C      E/b   Am
I took my gun and vanished

I have changed my name so often
I've lost my wife and children
But I have many friends
And some of them are with me

An old woman gave us shelter
Kept us hidden in the garret
Then the soldiers came
She died without a whisper

There were three of us this morning
I'm the only one this evening
But I must go on
The frontiers are my prison

Oh, the wind, the wind is blowing
Through the graves the wind is blowing
Freedom soon will come
Then we'll come from the shadows

Les Allemands e'taient chez moi
Ils me dirent, "Signe toi"
Mais je n'ai pas peur
J'ai repris mon arme

J'ai change' cent fois de nom
J'ai perdu femme et enfants
Mais j'ai tant d'amis
J'ai la France entie're

Un vieil homme dans un grenier
Pour la nuit nous a cache'
Les Allemands l'ont pris
Il est mort sans surprise

Oh, the wind, the wind is blowing
Through the graves the wind is blowing
Freedom soon will come
Then we'll come from the shadows



Intro:

    Am
    |           .           .           .
D|---------------------------------------------------|
A|------1-----1-----1-----1-----1-----1-----1-----1--|
F|----2-----2-----2-----2-----2-----2-----2-----2----|
C|--------2-----------2-----------2-----------2------|
G|--0-----------------------0------------------------|
D|--------------0-----------------------0------------|  (x4)

    Am
    |           .           .           .
D|---------------------------------------------------|
A|------1-----1-----1-----1-----1-----1-----1-----0--|
F|----2-----2-----2-----2-----2-----2-----2-----0----|
C|--------2-----------2-----------2-----------0------|
G|--0-----------------------0------------------------|
D|--------------0-----------------------0------------|


Verse:

    C           E/b         Am
    |           .           .           .
D|---------------------------------------------------|
A|------1-----1-----0-----0-----1-----1-----1-----0--|
F|----0-----0-----1-----1-----2-----2-----2-----0----|
C|--------2-----------2-----------2-----------0------|
G|--3-----------2-----------0------------------------|
D|--------------------------------------0------------|

    C           E/b         Am
    |           .           .           .
D|---------------------------------------------------|
A|------1-----1-----0-----0-----1-----1-----1-----0--|
F|----0-----0-----1-----1-----2-----2-----2-----0----|
C|--------2-----------2-----------2-----------0------|
G|--3-----------2-----------0------------------------|
D|--------------------------------------0------------|

    C                       G
    |           .           .           .
D|---------------------------------------------------|
A|------1-----1-----1-----0-----3-----3-----3-----3--|
F|----0-----0-----0-----0-----4-----4-----4-----4----|
C|--------2-----------0-----------5-----------5------|
G|--3-----------3-----------------------5------------|
D|--------------------------3------------------------|

    G                       F
    |           .           .           .
D|---------------------------------------------------|
A|------3-----3-----3-----0-----1-----1-----1-----1--|
F|----4-----4-----4-----0-----2-----2-----2-----2----|
C|--------5-----------0-----------3-----------3------|
G|--------------5-----------------------3------------|
D|--3-----------------------1------------------------|

    F                       C
    |           .           .           .
D|---------------------------------------------------|
A|------1-----1-----1-----0-----1-----1-----1-----0--|
F|----2-----2-----2-----0-----0-----0-----0-----0----|
C|--------3-----------0-----------2-----------0------|
G|--------------3-----------3-----------3------------|
D|--1------------------------------------------------|

    E/b                     Am
    |           .           .           .
D|---------------------------------------------------|
A|------0-----0-----0-----0-----1-----1-----1-----1--|
F|----1-----1-----1-----0-----2-----2-----2-----2----|
C|--------2-----------0-----------2-----------2------|
G|--2-----------2-----------0------------------------|
D|--------------------------------------0------------|

    Am
    |           .           .           .
D|---------------------------------------------------|
A|------1-----1-----1-----1-----1-----1-----1-----1--|
F|----2-----2-----2-----2-----2-----2-----2-----2----|
C|--------2-----------2-----------2-----------2------|
G|--0-----------------------0------------------------|
D|--------------0-----------------------0------------|

    Am
    |           .           .           .
D|---------------------------------------------------|
A|------1-----1-----1-----1-----1-----1-----1-----0--|
F|----2-----2-----2-----2-----2-----2-----2-----0----|
C|--------2-----------2-----------2-----------0------|
G|--0-----------------------0------------------------|
D|--------------0-----------------------0------------|

Вверх

There for You

Intro: Fm . . . |C7 . . . |Fm . . . |C7 . . . |
       Fm . . . |C7 . . . |Fm . . . |C7 . . . |

                  Fm    C7
When it all went down
         Fm               C7
And the pain came through
   Fm        C7
I get it now
                 Fm     C7
I was there for you

Don't ask me how
I know it's true
I get it now
I was there for you

   Bbm7         F7
I make my plans
       Bbm7       F7
Like I always do
         Bbm7        F7
But when I look back
        Bbm7     C7
I was there for you

I walk the streets
Like I used to do
And I freeze with fear
But I'm there for you

          Eb
I see my life
    Db
In full review
        Eb      Db
It was never me
       C7      Fm   C7   Fm   C7
It was always you

     Db        Fm
You sent me here
     Eb           Fm
You sent me there
Db         Fm
Breaking things
   Eb      Fm
I can't repair

Ab
Making objects
Eb
Out of thoughts
        Bbm
Making more
     C7
By thinking not

Eating food
And drinking wine
A body that
I thought was mine

Dressed as Arab
Dressed as Jew
O mask of iron
I was there for you

           Bbm7   F7
Moods of glory
          Bbm7   F7
Moods so foul
                   Bbm7   F7
The world comes through
          Bbm7   F7
A bloody towel

             Bbm7   F7
And death is old
                 Bbm7    F7
But it's always new
               Bbm7   F7
I freeze with fear
                   Bbm7   C7
And I'm there for you

I see it clear
I always knew
It was never me
I was there for you

        Eb
I was there for you
    Db
My darling one
     Eb         Db
And by your law
   C7       Fm   C7   Fm   C7
It all was done

Don't ask me how
I know it's true
I get it now
I was there for you

Don't ask me how
I know it's true
I get it now
I was there for you



Guitarist friendly version
Capo 1st fret

Intro: Em . . . |B7 . . . |Em . . . |B7 . . . |
       Em . . . |B7 . . . |Em . . . |B7 . . . |

                  Em    B7
When it all went down
         Em               B7
And the pain came through
   Em        B7
I get it now
                 Em     B7
I was there for you

Don't ask me how
I know it's true
I get it now
I was there for you

   Am7          E7
I make my plans
       Am7        E7
Like I always do
         Am7         E7
But when I look back
        Am7      B7
I was there for you

I walk the streets
Like I used to do
And I freeze with fear
But I'm there for you

   D
I see my life
    C
In full review
        D       C
It was never me
       B7      Em   B7   Em   B7
It was always you

     C         Em
You sent me here
     D            Em
You sent me there
C          Em
Breaking things
   D       Em
I can't repair

G
Making objects
D
Out of thoughts
        Am
Making more
     B7
By thinking not

Eating food
And drinking wine
A body that
I thought was mine

Dressed as Arab
Dressed as Jew
O mask of iron
I was there for you

           Am7   E7
Moods of glory
          Am7   E7
Moods so foul
                   Am7   E7
The world comes through
          Am7   E7
A bloody towel

             Am7   E7
And death is old
                 Am7    E7
But it's always new
               Am7   E7
I freeze with fear
                   Am7   B7
And I'm there for you

I see it clear
I always knew
It was never me
I was there for you

        D
I was there for you
    C
My darling one
     D         C
And by your law
   B7       Em   B7   Em   B7
It all was done

Don't ask me how
I know it's true
I get it now
I was there for you

Don't ask me how
I know it's true
I get it now
I was there for you

Вверх

There Is a War

Tuning: C F A# D# G C (standard, two full steps down)

Intro: Am

            Am
There is a war between the rich and poor
                               G
A war between the man and the woman
            Am
There is a war between the ones who say there is a war
                                G
And the ones who say that there isn't

               D                   C       G
Why don't you come on back to the war
               D       C           G
Why don't you come on back to the war

Oh yes I live here with a woman and a child
The situation makes me kind of nervous
Yes, I rise up from her arms, she says, "I guess you call this love"
I call it room service

Why don't you come on back to the war
Why don't you come on back to the war

You cannot stand what I've become
You much prefer the gentleman I was before
I didn't even know there was a war

Why don't you come on back to the war
Why don't you come on back to the war

Am . . . |. . . . |G . . . |. . . . |
Am . . . |. . . . |G . . . |. . . . |

  D                   C      G
(Come on back to the war)
  D                   C      G
(Come on back to the war)

There is a war between the rich and poor
A war between the man and the woman
There is a war between the left and right
A war between the black and white
A war between the odd and the even

Why don't you come on back to this war
Why don't you come on back

(Come on back to the war)
(Come on back to the war)
(Come on back to the war)
(Come on back to the war)

Вверх

The Smokey Life

Chords:

A/g:          3x2220
F#m7:         242222
F13:          131231
G#dim:        xx0101   or   456464
E7/g#:        420100
E/d:          xx0100   or   xx0454

Intro: A     .     |A/g   .     |F#m7  .     |F13   .     |
       A     .     |A/g   .     |F#m7  .     |F13   .     |
       E     .     |E     F#m/e |E7    A/e   |Bm/e  E     |    (see tab below)

A              A/g   F#m7        F13
I've never seen your eyes so wide
      A                     A/g        F#m7      F13      Em
I've never seen your appetite quite this occupied
D     Dm7          A       G#dim A      E7/g#    A      E7/g#
Elsewhere is your feast of love, I know

      A        A/g     F#m7        F13
Long ago we agreed to keep it light
    A         A/g    F#m7     F13    Em
So let's be married one more night
D         Dm7       A      E7/g#
It's light, light enough
           A      E7/g#    A     E7/g#
To let it go
    D   Dm7 A      G#dim
It's light enough
           A    Bm7  C
To let it go

C#                                 F#m    B7    F#m    B7
Remember when the scenery started fading
C#                                     F#m    B7    F#m    B7
I held you 'til you learned to walk on air
D                  E/d
So don't look down, the ground is gone
                C#m7      F#m
There's no one waving anyway
      B              Bm7     E
The smokey life is practiced everywhere

So set your restless heart at ease
Take a lesson from these autumn leaves
They waste no time waiting for the snow

Don't argue now or you'll be late
There's nothing to investigate
It's light enough, light enough
To let it go
Light enough
To let it go

Remember when the scenery started fading
I held you 'til you learned to walk on air
So don't look down, the ground is gone
There's no one waving anyway
The smokey life is practiced everywhere

Come on back if the moment lends
You can look up all my very closest friends
Light, light enough
To let it go
It's light, light enough
           A     A/g    F#m7   F13    A
To let it go



Chords in the intro can be played like this:

    A           A/g         F#m7        F13
    |     .     |     .     |     .     |     .
E|--0-----------0-----------2-----------1-----------|
B|--2-----------2-----------2-----------3-----------|
G|--2-----------2-----------2-----------2-----------|
D|--------------------------------------------------|
A|--0-----------------------------------------------|
E|--------------3-----------2-----------1-----------|   (2x)


    E           E     F#m/e E7    A/e   Bm/e  E
    |     .     |     .     |     .     |     .
E|--0-----------4-----5-----7-----9-----10----12----|
B|--0-----------5-----7-----9-----10----12----12----|
G|--1-----------4-----6-----7-----9-----11----13----|
D|--------------------------------------------------|
A|--------------------------------------------------|
E|--0-----------0-----0-----0-----0-----0-----0-----|

Вверх

The Stranger Song

Intro: D

       D                /c       D        A
It's true that all the men you knew were dealers
                                 E
Who said they were through with dealing
                           F#m
Every time you gave them shelter
         E
Well I know that kind of man
              F#m
It's hard to hold the hand of anyone
        E                               F#m
Who is reaching for the sky just to surrender
        E                               F#m
Who is reaching for the sky just to surrender

And then sweeping up the jokers that he left behind
You'll find he did not leave you very much
No, not even laughter
Like any dealer he was watching for the card
That is so high and wild
He'll never need to deal another
He was just some Joseph looking for a manger
Just some holy Joseph looking for a manger

And then leaning on your window sill
He'll say one day you caused his will
To weaken with your love, your warmth and your shelter
And then taking from his wallet
An old schedule of trains, he'll say
I told you when I came I was a stranger
I told you when I came I was a stranger

Ah but now another stranger seems
To want you to ignore his dreams
As though they were the burden of some other
O you've seen that man before
His golden arm dispatching cards
But now it's rusted from the elbow to the finger
And he wants to trade the game he plays for shelter
Yes he wants to trade the song he sings for shelter

Well you hate to watch another tired man
Lay down his hand
Like he was giving up the holy game of poker
And while he talks his dreams to sleep
You notice there's a highway
That is curling up like smoke above his shoulder
And now suddenly you look a little older
Yeah suddenly you feel a little older

Well you tell him to come in sit down
But something makes you turn around
The door is open you cannot close your shelter
You try the handle of the road
It opens do not be afraid
It's you my love, you who are the stranger
It is you my love, you who are the stranger

Well, I've been waiting, I was sure
We'd meet between the trains we're waiting for
I think it's time to board another
Please understand, I never had a secret chart
To get me to the heart of this
Or any other matter
Well he talks like this you don't know what he's after
Yes he speaks like this, you don't know what he's after

Let's meet tomorrow if you choose
Upon the shore, beneath the bridge
That they are building on some endless river
Then he leaves the platform
For the sleeping car that's warm
You realize, he's only advertising on more shelter
And it comes to you, he never even was that stranger
And you say okay the bridge or someplace later

And then sweeping up the jokers that he left behind
You'll find he did not leave you very much
No, not even laughter
Like any dealer he was watching for the card
That is so high and wild
He'll never need to deal another
Yeah was just some Joseph looking for a manger

And leaning on your window sill
He'll say one day you caused his will
To weaken with your love, your warmth and your shelter
And then taking from his wallet
An old schedule of trains
He'll say, I told you when I came I was a stranger
I told you when I came I was a stranger
I told you when I came I was a stranger

Вверх

The Stranger Song (2 вариант)

Intro: Esus2-Em

Исполняется приблизительно так
(обратите внимание на струну G):

  Esus2   Em      Esus2   Em
E|---------------------------------|
B|---------------------------------|
G|-2---0---0---0---2---0---0---0---|
D|---2---2---2---2---2---2---2---2-|
A|-----2-------2-------2-------2---|
E|-0-------0-------0-------0-------|

(Похожий перебор используется на протяжении всей
песни. Играется очень быстро)

Далее: Esus2-Em = Em*

  C/G       G6         G*      D*/F
E|-(0)-|   |-(0)-|   |--x--|  |-(0)-|
B|--1--|   |--0--|   |-(0)-|  |-(0)-|
G|--0--|   |--0--|   |--0--|  |--2--|
D|--2--|   |--0--|   |--0--|  |--0--|
A|--3--|   |--2--|   |--5--|  |--0--|
E|-(3)-|   |-(0)-|   |--3--|  |--2--|

Em*   C/G              G6                 G*
It?s true that all the men you knew were dealers
                                 D*/F
who said they were through with dealing
                           Em*
Every time you gave them shelter
  D*/F
I know that kind of man
              Em*
It?s hard to hold the hand of anyone
        D*/F                            Em*
who is reaching for the sky just to surrender,
        D*/F                            Em*
who is reaching for the sky just to surrender.

And then sweeping up the jokers that he left behind
you find he did not leave you very much
not even laughter
Like any dealer he was watching for the card
that is so high and wild
he?ll never need to deal another
He was just some Joseph looking for a manger
He was just some Joseph looking for a manger

And then leaning on your window sill
he?ll say one day you caused his will
to weaken with your love and warmth and shelter
And then taking from his wallet
an old schedule of trains, he?ll say
I told you when I came I was a stranger
I told you when I came I was a stranger.

But now another stranger seems
to want you to ignore his dreams
as though they were the burden of some other
O you?ve seen that man before
his golden arm dispatching cards
but now it?s rusted from the elbows to the finger
And he wants to trade the game he plays for shelter
Yes he wants to trade the game he knows for shelter.

Ah you hate to see another tired man
lay down his hand
like he was giving up the holy game of poker
And while he talks his dreams to sleep
you notice there?s a highway
that is curling up like smoke above his shoulder.
It is curling just like smoke above his shoulder.

You tell him to come in sit down
but something makes you turn around
The door is open you can?t close your shelter
You try the handle of the road
It opens do not be afraid
It?s you my love, you who are the stranger.

Well, I?ve been waiting, I was sure
we?d meet between the trains we?re waiting for
I think it?s time to board another
Please understand, I never had a secret chart
to get me to the heart of this
or any other matter
When he talks like this
you don?t know what he?s after
When he speaks like this,
you don?t know what he?s after.

Let?s meet tomorrow if you choose
upon the shore, beneath the bridge
that they are building on some endless river
Then he leaves the platform
for the sleeping car that?s warm
You realize, he?s only advertising one more shelter
And it comes to you, he never was a stranger
And you say ok the bridge or someplace later.

And then sweeping up the jokers that he left behind ...

And leaning on your window sill ...

I told you when I came I was a stranger.

Вверх

The Traitor

Intro: A..|E.. ...|D.. ...|A.. ...|... ...|
           E.. ...|D.. ...|A.. ...|... ...|

         A               D              A
Now the Swan it floated on the English River
        A            D                 A
Ah the Rose of High Romance it opened wide
  C#              F#m                   D       A
A suntanned woman yawned me through the summer
         E                 D              A
And the Judges watched us from the other side

I told my mother, Mother I must leave you
Preserve my room, but do not shed a tear
Should rumours of a shabby ending reach you,
It was half my fault, and half the atmosphere

But the Rose I sickened with a scarlet fever
And the Swan I tempted with a sense of shame
She said at last I was her finest lover
     B                              E     E7
And if she withered, I would be to blame

The Judges said, You missed it by a fraction
Rise up and brace your troops for the attack
The Dreamers ride against the Man of Action
Oh see the Man of Action falling back

But I lingered on her thighs a fatal moment
I kissed her lips as though I thirsted still
My falsity it stung me like a hornet
The poison sank and it paralyzed my will

I could not move to warn all the younger soldiers
That they had been deserted from above
So on battlefields from here to Barcelona
     B                          E7
I'm listed with the enemies of love

And long ago she said, I must be leaving
Ah, but keep my body here to lie upon
You can move it up and down and when I'm sleeping
Run some wire through that Rose and wind the Swan

So daily I renew my idle duty
I touch her here and there, I know my place
I kiss her open mouth and I praise her beauty
And people call me Traitor to my face

Вверх

The Window

Intro: A.. ...|E.. ...|D.. ...|A.. ...|
       A.. ...|E.. ...|D.. ...|A.. ...|... ...|

    A                       E
Oh why do you stand by the window
  D                       A
Abandoned to beauty and pride
                                E
The thorn of the night in your bosom
      D                       A
The spear of the age in your side

Lost in the rages of fragrance
Lost in the rags of remorse
Lost in the waves of a sickness
That loosens the high silver nerves

    E
O chosen love, o frozen love
   D           C#m Bm    A
O tangle of matter and ghost
    E
O darling of angels, demons and saints
          D           C#m Bm  A
And the whole broken-hearted host
 /a  /c# /d  E
Gentle this soul

And come forth from your cloud of unknowing
And kiss the cheek of the moon
The new Jerusalem glowing
Why tarry all night in this ruin

And leave no word of discomfort
Oh leave no observer to mourn
But climb on your tears and be silent
Like the rose on its ladder of thorn

O chosen love, o frozen love
O tangle of matter and ghost
O darling of angels, demons and saints
And the whole broken-hearted host
Gentle this soul

Then lay your rose on the fire
The fire give up to the sun
The sun give over to splendor
In the arms of the High Holy One

For the Holy One dreams of a letter
Ah dreams of a letter's death
Bless the continuous stutter
Of the word being made into flesh

O chosen love, o frozen love
O tangle of matter and ghost
O darling of angels, demons and saints
And the whole broken-hearted host
 /a  /g# /f# E     D  C#m  E   A
Gentle this soul, gentle this soul
             E     D  C#m  E  A
Gentle this soul, gentle this soul

Вверх

Tonight Will Be Fine

Tuning: C F Bb Eb G C (standard, two full steps down)

Intro: A

A                           E              A
Sometimes I find I get to thinking of the past
                                 E                 A
We swore to each other that our love would surely last
                          E            A
You kept right on loving, I went on a fast
                            E           A
Now I am too thin and your love is too vast

        D            A
But I know from your eyes
        D                            A
And I know from your pretty little smile
        D                      A
That tonight, tonight will be fine
                                     E      E7
Will be fine, will be fine, will be fine
        A
For a while

Well, I choose the rooms that I live in with care
The windows are small and the walls are almost bare
They've only got one bed and they've only got one prayer
And I listen all night for your step on the stair

But I know from your eyes
And I know from your pretty little smile
That tonight, tonight will be fine
Will be fine, will be fine, will be fine
For a while

Sometimes I see her undressing for me
She's the soft naked lady that love meant her to be
And she's moving her body so brave and so free
If I've got to remember that's a fine memory

And I know from your eyes
And I know from your pretty little smile
That tonight, tonight will be fine
Will be fine, will be fine, will be fine
For a while

I've looked into the mirrors in numberless places
They all smile back at me with their troublesome faces
And the cards that they dealt me, there weren't any aces
And the horses never listen to me at the races

But I know from your eyes
And I know from your pretty little smile
That tonight, tonight will be fine
Will be fine, will be fine, will be fine
For a while

There's still one or two of us walking the street
No arrows of direction painted under our feet
No angels to warn us away from the heat
And no honey to keep us where it is sweet

Ah but I know from your eyes
And I know from your pretty little smile
That tonight will be fine
Will be fine, will be fine, will be fine
For a while

And I know from your eyes
And I know from your pretty little smile
That tonight will be fine
Will be fine, will be fine, will be fine
For a while

Вверх

Tower of Song

Intro: B

          B
Well my friends are gone and my hair is grey
  B
I ache in the places where I used to play
          E                               B
And I'm crazy for love but I'm not coming on
          F#                  E
I'm just paying my rent everyday
                 B
In the Tower of Song

I said to Hank Williams: how lonely does it get?
Hank Williams hasn't answered yet
But I hear him coughing all night long
Oh a hundred floors above me
In the Tower of Song

I was born like this, I had no choice
I was born with the gift of a golden voice
And twenty-seven angels from the Great Beyond
They tied me to this table right here
In the Tower of Song

So you can stick your little pins in that voodoo doll
I'm very sorry, baby, doesn't look like me at all
I'm standing by the window where the light is strong
Ah they don't let a woman kill you
Not in the Tower of Song

Now you can say that I've grown bitter but of this you may be sure
The rich have got their channels in the bedrooms of the poor
And there's a mighty judgement coming, but I may be wrong
You see, you hear these funny voices
In the Tower of Song

G#m                       F#
I see you standing on the other side
   G#m                      F#
I don't know how the river got so wide
   E                          B
I loved you, baby, way back when
              G#m                        F#
And all the bridges are burning that we might have crossed
       G#m                    F#
But I feel so close to everything that we lost
       E                      F#
We'll never have to lose it again

Now I bid you farewell, I don't know when I'll be back
They're moving us tomorrow to that tower down the track
But you'll be hearing from me, baby, long after I'm gone
I'll be speaking to you sweetly
From a window in the Tower of Song

Yeah my friends are gone and my hair is grey
I ache in the places where I used to play
And I'm crazy for love but I'm not coming on
I'm just paying my rent everyday
In the Tower of Song

Вверх

True Love Leaves No Traces

Chords:

Am/e:     002210
Cm13/d#:  xx1213

Intro: F . . . |F . . . |Gm . . . |Gm . . . |
       F . . . |F . . . |Gm . . . |Gm . . . |

        F               Am/e
As the mist leaves no scar
Cm13/d#            D7
On the dark green hill
       Gm            C7
So my body leaves no scar
    F
On you and never will

Through windows in the dark
The children come, the children go
Like arrows with no targets
       F                     F  Am/e  Dm
Like shackles made of snow

  C7                  F
True love leaves no traces
    C7           F
If you and I are one
      C7             F
It's lost in our embraces
       C7               F     Gm
Like stars against the sun

As a falling leaf may rest
A moment on the air
So your head upon my breast
So my hand upon your hair

And many nights endure
Without a moon, without star
So will we endure
When one is gone and far

True love leaves no traces
If you and I are one
It's lost in our embraces
Like stars against the sun

F . . . |F . . . |Gm . . . |Gm . . . |

(instrumental verse)

True love leaves no traces
If you and I are one
It's lost in our embraces
Like stars against the sun...

Вверх

Undertow

Chords:

Cmaj7:   x32000  or  x35453
Cdim:    x31212  or  x01212

Intro:

G . . . . . |G . . . . /d |
G . . . . . |Cmaj7 . . . . /g |
G . . . . . |G . . . . /d |
G . . . . . |Cmaj7 . . . . /g |
G . . . . . |G . . . G7 Em7/d |
Dm . . . . . |Dm . . . . Em/a |
F . . . . . |F . . . . G/c |
Am . . . . . |Cdim . . . G C/f# |
Dm . . . . . |Dm . . . . . |

G              Cmaj7
I set out one night
                   G
When the tide was low
                          Cmaj7
There were signs in the sky
             G
But I did not know
G7  Em7 Dm
I'd be caught in the grip
               Dm  Em
Of an undertow
F
Ditched on a beach
                         F  G
Where the sea hates to go
         Am
With a child in my arms
        Cdim          G   C
And a chill in my soul
        Dm
And my heart the shape
      D7          G
Of a begging bo---owl
                     D7
I set out one night
                G
But I did not know

G . . . . . |G . . . . /d |
G . . . . . |Cmaj7 . . . . /g |      (La, la, la,...)
G . . . . . |G . . . . /d |
G . . . . . |Cmaj7 . . . . /g |
G . . . . . |G . . . G7 Em7/d |
Dm . . . . . |Dm . . . . Em/a |
(I'd be caught in the grip of an undertow)
F . . . . . |F . . . . G/c |
(Ditched on a beach where the sea hates to go)
Am . . . . . |Cdim . . . G C/f# |
(With a child in my arms and a chill in my soul)
Dm . . . . . |D7 . . . . . |
(And my heart the shape of a begging bowl)
G . . . . . |Cmaj7 . . .

Вверх

Waiting for the Miracle

Chords:

Ebdim:        xx1212

Intro: Em

 Em
Baby, I've been waiting
D                            Em
I've been waiting night and day

I didn't see the time
D                 Em
I waited half my life away
            D
There were lots of invitations
                        Ebdim   B7
And I know you sent me some
           Em    D
But I was waiting
         C    D           Ebdim          B7     Em
For the miracle, for the miracle to come

I know you really loved me
But, you see, my hands were tied
I know it must have hurt you
It must have hurt your pride
To have to stand beneath my window
With your bugle and your drum
And me I'm up there waiting
For the miracle, for the miracle to come

Ah I don't believe you'd like it
You wouldn't like it here
There ain't no entertainment
And the judgements are severe
The Maestro says it's Mozart
But it sounds like bubble gum
When you're waiting
For the miracle, for the miracle to come

 Am
Waiting for the miracle
         Em
There's nothing left to do
B7
I haven't been this happy
          Em
Since the end of World War II

                 Am
Nothing left to do

When you know that you've been taken
                 Em
Nothing left to do

When you're begging for a crumb
                 C
Nothing left to do

When you've got to go on waiting
 Ebdim                       B
Waiting for the miracle to come

Yeah I dreamed about you, baby
It was just the other night
Most of you was naked
Ah but some of you was light
The sands of time were falling
From your fingers and your thumb
And you were waiting
For the miracle, for the miracle to come

Ah baby, let's get married
We've been alone too long
Let's be alone together
Let's see if we're that strong
Yeah let's do something crazy
Something absolutely wrong
While we're waiting
For the miracle, for the miracle to come

Nothing left to do
When you know that you've been taken
Nothing left to do
When you're begging for a crumb
Nothing left to do
When you've got to go on waiting
Waiting for the miracle to come

When you've fallen on the highway
And you're lying in the rain
And they ask you how you're doing
Of course you say you can't complain
If you're squeezed for information
That's when you've got to play it dumb
You just say you're out there waiting
For the miracle, for the miracle to come

Вверх

Who by Fire

Intro: Am/e . . . |Am/e . . . |Am/f . . . |Am/f . . . |
       E . . . |E . . . |E . . . |E . . . |

     Am  G  Am
And who by fire
 Am  G  Am
Who by water
  C  G      C
Who in the sunshine
  C  G      C
Who in the night time
 Am  G  Am
Who by high ordeal
 Am  G  Am
Who by common trial
  C          G           C
Who in your merry merry month of may
  C     G     C
Who by very slow decay
      Am/e       Am/f   E
And who shall I say is calling?

And who in her lonely slip
Who by barbiturate
Who in these realms of love
Who by something blunt
And who by avalanche
Who by powder
Who for his greed
Who for his hunger
And who shall I say is calling?

And who by brave assent
Who by accident
Who in solitude
Who in this mirror
Who by his lady's command
Who by his own hand
Who in mortal chains
Who in power
And who shall I say is calling?

Am . G . |Am . . . |Am . . . |Am . . . |
Am . G . |Am . . . |Am . . . |Am . . . |
Am . G . |Am . . . |Am . . . |Am . . . |



Intro:

    Am/e                            Am/f
    |   .   .   .   |   .   .   .   |   .   .   .   |   .   .  .
E|-------------------------------------------------------------------|
B|--1-------------------------------1--------------------------------|
G|------2-------2-------2-------2------2--------2-------2-------2----|
D|----2---2---2---2---2---2---2---2---2-2-2---2---2---2---2---2---2--|
A|-------------------------------------------------------------------|
E|--0-------0-------0-------0-------1-------1-------1-------1--------|

    E
    |   .   .   .   |   .   .   .   |   .   .   .   |   .   .   .
E|-------------------------------------------------------------------|
B|-------------------------------------------------------------------|
G|------1---1---1---1---1---1---1---1---1---1---1---1---1---1---1----|
D|----2---2---2---2---2---2---2---2---2---2---2---2---2---2---2---0--|
A|-------------------------------------------------------------------|
E|--0----------------------------------------------------------------|


Verse:

    Am      G       Am                      G       Am
    |   .   .   .   |   .   .   .   |   .   .   .   |   .   .   .
E|-------------------------------------------------------------------|
B|--1-------0-------1---------------1-------0-------1----------------|
G|------2-------0-------2-------2-------2-------0-------2-------2----|
D|----2---2---0---0---2---2---2---2---2---2---0---0---2---2---2---2--|
A|--0---------------0---------------0---------------0----------------|
E|----------3---------------0---------------3---------------0--------|

    C       G       C                       G       C
    |   .   .   .   |   .   .   .   |   .   .   .   |   .   .   .
E|-------------------------------------------------------------------|
B|--1-------3-------1---------------1-------3-------1----------------|
G|------0-------0-------0-------0-------0-------0-------0-------0----|
D|----2---2---0---0---2---2---2---2---2---2---0---0---2---2---2---2--|
A|--3---------------3-------3-------3---------------3-------3--------|
E|----------3-------------------------------3------------------------|

    Am      G       Am                      G       Am
    |   .   .   .   |   .   .   .   |   .   .   .   |   .   .   .
E|-------------------------------------------------------------------|
B|--1-------0-------1---------------1-------0-------1----------------|
G|------2-------0-------2-------2-------2-------0-------2-------2----|
D|----2---2---0---0---2---2---2---2---2---2---0---0---2---2---2---2--|
A|--0---------------0---------------0---------------0----------------|
E|----------3---------------0---------------3---------------0--------|

    C       G       C                       G       C
    |   .   .   .   |   .   .   .   |   .   .   .   |   .   .   .
E|-------------------------------------------------------------------|
B|--1-------3-------1---------------1-------3-------1----------------|
G|------0-------0-------0-------0-------0-------0-------0-------0----|
D|----2---2---0---0---2---2---2---2---2---2---0---0---2---2---2---2--|
A|--3---------------3-------3-------3---------------3-------3--------|
E|----------3-------------------------------3------------------------|

    Am/e                            Am/f
    |   .   .   .   |   .   .   .   |   .   .   .   |   .   .   .
E|-------------------------------------------------------------------|
B|--1-------------------------------1--------------------------------|
G|------2-------2-------2-------2-------2-------2-------2-------2----|
D|----2---2---2---2---2---2---2---2---2---2---2---2---2---2---2---2--|
A|-------------------------------------------------------------------|
E|--0-------0-------0-------0-------1-------1-------1-------1--------|

    E
    |   .   .   .   |   .   .   .   |   .   .   .   |   .   .   .
E|-------------------------------------------------------------------|
B|--0----------------------------------------------------------------|
G|------1---1---1---1---1---1---1---1---1---1---1---1---1---1---1----|
D|----2---2---2---2---2---2---2---2---2---2---2---2---2---2---2---2--|
A|-------------------------------------------------------------------|
E|--0----------------------------------------------------------------|

Вверх

Why Don't You Try

A                 C#
Why don't you try to do without him
               D            A
Why don't you try to live alone
                                       C#
Do you really need his hands for your passion
        D                               A
Do you really need his heart for your throne
        E                        D
Do you need his labour for your baby
        E                      D
Do you need his beast for the bone
        E                            D
Do you need to hold a leash to be a lady
    A                D  C#m   Bm     A       G      B7     E
I know that you can make it, make it on your own

Why don't you try to forget him
Why just open up your dainty little hand
You know this life is filled with many sweet companions
Many satisfying one-night stands
Do you want to be the ditch around a tower
Do you want to be the moonlight in his cave
Do you want to give your blessing to his power
As he goes whistling past his daddy, past his daddy's grave

I'd like to take you to the ceremony
That is if I remember the way
You see Jack and Jill they're going to join their misery
I'm afraid it's time for everyone to pray
You can see they've finally taken cover
You can see that they're willing to obey
Their vows are difficult they're for each other
So let nobody put a loophole, a loophole in their way

Вверх

Winter Lady

Chords:

Amaj7:    x0665x
D':       x5403x
D'/a:     x0504x

Intro: Amaj7.. ...|D'.. ...|D'.. ...|

  D'      Amaj7 D'     C
Trav'ling lady, stay awhile
  D'       Amaj7    D'
Until the night is over
     D'     Amaj7 D'        C
I'm just a station on your way
    D'      Amaj7    D'
I know I'm not your lover

     D'/a           Am7
Well I lived with a child of snow
D'/a          Am7
When I was a soldier
    D'/a            Am7
And I fought every man for her
   D'/a                Am7      D'
Until the nights grew colder

She used to wear her hair like you
Except when she was sleeping
And then she'd weave it on a loom
Of smoke and gold and breathing

And why are you so quiet now
Standing there in the doorway?
You chose your journey long before
You came upon this highway

Trav'ling lady, stay awhile
Until the night is over
I'm just a station on your way
I know I'm not your lover




Intro:

    Amaj7                   D'
    |   .   .   .   .   .   |   .   .   .   .   .   |   .   .   .   .   .
E|---------------------------------------------------------------------------|
B|------5---5-------5---5-------3---3-------3---3-------3---3-------3---3----|
G|------6---6-------6---6-------0---0-------0---0-------0---0-------0---0----|
D|----6---6---6---6---6---0---4---4---4---4---4---4---4---4---4---4---4---4--|
A|--0-----------0-----------5-----------5-----------5-----------5------------|
E|---------------------------------------------------------------------------|


Verse:

    D'          Amaj7       D'          C
    |   .   .   .   .   .   |   .   .   .   .   .
E|---------------------------------------------------|
B|------3---3-------5---5-------3---3-------1---1----|
G|------0---0-------6---6-------0---0-------0---0----|
D|----4---4---0---6---6---0---4---4---4---2---2---2--|
A|--5-----------0-----------5-----------3------------|
E|---------------------------------------------------|

    D'          Amaj7       D'
    |   .   .   .   .   .   |   .   .   .   .   .   |   .   .
E|---------------------------------------------------------------|
B|------3---3-------5---5-------3---3-------5---5-------3---3----|
G|------0---0-------6---6-------0---0-------0---0-------0---0----|
D|----4---4---0---6---6---0---4---4---4---4---4---4---4---4---4--|
A|--5-----------0-----------5-----------5-----------5------------|
E|---------------------------------------------------------------|  (2x)


Bridge:

    D'/a                    Am7
    |   .   .   .   .   .   |   .   .   .   .   .
E|---------------------------------------------------|
B|------3---3-------3---3-------1---1-------1---1----|
G|------0---0-------0---0-------0---0-------0---0----|
D|----4---4---4---4---4---4---2---2---2---2---2---2--|
A|--0-----------0-----------0-----------0------------|
E|---------------------------------------------------|  (x4)

    D'
    |   .   .   .   .   .   |   .   .   .   .   .
E|---------------------------------------------------|
B|------3---3-------5---5-------3---3-------5---5----|
G|------0---0-------0---0-------0---0-------0---0----|
D|----4---4---4---4---4---4---4---4---4---4---4---4--|
A|--5-----------5-----------5-----------5------------|
E|---------------------------------------------------|

Вверх

You Have Loved Enough

Intro: G . . . |. . . . |Em . . . |. . . . |  (x2)

G                   Em
I said I'd be your lover
G                      Em
You laughed at what I said
G                Em
I lost my job forever
C                       D
I was counted with the dead

G                    Em
I swept the marble chambers
G                       Em
But you sent me down below
G                   Em
You kept me from believing
C  D               G
Until you let me know

C    D            Em
That I am not the one who loves
      A                C     D
It's love that seizes me
C     D               Em
When hatred with his package comes
        C  D      G
You forbid delivery

              G               Em
And when the hunger for your touch
       /f#  G
Rises from the hunger
Em             G                  Em
You whisper, "You have loved enough
                   G      Em
Now let me be the Lover"

And when the hunger for your touch
Rises from the hunger
You whisper, "You have loved enough
Now let me be the Lover"

C . . D |. . . . |Em . . . |. . . . |
C . . D |. . . . |Em . . . |. . . . |
C . . D |. . . . |Asus4 . . . |A . . . |
C . . . |. . . . |D . . . |. . . . |

I swept the marble chambers
But you sent me down below
You kept me from believing
Until you let me know

That I am not the one who loves
No, it's love that chooses me
When hatred with his package comes
You forbid delivery

And when the hunger for your touch
Rises from the hunger
You whisper, "You have loved enough
Now let me be the Lover"

And when the hunger for your touch
Rises from the hunger
You whisper, "You have loved enough
Now let me be the Lover"

And when the hunger for your touch
Rises from the hunger...

Вверх

You Know Who I Am

Intro: Am

   Am            Bm
I cannot follow you, my love
Am                 Bm
You cannot follow me
D                      A
I am the distance you put between
            G    G/F#            E
All of the moments that we will be

      D        A
You know who I am
         D            A
You've stared at the sun
     D        A
Well I am the one who loves
  G            G/F#      E      Am
Changing from nothing to one

 Am                   Bm
Sometimes I need you naked
Am                    Bm
Sometimes I need you wild
D                        A
I need you to carry my children in
       G      G/F#         E
And I need you to kill a child

      D        A
You know who I am
         D            A
You've stared at the sun
     D        A
Well I am the one who loves
  G            G/F#      E      Am
Changing from nothing to one

    Am               Bm
If you should ever track me down
Am                Bm
I will surrender there
D                               A
And I will leave with you one broken man
             G       G/F#   E
Whom I will teach you to repair

      D        A
You know who I am
         D            A
You've stared at the sun
     D        A
Well I am the one who loves
  G            G/F#      E      Am
Changing from nothing to one

   Am            Bm
I cannot follow you, my love
Am                 Bm
You cannot follow me
D                      A
I am the distance you put between
            G     G/F#           E
All of the moments that we will be

      D        A
You know who I am
         D            A
You've stared at the sun
     D        A
Well I am the one who loves
  G            G/F#      E      Am
Changing from nothing to one

Intro:
(h means hammer-on)
    Am
E|---------------------------------------------------|
B|------0---1---3---1---0h1-----0---1---3---1---0h1--|
G|------2---2---2---2---2-------2---2---2---2---2----|
D|----2---2---2---2---2-------2---2---2---2---2------|
A|--0-----------------------0------------------------|
E|---------------------------------------------------|
    Am
E|---------------------------------------------------|
B|------0---1---3---1---0h1-----0---1---3---1---0h1--|
G|------2---2---2---2---2-------2---2---2---2---2----|
D|----2---2---2---2---2-------2---2---2---2---2------|
A|--0-----------------------0------------------------|
E|---------------------------------------------------|

1st verse:
    Am                      Bm
E|---------------------------------------------------|
B|------1---1-------1---0-------3---3-------3---3----|
G|------2---2-------2---0-------4---4-------4---4----|
D|----2---2---2---2---2---0---4---4---4---4---4---4--|
A|--0-----------0-----------2-----------2------------|
E|---------------------------------------------------|
    Am                      Bm
E|------------------------------------------2---2----|
B|------1---1-------1---0-------3---2h3-----3---3----|
G|------2---2-------2---0-------4---4-----4---4---4--|
D|----2---2---2---2---2---0---4---4------------------|
A|--0-----------0-----------2-----------2------------|
E|---------------------------------------------------|
    D                       A
E|------2---2-------2---2-------0---0-------0---0----|
B|------3---3-------3---3-------2---0h2-----2---2----|
G|----2---2---2---2---2---2---2---2-------2---2---0--|
D|--0-----------0-----------------------2------------|
A|--------------------------0------------------------|
E|---------------------------------------------------|
    G           G/F#        E
E|------------------------------------------0---0----|
B|------0---0-------0---0-------0---0-------0---0----|
G|------0---0-------0---0-------1---1-----1---1---1--|
D|----0---0---0---0---0---0---2---2---2--------------|
A|--------------------------------------2------------|
E|--3-----------2-----------0------------------------|

1st chorus:
    D           A                      D
E|------2---2-------0---0-------0---0-------2---2----|
B|------3---3-------2---0h2-----2---2-------3---3----|
G|----2---2---2---2---2-------2---2---2---2---2---2--|
D|--0-----------------------2-----------0------------|
A|--------------0------------------------------------|
E|---------------------------------------------------|
    A                       D           A
E|------0---0-------0---0-------2---2-------0---0----|
B|------2---0h2-----2---2-------3---3-------2---2----|
G|----2---2-------2---2---2---2---2---2---2---2---0--|
D|--------------2-----------0------------------------|
A|--0-----------------------------------0------------|
E|---------------------------------------------------|
    G           G/F#        E
E|---------------------------------------------------|
B|------0---0-------0---0-------0---0-------0---0----|
G|------0---0-------0---0-------1---0h1-----0h1-1----|
D|----0---0---0---0---0---0---2---2-------2-------2--|
A|---------------------------------------------------|
E|--3-----------2-----------0-----------0------------|
    E                       Am
E|------------------------------0---0---0---0---0----|
B|------0---0-------0---0-------0---1---3---1---0h1--|
G|------0h1-1-------0h1-1-----2---2---2---2---2------|
D|----2-------2---2-------2--------------------------|
A|--------------------------0------------------------|
E|--0-----------0------------------------------------|
    Am
E|------0---0---0---0---0----|
B|------0---1---3---1---0h1--|
G|----2---2---2---2---2------|
D|---------------------------|
A|--0------------------------|
E|---------------------------|

Outro:
    Am
E|------3---1---0---1---0-------3---1---0---1---0----|
B|------1---1---1---1---1-------1---1---1---1---1----|
G|----2---2---2---2---2---2---2---2---2---2---2---2--|
D|---------------------------------------------------|
A|--0-----------------------0------------------------|
E|---------------------------------------------------|
    Am
E|---------------------------|
B|--1------------------------|
G|--2------------------------|
D|--2------------------------|
A|--0------------------------|
E|---------------------------|

Вверх
English songs 109

ABBA
AC-DC
Adams Bryan
Adriano Celentano
Aerosmith
A-Ha
Animals
Antonio Banderos
Apocalyptica
Armstrong Louis
Billy's Band
Bjork
Blink 182
Blondie
Blur
Bob Dylan
Boney M
Bon Jovi
Bowie David
Brainstorm
Braxton Toni
Butch
Celine Dion
Chris De Burgh
Chris Isaak
Chuck Berry
Clapton Eric
Cohen Leonard
Cranberries
Deep Purple
Depeche Mode
Dire Straits
Donovan Jason
Eagles
Electric Light Orchestra
Elton John
Elvis Presley
Era
Europe
Evanescence
Garbage
Gary Moore
Glen Wiston
Gorillaz
Green Day
Guano Apes
Guns N Roses
Hendrix Jimi
Iggy Pop
Iron Maiden
Joe Dassin
Kansas
King Crimson
Kiss
Led Zeppelin
Leonard Cohen
Limp Bizkit
Linkin Park
Louis Amstrong
Madonna
Marilyn Manson
Marley Bob
Metallica
Moby
Morricone Ennio
Muse
Nazareth
Nelly Furtado
Nick Cave
Nirvana
No Doubt
Oasis
Offspring
Ottawan
Outkast
Ozzy Osbourne
Pain
Para Bellum
Pink Floyd
Placebo
P.O.D.
Queen
RadioHead
Rainbow
Rammstein
Rea Chris
Red Hot Chili Peppers
Ritchie Blackmore
Rolling Stones
Roxette
Rufus Wainwright
Santana
Sarah Brightman
Scorpions
Sex Pistols
Simon & Garfunkel
Shocking Blue
Soul Asylumx
Status Quo
Sting
System of a down
Sum 41
The Beatles
The Doors
Tito & Tarantula
U2
UB 40
Uriah Heep
Van Halen

Українські пісні 109

Boom Box
Escape
Flit
Kapela Drewutnia
Lama
LЮK
Mad Heads (XL)
Motor' rolla
NEON
Ot Vinta
The Вйо
Абздольц
Аероплан
Акорд
Ані Лорак
Бандурна розмова
Білик Ірина
Борщ
Брати Гадюкіни
Вася Club
Вій
Воплі Відоплясова
Гайдамаки
Гончар Олесь
Гринжоли
Гроно
Гуляйгород
Дарка і Славко
Дивні
Друга Ріка
Другий подих
Дударик
Експампей
Євтушенко Андрій
Жарівка (Дяк Олесь)
Журбовіз
Зібров Павло
Зінкевич Василь
Злотник Олександр
Івасюк Володимир
Калєкція
Карна
Карпа Ірена
Клямка
Козловський Віталій
Кому вниз
Крихітка Цахес
Курінь
Лесик-Band
Лорд Юрія
Львівські музики
Мандри
Менестрелі
Мері
Мертвий Півень
Міпеніум
Монте Крісто
Морозов Віктор
Нахтіґаль
Не журись!
Неборак Віктор
НеДІля
НЕМО
Нічлава блюз
Океан Ельзи
ПереBANDя
Перкалаба
Петрович
Піккардійська Терція
Піпа Олександр
Плач Єремїі
Пономарьов Олександр
Пророк
Росава
Ротару Софія
Руслана
Рутенія
С.К.А.Й.
САД
Самі свої
Серцевий Напад
Скрябін
Смерічка
Сокира Перука
Соколи
Таліта Кум
Тартак
Тінь сонця
Ткач Михайло
ТНМК
Тостер
Тріо Мареничів
Фарбований лис
Фестиваль Снів
Хвилю тримай
Цісик Квітка
Черемош
Черемшина
Четвертий кут
Чорний вересень
Чорні черешні
Шевченко Тарас
Щастя
Юркеш
Юрченко Юрко
Юрчишин Ярослав
Явір
Яка існуЄ
Яремчук Назарій

   
 sait@i.ua



Рейтинг@Mail.ru