accordS-land.ru Аккорды и табулатуры к гитаре.
Главная | Песенник | Аккорды | Учебник
Руссике песни 180
5nizza
7Б
9-й Район
Animal ДжаZ
Billy's Band
Butch
Para Bellum
TequilaJazzz
Worms
Zdob Si Zdub
Автоматические удовлетворители
Агата Кристи
Агузарова Жанна
Агутин Леонид
Адо
Аквариум
Алиса
Алсу
Амирамов Е.
Антонов Ю.
Арефьева Ольга
Ария
АукцЫон
Барыкин
Башаков Михаил
Башлачев Александр
БекХан
Бернес М.
Би - 2
Бони неМ
Борзов Найк
Боярский Михаил
Браво
Братья Грим
Ва-Банкъ
Вертинский Александр
Визбор Юрий
Високосный год
Воскресенье
Восьмая Марта
Высоцкий В.С.
Високосный год
Газманов О.
Галич Александр
Герман А.
Городницкий Александр
Глызин А.
Градский Александр
Гражданская Оборона
Гребещенков
Данко
ДДТ
Дидюля
Диоды
Дискотека Авария
Дягилева Янка
Ёлка
Жуки
Заблудовский Андрей
Запрещенные Барабанщики
Звери
Земляне
Земфира
Зинчук Виктор
Зоопарк
Иван Кайф
Иванов А.
Иваси
ИЗ КИНО И МУЛЬТФИЛЬМОВ
Империя
Калинов мост
Кашин Павел
Кельми К.
КИНО
Кипелов
Конец Фильма
Контингент
Корни
Король и Шут
Коррозия металла
Крематорий
Крупнов Анатолий
Кузьмин Владимир
Куликов Е.
Кукрыниксы
Курехин Сергей
Лаэртский Александр
Ласковый май
Ленинград
Леонидов Максим
Лесоповал
Лещенко Л.
Линда
Лицей
Лоза Юрий
Любэ
Люмен
Ляпис Трубецкой
Мальчишник
Манго-манго
Мара
Маркин В.
Маршал Александр
Маша и медведи
Машина времени
Мечтать
Мистер Кредо
Митяев Олег
Многоточье
Монгол Шуудан
Моральный Кодекс
Мультfильмы
Мумий Тролль
Настя
Науменко Майк
Наутилус Помпилиус
Непара
Неприкасаемые
Несчастный случай
Никоваев И.
Никольский Константин
Ногу свело
Ноль
Носков Николай
Ночные Снайперы
Окуджава Булат
Оркрист
Осин Е.
Оскар
Отиева И.
Паперный Т.А.М.
Парк Горького (Gorky Park)
Пикник
Пилот
Пламя
Полковник и однополчане
Пугачева А.
ПЭХ
Приключения Электроников
Просто прикольные песни
Рада и Терновник
Римский-Корсаков
Розенбаум Александр
Рок-Острова
Рондо
Сансара
Саруханов
Сегодня Ночью
Секрет
Сектор газа
Сенчина Л.
СерьГа
Смысловые Галлюцинации
Сплин
Солодуха А.
Старые блатные песни
Сукачев Гарик
Сурганова и Оркестр
Сюткин Валерий
Тальков Игорь
Танцы минус
Тараканы
Тату
Технология
УмаТурман
Умка и Броневичок
Ундервудъ
Фабрика звезд
Х.З. (Хуй Забей)
Центр
ЧайФ
Черный кофе
Черный Лукич
Чиж и Ко
Чистяков Федор
Шанхай
Щербаков Михаил
Ю-Питер

Классика 22

Албениз Исаак
Албениз Матео
Бах Иоган Себостьян
Бетховен Людвиг ван
Бизе Жорж
Брамс Иоганнес
Вивальди Антонио
Гендель Георг Фридрих
Гершвин Джордж
Григ Эдвард
Дебюсси Клод
Камиль Сен-Санс
Мендельсон
Моцарт Вольфгант Амадей
Мусоргский Модест Пертрович
Норис Крис
Огинский Михал Клеофас
Паганини Никколо
Рахманинов Сергей Васильевич
Римский-Корсаков
Чайковский Пётр Ильич
Шуберт Франц
 

 

Oasis

A Bell Will Ring
A Bell Will Ring (2 вариант)
Acquiesce
Acquiesce (2 вариант)
Alive
Alive (2 вариант)
All Around The World
All Around The World (2 вариант)
All Around The World (3 вариант)
All In The Mind
All In The Mind (2 вариант)
All You Need Is Love
Angel Child
Angel Child (2 вариант)
A Quick Peep
A Quick Peep (2 вариант)
As Long As Theyve Got Cigarettes In Hell
Be Here Now
Be Here Now (2 вариант)
Better Let You Know
Better Man
Better Man (2 вариант)
Bitter Sweet Symphony
Boneheads Bank Holiday
Boneheads Bank Holiday (2 вариант)
Born On A Different Cloud
Bring It On Down
Bring It On Down (2 вариант)
Carnation
Carry Us All
Carry Us All (2 вариант)
Cast No Shadow
Cast No Shadow (2 вариант)
Champagne Supernova
Champagne Supernova (2 вариант)
Cigarettes And Alcohol
Cigarettes And Alcohol (2 вариант)
Cigarettes And Alcohol (3 вариант)
Cigarettes In Hell
Cigarettes In Hell (2 вариант)
Cloudburst
Cloudburst (2 вариант)
Colour My Life
Colour My Life (2 вариант)
Columbia
Columbia (2 вариант)
Cum On Feel The Noize
Digsys Dinner
Digsys Dinner (2 вариант)
Digsys Dinner (3 вариант)
Dirty Magic
Don Look Back In Anger
Don't Go Away
Dont Go Away
Dont Go Away (2 вариант)
Dont Go Away (3 вариант)
Dont Go Away (4 вариант)
Dont Look Back In Anger
Dont Look Back In Anger (2 вариант)
Dont Look Back In Anger (3 вариант)
Do You Know What I Mean?
Do You Know What I Mean? (2 вариант)
Do You Know What I Mean? (3 вариант)
D You Wanna Be A Spaceman
Fade Away
Fade In-Out
Fade In-Out (2 вариант)
Flashbax
Force Of Nature
Force Of Nature (2 вариант)
Forever Acoustic
Fuckin In The Bushes
Fuckin In The Bushes (2 вариант)
Fuckin In The Bushes (3 вариант)
Full On
Gas Panic
Getting Older
Girl In The Dirty Shirt
Going Nowhere
Go Let It Out
Go Let It Out (2 вариант)
Guess God Thinks I’m Abel
Half The World Away
Half The World Away (2 вариант)
Headshrinker
Heroes
I Hope, I Think, I Know
Importance Of Being Idle
It's Getting Better
Keep the Dream Alive
Live Forever
Love Like a Bomb
Lyla
Magic Pie
Married with Children
Meaning of Soul
Mucky Fingers
My Big Mouth
My Sister Lover
On A Different Cloud
Part of the Queue
Rock 'N' Roll Star
Sad Song
Shakermaker
Slide Away
Stay Young
Supersonic
The Girl In The Dirty Shirt
Turn Up the Sun
Up In The Sky
Wonderwall
Wonderwall (2 вариант)
Wonderwall (3 вариант)
Вверх

A Bell Will Ring

CAPO ON THE 2ND FRET

* = (stroke down 3 times) -> you'll hear what
I mean if you listen to the song
*2 = (play these chords after every line in the song
which says "all will be brand new")

Intro : E / A / E / E /
D / A / E / A /
A / E /

E
a little space, a little time
Dsus2 E
see what it can do
E
a little faith, a piece of mind
Dsus2 E
see what puts things through

Dsus2 Asus2
the sun will shine on you again
E Dsus2
a bell will ring inside your head
A E
and all will be brand new

E
come along, come on in
Dsus2 E
here's something that you'll know
E
who wonders why as your restless there ?
Dsus2 E
so entertain your goal

Dsus2 Asus2
the sun will shine on you again
E Dsus2
a bell will ring inside your head
A E
and all will be brand new
A E
all will be brand new

E
i can tell you what you want to hear
Dsus2 E
i've been here once before
E
you put me through my empty night
Dsus E
sleepless on your floor

Dsus2 Asus2
the sun will shine on you again
E Dsus2
a bell will ring inside your head

A E
and all will be brand new
A E
all will be brand new
A E / A* E 3x <- *2
all will be brand new

(end on E)

Вверх

A Bell Will Ring (2 вариант)

INTRO:
[E------------------------------------------------------------------]
[B------------------------------------------------------------------]
[G--------9-9--9/11-9-8-8--8h9-------------------------------9-9----]
[D----11------------------------11----11-11-11-11---------11--------]
[A--9----------------------------------9--9--9--9-----7/9-----------]
[E------------------------------------------------------------------]

[E------------------------------------------------------------------]
[B------------------------------------------------------------------]
[G-9/11-9-8-8--8h9--------------------------------------------------]
[D------------------11----11-11-11---7-7-7--6-6-6--11-11-11-11-11-11]
[A-------------------------9--9--9—--9-9-9--9-9-9---9--9--9--9--9--9]
[E------------------------------------------------------------------]


INTRO RYTHEM

E A E E A E E



E
A little space, a little time
Dsus2 E
see what it can do
E
A little faith, a piece of mind
Dsus2 E
see what passes things through

Dsus2 Asus2
The sun will shine on you again
E Dsus2
A bell will ring inside your head
a E
And all will be brand new

E
Come along, come on in
Dsus2 E
Here's something that you'll know
E
The worlds as wide as your life is thin
Dsus2 E
So entertain your goals

Dsus2 Asus2
The sun will shine on you again
E Dsus2
A bell will ring inside your head
a E
And all will be brand new
a E
All will be brand new




E
i can tell you what you want to hear
Dsus2 E
i've been here once before
E
you put me through my empty night
Dsus E
sleepless on your floor

Dsus2 Asus2
the sun will shine on you again
E Dsus2
a bell will ring inside your head

a E
and all will be brand new
a E
all will be brand new
a E / a* E 3x

Вверх

Acquiesce

Intro 2x:

~~~ <- trill
D|----5-77-5-7-----777-5-7-5-12-|
A|----5-77-5-7-----777-5-7-5----|
D|-xx-5-77-5-7--xx-777-5-7-5----|

Verse:

D|-777-5-777-5-000-5-|
A|-777-5-777-5-000-5-|
D|-777-5-777-5-000-5-|

Am D G
I don't know what it is that makes me feel alive

Am D G
I don't know how to work the things that sleep inside

Am D G Am D G
I only wanna see the light that shines behind your eyes

Am D G
I hope that I can say the things I wish I'd said

Am D G
To sing my soul to sleep and take me back to bed

Am D G Am
You want to be alone but we can feel alive instead

Transition:

D|-77-55-44-33-2222222222-|
A|-77-55-44-33-2222222222-|
D|-77-55-44-33-2222222222-|

Verse:

G|----55----|
D|-3--55--5-|
A|-3--33--5-|
D|-3------5-|

F C G F C G
Because we need each other we believe in one another

F C G F
And I know we're gonna uncover we're sleeping in our soul (2x)

(repeat transition)

Am D G
There are many things that I would like to know

Am D G
And there are many places that I wish to go

Am D G Am C G
But everything's depending on the way the wind may blow

Am D G
I don't know what it is that makes me feel alive

Am D G
I don't know how to wake the things that sleep inside

Am D G Am
I only wanna see the light that shines behind your eyes

(repeat transition & chorus with "sleeping...soul" 4x)

F C G F C G
Cause we believe...cause we believe

F C G F C G
Yeah, we believe...cause we believe

F C G F C G
Cause we believe...cause we believe

F C G F C G
Because we need...because we need...

Ending:

D|-3--2--1--0--5-------------------5-------|
A|-3--2--1--0--5--2-3-3/5--2-3-3/5----5----|
D|-3--2--1--0--5-------------------------5-|

Вверх

Acquiesce (2 вариант)

e-----------------------------------------------
B--------------------------------------7^^^-----
G--------------------------------------7^^^----- (repeat once again)
D--x-x-5-7-7-5-7/------x-x-5-7-7-5-7-5----------
A--x-x-5-7-7-5-7/------x-x-5-7-7-5-7-5----------
E--x-x-----------------x-x----------------------

Verse 1
-------
[Here is the tab for how the chords during the verses are supposed to be
played. During all verses below, play chords like this even though they
won't be listed below.]

G5 A5 G5 A5 D/F# G5 A5 G5 A5 D/F# G5
e--------------------------2--2--------------------------------2--2-----
B--------------------------3--3--------------------------------3--3-----
G--------------------------2--2--------------------------------2--2-----
D--5--7--7--5--7--7--7-----0--0---5----5--7--7--5--7--7--7-----0--0--5--
A--5--7--7--5--7--7--7-----0--0---5----5--7--7--5--7--7--7-----0--0--5--
E--3--5--5--3--5--5--5--0--2--2---3----3--5--5--3--5--5--5--0--2--2--3--

A5 (along with above riff) D/F# G5
I don't know what it is that makes me feel alive
I don't know what awakes the things that sleep inside
I only wanna see the light that shines behind your eyes

I hope that I can say the things I wish I'd said
To sing my soul to slepp and take me back to bed
A5 (w/ riff) D/F# G5 A5 G5 F#5 F5 E
You want to be alone but when we could be alive instead

Chorus
------
F C G
Because we need each other
F C G
We believe in one another
F C G
And I know we're gonna uncover
F C G
What's sleepin' in our soul
Becuase we need each other
We believe in one another
(And) I know we're gonna uncover
What's sleepin' in our soul
A5 G5 F#5 F5 E
What's sleepin' in our soul

Verse 3
-------
There are many things that I would like to know
And there are many places that I wish to go
But everything's depending on the way the wind may blow

I don't know what it is that makes me feel alive
I don't know how to wake the things that sleep inside
I only wanna see the light that shines behind your eyes

Chorus
------
Because we need each other
We believe in one another
And I know we're gonna uncover
What's sleepin' in our soul
Because we need each other
We believe in one another
And I know we're gonna uncover
What's sleepin' in our soul
What's sleepin' in our soul

What's sleepin' in our soul
What's sleepin' in our soul
'Cause we believe
'Cause we believe
Yeah, we believe
'Cause we believe
'Cause we believe
'Cause we believe
Because we need
Because we need

Song ends with the chord progression:

F C/E Eb C G

Вверх

Alive

C#m
e---------------------------------
B------4---5-4-------4---5-4------
G--------6-----6-------6-----6----
D--6--------------6-------------6-
A---------------------------------
E---------------------------------

Intro
-----
Esus2 C#m Esus2 C#m

Verse 1
-------
Esus2 C#m
People will notice that the times are changin'
Esus2 C#m
It's just now but not for good
Esus2 C#m
It's my feelings that I think you're draining
Esus2 C#m
So take them now if you think you should

Chorus
------
F#m A
You want something for nothing
E5 B5
The higher that you climb the longer you fall
F#m A
Maybe your time is coming,
E5 B5
will you have to climb when you find the wall
F#m A
Is there time to doubt, is there time to wait
E5 B5
Will you be left alone at the starting gate?
F#m
I'm not blind and I don't mind
A E5 A5 E5 E5 A5 E5
Cause I've got time, now I'm alive

Verse 2
-------
The people have noticed that the times are changin'
But are they gonna do something now
I think I've seen you all hesitating
I think I'll go and do something now

Chorus
------
You want something for nothing, the higher that you climb the longer you
fall
Maybe your time is coming, will you have to climb when you find the wall?
Is there time to doubt? is there time to wait? Will you be left alone at
the starting gate?
I'm not blind and I don't mind,
E5 A5 E5 E5 A5 E5
'cause I've got time now I'm alive Now I'm alive
E5 A5 E5 E5 A5 E5
Yeah, I'm alive

Вверх

Alive (2 вариант)

INTRO
G|-------------------------------------------------------------|
D|-------------------------------------------------------------|
A|-------------------------------------------------------------| (X6)
E|-12-12-12-12-12-12-12-12-12-12-12-12-8-8-8-8-8-8-8-8-8-8-8-8-|

VERSE 1
G|-------------------------------------------------------------|
D|-------------------------------------------------------------|
A|-------------------------------------------------------------| (X4)
E|-12-12-12-12-12-12-12-12-12-12-12-12-8-8-8-8-8-8-8-8-8-8-8-8-|

CHORUS 1
G|-------------------------------------------------------------|
D|-------------------------------------------------------------|
A|--------------------------------------------2--2--2--2--2--2-| (X3)
E|-2-2-2-2-2-5-5-5-5--5--5--0--0--0--0--0--0-------------------|

G|-----------------------------------------------------------------------|
D|-----------------------------------------------------------------------|
A|-----------------------------------------------------------------------|
E|-2-2-2-2-2-2-2-2-2-2-2-5-5-5-5-5-5-5-5-5-5-5-0-0-5-5-0-0-0-0-0-0-5-5-0-|

VERSE 2
same as verse 1

CHORUS 2
G|-------------------------------------------------------------|
D|-------------------------------------------------------------|
A|--------------------------------------------2--2--2--2--2--2-| (X3)
E|-2-2-2-2-2-5-5-5-5--5--5--0--0--0--0--0--0-------------------|

G|----------------------------------------------|
D|----------------------------------------------|
A|----------------------------------------------|
E|-2-2-2-2-2-2-2-2-2-2-2--5-5-5-5-5-5-5-5-5-5-5-|

G|-------------------------------------------------------------|
D|-------------------------------------------------------------|
A|-------------------------------------------------------------|
E|-0-0-5-5-0-0-0-0-0-0-5-5-0-0-0-0-0-0-5-5-0--0-0-0--0-0-5-5-0-|

BRIDGE
G|--------------------------------------|
D|---------0----------------------------|
A|-0--2------2--0--2--------------------|
E|-------------------------0----0-0-0-0-|

G|--------------|
D|---------0--2-|
A|-0--2---------|
E|--------------|

OUTRO
same as chorus 2

Вверх

All Around The World

INTRO: B F# E Abm F# (X2)

VERSE 1:

B F#

Its a bit early in the midnight hour for me
E Abm F#



To go through all the things I wanna be
B F#
I dont beleive in everything I see
E Abm F#

You know Im blind so why dyou disagree?

BRIDGE:

C# E
Take me away, cause I just dont wanna stay
Abm
And the lies you make me say
F#
Are getting deeper every day
G7 B
These are crazy days but they make me shine
E F# F E
Time keeps rolling by

CHORUS 1:

B C#
All Around The World, you gotta spread the word

E B

Tell em what you heard, were gonna make a better day


C#
All Around The World, you gotta spread the word

E B
A Bb

Tell em what you heard, you knows its gonna be okay

VERSE 2: (Same chords as verse 1)

What you gonna do when the walls come falling down?
You never move you never make a sound
Where you gonna swim with the ridges that you found?
Your lost at sea well I hope that you drown

NA NA CHORUS: (Same chords as chorus 1)

CHORUS 2:

C D
All Around The World, you gotta spread the word
Dsus4 D Fadd9 C

Tell em what you heard, were gonna make a better day
D
All Around The World, you gotta spread the word
Dsus4 D Fadd9 C

Tell em what you heard, you knows its gonna be okay
C5 B5 Bb5 A G
Cause all around the world

A G
It's gonna be okay
A G
It's gonna be okay
A G
It's gonna be okay
A G
It's gonna be okay

CHORUS 3:

D E
All Around The World, you gotta spread the word
G D

Tell em what you heard, were gonna make a better day


E
All Around The World, you gotta spread the word

G
D
Tell em what you heard, you knows its gonna be okay
D
It's all around the world

LA LA CHORUS: (Chords as chorus 3)

OUTRO:

D
And I know what I know
E
What I know what I know
G
Yeah! I know what I know
D
It's gonna be OK
G
And I know what I know
D D G
Please don't cry, never say die
D D G
So please don't cry, never say die

Вверх

All Around The World (2 вариант)

E|-----10-12-14-12-10-12-10---------2-------------|
B|--10-------------------------3--5---5--3--5--3--| (Repeat again
G|---------------------------2--------------------| but over these
D|------------------------------------------------| chords D E/D G/D)
A|------------------------------------------------|
E|------------------------------------------------|

(This is the brass fill which arranged for guitar)
D5 E5 G5
E|--2--------------------2------------------------------2---2-----|
B|-------5-----3------5------------------3----------------------3-|
G|----------------------------4-------4----------4---2------------|
D|----------------------------------------------------------------|
A|----------------------------------------------------------------|
E|----------------------------------------------------------------|

(This fills are basically repeated throughout the song, with slight
variations)

The song ends with this chord sequence, which is repeated to fade
E|--2-----2-----3-----3---3-|-2-|
B|--3-----3-----3-----3---3-|-3-| (Repeat)
G|--2-----2-----2-----2---2-|-2-|
D|--0-----0-----0-----0---0-|-0-|
A|--------------------------|---|
E|--------------------------|---|

Вверх

All Around The World (3 вариант)

Intro
G|------------------------------------|
D|------------------------------------|
A|------------------------------------|
E|---7------7--2-------2--0-----4---2-|

G|--------------------------------------------------------|
D|--------------------------------------------------------|
A|----------9---11---9-----11----9------------------11--9-|
E|--7---11---------------------------11---12--------------|

Verse's
G|------------------------------------|
D|------------------------------------|
A|------------------------------------|
E|---7------7--2-------2--0-----4---2-|

Pre-Chorus
G|---------------------------------------|
D|---------------------------------------|
A|---------------------------------------|
E|---4-4-4-4-4-4-4-4-----0-0-0-0-0-0-0-0-|

G|---------------------------------------|
D|---------------------------------------|
A|---------------------------------------|
E|---4-4-4-4-4-4-4-4-----2-2-2-2-2-2-2-2-|

G|---------------------------------------|
D|---------------------------------------|
A|---------------------------------------|
E|---3-3-3-3-3-3-3-3-----7-7-7-7-7-7-7-7-|

G|---------------------------------------|
D|---------------------------------------|
A|---------------------------------------|
E|---0-0-0-0-0-0-0-0------------2-2--1-0-|

Chorus
G|---------------------------------------|
D|---------------------------------------|
A|---------------------------------------|
E|-----7--7--7-7-7-7-7---9--9--9-9-9-9-9-|

G|---------------------------------------|
D|---------------------------------------|
A|-----7--7--7-7-7-7-7-------------------|
E|-----------------------7--7--7-7-7-7-7-|
Play First Time Around
G|-----------------------|
D|-----------------------|
A|-----------------------|
E|-----7--7--7----5--5-6-|

Bridge 1 - before 1st chord change
G|--------------------------|
D|--------------------------|
A|--------------------------|
E|----7----0-------7------0-|

G|----------------------------|
D|----------------------------|
A|----------------------------|
E|----3-3-3-3-3-------0-0-0-0-| play a few times

Chorus-2
G|-------------------------------------|
D|-------------------------------------|
A|---3--3--3-3-3-3-3-----5--5--5-5-5-5-|
E|-------------------------------------|

G|-------------------------------------|
D|---3--3--3-3-3-3-3-------------------|
A|-----------------------3--3--3-3-3-3-|
E|-------------------------------------|

Bridge-2 - before 2nd chord change
G|---------------------------------------|
D|---------------------------------------|
A|---------------------------------------|
E|----5-5-5-5-5-5-5-5----3-3-3-3-3-3-3-3-| reapeat until

Chorus-3
G|-------------------------------------|
D|-------------------------------------|
A|---5--5--5-5-5-5-5-----7--7--7-7-7-7-|
E|-------------------------------------|

G|-------------------------------------|
D|---5--5--5-5-5-5-5-------------------|
A|-----------------------5--5--5-5-5-5-|
E|-------------------------------------| reapeat many times

On Live Performances while Noel is soloing you play this
G|--------------------------------------|
D|-----------------7--9--7--------------|
A|---5---7slide9-------------9---7----5-|
E|--------------------------------------|

Last Time You Play it Play this
G|------------------------------7-|
D|-----------------7--9--7--9-----|
A|---5---7slide9------------------|
E|--------------------------------|

Вверх

All In The Mind

[G]Show me who you are
I'll show you what you love
I'll [C] give you half the world if that's e[G]nough

[G]Let me take you down
Let me hear you smile
[C]Let me rest my head here for a [G]while

Ref.
[D]In the end we'll [C] leave it all be[G]hind
Be[D]cause the love I [C]think I'm tryin' to [Am]find
It's probobly all in the [G]mind

2.
[G]Show me who you are
I'll show you what you love
I'll [C]give you all the world if that's e[G]nough

SOLO
[D]In the end We'll [C]leave it all be[G]hind X 3
Be[D]cause the love I [C]think I'm tryin' to [Am]find
It's probobly all in the [G]mind

[G]All in the mind X 3

OUTRO

Вверх

All In The Mind (2 вариант)

Intro: G

Verse 1:
G C G C
Show me who you are, I'll show you what you love
F C G
I'll give you half the world if that's enough

Verse 2:
Let me take you down, let me hear you smile
Let me rest my head here for a while

Chorus:
Am C G
In the end we'll leave it all behind
Am C G
Because the life I think I'm trying to find
F C G
Is probably all in my mind

Verse 3:
Show me who you are, I'll show you what you love
I'll give you all the world if that's enough

Chorus

Solo (verses chords)

Final chorus:
Am C G
In the end we'll leave it all behind (x3)
Am C G
Because the life I think I'm trying to find
F C G C G
Is probably all in the mind
(C G)
It's all in the mind
It's all in the mind
All in the mind

(C G)

Вверх

All You Need Is Love

from the top of my head i think D7 is
G (320033)
D (xx0232)
Em (022000)
D7 (xxx212)
Am7 (x20010)



[G]Love, [D]love, [Em]love
[G]Love, [D]love, [Em]love
[D7]Love, [G]love, [D7]love.

[G]There's nothing you can [D]do that can't be [Em]done.
[G]Nothing you can [D]sing that can't be [Em]sung.
[D7]Nothing you can [G]say but
you can learn how to [D7]play the game. It's easy.

There's nothing you can make that can't be made.
No one you can save that can't be saved.
Nothing you can do but you can learn how to be you in time. It's easy.

[G]All you [Am7]need is [D7]love,
[G]all you [Am7]need is [D7]love,
[G]All you [B7]need is [Em]love,
[G]love, [C]love is [D7]all you [C]need.

[G]Love, [D]love, [Em]love
[G]Love, [D]love, [Em]love
[D7]Love, [G]love, [D7]love.

There's nothing you can know that isn't known.
Nothing you can see that isn't shown.
Nowhere you can be that isn't where,
you're meant to be. It's easy.

All you need is love (all together now)
All you need is love (everybody)
All you need is love, love,
love is all you need.

she loves you
yeah yeah yeah
she loves you
yeah yeah yeah
she loves you
yeah yeah yeah

Вверх

Angel Child

Notes on playing:

1) There's a bit of lovely guitar played after one of the choruses.
I have yet to work this bit out.

2) At the end of each line in the verse (after the Dsus2 chord is
played, there is a sliding up sound. This is where the Dsus2 shape
is slid up two frets, then two notes are picked (A, then G on the
G string) before returning to the Am chord, i.e.

Dsus2 Am
E|---0------------0-|
B|---3/5----------1-|
G|---2/4----2--0--2-|
D|---0------------2-|
A|----------------0-|
E|------------------|
Thanks to Jeff for suggesting this slide bit.

3) The trickiest part is the picking of the Dsus2 chord in the chorus.
In the first chorus the picking pattern is shorter than in the subsequent
choruses. I.e. initially the chords are Dsus2 and then Dsus2/Ab. In a later
chorus, the descending pattern goes a stage further, i.e. Dsus2, Dsus2/Ab,
Dsus2/G.

4) The tab for this picking pattern is something like the following:

Dsus2 Dsus2/Ab Dsus2/G
E|-------0---0------------0---0------------0---0-----|
B|-----3---3---3--------3---3---3--------3---3---3---|
G|---2-----------2----1------------1---0-----------0-|
D|---0----------------0----------------0-------------|
A|---------------------------------------------------|
E|---------------------------------------------------|

You can probably play quite a few variants on this simple pattern. The
important thing is the descending run on the G string.

Chords
Numbers refer to fret positions on each of the six (EADGBe) strings.

Am 002210
Em 022000
Dsus2 x00230
F 133211
C 032010
G 320003
D x00232
Dsus2/Ab x00130
Dsus2/G x00030

*** The Song ***

Intro:
Am, Am, Em, Dsus2
Am, Am, Em, Dsus2

Verse 1:
Am Em Dsus2
Won't you take me,

Am Em Dsus2
Won't you take me to the edge of night and

Am Em Dsus2
Make me,

Am Em Dsus2
Won't you make me walk into the light

Am Em Dsus2
And there'll be no eyes,

Am Em Dsus2
No eyes have seen such beauty would lose their sight,

Am Em Dsus2
And there'll be no lies,

Am Em Dsus2
No lies that you could tell me to make things right,

Pre chorus:
F C G D
Cos I gave all my money to people and things,

F C G D
And the price I'm still paying, for the shit that it brings,

F C G D
Doesn't fill me with hope for the songs that you sing

Chorus:
Dsus2
To-night,

Dsus2/Ab
This is your life,

G D
Angel Child.

Verse 2:
Am Em Dsus2
When you find out,

Am Em Dsus2
When you find out who you are

Am Em Dsus2
You know you'll, be free

Am Em Dsus2
To see your own appearence to then there'd be no eyes,

Am Em Dsus2
No eyes have seen such beauty would lose there sight,

Am Em Dsus2
And there'll be no lies,

Am Em Dsus2
No lies that you could tell me to make things right,

Pre chorus:
F C G D
Cos I gave all my money to people and things,

F C G D
And the price I'm still paying, for the shit that it brings,

F C G Dsus2
Doesnt fill me with hope for, the songs that you sing,

Chorus:
Dsus2
To-night,

Dsus2/Ab
This is your life,

G D
Angel Child.

Dsus2
To-night,

Dsus2/Ab Dsus2/G
This is your life, this is your life

G D
Angel Child.

Dsus2
To-night,

Dsus2/Ab Dsus2/G
This is your life, this is your life

G D
Angel Child.

*repeat as desired*

End on Dsus2.

Вверх

Angel Child (2 вариант)

Chords:
Dsus2 Dsus4 Fmaj7sus2 Daugsus2 Dsus4add2
E|--0------3------0---------0---------0-|
B|--3------3------1---------3---------3-|
G|--2------2------0---------1---------0-|
D|--0------0------3---------0---------0-|
A|----------------3---------------------|
E|--------------------------------------|

Intro: Am Em Dsus2

Verse 1:
Am Em Dsus2
Won't you take me
Am Em Dsus2
Won't you take me to the edge of night
Am Em Dsus2
And make me
Am Em Dsus2
Won't you make me walk into the night
Am Em Dsus2
and there'll be no eyes
Am Em Dsus2
No eyes that've seen such beauty, would loose their sight
Am Em Dsus2
And there'll be no lies
Am Em Dsus2
No lies that you can tell me to make things right

Chorus:
Fmaj7sus2 C Dsus4 D
Cause I gave all my money to people and things
Fmaj7sus2 C
And the price I'm still paying
Dsus4 D
And the shit that it brings
Fmaj7sus2 C
doesn't fill me with hope for
Dsus4 D Dsus2
The songs that you sing
Daugsus2 Dsus4add2 Dsus4 D
Tonight, this is your life, Angel Child

Verse 2:
When you find out
When you find out who you are, you'll know
You'll be free
To see your own ability, and there'll be no eyes
No eyes that've seen such beauty, would loose their sight
And there'll be no lies
No lies that you can tell me to make things right

Chorus:
Cause I gave all my money to people and things
And their price I'm still paying
And the shit that it brings
Doesn't fill me with hope for
The songs that you sing
Tonight, this is your life, Angel Child
Tonight, this is your life
This is your life, Angel child of mine

Tonight, this is your life
This is your life, Angel child
Tonight, this is your life
This is your life, Angel child of mine
This is your life, This is your life, Angel child
Tonight, this is your life
This is your life, Angel child

Вверх

A Quick Peep

main riff one
------------------
------------------
--5--5--5-------3-
-----------3-5---- play for a while

main riff two
------------------------
--12--12--12---------10-
--------------10-12-----
------------------------ play for a while

lead up one (NOTE: play all notes you see meaning the -5/12-)
--------------
-------12-----
--5/12-----12-
--------------
lead up two (NOTE: play all notes you see meaning the -5/12-)
--------------
-------10-----
--5/12-----12-
--------------

riff one
----------------------------
--12--12--12-11-10-12-11-10-
----------------------------
----------------------------
riff two (variation to riff one)
----------------------------
--12--12--12-11-10----------
-------------------12-11-10-
----------------------------

play riff two while going from main riff two to main riff one
----------------------------
--12--12--12-11-10----------
-------------------12-11-10-
----------------------------
variation
---------------------------
--12--12--12-10------------
----------------12-10------
----------------------12-8-

during main riff one play lead up one and then back to riff one
--------------
-------12-----
--5/12-----12-
--------------

play lead up two while going from riff one to riff two

during main riff two play riff one

the end
----------------------------------
--12--12--12-11-10----------------
-------------------12-11-10-------
----------------------------10----

---------------------------------------
--12--10-------------------------------
----------12--10-----------------------
------------------12--8-10--7-8--10----
variation one
---------------------------------------
--12--10-------------------------------
----------12--10-----------------------
------------------12--7-8--3-5-/-10----
variation two
----------------------------------------
--12--10--------------------------------
----------12--10------------------------
------------------12--0-8b--0-7b--10----
variation three
---------------------------------------
--12--10-------------------------------
----------12--10-----------------------
------------------12--0-5b--7-8--10----

Вверх

A Quick Peep (2 вариант)

Intro
E|-------0-------------------|---------0-------------------|
B|----------0----------------|------------0----------------|
G|---0h2-------0-------0-----|----0h2--------0-------0---2-|
D|------------------3------3-|-------------------3---------|
A|---------------------------|-----------------------------|
E|0--------------------------|-----------------------------|

E|-----0--------------------|-------------------------------|
B|--------------------------|--------0----------------------|
G|0h2-----2--0-------0------|--0h2------2p0-----0-----------|
D|-----------------3------3-|----------------3------3-----0-|
A|--------------------------|---------------------------3---|
E|--------------------------|-------------------------------|

Chorus
E|----------------------|---------------------------|------------------|
B|----------------------|---------------------------|------------------|
G|2---------------------|-----2---------------------|-2---2--2---------|
D|3----0----0--------0--|-----3----0---0----------0-|-3---3--3-------0-|
A|--------------3-------|---------------------3-----|-------------3----|
E|----------------------|---------------------------|------------------|

E|----------------------------------|
B|----2-----------------------------|
G|0-------0h2p0---------------------|
D|----------------3--3p0----------0-|
A|------------------------0---------|
E|---------------------------3p0----|

Outro
E|--|||-------0--0------------0--0--|--10b--10--5b---5--3--5--3-----------12-|
B|--|||-------0--0------------0--0--|---------------------------5---3--5-----|
G|--|||--0h2--2--2---2---0h2--2--2--|----------------------------------------|
D|0-|||--0-------0---0---0-------0--|----------------------------------------|
A|--|||-----------------------------|----------------------------------------|
E|--|||-----------------------------|----------------------------------------|

Вверх

As Long As Theyve Got Cigarettes In Hell

Intro: There are a few hammer ons in the intro with some sort of flange on them

G-5-5h7----5-5h7----5-5h7

Intro Chords: D for a few bars then Cadd9 G D

Verse 1:
D
spend your days just working on shopping
Cadd9 D
dependin' on how much your look is in
D
spend your nightlife table hopping
Cadd9 D
and trying to keep that bag a bones in trim

Chorus 1:
Cadd9 G D
i don't mind not feelin' immortal
Cadd9 G D
cause it ain't all that as far as i can tell
Cadd9 G D
i don't mind not going to heaven
Cadd9
as long as they've got cigarettes
G D
as long as they've got cigarettes in hell

Little fills of the D Cadd9 G chord sequence:
e-----2-0-------0----------0-------------
B---3---------3---3----3-------3---------
G---------------------------------------- 2 Times then D
D-0--------------------------------------
A-----------3---------------------0-2-3-5
E--------------------3-------------------

D
by the time we start getting used to
Cadd9 D
the dirt that's forming on the window sill
D
now we know we've got ourselves into
Cadd9 G
the cage that keeps the mice on their treadmill

Cadd9 G D
i don't mind not feelin' immortal
Cadd9 G D
cause it ain't all that as far as i can tell
Cadd9 G D
i don't mind not going to heaven
Cadd9
as long as they've got cigarettes
G D
as long as they've got cigarettes in hell

Little fills of the D Cadd9 G chord sequence:
e-----2-0-------0----------0-------------
B---3---------3---3----3-------3---------
G---------------------------------------- 2 Times then D
D-0--------------------------------------
A-----------3---------------------0-2-3-5
E--------------------3-------------------

Solo: over
e-2-2-2/3/5-10-10-10-10/--2-2-2/3/5-9-9b10r9b10r9b10r9

e-2-2-2/3/5-10-10-10-10/--2-2-2/3/5-9-9b10r9b10r9b10r9--2-2-2-2-5-5/10-10

Cadd9 G D
i don't mind not feelin' immortal
Cadd9 G D
cause it ain't all that as far as i can tell
Cadd9 G D
i don't mind not going to heaven
Cadd9
as long as they've got cigarettes
G D
as long as they've got cigarettes in hell
(noel coughing and puffing on a cigarette)

Вверх

Be Here Now

B A E G

e|--7----5----0----3--|
B|--7----5----0----3--|
G|--8----6----1----4--|
D|--9----7----2----5--|
A|--9----7----2----5--|
E|--7----5----0----3--|


VERSE 1
B
Wash your face in the morning sun
A C#
Flash your pan at the song that Im singin
B
Touch down base livinon the run
A C#
Make no sweat of the hole that your diggin

VERSE 2
Wrap up cold when its warm outside
Your shit jokes remind me of Digsys
Be my magic carpet ride
Fly me down to capital city in the sun

CHORUS
E GA
Kickin up a storm
E GA
Since the day that I was born
E
Sing a song for me
D A
One from Let It Be
G A Bb B
Open up your eyes get a grip of yourself inside

CHORUS

CHORUS & SOLO(chords from verses)

VERSE 3
Wrap up cold when its warm outside
Please sit down you make me feel giddy
Be my magic carpet ride
Fly me down to capital city

CHORUS

OUTRO

-------------------------
the two main BHN riffs

E----------------------------------------------------------
B----------------------------------------------------------
G-9-9-7-8-------9-9-7-8-------9-9-7-8--------7---7---------
D---------9-7-9---------9-7-9---------9-7-9----9---9-9-7---
A----------------------------------------------------------
e----------------------------------------------------------

E--------------------------
B--------------------------
G-12-14-14b15-12-14-12-----
D--------------------------
A--------------------------
e--------------------------

Вверх

Be Here Now (2 вариант)

Intro
----------------------------------------------------------------------
----------------------------------------------------------------------
------------------------------------------------------4-4-4-4---------
--5-7-7-7-7-7-7-7-5/7-7-7-7-7-7-7-7-5/7-7-7-7-7-7-7-7---------5-5-5-5-

------------------------------------------------------------------------
------------------------------------------------------------------------
--------------------------------------------------------4-4-4-4---------
--5/7-7-7-7-7-7-7-7-5/7-7-7-7-7-7-7-7-5/7-7-7-7-7-7-7-7---------5-5-5-5-

Here's a variation for the intro and for the verse's (I suggest this)
------------------------------------------------------------------------
------------------------------------------------------------------------
--------------------------------------------------------4-4-4-4---------
--5/7-7-7-7-7-5-7-5-5/7-7-7-7-7-5-7-5-5/7-7-7-7-7-7-7-7---------5-5-5-5-

Verse
Wash your face in the morning sun...
------------------------------------------------------------------------
------------------------------------------------------------------------
--------------------------------------------------------4-4-4-4---------
--5/7-7-7-7-7-7-7-7-5/7-7-7-7-7-7-7-7-5/7-7-7-7-7-7-7-7---------5-5-5-5- repeat

Wrap up cold when it's warm outside...
------------------------------------------------------------------------
------------------------------------------------------------------------
--------------------------------------------------------4-4-4-4---------
--5/7-7-7-7-7-7-7-7-5/7-7-7-7-7-7-7-7-5/7-7-7-7-7-7-7-7---------5-5-5-5- repeat

Chorus
Kickin' up a storm...
--------------------------------------------------------------------
--------------------------------------------------------------------
--------------------------------------------------------------------
--0-0-0-0-0-0-0-2-3-3-3-3-/5-5-5-2-0-0-0-0-0-0-0-2-3-3-3-3-/5-5-5-2-

----------------------------------------------------------------------
----------------------------------------------------------------------
----------------------------------------------------------------------
--0-0-0-0-0-0-0-2-3-3-3-3-/5-5-5-5-3-3-3-3-3-3-3-3-/5-5-5-5-/6-6-6-6-

Intro again

Verse
So wash your face in the morning sun...
----------------------------------------------------------------------
----------------------------------------------------------------------
------------------------------------------------------4-4-4-4---------
--5/7-7-7-7-7-7-7-5/7-7-7-7-7-7-7-7-5/7-7-7-7-7-7-7-7---------5-5-5-5- repeat

Chorus
Kickin' up a storm...
--------------------------------------------------------------------
--------------------------------------------------------------------
--------------------------------------------------------------------
--0-0-0-0-0-0-0-2-3-3-3-3-/5-5-5-2-0-0-0-0-0-0-0-2-3-3-3-3-/5-5-5-2-

Sing a song for me one from 'Let It Be' in-
----------------------------------------------------------------------
----------------------------------------------------------------------
----------------------------------------------------------------------
--0-0-0-0-0-0-0-2-3-3-3-3-/5-5-5-5-3-3-3-3-3-3-3-3-/5-5-5-5-/6-6-6-6-

Solo
-side inside get a grip in-
|------------------------------------------------------------------------------
|------------------------------------------------------------------------------
|------------------------------------------------------------------------------
|--5/7-7-7-7-7-7-7-7-5/7-7-7-7-7-7-7-7-5-5-5-5-5-5-5-5-/12-12-12-12-12-12-12-9-
-side get a grip inside you betcha
----------------------------------------------------------------------------|
----------------------------------------------------------------------------|
----------------------------------------------------------------------------|
--7-7-7-7-7-7-7-7-5/7-7-7-7-7-7-7-7-5-5-5-5-5-5-5-5-/12-12-12-12-12-12-12-9-| x2

Solo variation 1
--------------------------------------------------------------------------
--------------------------------------------------------------------------
--------------------------------------------------------------------------
--5/7-7-7-7-7-7-7-7-5/7-7-7-7-7-7-7-7-5-5-5-5-5-5-5-5-0-0-0-0-/12-12-12-9-

Solo variation 2
------------------------------------------------------------------------------
------------------------------------------------------------------------------
------------------------------------------------------------------------------
--5/7-7-7-7-7-7-7-7-5/7-7-7-7-7-7-7-7-5-5-5-5-5-5-5-5-/12-12-12-12-12-10-10-9-


Play verse
Play chorus

The end 3.40 (same as solo) get a grip in-
--------------------------------------------------------------------------
--------------------------------------------------------------------------
--------------------------------------------------------------------------
--5/7-7-7-7-7-5-7-5-5/7-7-7-7-7-5-7-7-5-5-5-5-5-5-5-5-0-0-0-0-10/12-12-12-
-side get a grip inside get a grip inside
--------------------------------------------------------------------
--------------------------------------------------------------------
------------------------------------------------------------7-5-5-4-
--7-7-7-7-7-5-7-5-5/7-7-7-7-7-5-7-7-5-5-5-5-5-5-5-5-0-0-0-0---------
kmmm you betcha
-----------------------------------------------------------------------------
-----------------------------------------------------------------------------
-----------------------------------------------------------------------------
--7-7-7-7-7-5-7-5-5/7-7-7-7-7-5-7-7-5-5-5-5-5-5-5-5-/12-12-12-12-10-12-12-12-

--------------------------------------------------------------------
--------------------------------------------------------------------
------------------------------------------------------------7-5-5-4-
--7-7-7-7-7-7-7-7-5/7-7-7-7-7-7-7-7-5-5-5-5-5-5-5-5-0-0-0-0---------
c'mon c'mon c'mon c'mon c'mon c'mon c'mon yeah yeah
---------------------------------------------------------------------------
---------------------------------------------------------------------------
---------------------------------------------------------------------------
--7-7-7-7-7-7-7-7-5/7-7-7-7-7-7-7-7-5-5-5-5-5-5-5-5-0-0-0-0-10/12-12-12-12-
yeah yeah yeah yeah yeah yeah
-------------------------------------------------------------------
-------------------------------------------------------------------
--------------------------------------------------------7-5--7-5-4-
--7-7-7-7-7-7-7-7-5/7-7-7-7-7-7-7-7-5-5-5-5-5-5-5-5-0-0------------
yeah yeah yeah yeah
--------------------------------------------------------------------
--------------------------------------------------------------------
--------------5-7-------------5-7---------5/12-12-12-12-------------
--7-7-7-7-7-7-----7-7-7-7-7-7-----5-5-5-5---------------12-12-12-12-
c'mon c'mon c'mon c'mon c'mon c'mon c'mon c'mon
-------------------------------------------------------------------
-------------------------------------------------------------------
-------------------------5-7-------------5-7---------5/12-12-12-12-
--12-10-10-9-7-7-7-7-7-7-----7-7-7-7-7-7-----5-5-5-5---------------

---------------------------------------------------------------------
---------------------------------------------------------------------
----------7-5-5-4--------------------------------7--5----------------
--0-0-0-0---------7------7--5----5--3--2--0------------------0/7----

Вверх

Better Let You Know

E G5
I'D BETTER LET YOU KNOW
C5 A5
IT'S TIME FOR YOU TO GO
E G5 C5 A5
YOUR GONNA BREAK MY HEART

Repeat this very simple riff:
G|-------------------|-------------------|
D|-------------------|-------------------|
A|-------------------|--3-3-3-3----------|
E|--0-0-0-0-3-3-3-3--|----------5-5-5-5--|
kind of boring.... try to improvise something

Вверх

Better Man

Intro riff - This riff is played right at the start (bend and
hold, then strike again and release, the / means slide down)

E|----5---5---5---5---------|
B|----7b--7r--7b--7r--5--5/-|
G|----7b--7r--7b--7r--5--5/-|
D|--------------------------|
A|--------------------------|
E|--------------------------|

This can be heard at points throught the song verses:

E|------------|
B|-------10-8-|
G|---7h9------|
D|------------|
A|------------|
E|------------|

[Intro riff]

F#m
I wanna love you
A
I wanna be a better man
F#m
I don't want to hurt you
A
I just want to see whats in your hands

F#m
Well alright now
A
Yea yea
F#m
Well alright now
A
Yea yea

B A F#m
ahhhhhhhh then i'll know u understand
B A F#m
ahhhhhhhh then i'll know u understand

[Intro riff]

Вверх

Better Man (2 вариант)

|F# E| |B A| whole song

Intro:
|F# E| |B A|

Verse:
F# E B A
I wanna love you, I wanna be a better man
F# E B A
I don't wanna hurt you, I just wanna see what's in your hands

Chorus:
F# E B A
Well alright now, yeah yeah
Well alright now, yeah yeah
F# E B A
Awwhhhh then I'll know you'll understand
Awwhhhh then I'll know you'll understand

Verse & Chorus

F# E B A
I'm gonna be a better man, I'm gonna be a better man (X2)

I'm gonna be a better man, i'm gonna be a better man (X2)

|F# E| |B A| |F# E| |B A|
Yeeeeeaaaahhhh, awwwwwwwhhhhhh
Yeeeeeeeaahhhh, awwwwwwwhhhhhh

Вверх

Bitter Sweet Symphony

Chords:
E Bm7 D A all the way through


Bass:
E Bm7 D A
e -------------------------------------------------
b -12------12--------------15------15--14------14--
g -----13------14------14------14----------14------
d -----------------16------------------------------

Lyrics:
Cos' it's a bittersweet symphony this life...
Trying to make ends meet , you're a slave to the money then you die.
I'll take you down the only road I've ever been down...
You know the one that takes you to the places where all the pain lives,
yeah.

No change, I can change, I can change, I can change,
but I'm here in my mould , I am here in my mould.
But I'm a million different people from one day to the next...
I can't change my mould , no,no,no,no,no,no,no

Well I never pray,
But tonight I'm on my knees, yeah.
I need to hear some sounds that recognise the pain in me, yeah.
I let the melody shine, let it cleanze my mind , I feel free now.
But the airwaves are clean and there's nobody singing to me now.

No change, I can change, I can change, I can change,
but I'm here in my mould , I am here in my mould.
And I'm a million different people from one day to the next
I can't change my mould, no,no,no,no,no,no,no

(Well have you ever been down?)
(I can change, I can change...)

Cos' it's a bittersweet symphony this life.
Trying to make ends meet, trying to find some money then you die.
You know I can change, I can change, I can change,
but I'm here in my mould, I am here in my mould.
And I'm a million different people from one day to the next.
I can't change my mould, no,no,no,no,no,no,no

(I'll take you down the only road I've ever been down)
(I'll take you down the only road I've ever been down)
(It justs sex and violence melody and silence)
(Been down)
(Ever been down)
(Ever been down)

Вверх

Boneheads Bank Holiday

Intro:

| G | Em | A7sus4 | Cadd9 | G | Em | A7sus4 | Cadd9|


Verse 1:

G Em A7sus4
You know I need a little break to get away for a holiday

Cadd9 G
So I can see the sun

Em A7sus4 Cadd9
Cus in the sun they say it's fun, if you get some.

G Em A7sus4
Well I could take a train or a boat or an aeroplane

Cadd9 G Em A7sus4
Or I could steal a car, Cus in a car you can go far,

Cadd9 G
It just depends what kinda car you are


Chorus 1:

A7 C G
La la la, la la la la, la la la, la,



What kinda car you are.

A7 C G
La la la, la la la la, la la la, la.



Verse 2:

G Em A7sus4
I met a funny looking girl on a crowded beach in spain,

Cadd9 G
Her name was Avaline,

Em A7sus4 Cadd9
She said she came to Spain, to have a good time,

G Em A7sus4
But she was with her mum who had a face like a nun in pain

Cadd9 G Em A7sus4
She said her name was Dot, she didn't half talk a lot.

Cadd9 G
I couldn't tell if she was mad or not.


Chorus 2:

A7 C G
La la la, la la la la, la la la, la


Mad or not.

A7 C G
La La La, La La La La, La La La, La.


Middle:

C7 G
Don't you know, I should have stayed in England,

C7 G
On my polluted beach with all my special friends

C7 G
Don't you know, I should have stayed in England,

G/F# Em
With me big house, and me big car,

A7sus4 Cadd9 D
And all me friends there at the bar, la la la.


Verse 3: Repeat verse 1


Chorus 3: Repeat Chorus 1, 3 times.

Вверх

Boneheads Bank Holiday (2 вариант)

INTRO: G A7 C D7

Verse 1

G A7
You know we need a little break to get away for a holiday
D7 G
So I can see the sun
A7 C D7
Cause in the sun they say its fun, if you get some

G A7 C
Well I can take a train or a boat or an aeroplane
D7 G A7
Or I could steel a car, cause in a car you can go far
D7 G
Just depends what king of car you are
A7 C G
La La La La La La La La Laaaa La La

What kind of car you are
A7 C G
La La La La La La La La Laaaa La La


Verse 2

G A7 C
I met a funny looking girl on a crowded beach in Spain
D7 G A7 C
Her name was Avaline, She said she came to Spain to have
D7
a good time

G A7 C
Well she was with her mum who had a face like a nun in pain
D7 G A7 C
She said her name was Dot, she didn't half talk a lot
D7 G
I couldn't tell if she was mine or not
A7 C G
La La La La La La La La Laaaa La La

Mine or not
A7 C G
La La La La La La La La Laaaa La La


Chorus

A7 G
Don't you know, I should've stayed in England
A7 G
Mabaloonin beach with all my special friends
A7 G
Don't you know, I should've stayed in England
A7 C A7sus4
With my big house and my big car and all my friends
C D
Are at the bar La La La


(Verse 1)


What kind of car you are
A7 C G
La La La La La La La La Laaaa La La

What kind of car you are
A7 C G
La La La La La La La La Laaaa La La

What kind of car you are
A7 C G
La La La La La La La La Laaaa La La

Вверх

Born On A Different Cloud

Intro
G7 A Dm Am E7

Verse
Am
born on a different cloud
G
from the ones that have burst round town,
F
it's no suprise to me,
G
that you're classless, clever, and free
Am
loaded just like a gun
G
you're the hero that's still unsung
F
living on borrowed time
E
you're my son and you're gonna shine

Dm
talking to myself again
Am
this time i think i'm getting through
Dm
it's funny how you think
Am E
it's funny how, it's funny how when you do

born on a different cloud
from the ones that have burst round town
it's no suprise to me
that you're classless, clever, and free

Solo (slide)
E|------------------------------------------------|
B|----------10s13-13s15-17s13—-10s13-13s15-17s13—-|
G|9s7s9-------------------------------------------|
D|------------------------------------------------|
A|------------------------------------------------|
E|------------------------------------------------|

E|----------------------|
B|13s-10--13-12---------|
G|----------------9s7s9-|
D|----------------------|
A|----------------------|
E|----------------------|

Bridge
G Am
lonely soul, busy working overtime
G Am
nothing ever gets done, especially when your hands are tied
G Am
lonely soul, breaking up your mothers pride
G E
nothing ever gets done, not until your war's won

Am
we're born on a different cloud
G
your born on a different cloud
F
we're born on a different cloud
E
we're born on a different cloud
Am
we're born on a different cloud
G
we're born on a different cloud
F
we're born on a different cloud
E
we're born on a different cloud

born on a different cloud
born on a different cloud
born on a different cloud
da da da da na na na na....

Outro Solo
E|-----------|
B|8----------|
G|--9-7------|
D|------10-7-|
A|-----------|
E|-----------|

(repeat to fade)

Вверх

Bring It On Down

B5/A B5 B5/A B5 B5/A B5 B5/A B5 D E2 D
e---------------------------------------------------------------------------
B--4-4-4-4-4-4---4-4-4-4-4-4---4-4-4-4-4-4--4-4-4-4-4-4---7-7-7-7--9-9--7-7-
G--4-4-4-4-4-4---4-4-4-4-4-4---4-4-4-4-4-4--4-4-4-4-4-4---7-7-7-7--9-9--7-7-
D--4-4-4-4-4-4---4-4-4-4-4-4---4-4-4-4-4-4--4-4-4-4-4-4---7-7-7-7--9-9--7-7-
A--0-0-0-0h2-2---0-0-0-0h2-2---0-0-0-0h2-2--0-0-0-0h2-2---5-5-5-5--7-7--5-5-
E---------------------------------------------------------------------------

[repeat]

I think the above riff is correct. If you don't think so, try this:

s=slide

A5 B5 A5 B5 A5 B5 A5 B5 D E2 D
e---------------------------------------------------------------------------
B---------------------------------------------------------7-7-7-7--9-9--7-7-
G---------------------------------------------------------7-7-7-7--9-9--7-7-
D--7-7-7-7s9-9---7-7-7-7s9-9---7-7-7-7s9-9--7-7-7-7s9-9---7-7-7-7--9-9--7-7-
A--7-7-7-7s9-9---7-7-7-7s9-9---7-7-7-7s9-9--7-7-7-7s9-9---5-5-5-5--7-7--5-5-
E--5-5-5-5s7-7---5-5-5-5s7-7---5-5-5-5s7-7--5-5-5-5s7-7---------------------

[repeat]


Intro
-----
B (a bunch of times)
B5 (w/ above riff) D E5 D B5

Verse 1
-------
[NOTE: play below chords just like main riff above]

B5
What was that sound ringin' around your brain?
D E2 D B5
Today was just a blur, you got a head like a ghost train
What was that sound ringin' around your brain?
D E2 D B5
You're here on your own, who you gonna find to blame?

Pre-chorus
----------
B5 D A B D A
You're the outcast you're the underclass
B5 D A B5 D A
But you don't care because you're living fast


Chorus
------
B5 D
You're the uninvited guest that stays till the end
G E
I know you've got a problem that the devil sends
B5 D
You think they're talking 'bout you but you don't know who
G E
I'll be scraping your life from the sole of my shoe tonight

[Little transition fill between the "G" and "E" chords in the chorus:

G E
D--5--5--------2--2----
A--5--5--------2--2----
E--3--3--3-2-1-0--0----

Verse 2
-------
Bring it on down. Bring it down for me.
Your head's in a fish tank
your body and your mind can't breathe

Pre-Chorus
----------
You're the outcast - you're the underclass
But you don't care - because you're living fast

Chorus

Вверх

Bring It On Down (2 вариант)

Solo 1
1:30

E|----------------------------------7--------------7----------|
B|------------------------------------------------------------|
G|-----7---7---7-9b11-7---7----9b11---9p7-9p7-9b11--9p7-9p7---|
D|-7h9---9---9----------9---9-------------------------------9-|
A|------------------------------------------------------------|
E|------------------------------------------------------------|

E|----------------------------------7-------------------------------|
B|-------------------------------------------------------10-12~~~~~-|
G|-----7---7---7-9b11-7---7----9b11---9p7-9p7-9-11-11-11------------|
D|-7h9---9---9----------9---9---------------------------------------|
A|------------------------------------------------------------------|
E|------------------------------------------------------------------|

E|-------------------------------------|
B|----12----10----10----9-7-9b11-9-7---|
G|-11----11-11-11----11-9-7-9b11-9-7---|
D|-----------------------------------9-|
A|-------------------------------------|
E|-------------------------------------|

Solo 2
2:47
E|----------------------------------7--------------7----------|
B|------------------------------------------------------------|
G|-----7---7---7-9b11-7---7----9b11---9p7-9p7-9b11--9p7-9p7---|
D|-7h9---9---9----------9---9-------------------------------9-|
A|------------------------------------------------------------|
E|------------------------------------------------------------|

E|----------------------------------7--------------------------|
B|-------------------------------------------------------10-12-|
G|-----7---7---7-9b11-7---7----9b11---9p7-9p7-9-11-11-11-------|
D|-7h9---9---9----------9---9----------------------------------|
A|-------------------------------------------------------------|
E|-------------------------------------------------------------|

E|-------10-------10-------10-------10-------10-|
B|-10-12----10-12----10-12----10-12----10-12----|
G|----------------------------------------------|
D|----------------------------------------------|
A|----------------------------------------------|
E|----------------------------------------------|

E|-------10-------10-------10-------10-------10-|
B|-10-12----10-12----10-12----10-12----10-12----|
G|----------------------------------------------|
D|----------------------------------------------|
A|----------------------------------------------|
E|----------------------------------------------|

E|-10-12-10-10-10-12-10--10-12-10-10-10-12-10-|
B|-10-10-10-10-10-10-10--10-10-10-10-10-10-10-|
G|--------------------------------------------|
D|--------------------------------------------|
A|--------------------------------------------|
E|--------------------------------------------|

E|------------------------------------------------------------------------|
B|-9b11-7-----------------------------------------9b11-(11)-(11)-(11)-7---|
G|-9b11-7-------7---------7b8---------7b8---------9b11-(11)-(11)-(11)-7---|
D|--------9-7-9---9-9-7-9-----9-9-7-9-----9-9-7-9-----------------------9-|
A|------------------------------------------------------------------------|
E|------------------------------------------------------------------------|

E|------------------------------------------------------------------------|
B|-9b11-7-----------------------------------------9b11-(11)-(11)-(11)-7---|
G|-9b11-7-------7---------7b8---------7b8---------9b11-(11)-(11)-(11)-7---|
D|--------9-7-9---9-9-7-9-----9-9-7-9-----9-9-7-9-----------------------9-|
A|------------------------------------------------------------------------|
E|------------------------------------------------------------------------|

Вверх

Carnation

Am C
If you gave me a fresh carnation
G Bb
I would only crush it's tender petals
Am C
With me you'll have no escape
G Bb
And at the same time there'll be nowhere to settle -

Gm Eb6
I trample down all life in my wake
D Bm
I eat it up and take the cake
E Am
I just avert my eyes to the pain
D Am
Of someone's loss helping my gain


If you gave me a dream for my pocket
You'd be plugging in the wrong socket
With me there's no room for the future
With me there's no room with a view at all -

Gm Eb
I am out of season all year 'round
D Bm
Hear machinery roar to my empty sound
E Am
Touch my heart and feel winter
D Cm
Hold my hand and be doomed forever -

Cm/Bb6/Cm/Bb6/Am/F6/Am/Em7/Fmaj7/G6/E
Piano solo: Am/C/G/Bb (x2)

If you gave me a fresh carnation
I would only crush it's tender petals
With me you'll have now escape
And at the same time there'll be nowhere to settle.

Gm Eb6
And if you're wondering by now who I am
D Bm
Look no further than the mirror -
E Am
Because I am the Greed and Fear
D Cm
And every ounce of Hate in you.

Outro: D/Bm/E/Am/D
Cm/D/Bm/E/Am/D

Вверх

Carry Us All

INTRO: C,G,C,G

VERSE 1: C G
I heard a whisper on my radio
Am G
But I paid no mind, I just sat back and let it go
C G
To catch the rain from a lonely waterfall
Am G
But I might be away cos they could drown me like a doll

PRECHORUS: F G
They got me running in and out of time
C G Am
I Feel like I'm bona fide,
F G
Keeper of right and wrong
Am G Am F G
And I've known all along but let me just make it clear

CHORUS: C G Am
Everybody's gone for a quick, sure - fire solution
F Am G Am F G (play these two chords in quick succesion of each other)
But faith in any God is gonna bury us all
C G Am
No-one's gonna fight in a 10 bob revolution
F Am G Am
Have faith in what you got and it will carry us all
G F G F G F
Carry us all

VERSE 2 (Same chords as verse 1)
I slit my skin as the pulpits reappear
But I paid no mind cos I'm just trying to persevere
With the sins I have to shake from me within
But I might be aware cos they're just trying to wear me thin.

PRE CHORUS

CHORUS X2 (The song ands with a single strum of C chord)

Вверх

Carry Us All (2 вариант)

Intro

Dm G
-----5-----0------3-3-|
-------------6----3-3-|
--7-----7------7--0-0-| One strum up and one down on G
7---7-------------0-0-|
------------------2-2-| (x2)
------------------3-3-|

Verse 1:

Dm G Dm
I heard a whisper on my radio but I paid no mind
G
I just sat back and I let it go
Dm G
To catch the rain from a lonely waterfall
Dm
But I might beware
G
Because they could drown me like a dog

Bridge:
Fmaj7 G
They got me running in & out of time
C C/B Am
I feel like i'm bonified
Fmaj7 G
A keeper of right and wrong
D Fmaj7
And I've known all along
G
So let me just make clear

Chorus 1:

C C/B Am
Everybody's going for a quick sure fire solution
Bb Fmaj7 G Am F G
But faith in any god will only bury us all
C C/B Am
Nobody's gonna fight in a ten bob revolution
Bb Fmaj7 G Am
Have faith in what you got and it will carry us all
G
Carry us all

Dm G Dm G

Verse 2:

Dm G
I slipped my skin as the prophets reappeared
Dm
But I pay no mind
G
I'm just trying to perservere
Dm G
With the sins I have to shake from me within
Dm
But I might beware
G
Cos they're just trying to wear me thin

Bridge
Fmaj7 G
They got me running in & out of time
C C/B Am
I feel like i'm bona fide
Fmaj7 G
A keeper of right and wrong
D Fmaj7
And I've known all along
G
But let me just make clear

Chorus 2:

C C/B Am
Everybody's going for a quick sure fire solution
Bb Fmaj7 G Am F G
But faith in any god will only bury us all
C C/B Am
No-ones gonna fight in your ten bob revolution
Bb Fmaj7 G Am
Have faith in what you got it's gonna carry us all
Dm G Dm G Dm G
Carry us all

D Fmaj7 G G

Chorus 3:

C C/B Am
Everybody's going for a quick sure fire solution
Bb Fmaj7 G Am F G
But faith in any god will only bury us all
C C/B Am
No-ones gonna fight in your ten bob revolution
Bb Fmaj7 G Am
Have faith in what you got it's gonna carry us all

Dm G Dm G Dm G G

C

Вверх

Cast No Shadow

Intro: A7sus4 G A7sus4 G

Verse 1
-------
A7sus4
Here's a thought for every man who tries to understand
G
what is in his hands (what's in his hands)
A7sus4
He walks along the open road of love and life
G
surviving if he can (only if he can)

[low "E" string: play G-note, then
F# for the transition between verse & prechorus]

Pre-Chorus
----------
Em7 Dsus4 Cadd9 G
Bound with all the weight of all the words he tried to say
Em7 Dsus4 Cadd9 G
Chained to all the places that he never wished to stay
Em7 Dsus4 Cadd9 G
Bound with all the weight of all the words he tried to say
Em7 Dsus4 Cadd9
As he faced the sun he cast no shadow

Chorus
------
G A7sus4 Cadd9 Em7 Dsus4
As they took his soul they stole his pride (pride)
As they took his soul they stole his pride (pride)
As they took his soul they stole his pride (pride)
Em7 Dsus4 Cadd9
As he faced the sun he cast no shadow

Musical Interlude: [bass fill] then A7sus4 G A7sus4 G

[VERSE 1 AGAIN]

[PRE-CHORUS AGAIN]

As they took his soul they stole his pride (x3)

As he faced the sun he cast no shadow (x4)

Вверх

Cast No Shadow (2 вариант)

Intro
G|-12-----------------------------------------------------|
D|--------------------------------------------------------|
A|-------12----14--12--------------------12--10----------|
E|------------------------3----1-3-1-3------------12--10-|

G|---------------------------------------------|
D|-------------------------------7--5----------|
A|-------------------------------------7--5---|
E|5--5----5--5-5----3/5--5--5------------------|

G|----------------------------------|
D|----------------------------------|
A|----------------------------------|
E|3--3----3--3-3----1/3-3----3--3-3-|

Verse
Here's a thought...
G|----------------------------------------|
D|-----------------------------7--5-------|
A|-----------------------------------7---|
E|-5--5----5--5-5----5--5-----------------|

G|----------------------------------|
D|----------------------------------|
A|----------------------------------|
E|3--3----3--3-3----1/3-3----3--3-3-|

G|--------------------------------------|
D|---------------------------5--7/12---|
A|------------------------7-------------|
E|5--5----5--5-5----5--5----------------|

G|-------------------------------------------|
D|-------------------------------------------|
A|-------------------------------------------|
E|3--3----3--3-3----1/3-3--3----3--3-3--3--3-|

Pre - Chorus
Bound with all the weight...
G|------9-----------------------------------------|----|
D|------------------------------------------------|----|
A|-7---------5-5-5--5----3----3-------------------|----|
E|---------------------------------3--3--3-(1)-3--| x3-|

As he faced the sun...
G|--------------------------------------|
D|--------------------7/12----12----10-|
A|------5----3--------------------------|
E|-0------------------------------------|

Chorus
As they took...
G|---------------------------------------------|
D|-------------------------------------7/12---|
A|---------------------------------------------|
E|-3--3----3--3-3----3/5-5--5----5--5----------|

G|-------------------------------------------|
D|-------------------------------------------|
A|----------------------7--5--7-----5--5h7-5-|
E|8--8----8--8-8--8--0-----------0-----------|

G|----------------------------------------|
D|----------------------------------------|
A|----------------------------------------|
E|3--3----3--3-3----3/5-5--5----5--5-5--5-|

G|------------------------------------------|
D|----------------------------------7/12---|
A|----------------------7--5--7-------------|
E|8--8----8--8-8--8--0-----------0----------|

G|----------------------------------------|
D|----------------------------------------|
A|----------------------------------------|
E|3--3----3--3-3----3/5-5--5----5--5-5--5-|

G|------------------------------------------|
D|----------------------------------7/12---|
A|----------------------7--5--7-------------|
E|8--8----8--8-8--8--0-----------0----------|

Musical interlude
G|------------------------------------------------------|
D|----------------------------------7--5----------------|
A|7----5----3--------3---3---3---3----------7--5--5h7p5-|
E|------------------------------------------------------|

G|------------------------------------|
D|--------------------------5h7/12---|
A|------------------------------------|
E|5--5----5--5-5----5--5--------------|

G|------------------------------------------------------------|
D|------------------------------------------------------------|
A|------------------------------------------------------------|
E|3--3----3--3-3----1/3-3--3----3--3-3----5--5----5--5-5----5-|

G|------------------------------|
D|---(10)-12----12-(14)-12--10-|
A|12----------------------------|
E|------------------------------|

G|-------------------------------------|
D|-------------------------------------|
A|-------------------------------------|
E|3--3----3--3-3----1/3-3--3----3--3-3-|

Verse

Pre - Chorus
Bound with all the weight...
G|------9-----------------------------------------|----|
D|------------------------------------------------|----|
A|-7---------5-5-5--5----3----3-------------------|----|
E|---------------------------------3--3--3-(1)-3--| x3-|

As he faced the sun...
G|------------------------------------------------|
D|------------------------------------------------|
A|------5----3--------8/12--10--10h12--10---------|
E|-0--------------------------------------12--10-|

Chorus/End
G|-------------------------------------------|
D|------------------------------------7/12--|
A|-------------------------------------------|
E|-3--3----3--3-3--3--3/5-5--5---5--5--------|

G|---------------------------------------------|
D|---------------------------------------------|
A|-----------------------7--5--7-----5h7--5----|
E|8--8----8--8-8--8---0-----------0----------7-|

G|--------------------------------------------|
D|--------------------------------------------|
A|--------------------------------------------|
E|3--3----3--3-3--3--3/5-5--5---5--5-5--5---5-|

G|---------------------------------------------------|
D|------------------------------------------------12-|
A|------------------------7--5--7-----12h10-12/15----|
E|8--8----8--8-8--8----0-----------0-----------------|

G|--------------------------------------------|
D|--------------------------------------------|
A|--------------------------------------------|
E|3--3----3--3-3--3--3/5-5--5---5--5-5--5---5-|

G|-----------------------------------------------|
D|-----------------------------------------------|
A|-----------------------7--5--7-----7----7-/-10-|
E|8--8----8--8-8--8---0-----------0----10--------|

G|--------------------------------------------|
D|--------------------------------------------|
A|--------------------------------------------|
E|3--3----3--3-3--3--3/5-5--5---5--5-5--5---5-|

G|------------------------------------------------|
D|------------------------------------------------|
A|------------------------7--5--7-----75-7/10-12-|
E|8--8----8--8-8--8----0-----------0--------------|

(this is wrong)
G|-------------------------------------------------------------------------|
D|-----9---------7-----------------------------------3-5----5-7------5-----|
A|7---------5---------3----3--3-3--3----3-3--3--3--5------7------5-7---7---|
E|-----------------------------------------------------------------------0-|

G|--------------------------------------------------------------------------|
D|-----9---------7----------------------------------5-7----7-9/12--10-12-10-|
A|7---------5---------3----3--3-3--3----3-3--3/5--7------9------------------|
E|--------------------------------------------------------------------------|

G|---------------------------------------------------------------------------|
D|-----9---------7----------------------------------5-7----5h7/--12----12-12-|
A|7---------5---------3----3--3-3--3----3-3--3/5--7------7-------------------|
E|---------------------------------------------------------------------------|

G|------------------------------------------------------|
D|-----9---------7--------------------------------------|
A|7---------5---------3----3--3-3--3-keep playing--3/15-|
E|------------------------------------------------------|

Вверх

Champagne Supernova

Intro,Verse and First Chorus.

E|-----------------3------------3-2------------2-0--------------|
A|--0------------0----------------------------------------------|
D|----2---2----2-----2---2----2-----2---2----2-----2---2--------|
G|------2----2---------2----2---------2----2---------2--------2-|
B|---------0--------------0--------------0--------------0---0---|
E|--------------------------------------------------------0-----|

(Repeat loads of times!)

End of Second Verse Should be played as Follows:

Asus2/F# E
Where were you while we were getting high

2nd Chorus:
A
Someday you will find me
G
caught beneath the landslide
F#m6 E
in a champagne supernova in the sky
A
Someday you will find me
G
Caught beneath the landslide
F#m6 E
In a champagne supernova, a champagne supernova

Bridge:

G2
Cos people believe that they're gonna get away for the

A2
summer

G2 D
But you and I, we live and die, the world's still spinning round

E (Intro/Verse rift on last why)
We don't know why............why, why, why, why

Play Intro/Verse Rift again, then the chorus again and finish
on Intro/Verse rift,
For the part where liam is singing 'We were getting high'.

Вверх

Champagne Supernova (2 вариант)

Tab for the chord progression used throughout each verse and the first
chorus:

Asus2 Asus2/G Asus2/F# Asus2/E
e-----0-0-0---0--0-0----0-0-0---0--0-0----0-0-0---0--0-0----0-0-0---0--0-0--
B-----0-0-0---0--0-0----0-0-0---0--0-0----0-0-0---0--0-0----0-0-0---0--0-0--
G-----2-2-2---2--2-2----2-2-2---2--2-2----2-2-2---2--2-2----2-2-2---2--2-2--
D-----2-2-2---2--2-2----2-2-2---2--2-2----2-2-2---2--2-2----2-2-2---2--2-2--
A--0--------0---------------------------------------------------------------
E--------------------3--------3--------2--------2--------0--------0---------

[NOTE: Use this rythym and chord progression when playing all verses and
the first chorus]

Tab Key:
s = slide
/ = long downward slide
b = bend (5b6 means bend the string at the 5th fret to make the note the
string would make at the 6th fret with no bend)
r = release bend
(H) = harmonic
h = hammer on
p = pull off
^ = let note ring while making the note "vibrate"

In the following places where "Riff 1" is listed, play this:

G2
B------10------10------10------10-------10------10------10------10--
G-9h11----9h11----9h11----9h11-----9h11----9h11----9h11----9h11-----

Here's "Riff 2":

G2 D
B------10------10------10------10h12p10----------10------10-----10---
G-9h11----9h11----9h11----9h11----------11--9h11----9h11---9h11------

E
B------10h12p10-----------10------10------10------10------10------10------10-
G-9h11----------11---9h11----9h11----9h11----9h11----9h11----9h11----9h11----

And the now-famous "Riff 3" (played by 2 different guitars
simultaneously):

e--------------------------------------------------
B-12b13r12--10----10-------------------10---12p10--
guitar G--------------11------11---------9h11------------- (play this 3
#1 D----------------------------9h11------------------ times)
A-------------------------12-----------------------
E--------------------------------------------------

e--------------------------------------------------
B---------------------------------------2----4p2---
guitar G---4b5r4----2-----2--------------2h4-------------- (play 3 times)
#2 D---------------4-------4----2h4-------------------
A--------------------------0-----------------------
E--------------------------------------------------


then, after the 3rd time:

e------------------------
B------5-hold---------3--
guitar G--4s6------------2s4----
#1 D------------------------
A------------------------
E------------------------

e-------12-hold----------
B-12s14------------------
guitar G------------------------
#2 D------------------------
A------------------------
E------------------------


Intro (Lead guitar w/ muffled effect)
-----
CHORD# #1 #2 #3
e-----------------------------------------------------------------------12(H)-
B----------12(H)-------10---------10-------------------10--12-10-----10-------
G-------9--------9h11-------9h11------9h11--9-----9-11------------11----------
D-9s11------------------------------------------------------------------------
A-----------------------------------------------------------------------------
E-----------------------------------------------------------------------------

#4 #1 #2
e----------------------------------------------------------------------------
B---------10------10---10h12p10----------10------10------10------------------
G----9h11----9h11---------------11--9h11----9h11----9h11----11/--2--------2--
D---------------------------------------------------------------------2h4----
A----------------------------------------------------------------------------
E----------------------------------------------------------------------------

#3 #4 #1
e--------------------------------------------------------------
B-------------10------10---------------------------5------3----
G--------9h11----9h11----11/-2-----------2-----4s6----2s4----2-
D-2h4-------------------------------2h4------------------------
A--------------------------------------------------------------
E--------------------------------------------------------------

Verse 1
-------
Asus2
How many special people change
Asus2/G
How many lives are living strange
Asus2/F# Asus2/E
Where were you while we were geting high
G--------------2-----2-----2----
D----------2h4---2h4---2h4-------
Verse 2
-------
Slowly walking down the hall
Faster than a cannonball
Where were you while we were getting high

1st Chorus
----------
Asus2
Someday you will find me
G-----2-----2-----2----
D-2h4---2h4---2h4------

Asus2/G
caught beneath the landslide
Asus2/F# Asus2/E
in a champagne supernova in the sky
Asus2
Someday you will find me
G-----2-----2-----2---
D-2h4---2h4---2h4-----

Asus2/G
caught beneath the landslide
Asus2/F# Asus2/E
In a champagne supernova, a champagne supernova in the
B---------10----10----
G----------9h11--9----

#1 #2 #3 #4
sky
e----------------------------------------------------------------------
B--------10---------------------------------------------------10--10/--
G---9h11----9h11-9-----------2--2h4p2-------------2------------9---9/--
D-------------------2----2h4-----------2h4----2h4----2h4--2------------
A----------------------------------------------------------------------
E----------------------------------------------------------------------


Verse 3
-------
Wake up at dawn and ask her why
G----------------------2h4--
D-----------------2h4-------

A dreamer dreams, she never dies
G-2-------------------------2-------
D----------------------2h4-----2h4--

Wipe that tear away now from your eye
B-------------------------------------5------3-----
G-----------------2---------------4s6----2s4----2--
D------------2h4-----2h4--2------------------------

Slowly walking down the hall
G----------------------2------
D-----------------2h4---------

Faster than a cannonball
G-----------------2----------
D------------2h4-----2h4--2--

Asus2/F# E
Where were you while we were getting high

2nd Chorus
----------
A
Someday you will find me
G
caught beneath the landslide
F#m6 E
in a champagne supernova in the sky
A
Someday you will find me
G
Caught beneath the landslide
F#m6 E
In a champagne supernova, a champagne supernova

Bridge
------
G2
Cos people believe that they're gonna get away for the
B---------------------------------------------------
G---(RIFF #1)---------------------------------------

A2
summer
e--------------------------------------------------------------
B--------------------------------------------------------------
G-------------2-2--------2-2--4b5-b5-b5-b4.5--b4.5r4--2-----2--
D--------2h4--------2h4----------------------------------4-----
A--------------------------------------------------------------
E--------------------------------------------------------------

G2 D
But you and I, we live and die, the world's still spinning round
B---------------------------------------------------------------
G---(RIFF #2)---------------------------------------------------

E
We don't know why............why, why, why, why
B------------------------------------------------------
G---(CONTINUE RIFF #2)---------------------------------

#1 #2 #3 #4
B---------5------------5-------------5------------5------
G-----4s6----------4s6-----------4s6----------4s6--------


[PLAY RIFF #3 HERE]

Verse
-----
How many special people change
G-------------------------2h4-2---
D---------------------2h4---------

How many lives are living strange
G------------------------2------
D--------------------2h4---2h4--

Where were you while we were getting high
B-----------------------------------------------5--
G----------------------2--------------------4s6----
D-----------------2h4-----2h4-2-------------------

Slowly walking down the hall
G------------------2h4----------
D--------------2h4-----2h4-2h4--

Faster than a cannonball
G------------2h4----------
D--------2h4-----2h4-2h4--

Asus2/F# E
Where were you while we were getting high

[Use chords for 2nd Chorus]

Someday you will find me
Caught beneath the landslide
In a champagne supernova in the sky
Someday you will find me
Caught beneath the landslide
In a champagne supernova, a champagne supernova

G2
Cos people believe that they're gonna get away for the
(PLAY RIFF #1)

A2
summer
e----------------------------------------------------------------------------
B-------------------------------------------------5--------------------------
G-----4b5--b5r4--2-----2----4--2--4--2-----2--4b6---b5r4-2---2-2--4--2--4--2-
D-------------------4-------------------4------------------4-----------------
A----------------------------------------------------------------------------
E----------------------------------------------------------------------------

G D
But you and I, We live and die, the world's still spinning round
(RIFF #2)

E
We don't know why......why, why, why, why
(CONTINUE RIFF #2)

Musical interlude and guitar solo
---------------------------------
Noel's Solo (w/ dirty distortion sound):
#1b #2b
e------------------------------------------------------5-----------------
B--8------8------8------8------------------------------------------------
G--7b8r7--7b8r7--7b8r7--7b8r7--5---------5---5--7--7b9---b9r7--5--7--5---
D--------------------------------7---5h7---7---------------------------7-
A------------------------------------------------------------------------
E------------------------------------------------------------------------

#3b #4b #5b
e-----------------------------------------------
B------5---5-----5--5---------------------------
G------5---5-----5--5---------------------------
D--5h7---7---7---------7--------5---5-----------
A---------------------------5s7---7---7-5-------
E-----------------------------------------8-5---


Paul Weller steps in (w/ cleaner, heavier distortion sound):
#1b #2b
e--------------------------------------------------------------------
B-13--10--13b13.5----10------10---10b12r10------10^^^-----10--8--10--
G------------------------12-----------------12-----------------------
D--------------------------------------------------------------------
A--------------------------------------------------------------------
E--------------------------------------------------------------------

#3b #4b #5b #1b
e-----------------------------15--17---20b22--20-17----17----17---------
B-10b12r10---8-10^^^------17------------------------20----20----20b22---
G-----------------------------------------------------------------------
D-----------------------------------------------------------------------
A-----------------------------------------------------------------------
E-----------------------------------------------------------------------
#2b #3b
e---17-20-20b22r20--17--20--17---15--15--17--15-------------------------------
B------------------------------------------------17--17--17--17s15--15--15s12-
G-----------------------------------------------------------------------------
D-----------------------------------------------------------------------------
A-----------------------------------------------------------------------------
E-----------------------------------------------------------------------------

#4b #5b #1b
e----------------------------------------------------------------------------
B-12--13--12--10--10---------8--10---------8--10---13p10----8h10----8h10-10--
G-------------------------9-------------9------------------------------------
D----------------------------------------------------------------------------
A----------------------------------------------------------------------------
E----------------------------------------------------------------------------

#2b #3b #4b #5b #4b
e--------------------------------------------------------------------------
B--8h10----8h10--8--10b12r10--8h10----8h10--------8-10--13b15--13-10-13-10-
G-----------------------------------------------9--------------------------
D--------------------------------------------------------------------------
A--------------------------------------------------------------------------
E--------------------------------------------------------------------------

#5b #4b #5b Asus2
e-------------------------------------------------
B----13--15--13------------13--15--13b13.5--------
G----------------14^^^^---------------------14^^^-
D-------------------------------------------------
A-------------------------------------------------
E-------------------------------------------------

And back to Noel (dirty sound):
#2 #3 #4
e-----------------------------------------------------------
B-----------------------------------------------------------
G-4b5.5r4--2--------2--4b5r4--2-------------------2---------
D--------------2h4---------------4-----------2h4-----2h4----
A-----------------------------------------------------------
E-----------------------------------------------------------

(PLAY RIFF #3)

How many special people change
B--------------------------------5-----
G----------------------------4s6----2--

How many lives are living strange
G-----------------------2--2h4p2-----
D------------------2h4-----------2h4-

Where were you while we were getting high
G----------------------------2----------
D-----------------------2h4-----2h4--2--

We were getting high
B-------10--10h12p10-----------
G-9h11----------------9h11-9---

We were getting high
B-------10----------------
G--9h11-------------------

We were getting high
B-------10--------------
G--9h11----9h11---------

We were getting high
B-------10--10h12p10-------10-
G--9h11---------------9h11----

We were getting high
B------10--10h12p10-------------
G-9h11---------------9h11--9----

We were getting high
e-----------0-----------
B-------3s5-------------

We were getting high
G--7-6----7-6----7-6-----
D------7------7------7---

We were getting high
B---------------------2--
G----------------2h4-----

[GO THROUGH VERSE CHORD PROGRESSION AGAIN, WITH THIS LITTLE FILL IN THE
BACKGROUND:
G-7-6----7-6----7-6----(repeat a bunch of times)
D-----7------7------7--

THEN: (this little solo played with a muffled effect)

F2 G2 Asus2 (only snare drum &
harmonica heard)
e--------------------------------------------------------------------
B--------------------------------------------------------------------
G-4b5--4--2-------2-2----4b5r4--2----2h4--2--2---4b6-(let-note-ring)-
D-------------2h4----------------------------------------------------
A--------------------------------------------------------------------
E--------------------------------------------------------------------

acoustic: Fmaj7 G Asus2
e-------------------------------------------------------------------------
B-------------------------------------------------------------------------
G-(until)-b6r4--2-----------2--------------------------------2-----4b6----
D-------------------5--2h4-----2h4--2--------2h4--------2h4---------------
A--------------------------------------0----------------------------------
E-------------------------------------------------------------------------

Вверх

Cigarettes And Alcohol

(Intro)
E
|-------------------------------------------------------------------
|----------2-2---------------------2-2--------------------2-2-------
|----------2-2---------------------2-2--------------------2-2-------
|--2x2x2x2-----4-2---------2x2x2x2-----4-2---------2x2x2x2----4-2-4-
|--2x4x2x4-----------------2x4x2x4-----------------2x4x2x4----------
|------------------4b4.5-2-0---------------4b4.5-2-0----------------
F# A
----2-----5----| (Use mild, crunchy distortion for the top
----2-----5----| line, and a more distorted noise for the
----3-----6----| bottom line)
-2--4-----7----|
----4-----7----|
----x-----x----|

|--------------------------------------------------------------------|
|---9---9--9--9----9-9-9-9------------9---9--9--9------9-10-9-10-9~--|
|---9---9--9--9----9-9-9-9------------9---9--9--9------9-9--9-9--9~--|
|---9---9--11-9--9-9-9-9-9------------9---9--11-9---9--9-11-9-11-9~--|
|--------------------------------------------------------------------|
|--------------------------4b4.5-2-0---------------------------------|

(These riffs are played through out the song with slight variations)

Verse 1-
E F# A E
Is it my imagination, or have I finally found something worth looking for,
E F# A E
I was looking for some action, but all I found was Cigarettes and Alcohol,

Chorus-
A E A E
You could wait for a lifetime, to spend your days in the sunshine,
A E D
You might as well do awhite line, 'cause when it comes on top,
A E A E
You gotta make it happen, you gotta make it happen, (X2)

D A E A E

|-------------------------|
|----------2--x2x2x2x2x2--|
|----------2--x4x2x4x2x4--|
|--2x2x2x2----------------|
|--2x4x2x4----------------|
|-------------------------|

F A

(Back to riffs)

Verse 2-
Is it worth the agrivation,
to find yourself a job when there's nothing worth working for,
It's a crazy situation, but all I need are Cigarettes and Alcohol,

Chorus
|-------------------------------------| x3 (Plus variations)
|-9-9--9-10-9--12---------------------|
|-9-9--9-9--9--11b13-13b11-9--9h11p9--|
|-9-11-9-11-9-------------------------|
|-------------------------------------|
|-------------------------------------|

E A
You gotta make it
E A
You gotta fake it
(X2)

|-------------------------------------------------------------------------
|--12----12---------------------------------------------------------------
|--14b16-14b14--14b16r14p12----12-12--------12-12--------12----12-14bbb16-
|---------------------------14--------12h14--------12h14----14------------
|-------------------------------------------------------------------------
|-------------------------------------------------------------------------

------------------|--------------|--------------|-------------|--------------|
------------------|--------------|-15b17r15-12--|-19b21r19-17-|-17b-17b-17b-|
-p12-12----12-12-|-14b16r14-12--|--------------|-------------|--------------|
--------14--------|--------------|--------------|-------------|--------------|
------------------|--------------|--------------|-------------|--------------|
------------------|--------------|--------------|-------------|--------------|

Вверх

Cigarettes And Alcohol (2 вариант)

intro
e¦-----------------------------------------------¦
B¦-----------------------------------------------¦
G¦-----------------------------------------------¦
D¦--2--2-----2------2--2-----2---------2---------¦
A¦--2--2--4--2--4---2--2--4--2---------2---------¦
E¦--0--0--0--0--0---0--0--0--0---3--2--0---------¦

Bridge to chorus
e¦-----------------------------------------------¦
B¦-----------------------------------------------¦
G¦-----------------------------3---l-r-----------¦
D¦--2--2-----2-----2--2-----2--4---e-i-----------¦
A¦--2--2--4--2--4--2--2--4--2--4---t-n-----------¦
E¦--0--0--0--0--0--0--0--0--0--2-----g-----------¦

chorus
e¦-----------------------------------------------------------¦
B¦----12-12-12-12-10-10-9-------9--------9-10-9-10-9---------¦
G¦----13-13-13-13-8--8--9-------9--------9-9--9-9--9---------¦
D¦----------------------9-------9--------9-11-9-11-9---------¦
A¦-----------------------------------------------------------¦
E¦---------------------------0-------0-----------------------¦

e¦-----------------------------------------------¦
B¦-----------------9-9-9-----9-10-9-10-9---------¦
G¦-----------------9-9-9-----9-9--9-9--9---------¦
D¦-----------------9-9-9-----9-11-9-11-9---------¦
A¦-----------------------------------------------¦
E¦--------3—2--0----------0----------------------¦

Вверх

Cigarettes And Alcohol (3 вариант)

Intro: (0:09)

G---------------------------------------------------|
D------------2-2---------------------2-2------------|
A--2-2-4-2-4----4-2--------2-2-4-2-4-----4-2--------|
E--0-0-0-0----------3-2-0--0-0-0-0-----------3-2-0--|

(F#) (A)
E----------------------------0--0--0--0--0----|
B----------------------------12-12-12-10-10---|
G----------------------------13-13-13-11-11-9-|
D------------2-2----2-2h4-4-(4^7)-------------|
A--2-2-4-2-4----4-2-2-2h4-4-(4^7)-------------|
E--0-0-0-0------------------------------------|

E E
E------------------------------------------------|
B------------------------------------------------|
G-9-9-9-9-9-9-9-9-9-9--------9-9-9-9-9-11-9-11-9-|
D-9-9-9-9-9-9-9-9-9-9--------9-9-9-9-9-11-9-11-9-| (*)
A-7-7-0-7-7-0-7-7-0-7--------7-0-7-7-------------|
E---------------------3-2-0----------------------|


Verse 1: (0:33)

E
Is it my imagination
F# A E (*)
Or have I finally found something worth living for?
E
I was looking for some action
F# A E (*)
But all I found was cigarettes and alcohol


Bridge: (1:08)

A E
You could wait for a lifetime
A E
To spend your days in the sunshine
A E
You might as well do the white line
Dsus4 A
Cos when it comes on top


Chorus: (1:22)

E Dsus4 A E Dsus4
You gotta make it happen! You gotta make it happen!
A E Dsus4 A E Dsus4 A
You gotta make it happen! You gotta make it happen!

C Dsus4 E
B---------------------|
G-11b11-9-------------|
D---------11b11-9--6b-|
A---------------------|


[ Repeat whole Intro ]


Verse 2: (2:10) [ Same as Verse 1 ]

Is it worth the aggravation
To find yourself a job when there's nothing worth working for?
It's a crazy situation
But all I need are cigarettes and alcohol!

Bridge: (2:44)

You could wait for a lifetime
To spend your days in the sunshine
You might as well do the white line
Cos when it comes on top

Chorus: (2:59)

You gotta make it happen! You gotta make it happen!
You gotta make it happen! You gotta make it happen!


Solo: (3:17)

E Dsus4 A E Dsus4 A
B---------------------------------------------------------------------|
G-9----9h11-10h9-11b11-9-9h11-9--9----9h11-10h9-11b11-9-9h11-9-9h11-9-|
D-9h11-9-------------------------9h11-9-------------------------------|
A---------------------------------------------------------------------|

E Dsus4 A E Dsus4 A
B-----------------------------------------------------------------------|
G-9----9h11-10h9-11b11-9-9h11-9--9----9h11-10h9-11b11-11b11-11b11-11b11-|
D-9h11-9-------------------------9h11-9---------------------------------|
A-----------------------------------------------------------------------|


E Dsus4 A
You gotta, You gotta, You gotta make it!
You gotta, You gotta, You gotta fake it!
You gotta, You gotta, You gotta make it!
You gotta, You gotta, You gotta fake it! (woo!)


Outro: (3:50)

E Dsus4 A E Dsus4 A
B-----------------------------------------------------------|
G-14b14-14b14-14-12--12--------12-14-14b14-12-14-12---------|
D------------------14--14-12h14-----------------------------| (X2)
A-----------------------------------------------------------|

E Dsus4 A E Dsus4 A E
B-------------------------| B-----------------------------------------|
G-14b14B14b14-14-12-------| G-14^16-14^16-14^16-14^16-14^16-14-14^16b-|
D-------------------------| (X3) D-----------------------------------------|
A-------------------------| A-----------------------------------------|


E------------------|
B------2--2-2-2^3--|
G---2-----2-2------|
D---2-------2------|
A---0--------------|
E------------------|

Вверх

Cigarettes In Hell

INTRO: D7 Gadd9/D D D

Cadd9 G/B D D


D9 D6/9
VERSE 1: spend your days just working and shopping
Dsus2b5 G6/D D
depending on how much your luck is in
D9 D6/9
spend your night life table hopping
Dsus2b5 G6/D D
and trying to keep that bag of bones in trim


C G/B D
CHORUS 1: i don't mind not feeling immortal
C G/B D
cuz it ain't all that as far as i can tell
C G/B D
i don't mind not going to heaven
C
as long as they've got cigarettes
G/B (D)
as long as they've got cigarettes in hell


LINK 1: (D) Cadd9 G/B D Cadd9 G/B G


D D6/9
VERSE 2: by the time they start getting used to
Dsus2b5 G6/D D
the dirt that's forming on the window sill
D D6/9
now we know we've got ourselves into
Dsus2b5 G6/D D
the cage that keeps the mice on the treadmill


C G/B D
CHORUS 2: i don't mind not feeling immortal
C G/B D
cuz it ain't all that as far as i can tell
C G/B D
and i don't mind not going to heaven
C
as long as they've got cigarettes
G/B (D)
as long as they've got cigarettes in hell


LINK 2: (D) Cadd9 G/B D Cadd9 G/B G


SOLO: D Am C G (x4) D D


Cadd9 G/B D
CHORUS 2: i don't mind not feeling immortal
Cadd9 G/B D
cuz it ain't all that as far as i can tell
Cadd9 G/B D
and i don't mind not going to heaven
Cadd9
as long as they've got cigarettes
G/B (D)
as long as they've got cigarettes in hell


OUTRO: D7 G6/D Gm6/D D

Cadd9 G/B D D

Dsus2 Dsus2 Dsus2 G/B Cadd9 D

Вверх

Cigarettes In Hell (2 вариант)

Intro: There are a few hammer ons in the intro with some sort of flange on them

G-5-5h7----5-5h7----5-5h7

Intro Chords: D for a few bars then Cadd9 G D

Verse 1:
D
spend your days just working on shopping
Cadd9 D
dependin' on how much your look is in
D
spend your nightlife table hopping
Cadd9 D
and trying to keep that bag a bones in trim

Chorus 1:
Cadd9 G D
i don't mind not feelin' immortal
Cadd9 G D
cause it ain't all that as far as i can tell
Cadd9 G D
i don't mind not going to heaven
Cadd9
as long as they've got cigarettes
G D
as long as they've got cigarettes in hell

Little fills of the D Cadd9 G chord sequence:
e-----2-0-------0----------0-------------
B---3---------3---3----3-------3---------
G---------------------------------------- 2 Times then D
D-0--------------------------------------
A-----------3---------------------0-2-3-5
E--------------------3-------------------

D
by the time we start getting used to
Cadd9 D
the dirt that's forming on the window sill
D
now we know we've got ourselves into
Cadd9 G
the cage that keeps the mice on their treadmill

Cadd9 G D
i don't mind not feelin' immortal
Cadd9 G D
cause it ain't all that as far as i can tell
Cadd9 G D
i don't mind not going to heaven
Cadd9
as long as they've got cigarettes
G D
as long as they've got cigarettes in hell

Little fills of the D Cadd9 G chord sequence:
e-----2-0-------0----------0-------------
B---3---------3---3----3-------3---------
G---------------------------------------- 2 Times then D
D-0--------------------------------------
A-----------3---------------------0-2-3-5
E--------------------3-------------------

Solo: over
e-2-2-2/3/5-10-10-10-10/--2-2-2/3/5-9-9b10r9b10r9b10r9

e-2-2-2/3/5-10-10-10-10/--2-2-2/3/5-9-9b10r9b10r9b10r9--2-2-2-2-5-5/10-10

Cadd9 G D
i don't mind not feelin' immortal
Cadd9 G D
cause it ain't all that as far as i can tell
Cadd9 G D
i don't mind not going to heaven
Cadd9
as long as they've got cigarettes
G D
as long as they've got cigarettes in hell
(noel coughing and puffing on a cigarette)

Вверх

Cloudburst

E A E A
e!------------------------------------------------------------------------------
B!----------------------3-3-3-3-2--2-2------------------------3-3-3-3-2--2-2----
G!-------------------2--2-2-2-2-2--2-2---------------------2--2-2-2-2-2--2-2----
D!-2--2-2------2-----2--2-2-2-2-2--2-2-----2--2-2-----2----2--2-2-2-2-2--2-2----
A!-2--2-2------2-----0--0-0-0-0-0--0-0-----2--2-2-----2----0--0-0-0-0-0--0-0----
E!-0--0-0--3b4-0-3b4-------------------3b4-0--0-0-3b4-0-3b4-----------------3b4-

Verse 1
-------
[NOTE: play chords below along with above riff]
E A
Wake up, there's a new day dawning
E A
I think I'll take a little walk for a while
E A
I need shades cos the sun is blinding
E A
And I can see for miles and miles
E A
Yeah I can feel the earth beneath me
E A
I lie down we are as one
E A
They look but they cannot find me
E A
I'm off and heading for the sun


Pre-Chorus
----------
C#m A C#m A
I'm getting colder, I feel a chill in the air
C#m A
There's a change in the weather
C#m G#m
Here it comes again,
A E
now I can feel the rain
e----------------------------------------------------------------
B-------------------------------3-3-3-3-------------3-3-3-3------
G-------------------------------2-2-2-2-------------2-2-2-2------
D----------------------2--------0-0-0-0----2--------0-0-0-0------
A----------------------2------0------------2------0--------------
E----------------------0--0h3--------------0--0h3-----------3b---

Chorus
-------
D D D
The wind that brings on the change is taking me over
D D
The wind that brings on the rain is making me older
e------------------------------------------------------------------------------
B------------------------------------------------------------------------------
G------------------------------------------------------------------------------
D------------------------------------------------------------------------------
A------------------------------------------------------------------------------
E----------------------------------------------------4b5--0-3p2p0-3p2p0-3p2p0--

[back to verse riff, using same chords as Verse 1]

Verse 2
-------
Downtown, the moon is shining, I'm gonna dress it up in style
My business everybody's minding, I need to get away for a while

Pre-Chorus
----------
I'm getting colder, I feel a chill in the air
There's a change in the weather
Here it comes again, now I can feel the rain [play pre-chorus riff]

Chorus
------
The wind that brings on the change is taking me over
The wind that brings on the rain
is making me older [NOTE:all other instruments besides lead guitar stop]
e------------------------------------------------------------------------------
B------------------------------------------------------------------------------
G---------------------------------------------------------6b7r6----------------
D--------------------------------------6b7r6--------5h7---------7--------------
A--------------------------------------------7--5h7-----0--------------5h7-----
E---------------4b5-3p2p0-3p2p0-3p2p0------------------------------5h7-----0---

[NOTE:resume background music]
E A E A
e-----------------------------------------------------------------------------
B-----------------------------------------------------------------------------
G-------------------------6b7r6-----------------------------------6b7r6--------
D----6b7r6--------5h7------------7-------------6b7r6--------5h7----------------
A----------7--5h7-------0--------------5h7-----------7--5h7-----0--------------
E--0-------------------------------5h7-----0----------------------------------

Вверх

Cloudburst (2 вариант)

E A
Wake up, there's a new day dawning

E A
I think I'll take a little walk for a while

E A
I need shades cause the sun is blinding

E A
And I can see for miles and miles

E A E A
Yeah I can feel the earth beneath me, I lie down we are as one

E A E A
They look but they cannot find me, I'm off and heading for the sun


C#m A C#m A
I'm getting colder, I feel a chill in the air

C#m A
There's a change in the weather

C#m G#m A E
Here it comes again, now I can feel the rain


The wind that brings on the change is taking me over ---
| D
The wind that brings on the rain is making me older ---

E A E A
Downtown, the moon is shining, I'm gonna dress it up in style

E A E A
My business everybody's minding, I need to get away for a while

(repeat chorus)

Вверх

Colour My Life

CHORDS (strings EADGBe)
------

E2 x79997
D x57775
C x35553
B x24442
Em 022000

MAIN RIFF
---------

G ---9--------9---------7~---------9----7---------------------
D -------9--------9--9-----------------------9----7---7--h9---


INTRO
-----

E2 E2 D B


VERSE 1
-------

E2 B
If you're wondering why I've not been speaking my mind, Sir
E2 B
It took so long since I could promise my all
E2 B
My shapes of confusion take hold of frustration
E2 B
And there's nothing worse than being home on your own



CHORUS
------
C D Em
You can colour my life until it fits with your own
C D Em
You can colour my life until it fits with your own


REPEAT INTRO


VERSE
-----
E2 B
I've been wondering why you've not been speaking your mind, son
E2 B
I've coloured my life and I'll make no more
E2 B
My shapes of confusion take hold of frustration
E2 B
You can colour my life until it fits with your own


CHORUS
------
C D Em
You can colour my life until it fits with your own
C D Em
You can colour my life until it fits with your own
C D Em
You can colour my life until it fits with your own
C
You can colour my life,
D Em
You can colour my life,


MIDDLE EIGHT
------------

Em Em Em Em



REPEAT INTRO


VERSE
-----
E2 B
If you're wondering why I've not been speaking my mind, Sir
E2 B
It took so long since I could promise my all
E2 B
My shapes of confusion take hold of frustration
E2 B
You can colour my life until it fits with your own


CHORUS
------
C D Em
You can colour my life until it fits with your own
C D Em
You can colour my life until it fits with your own
C D Em
You can colour my life until it fits with your own
C
You can colour my life,
D
You can colour my life,


MIDDLE EIGHT 2
--------------
Em Em Em Em
Em Em Em Em

E2 E2 D C

Вверх

Colour My Life (2 вариант)

RIFF

G ---9--------9---------7~---------9----7---------------------
D -------9--------9--9-----------------------9----7---7--h9---


INTRO
E2 E2 D B



E2 B
If you're wondering why I've not been speaking my mind, Sir
E2 B
It took so long since I could promise my all
E2 B
My shapes of confusion take hold of frustration
E2 B
And there's nothing worse than being home on your own

C D Em
You can colour my life until it fits with your own
C D Em
You can colour my life until it fits with your own


E2 E2 D B


E2 B
I've been wondering why you've not been speaking your mind, son
E2 B
I've coloured my life and I'll make no more
E2 B
My shapes of confusion take hold of frustration
E2 B
You can colour my life until it fits with your own


C D Em
You can colour my life until it fits with your own
C D Em
You can colour my life until it fits with your own
C
You can colour my life,
D Em
You can colour my life,


Em Em Em Em

E2 E2 D B


E2 B
If you're wondering why I've not been speaking my mind, Sir
E2 B
It took so long since I could promise my all
E2 B
My shapes of confusion take hold of frustration
E2 B
You can colour my life until it fits with your own

C D Em
You can colour my life until it fits with your own
C D Em
You can colour my life until it fits with your own
C
You can colour my life
D
You can colour my life


Em Em Em Em
Em Em Em Em
E2 E2 D C

FADE OUT

Вверх

Columbia

Intro:

A Dsus4 Cadd9sus4 A Dsus4 Cadd9sus4
B---------------------------------------------------------|
G-------5h7-7b7-5b5---------------------5h7-7b7-5b5-------|
D--7-5h7-----------7--7h5----------7-5h7-----------7--7h5-|
A---------------------------------------------------------|


Verse 1: (1:07)

A
There we were, now here we are
Dsus4 Cadd9sus4
All this confusion, nothing's the same to me
A
There we were, now here we are
Dsus4 Cadd9sus4
All this confusion, nothing's the same to me


Chorus: (1:26)

A
But I can't tell you the way I feel
Dsus4 Cadd9sus4
'Cos the way I feel is oh so new to me
A
No I can't sell you the way I feel
Dsus4 Cadd9sus4
'Cos the way I feel is oh so new to me


Solo: (1:46)

A Dsus4 Cadd9sus4
B---------------------------------------------------------|
G--7---6---------7---6---------7---6---------7---5--------|
D----7---7--5h7----7---7--5h7----7---7--5h7----7---7--5h7-|
A---------------------------------------------------------|


Verse 2: (2:05)

What I heard is not what I hear
I can see the signs but they're not very clear
What I heard is not what I hear
I can see the signs but they're not very clear


But I can't tell you the way I feel,
'Cos the way I feel is oh so new to me
No I can't sell you the way I feel
'Cos the way I feel is oh so new to me

A Dsus4 Cadd9sus4
B---------------------------------------------------------|
G--7---6---------7---6---------7---6---------7---5--------|
D----7---7--5h7----7---7--5h7----7---7--5h7----7---7--5h7-|
A---------------------------------------------------------|
This is confusion, am I confusing you?

A Dsus4 Cadd9sus4
B---------------------------------------------------------|
G--7---6---------7---6---------7---6---------7---5--------|
D----7---7--5h7----7---7--5h7----7---7--5h7----7---7--5h7-|
A---------------------------------------------------------|
This is confusion, am I confusing you?

A Dsus4 Cadd9sus4
E-----------------------------------------------------------------|
B--15^17----b17--b17---15^17--b17---b17---15^17--b17--b17---15^17-|
G-----------------------------------------------------------------|
This is peculiar, we don't wanna fool ya

A Dsus4 Cadd9sus4
E-----------------------------------------------------------------|
B--15^17----b17--b17---15^17--b17---b17---15^17--b17--b17---15^17-|
G-----------------------------------------------------------------|
This is peculiar, we don't wanna fool ya

Outro: (3:21)


A Dsus4 Cadd9sus4
D-----------------------------------------------|
A--0-0-3-5-3---0-0-3-5-3---0-0-3-5-3--5b5-3---0-| (x2)
E-3-----------3-----------3-----------------3---|

A Dsus4 Cadd9sus4
B---------------------------------------------------------|
G--7---6---------7---6---------7---6---------7---5--------|
D----7---7--5h7----7---7--5h7----7---7--5h7----7---7--5h7-| (x2)
A---------------------------------------------------------|

A Dsus4 Cadd9sus4
B-------------------------------------------------------------|
G--7b7-5h7-5---5h7-7b7-5h7-5---5h7-7b7-5------5-7-7b7-5-------|
D------------7---------------7----------7-5h7-----------7-5h7-| (x3)
A-------------------------------------------------------------|

A Dsus4 Cadd9sus4
B-----------------------------------------------------------|
G--7b7-5h7-5---5h7-7b7-5h7-5---5h7-7b7-5------7b7b7b7b7-5---|
D------------7---------------7----------7-5h7-------------7-|
A-----------------------------------------------------------|

A Dsus4 Cadd9sus4
B----------------------------------|
G---------------7------------------|
D---9b9-7---9b9----9b9--9b9--9b9-9-| (x3)
A----------------------------------|


A Dsus4 Cadd9sus4
B----------------------------------|
G-----5b5--5b5--5b5--5b5--5b5--5b5-|
D----------------------------------| [ Repeat to Fade ]
A----------------------------------|
Yeah Yeah Yeah

Вверх

Columbia (2 вариант)

A D C A
e----------------------------------------------------------------------------
B--2------------------------------3-----------------------------2------------
G--2----------------------------2-2-------------2-0-----------0-2------------
D--2----------------------------2-0-------------2-2-----------0-2------------
A--0----------------------------0-0-------------0-3-----------x-0------------
E-------------------------------------------------------------3--------------

Intro
-----

A D C A
e---------------------------------------------------------------------------
B---------------------------------------------------------------------------
G-------------5h7-7b8r7--5-------5------5----5---------5h7-5----------------
D---------5h7---------------5h7-----7---5h7--5-----5h7--------7-------------
A---------------------------------------------------------------------------
E---------------------------------------------------------------------------
D C
e---------------------------------------------------------------------------
B---------------------------------------------------------------------------
G-----5h7-7b8r7--5--5h7--5------5----5--------------------------------------
D-5h7-----------------------7---5h7--5--------------------------------------
A---------------------------------------------------------------------------
E---------------------------------------------------------------------------

1st Verse
---------
A
There we were, now here we are
D C
All this confusion, nothing's the same to me
A
There we were, now here we are
D C
All this confusion, nothing's the same to me


Chorus
------
A
Now I can't tell you the way I feel
D C
Because the way I feel is oh-so new to me
A
I can't tell you the way I feel
D C
because the way I feel is oh-so new to me


Musical Interlude
-----------------

A D C
e---------------------------------------------------------------------------
B---------------------------------------------------------------------------
G--7-----6------------7-----6----------7-----6----------7-----5-------------
D-----7-----7--5h7-------7-----7--5h7-----7-----7--5h7-----7-----7--5h7-----
A---------------------------------------------------------------------------
E---------------------------------------------------------------------------

A D C
e---------------------------------------------------------------------------
B---------------------------------------------------------------------------
G--7-----6------------7-----6----------7-----6----------7-----5-------------
D-----7-----7--5h7-------7-----7--5h7-----7-----7--5h7-----7-----7--5h7-----
A---------------------------------------------------------------------------
E---------------------------------------------------------------------------

2nd Verse
---------
What I heard is not what I hear
I can see the signs but they're not very clear
What I heard is not what I hear
I can see the signs but they're not very clear

Chorus
------
I can't tell you the way I feel
Becuase the way I feel is oh-so new to me
I can't tell you the way I feel
because the way I fell is oh-so new to me

A D C
This is confusion, am I confusing you?
e---------------------------------------------------------------------------
B---------------------------------------------------------------------------
G--7-----6------------7-----6----------7-----6----------7-----5-------------
D-----7-----7--5h7-------7-----7--5h7-----7-----7--5h7-----7-----7--5h7-----
A---------------------------------------------------------------------------
E---------------------------------------------------------------------------

A D C
This is confusion am I confusing you?
e---------------------------------------------------------------------------
B---------------------------------------------------------------------------
G--7-----6------------7-----6----------7-----6----------7-----5-------------
D-----7-----7--5h7-------7-----7--5h7-----7-----7--5h7-----7-----7--5h7-----
A---------------------------------------------------------------------------
E---------------------------------------------------------------------------

A D C
This is confusion, am I amusing you?
!e-----------------------------------------------------------------
!B-----------------------------------------------------------------
guitar !G-7---6---------7---6---------7---6----------7---5----------------
#2 !D---7---7--5h7----7---7--5h7----7---7--5h7-----7---7--5h7---------
!A-----------------------------------------------------------------
!E-----------------------------------------------------------------
!
!
!e--12------12---12-----12----12----12-----12----12---12-----12----
!B--15b17----b17--b17---15b17--b17---b17---15b17--b17--b17---15b17-
guitar !G-----------------------------------------------------------------
#3 !D-----------------------------------------------------------------
!A-----------------------------------------------------------------
!E-----------------------------------------------------------------

A D C
This is peculiar, we don't want to fool
yer
!e-----------------------------------------------------------------
!B-----------------------------------------------------------------
guitar !G-7---6---------7---6---------7---6----------7---5----------------
#2 !D---7---7--5h7----7---7--5h7----7---7--5h7-----7---7--5h7---------
!A-----------------------------------------------------------------
!E-----------------------------------------------------------------
!
!
!e--12------12---12-----12----12----12-----12----12---12-----12----
!B--15b17----b17--b17---15b17--b17---b17---15b17--b17--b17---15b17-
guitar !G-----------------------------------------------------------------
#3 !D-----------------------------------------------------------------
!A-----------------------------------------------------------------
!E-----------------------------------------------------------------

A
e---------------------------------------------------------------------------
B---------------------------------------------------------------------------
G---------------------------------------------------------------------------
D---------------------------------------------------------------------------
A---------0-0-0--3p0--5p0--3b3.5--0---------0-0-0--3p0--5p0--3b3.5--0-------
E--3b3.5-----------------------------3b3.5----------------------------------

D C
e---------------------------------------------------------------------------
B---------------------------------------------------------------------------
G---------------------------------------------------------------------------
D---------------------------------------------------------------------------
A---------0-0-0--3p0--5p0--3--5--5b6r5----3---------------------------------
E--3b3.5-------------------------------------3--5---------------------------

A D
e------------------------------------------------------------------------
B------------------------------------------------------------------------
G--7b8r7--5h7-5-----5--7--7b8r7--5h7-5-----5--7--7b8r7--5-------------5--
D----------------7----------------------7------------------7------5h7----
A-------------------------------------------------------------5h7--------
E------------------------------------------------------------------------


C A
e-----------------------------------------------------------------------
B-----------------------------------------------------------------------
G--7b8r7--5-------------5--7b8r7--5h7-5-----5--7--7b8r7--5h7-5-----5--7-
D------------7------5h7------------------7----------------------7-------
A---------------5h7-----------------------------------------------------
E-----------------------------------------------------------------------

D C A
e---------------------------------------------------------------------------
B---------------------------------------------------------------------------
G-7b8r7--5h7-5-------------5-----5------------5h7-5---7b8r7--5h7-5----------
D---------------7---5h7-------7-----7-----5h7-----------------------7--5h7--
A---------------------------------------------------------------------------
E---------------------------------------------------------------------------

D C
e---------------------------------------------------------------------------
B---------------------------------------------------------------------------
G-7b8r7--5h7-5------------7b8r7--5h7-5----------7b8r7--5--7b8r7--5--7b8r7---
D---------------7--5h7------------------7--5h7------------------------------
A---------------------------------------------------------------------------
E---------------------------------------------------------------------------

A D C
e---------------------------------------------------------------------------
B---------------------------------------------------------------------------
G-7b8r7--5h7-5------------7b8r7--5h7-5----------7b8r7-7-7b8r7-7-7b8r7-7b8r7-
D---------------7--5h7------------------7--5h7------------------------------
A---------------------------------------------------------------------------
E---------------------------------------------------------------------------

A D C A
e---------------------------------------------------------------------------
B---------------------------------------------------------------------------
G-7-7b8r7-7-----------------------------------------------------------------
D-----------------b9.5r9--7---------b9.5r9--7-------9b9.5-------------7-----
A---------------------------------------------------------------------------
E---------------------------------------------------------------------------

D C A
e---------------------------------------------------------------------------
B---------------------------------------------------------------------------
G---------------------------------------------------------------------------
D-b9.5r9--7----------b9.5r9--7--------9b9.5----------7------b9.5r9--7-------
A---------------------------------------------------------------------------
E---------------------------------------------------------------------------

D C A
e---------------------------------------------------------------------------
B---------------------------------------------------------------------------
G---------------------------------------------------------------------------
D-----b9.5r9--7-------9b9.5r9--9--9b9.5r9--9--9b9.5r9--7--------------------
A---------------------------------------------------------------------------
E---------------------------------------------------------------------------

Вверх

Cum On Feel The Noize

Intro
C G Am C G Am

F G
Get your boots off skinhead

C Em Am
So you think I have an evil mind well I`ll tell you honey
F C G F C G
and I dont know why , and I dont know why
C Em Am
So you think my singing out of time , well it makes me money
F C G F C G Am
G
And I dont know why , and I dont know why ...Any more oh no

Chorus

C G Am C G Am
So cum on feel the noize , Girls grab the boys
F C G F C G
we`ll get wild wild wild , we`ll get wild wild wild
C G Am C G Am
So cum on feel the noize , girls grab the boys
F C G
we`ll get wild wild wild , at your door

C Em Am
So you think i`ve got a funny face , we`ll it aint no worry
F C G F C G
and I dont know why , and I dont know why

C Em Am
Say I a dog well now It`s no disgrace , and I`m in no hurry
F C G F C G Am G
and I dont know why , and I dont know why any more oh no

repeat Chorus

then................C G Am, C G Am, F G

C Em Am
So you think we have a lazy , and you should know better
F C G F C G
And I dont know why , and I dont know why
C Em Am
And you say Ihave a dirty mind , well I`m a mean go getter
F C G F C G Am
G
And I dont know why , and I dont know why Any more oh no

repeat Chorus to fade.............

Вверх

Digsys Dinner

A2 C#7 D E D E
E|--5-x-5-x-5-x-5--4-x-4-x-4-x-4--2---2-0-2--0---0-0-0--0--0--0--0--0---0--0-|
B|--5-x-5-x-5-x-5--6-x-6-x-6-x-6--3---3-3-3--0---0-0-0--3--3--3--3--0---0--0-|
G|--6-x-6-x-6-x-6--4-x-4-x-4-x-4--2---2-2-2--1---1-1-1--2--2--2--2--1---1--1-|
D|--7-x-7-x-7-x-7--6-x-6-x-6-x-6--0---0-0-0--2---2-0-2--0--0--0--0--2---2--2-|
A|--7-x-7-x-7-x-7--4-x-4-x-4-x-4-------------2---2-2-2--------------2---2--2-|
E|--5-x-5-x-5-x-5----------------------------0---0-0-0--------------0---0--0-|

D7 A
E|--2--2--2--2-----------------|
B|--1--1--1--1---2--2--3--3--2-|
G|--2--2--2--2---2--2--2--2--2-|
D|--0--0--0--0---2--2--4--4--2-|
A|---------------0--0--0--0--0-|
E|-----------------------------|

Also, there is this little riff being played over the intro by a third
guitar (listen carefully and you'll hear it):

A2 C#7 D E D E
E|----5---------------4-------------0-------0-----0----0--0--------0-----0-|
B|-5-----5---------6-----6-------3-----3-------3-------------3--------3----|
G|-------------------------------------------------------------------------|
D|-------------------------------------------------------------------------|
A|-------------------------------------------------------------------------|
E|-------------------------------------------------------------------------|

D7 A
E|-----2--2----|
B|-----------1-|
G|-------------|
D|-------------|
A|-------------|
E|-------------|

So in the intro and the verses where just the chords are listed, you could
play just the chords or play what Noel is playing above.

Intro
-----
A2 C#7 D E Dsus2 E7 D7 A

Verse
-----
A2 C#7 D E
What a life it would be, if you could come to mine for tea
Dsus2 E7 D7 A
I'll pick you up at half past three, we'll have lasagne
A2 C#7 D E
I'll treat you like a queen, I'd feed you strawb'ries and cream,
Dsus2 E7 D7 A
And then your friends will all go green for my lasagne

Chorus
------

F#m A
These could be the best days of our lives
E|--------------------------|
B|---2-----------3--2--3--2-|
G|---2-----------2--2--2--2-|
D|---2-----------4--2--4--2-|
A|---0--------0--0--0--0--0-|
E|--------------------------|

Bm C#7
But I don't think we've been livin' very wise

She said oh no no

[REPEAT VERSE]

Piano Solo arranged for guitar:

A2 C#7 D E
E|----------------------------------------------------------------------------|
B|-14--14--14h15r14-------------14--------------------------------------------|
G|-------------------16---16-16----16--14---14-14--16--14------------------14-|
D|---------------------------------------------------------14---14--14--16----|
A|----------------------------------------------------------------------------|
E|----------------------------------------------------------------------------|

Dsus2 E7 D7 A
E|--------------------------------------------------------------------------|
B|-----------------------------------------------------------------------14-|
G|--14h16h17--16--14--16--14------------------14--14h16h17--17--17-16-17----|
D|----------------------------14---14-14--16--------------------------------|
A|--------------------------------------------------------------------------|
E|--------------------------------------------------------------------------|

E|-------------|
B|----14-15-14-|
G|-16----------|
D|-------------|
A|-------------|
E|-------------|

These could be the best days of our lives
But I don't think we've been living very wise, she said oh no no
What a life it would be if you could come to mine for tea
I'd pick you up at half past three we'll have lasagne
I'll treat you like a queen, I'll give you strawberries and cream
Dsus2 E7 Dsus2 E7
Then your friends will all go green, then your friends will all go green
Dsus2 E7 D7 A
Then your friends will all go green for my lasagne

(And here's the little riff at the end):

E|-------------------|
B|------3-----3p2----|
G|-----------------2-|
D|--2h4----4---------|
A|-------------------|
E|-------------------|

Вверх

Digsys Dinner (2 вариант)

Intro:

A C#7 D E Dsus2 E7 D7 A Dsus2

A C#7 D E
What a life it would be, if you could come to mine for tea,

Dsus2 E7 D7 A Dsus2
I'll pick you up at half past three, we'll have lasagne,

A C#7 D E
I'll treat you like a queen, I'd feed you strawberrys and cream,

Dsus2 E7 D7 A Dsus2
Then your friends will all go green, from my lasagne,


F# A Dsus2 A Dsus2
These could be the best days of our lives,

B? C#7
But I don't think we've been living, very wise,


She said oh no no no,


A C#7 D E
What a life it would be, if you could come to mine for tea,

Dsus2 E7 D7 A Dsus2
I'll pick you up at half past three, we'll have lasagne,

A C#7 D E
I'll treat you like a queen, I'd feed you strawberrys and cream,

Dsus2 E7 D7 A Dsus2
Then your friends will all go green, from my lasagne,

A C#7 D E
I'll treat you like a queen, I'd feed you strawberrys and cream,

Dsus2 E7 Dsus2 E7
Then your friends will all go green, Then your friends will all go
green,

Dsus2 E7 D7 A
Then your friends will all go green, from my lasagne.


I left this bit at the end as I don't know if it's right or not
(I always run out of the room screaming before ANY Oasis song reaches
the end!) :-P

Noels little tarty bit at the end:

E|----------------------------------------
B|-----3----3p2---------------------------
G|--------------2-------------------------
D|-2h4---4--------2-----------------------
A|------------------0---------------------
E|----------------------------------------

I also have no idea about the solo.
If anyone can add to this (make it better) please do so.

Вверх

Digsys Dinner (3 вариант)

NOTE: While Bonehead is playing the basic chord progression above the
following tab in the intro and verses, Noel is playing something like
this:

A2 C#7 D E D E
E|--5-x-5-x-5-x-5--4-x-4-x-4-x-4--2---2-0-2--0---0-0-0--0--0--0--0--0---0--0-|
B|--5-x-5-x-5-x-5--6-x-6-x-6-x-6--3---3-3-3--0---0-0-0--3--3--3--3--0---0--0-|
G|--6-x-6-x-6-x-6--4-x-4-x-4-x-4--2---2-2-2--1---1-1-1--2--2--2--2--1---1--1-|
D|--7-x-7-x-7-x-7--6-x-6-x-6-x-6--0---0-0-0--2---2-0-2--0--0--0--0--2---2--2-|
A|--7-x-7-x-7-x-7--4-x-4-x-4-x-4-------------2---2-2-2--------------2---2--2-|
E|--5-x-5-x-5-x-5----------------------------0---0-0-0--------------0---0--0-|

D7 A
E|--2--2--2--2-----------------|
B|--1--1--1--1---2--2--3--3--2-|
G|--2--2--2--2---2--2--2--2--2-|
D|--0--0--0--0---2--2--4--4--2-|
A|---------------0--0--0--0--0-|
E|-----------------------------|

Also, there is this little riff being played over the intro by a third
guitar (listen carefully and you'll hear it):

A2 C#7 D E D E
E|-------5---------------4-------------0-------0-----0----0--0--------0-----0-|
B|----5-----5---------6-----6-------3-----3-------3-------------3--------3----|
G|----------------------------------------------------------------------------|
D|----------------------------------------------------------------------------|
A|----------------------------------------------------------------------------|
E|----------------------------------------------------------------------------|

D7 A
E|-----2--2----|
B|-----------1-|
G|-------------|
D|-------------|
A|-------------|
E|-------------|

So in the intro and the verses where just the chords are listed, you could
play just the chords or play what Noel is playing above.

Intro
-----
A2 C#7 D E Dsus2 E7 D7 A

Verse
-----
A2 C#7 D E
What a life it would be, if you could come to mine for tea
Dsus2 E7 D7 A
I'll pick you up at half past three, we'll have lasagne
A2 C#7 D E
I'll treat you like a queen, I'd feed you strawb'ries and cream,
Dsus2 E7 D7 A
And then your friends will all go green for my lasagne

Chorus
------

F#m A
These could be the best days of our lives
E|--------------------------|
B|---2-----------3--2--3--2-|
G|---2-----------2--2--2--2-|
D|---2-----------4--2--4--2-|
A|---0--------0--0--0--0--0-|
E|--------------------------|

Bm C#7
But I don't think we've been livin' very wise

She said oh no no

[REPEAT VERSE]

Piano Solo arranged for guitar:

A2 C#7 D E
E|----------------------------------------------------------------------------|
B|-14--14--14h15r14-------------14--------------------------------------------|
G|-------------------16---16-16----16--14---14-14--16--14------------------14-|
D|---------------------------------------------------------14---14--14--16----|
A|----------------------------------------------------------------------------|
E|----------------------------------------------------------------------------|

Dsus2 E7 D7 A
E|--------------------------------------------------------------------------|
B|-----------------------------------------------------------------------14-|
G|--14h16h17--16--14--16--14------------------14--14h16h17--17--17-16-17----|
D|----------------------------14---14-14--16--------------------------------|
A|--------------------------------------------------------------------------|
E|--------------------------------------------------------------------------|

E|-------------|
B|----14-15-14-|
G|-16----------|
D|-------------|
A|-------------|
E|-------------|

These could be the best days of our lives
But I don't think we've been living very wise, she said oh no no
So what a life it would be if you could come to mine for tea
I'd pick you up at half past three we'll have lasagne
I'll treat you like a quenn, I'll give you strawberries and cream
Dsus2 E7 Dsus2 E7
Then your friends will all go green, then your friends will all go green
Dsus2 E7 D7 A
Then your friends will all go green for my lasagne

(And here's the little riff at the end):

E|-------------------|
B|------3-----3p2----|
G|-----------------2-|
D|--2h4----4---------|
A|-------------------|
E|-------------------|

Вверх

Dirty Magic

Intro & verse (guitar 1)

E|---------------------------------------------------------------------------
B|---------------------------------------------------------------------------
G|---------------------------------------------------------------------------
D|---------------------------------------------------------------------------
A|---------------7---------7----------10---------------9---------------------
E|--0--3/5--5-5-----5---5-----5/8-8-8-----8--87--7-7----7-0-7-8-7-0-7-0-8-7-

Guitar 2 (over verse)

grad strum harder
E|-------------------|---------------------------------------------
B|-5-5-5-5-5-5-5-5-5-|-3-3-3-3p5-5-5-5-5-5-5-3-3-5-5-0-------------
G|-------------------|---------------------------------------------
D|-------------------|---------------------------------------------
A|-------------------|---------------------------------------------
E|-------------------|---------------------------------------------
first time only

fill 1 (guitar 2 over verse) fill 2

grad strum
. harder .
E|---------------------------- E|--------------------------------
B|-5-5-5-5-5-5--0-0-0--------- B|--3/5--5-5-5-5------------------
G|---------------------------- G|--------------------------------
D|---------------------------- D|--------------------------------
A|---------------------------- A|--------------------------------
E|---------------------------- E|--------------------------------


fill 3 fill 4
grad strum
. harder .
E|---------------------------- E|--------------------------------
B|-5-5-5-5-5-5-5-5-5---------- B|--5-53-3-3-3/5-5-0-------------
G|---------------------------- G|--------------------------------
D|---------------------------- D|--------------------------------
A|---------------------------- A|--------------------------------
E|---------------------------- E|--------------------------------


Chorus (this part is iffy -if it doesn't sound right make up your own
chorus)

D E D E B A
E|-----------------------------------------------------------------
B|-----------------------------------------------------------------
G|--7/9--9--9--9----7-9-9-9---------------------------------------- X 3
D|--7/9--9--9--9----7-9-9-9---9-9-9--9-------7-7-7--7--------------
A|--5/7--7--7--7----5-7-7-7---9-9-9----9-----7-7-7----7------------
E|----------------------------7-7-7------7---5-5-5------5----------

A C B E
E|------------------------------------------------------------------
B|------------------------------------------------------------------
G|------------------------------------------------------------------
D|----7-7-7-7-7-7-7-7/10-10-10-10--9--9--2--------------------------
A|----7-7-7-7-7-7-7-7/10-10-10-10--9--9--2--------------------------
E|----5-5-5-5-5-5-5-5/8--8--8--8---7--7--0--------------------------

Interlude

E|----------------------------------------------------------
B|--7-7-7-7/8-8-8-8-8-8-8-7-7-5-5-3-3-5/7-------------------
G|----------------------------------------------------------
D|----------------------------------------------------------
A|----------------------------------------------------------
E|---------------------------

Вверх

Don Look Back In Anger

Intro
E|------------------|-----------------|
B|--1---1---1---1---|-1---1---------1-|
G|--0---0---0---0---|-2---2-------0---|
D|--2---2---2---2---|-3---3----2h3----|
A|----3---3---3---3-|---3----3--------|
E|------------------|-----------------|

E|-----------------|----------------------|
B|-1---1---1---1---|-1-----1--------------|
G|-0---0---0---0---|-2---0h2-0----------0-|
D|-2---2---2---2---|-3----------0-0h2-0---|
A|---3---3---3---3-|---3------------------|
E|-----------------|----------------------|

Rhy Fig 1a.
E|-----0-00-----3-33-|-----0-00----0-00-|
B|-----1-11-----0-00-|-----1-11----0-00-|
G|-----0-00-----0-00-|-----2-22----1-11-|
D|---2-2-22--0--0-00-|---2-2-22----2-22-|
A|-3-----------------|-0---------2------|
E|---------3---------|---------0--------|

E|-----1-11----3-33-|-----0---------------------|
B|-----1-11----3-33-|-----1-----1-1-1-0-0-0-0-0-|
G|-----2-22----4-44-|-----0-0-0-2-2-2-0-0-0-0-0-|
D|-----3-33----5-55-|---2-2-0-0-2-2-2-0-0-0-0-0-|
A|---3-------5------|-3---------0-0-0---2-2-2-2-|
E|-1-------3--------|-------------------3-3-3-3-|

Rhy Fig 1b.
E|-----0-00-----3-33-|-----0-00----0-00-|
B|-----1-11-----0-00-|-----1-11----0-00-|
G|-----0-00-----0-00-|-----2-22----1-11-|
D|---2-2-22--0--0-00-|---2-2-22----2-22-|
A|-3-----------------|-0---------2------|
E|---------3---------|---------0--------|

E|-----1------------|-----0---------------------|
B|---1---1-----3-33-|-----1-----1-1-1-0-0-0-0-0-|
G|---2----2----4-44-|-----0-0-0-2-2-2-0-0-0-0-0-|
D|---3---------5-55-|---2-2-0-0-2-2-2-0-0-0-0-0-|
A|-----------5------|-3---------0-0-0---2-2-2-2-|
E|-1-------3--------|-------------------3-3-3-3-|

Rhy Fig 1c.
E|-----0-----0-0-0--------|
B|-----1-----1-1-1-0-0----|
G|-----0-0-0-2-2-2-0-0--5-|
D|---2-2-0-0-2-2-2-0-0----|
A|-3---------0-0-0---2----|
E|-------------------3----|

Interlude
E|-----1------1--|---------------------|
B|-----1------1--|---------------------|
G|-----2------1--|-----5-5-------------|
D|---------------|---5h7-5-----5-------|
A|---3------3----|-3--------5/7--7/5-3-|
E|-1------1------|---------------------|

E|-----1------1--|-----3------------|
B|-----1------1--|-----5-----4/5----|
G|-----2------1--|-----5--5-----5---|
D|---------------|---5----5h7-----5-|
A|---3------3----|-3----------------|
E|-1------1------|------------------|

E|-----1------1--|-------------8-----|
B|-----1------1--|-----8-------8-----|
G|-----2------1--|-----9----8/9----5--|
D|---------------|-----10-10--------5-|
A|---3------3----|--10----------------|
E|-1------1------|-8------------------|

E|-----------------|-----------------|
B|-----------------|-----------------|
G|-----------------|-----------------|
D|-5---5---5---5---|-6---6---6---6---|
A|-5---5---5---5---|-5---5---5---5---|
E|-3-3---3---3---3-|---4---4---4---4-|

E|----------------|-------------------|
B|----------------|-------------------|
G|----------------|-------------------|
D|-7---7---5---5--|-3---3---3---3-3/5-|
A|-7---7---5---5--|-3---3---3---3-3/5-|
E|--5---5---3---3-|--1---1---1--------|

E|-----------------|-------------------|
B|-----------------|-----------5-------|
G|-----------------|-5--5--7^9---7p5h7-|
D|---5-5-5-5-5-5-5-|-5h7---------------|
A|---5-5-5-5-5-5-5-|-------------------|
E|-3-3-3-3-3-3-3-3-|-------------------|

Solo 1
E|---------------------|----------------|-------------------|
B|---------------------|---------8------|-------------------|
G|------4-5-7-7^9r7-5--|-5---5/9----9/7-|-5-------5-7---5-7-|
D|-----7-------------7-|----------------|------5h7---5h7----|
A|---------------------|----------------|-------------------|
E|---------------------|----------------|-------------------|

Solo 2
E|-----------------------|----------------------------|
B|-----------------------|----------------------------|
G|-7^8r7-7^8r7-7^8r7-5---|-----5-5--5-7^8-5-5-----7-5-|
D|---------------------5-|--5h7--5h7----------7-7-----|
A|-----------------------|----------------------------|
E|-----------------------|----------------------------|

E|-----------------------|----------------------|
B|-----------------------|----------------------|
G|-7^8r7-7^8r7-7^8r7-5---|--5---5---------------|
D|---------------------5-|--5h7-5-------5-------|
A|-----------------------|-------h7-5/7---75-3-|
E|-----------------------|----------------------|

E|-------------------------------|------------8-8-8h10-8-|
B|-------------------------------|-----8-8-10------------|
G|---------------5-5-7^8r7p5---5-|-7/9-------------------|
D|-----------5-7-------------7---|-----------------------|
A|-----3-5/7---------------------|-----------------------|
E|-1-5---------------------------|-----------------------|

E|------8------8------8------8------8-|-8h10p8------8------8------8-8-0-0-|
B|-8h10---8h10---8h10---8h10---8h10---|--------8h10---8h10---8h10---8-----|
G|------------------------------------|------------------------------------|

E|-------------------------------------------|
B|-17----17----17----17----17-17-17----17-17-|
G|-19^21-19^21-19^21-19^21-------19^21-------|

E|----------------------17----------------------|
B|----------------------------------17-------17-|
G|-19^21-17-19-17-19^21----19-19^21----19^21----|

E|-----------------------------------------------------------------| Rest 
B|-17----17-17-17----17-17-17----17-17-17----17-17-17----17-17-17-| one 
G|-19^21-------19^21-------19^21-------19^21-------19^21-----------| measure

Outro
[whole notes--------------------->]
E|-0---------|-1--------|-1--------|---------------------------------|
B|-1---------|-1--------|-1--------|---------------------------------|
G|-2---------|-2--------|-1--------hold chord for 2 measures---------|
D|-2---------|-3--------|-3--------|---------------------------------|
A|-0---------|----------|----------|---------------------------------|
E|-----------|----------|----------|---------------------------------|

E|-----------------------------|-----------------|--------------------|-0-|
B|-----------------------------|-----------------|--------------------|-1-|
G|---------5-7-7^8r7-5---5-7-5-|-7^9-7-5--5h7-5--|--------------------|-0-|
D|-----5h7-------------7-------|-----------------|-7-5----------5-----|-2-|
A|-5h7-------------------------|-----------------|------3h5-5/7----7-|-3-|
E|-----------------------------|-----------------|--------------------|---|

Song Progression

Intro

Rhy Fig 1a.

Rhy Fig 1b.

Interlude

Rhy Fig 1a. X 2

Solo 1

Rhy Fig 1a.

Rhy Fig 1b.

Interlude

Rhy Fig 1a. X (1 3/4)

Rhy Fig 1c.

Solo 2

Rhy Fig 1a. X (3 1/4)

Outro

Вверх

Don't Go Away

Verse 1:
Am7 G
A cold and frosty morning there's not a lot to say
F Dsus2
About the things caught in my mind
Am7 G
As the day was dawning my plane flew away
F Dsus2
With all the things caught in my mind

Bridge:
Am Dsus2
And I wanna be there when you're coming down
Am G
And I wanna be there when you hit the gound

Chorus:
C G/B
So don't go away, say what you say
Am7
But say that you'll stay
G F
Forever and a day in the time of my life
G Am7
Cos I need more time, yes I need more time
G F
Just to make things right

Verse 2:
Damn my situation and the games I have to play
With all the things caught in my mind
Damn my education I can't find the words to say
About the things caught in my mind

Bridge:

Chorus:

Outro:
Fm C G/B Am7 G
Me and you what's going on?
F Fm
All we seem to know is how to show
C
The feeling that are wrong

Вверх

Dont Go Away

Intro: Am G Fmaj7
E-----------------------------------------------------
B-----------------------------------------------------
G------------5---7----------(9)-----7---5---7---5-----
D----5---7-----------------------------------------7--
A-----------------------------------------------------
E-----------------------------------------------------

Dm G (x2)
---------------------------------|-----------------------|
---------------------------------|-----------------------|
---------------------------------|---5-------------------|
------------------------------7--|--------7--------------|
-----------X--X--5--(7)----------|-----------------------|
-------------------------5-------|-----------------------|
|--play this part only--|
|----on the 2nd time----|

Verse 1:
Am G
A cold and frosty morning there's not a lot to say
Fmaj7 Dm F
About the things caught in my mind
Am G
As the day was dawning my plain flew away
Fmaj7 Dm F
With all the things caught in my mind

Bridge:
Fill#1(this is played through all the song)
E---------------3-----------------3----
B----------1--------1--------1----------
G----4------------------4--------------
D--------------------------------------
A--------------------------------------
E--------------------------------------

Dm(Fill#1) F
And I don't wanna be there when you're coming down
Dm(Fill#1) F G
And I don't wanna be there when you hit the ground


Chorus:
C G
So don't go away, say what you say
Am G
But say that you'll stay, forever and a day
F G
In the time of my life, cause I need more time
Am G F
Yes I need more time just to make things right

Little Solo:
E---------------------------
B---------------------------
G----7(9)------(9)(7)--5----
D------------------------7--
A---------------------------
E---------------------------

Verse 2:
Am G
Damn my situation and the games I have to play
Fmaj7 Dm F
With all the things caught in my mind
Am G
Damn my education I can't find the words to say
Fmaj7 Dm F
About the things caught in my mind

Bridge:
Dm(Fill#1) F
And I don't wanna be there when you're coming down
Dm(Fill#1) F G
And I don't wanna be there when you hit the ground

Chorus:

C G
So don't go away, say what you say
? Am G
But say that you'll stay, forever and a day
F G
In the time of my life cause I need more time
Am G F
Yes I need more time just to make things right

Fm
Me and you what's going on
Solo 1
C - G - Am
E------------------------------------------------------------
B------------------------------------------------------------
G---------5-----7----5----7-(9)(7)---5-------5----5~---------
D--5--7--------------------------------7---------------7-----
A------------------------------------------------------------
E------------------------------------------------------------

F Fm
All we seem to know is how to show the feelings that are wrong

Solo 2

C - G -
E-----------------------------------------------
B----------------------------------------------
G---------5-----7----5--7(9)(7)----5-------5----
D--5--7---------------------------------7-------
A-----------------------------------------------
E-----------------------------------------------

Am G - F
E--------------8-10--8---------------8---10--
B-----8----10------------------8---10--------
G-7(9)---------------------------------------
D--------------------------------------------
A--------------------------------------------
E--------------------------------------------
Chorus: (x2)
C G
So don't go away, say what you say
? Am G
But say that you'll stay, forever and a day
F G
In the time of my life cause I need more time
Am G F
Yes I need more time just to make things right

Am G F
Yes I need more time just to make things right
Am G F
Yes I need more time just to make things right
Am G F Fm
Yes I need more time just to make things right
C
So, don't go away


On this last part("yes I need more time...")
one of the guitars keeps playing something like this:

E-------8-------8--
B--8-10----8-10----

Вверх

Dont Go Away (2 вариант)

INTRO: Am Am7 Gsus4 Fadd9 Dm Fadd9 (x2)


Am Am7 Gsus4
VERSE 1: a cold and frosty morning, there's not a lot to say
Fadd9 Dm Fadd9
about the things caught in my mind
Am Am7 Gsus4
and as the day was dawning my plane flew away
Fadd9 Dm Fadd9
with all the things caught in my mind


Dm7/4 Fadd9
BRIDGE 1: and i wanna be there when you're coming down
Dm7/4 Fadd9
and i wanna be there when you hit the ground


Gsus4 C C2/B Am7*
CHORUS 1: so don't go away, say what you say, say that you'll stay
C/G Fmaj7
forever and a day, in the time of my life
G Am
cuz i need more time, yes i need more time
G Fmaj7
just to make things right


Am Am7 Gsus4
VERSE 2: damn my situation and the games i have to play
Fadd9 Dm Fadd9
with all the things caught in my mind
Am Am7 Gsus4
damn my education, i can't find the words to say
Fadd9 Dm Fadd9
with all the things caught in my mind


Dm7/4 Fadd9
BRIDGE 2: and i wanna be there when you're coming down
Dm7/4 Fadd9
and i wanna be there when you hit the ground


Gsus4 C C2/B Am7*
CHORUS 2: so don't go away, say what you say, say that you'll stay
C/G Fmaj7
forever and a day, in the time of my life
G Am
cuz i need more time, yes i need more time
G Fmaj7
just to make things right


Fm C C2/B Am
MIDDLE: me and you what's going on?
F Fm
all we seem to know is how to show
C C2/B Am C/G F G
the feelings that are wrong


Gsus4 C C2/B Am7*
CHORUS 3: so don't go away, say what you say, say that you'll stay
C/G Fmaj7
forever and a day, in the time of my life
G Am
cuz i need more time, yes i need more time
G Fmaj7
just to make things right
Gsus4 C C2/B Am7*
so don't go away, say what you say, say that you'll stay
C/G Fmaj7
forever and a day, in the time of my life
G Am
cuz i need more time, yes i need more time
G Fmaj7
just to make things right
Am G Fmaj7
yes i need more time just to make things right
Am G Fmaj7
yes i need more time just to make things right
G C C2/B Am G Fadd9 G Fadd9 (G)
so dont go away

((G) G/B Am) x3

G Cmaj7

Вверх

Dont Go Away (3 вариант)

Verse

G|---------|---------|---------|---------|
D|---------|---------|---------|---------|
A|---------|---------|---------|-5-5-5-5-|
E|-5-5-5-5-|-3-3-3-3-|-1-1-1-1-|---------|

Pre-Chorus

G|---------|---------|---------|---------|
D|---------|---------|---------|---------|
A|---------|---------|---------|-5-5-5-5-|
E|-1-1-1-1-|-3-3-3-3-|-1-1-1-1-|---------|

Chorus

G|---------|---------|---------|---------|---------|---------|------------|
D|---------|---------|---------|---------|---------|---------|------------|
A|-3-3-3-3-|---------|---------|---------|---------|---------|-5-5--------|
E|---------|-3-3-3-3-|-5-5-5-5-|-3-3-3-3-|-1-1-1-1-|-3-3-3-3-|------33--1-|

Middle

G|---------|---------|---------|---------|
D|---------|---------|---------|---------|
A|-3-3-3-3-|-3-3-3-3-|---------|---------|
E|---------|---------|-1-1-1-1-|-3-3-3-3-|

G|---------|---------|---------|---------|
D|---------|---------|---------|---------|
A|-3-3-3-3-|-3-3-3-3-|-3-3-3-3-|-3-3-3-3-|
E|---------|---------|---------|---------|

Outro

G|---------|--------|
D|---------|--------|
A|-----5-5-|--------|
E|-3-3-----|-33--1--|

Order of the Riffs:
Verse x 4
Pre-Chorus
Chorus
Verse x 2
Pre-Chorus
Chorus
Middle
Chorus x 2
Outro x 2

Вверх

Dont Go Away (4 вариант)

Intro (Picking that Noel did in Buenos Aires, Argentina):

e--3-3-3---3---3-3-3---3---3-3-3---3---3-3-3--3
B--1-1---1-1---3-3---3-3---1-1---1-1---3-3-3--1
G--0-0-----0---0-0-----0---2-2-----2---2-2-2--2
D--2-2-----2---0-0-----0---3-3-----3---0-0-0--3
A--0-0-----0---2-2-----2---0-0-----0---x-x-x--0
E--x-x-----x---3-3-----3---x-x-----x---x-x-x--x

e--3-3-3------------3-3-3---3---3-3-3---3---3-3-3--3
B--1-1--------------3-3---3-3---1-1---1-1---3-3-3--1
G--0-0-------0h2-0--0-0-----0---2-2-----2---2-2-2--2
D--2-2---0h2--------0-0-----0---3-3-----3---0-0-0--3
A--0-0--------------2-2-----2---0-0-----0---x-x-x--0
E--x-x--------------3-3-----3---x-x-----x---x-x-x--x

Verse 1
=======
Am7 G
A cold and frosty morning, there's not alot to say
Fadd9 Dsus4 Fadd9
'bout the things caught in my mind
Am7 G
And as the day was dawning my plane flew away
Fadd9 Dsus4 Fadd9
With all the things caught in my mind

Dsus4 Fadd9
And I wanna be there when you're coming down
Dsus4 Fadd9 G
And I wanna be there when you hit the the ground (so don't)

G C C/B
So don't go away saying what you say
Am7 G
Say that you'll stay forever and a day
Fadd9 G
In the time of my life, 'cos I need more time
Am7 G Fadd9
Said I need more time just to make things right

Verse 2
=======
Damn my situation and the games I have to play
With all the things caught in my mind
Damn my education I can't find the words to say
With all the things caught in my mind

Pre-Chorus
==========
And I wanna be there when you're coming down
And I wanna be there when you hit the ground

Chorus
======
So don't go away saying what you say
Say that you'll stay forever and a day
In the time of my life 'cos I need more time
Am7 G Fadd9 Fm
Yes I need more time just to make things right

C C/B Am7
Me and you: what's going on
FaddG Fm C C/B Am7 G Fadd9 G
All we seem to know is how to show the feelings that are wrong

Chorus

Вверх

Dont Look Back In Anger

C G Am E7 F G
Slip inside the eye of your mind don't you know you might find
C Am G
A better place to play

C G Am E7 F G
You say that you never been but all the things that you've seen
C Am G
Slowly fade away
F Fm C
So I start a revolution from my bed
F Fm C
Cos you said the brains I have went to my head
F Fm C
Step outside the summertime's in bloom
G G#/E7
Stand up beside the fire place take that look from off your face
Am G F G
Cos you ain't never gonna burn my heart out______________
C G Am E7 F G C Am G
So Sally can wait she knows it's too late as we're walking on by
C G Am E7 F G C
Her soul slides away but don't look back in anger I heard you say
SOLO:
E|----8----11------------------------------------------------|
A|---------------8----10-------------------------------------|
D|--------------------------8----10--------------------------|
G|-------------------------------------8----10---------------|
B|-------------------------------------------------811------|
E|---------------------------------------------------------8-|

E|---------------------------------------------------------|
A|------------------------------------------------10-----8-|
D|-------------------------------------10----8-------------|
G|--------------------------10----8------------------------|
B|---------------11----8-----------------------------------|
E|----11----8----------------------------------------------|

Same chords:
Take me to the place where you go where nobody knows
if it's nigth or day
Please don't put your life in the hands of a rock 'n roll band
Who'll throw it out away
Gonna start a revolutio from my bed
Cos you said the brains I have went to my head
Step outside the summertime's in bloom
Stand up beside the fire place take that look from off your face
Cos you ain't never gonna burn my heart out______________
So Sally can wait she knows it's too late as we're walking on by
Her soul slides away but don't look back in anger I heard you say
SOLO:
E|-------------------------------------------------------|
A|-------------------------------------------------------|
D|-------------------------------------------------------|
G|----10--10--10--10--9--910--9-------------------10--9-|
B|--------------------------------9--11--9--11--9--------|
E|-------------------------------------------------------|

E|----------------------------------------------11--9--9--11--------|
A|---------------------------------------10--9----------------9--10-|
D|--------------------------------10--9-----------------------------|
G|----10--10--10--10--9--910--9------------------------------------|
B|------------------------------------------------------------------|
E|------------------------------------------------------------------|

E|-----------------------------------------------------------------|
A|-----------------------------------------------------------------|
D|----9--10--------------------------------------------------------|
G|-----------9--10-----------------------------10--9--9--10--9--10-|
B|-----------------9--10----------------10--9----------------------|
E|------------------------9--10--10--9-----------------------------|

E|--------------------------------------------------------------------|
A|--------------------------------------------------------------------|
D|--------------------------------------------------------------------|
G|----9--9--10--9------------------------------------------10--10--10-|
B|---------------9--11--9--11--9--11--9--11--9--11--9--11-------------|
E|--------------------------------------------------------------------|

E|------------------------------------------------------------------|
A|------------------------------------------------------------------|
D|------------------10--9--910-------------------------------------|
G|----10--9--10--9---------------9--10--9--10--9--10--9--10--9---10-|
B|------------------------------------------------------------------|
E|------------------------------------------------------------------|

E|----------------------------------|
A|----------------------------------|
D|----------------------------------|
G|----9--10--10--10--10--10--10--10-|
B|----------------------------------|
E|----------------------------------|
So Sally can wait she knows it's too late as we're walking on by
Her soul slides away......
F
But don't look back in anger
Fm
Don't look back in anger
C G Am F Fm
I heard you say
C
At least not today

Вверх

Dont Look Back In Anger (2 вариант)

------------------------------------------------|
------------------------------------------------|
--7b9b7-7b9b7-7b9b7-5-----5-5-5h7---5-7h5-------|
---------------------5-5h7-------5h7------------|
------------------------------------------------|
------------------------------------------------|

------------------------------------------------|
------------------------------------------------|
--7b9b7-7b9b7-7b9b7-5-5-5-5h7-5-----------------|
----------------------5-5-5h7-5-5----5----------|
----------------------------------5h7-5-5h7h5/3-|
------------------------------------------------|

---------------------------------------8-8h10-8-8--|
-------------------------------8-8-8h10------------|
--------------------5-5h7-7-7/9--------------------|
---------------5-5h7-------------------------------|
------3-3h5-5/7------------------------------------|
-3-3h5---------------------------------------------|


-----8----8----8----8----8----8----8-8h10-8-8-----8----8----8----8-8--|
-8h10-8h10-8h10-8h10-8h10-8h10-8h10-----------8h10-8h10-8h10-8h10-----|
----------------------------------------------------------------------|
----------------------------------------------------------------------|
----------------------------------------------------------------------|
----------------------------------------------------------------------|

------------------------------------------------------------------------|
-17--17--17--17--17--17--17--17-----------------------------------------|
-19b-19b-19b-19b-19b-19b-19b-19b-19b21b19----17-19h17--19b21b19-17h19---|
------------------------------------------19----------------------------|
------------------------------------------------------------------------|
------------------------------------------------------------------------|

---------------------------------------|
-17--17--17--17--17--17--17------------|let ring
-19b-19b-19b-19b-19b-19b-19b-----------|let ring
---------------------------------------|
---------------------------------------|
---------------------------------------|

Вверх

Dont Look Back In Anger (3 вариант)

F Fm C
e----------------------------------------------8-------------
B----------------------------------------------8-------------
G----5--7b8r7-7b8r7-7b8r7--5-----------5---8s9----9s8--5-----
D--7--------------------------5---5h7------------------------
A------------------------------------------------------------
E------------------------------------------------------------

F Fm C F
e---------------------------------------------------------------------
B---------------------------------------------------------------------
G-7-5--7b8r7-7b8r7-7b8r7--5----5---5----------------------------------
D---------------------------5--5h7-5-----5---------------------5--7---
A------------------------------------5h7---7p5-3-------3--5s7---------
E-------------------------------------------------1--5----------------

Fm C G
e-------------------------------------8--8h10--8------8------8------8-
B----------------------------8--8--10------------8h10---8h10---8h10---
G-5-----7b9r7p5----5-7p5-7s9------------------------------------------
D---------------h7---------------------------------------------------
A---------------------------------------------------------------------
E---------------------------------------------------------------------

Abdim Am
e------8------8--8h10--8h10--8h10--8h10-/x2/-12----12----12----12-----
B-8h10---8h10----8-----8-----8-----8----/x2/-15b17-15b17-15b17-15b17--
G---------------------------------------------------------------------
D---------------------------------------------------------------------
A---------------------------------------------------------------------
E---------------------------------------------------------------------

G2 F2
e-12----12-----12----12-----------------------------17----------------
B-15b17-15b17--15b17-15b17-15b17r15r13---13-15-15b17~~r15--13-17r15---
G-------------------------------------h14-----------------------------
D---------------------------------------------------------------------
A---------------------------------------------------------------------
E---------------------------------------------------------------------

G2
e--------12-12-------12-12-------12-12-Let Ring-----------------------
B--15b17-------15b17-------15b17--------------------------------------
G---------------------------------------------------------------------
D---------------------------------------------------------------------
A---------------------------------------------------------------------
E---------------------------------------------------------------------

Вверх

Do You Know What I Mean?

INTRO 0:41/2 , 0:47 , 0:52, 0:53/4 , 0:58
G|---------------------------------------------------------
D|---------------------------------------------2/4--4--4-2-
A|---------------------------------------------------------
E|--------2--------0--2------0----2--------0-2-------------

----------------------------------|
----------------------------------|
--5----5--3--/7--7----/14---------|
-----------------------------14--|

VERSE (main theme)
|-------------------------------------------------------------|
|-------------------------------------------------------------|
|----------------------------------------------2-2-2-2--2-2-2-|
|-0--2--2--2-2-2-2-(/)5--5--5-5-(2)--0--0--0-2----------------|

Prechorus ('I met my maker i made him cry')
|--------------------------------------------------------|
|--------------------------------------------------------|
|-----------------------------------------2-2-0-2--2-2-2-|
|-0--2--2--2-2-2-0-2--2--2-2-0--0--0--0-0----------------|

lead to the chorus!
|-----------------------------------------------------------|
|-----------------------------------------------------------|
|-5--5--5--5-5-5/7--7--7--7-7-7/9--9--9--9-9-9-9-9-9--9-9-9-|
|-----------------------------------------------------------|

Chorus (same as the main theme)
|-----------------------------------------------------------|
|-----------------------------------------------------------|
|------------------------------------------2-2-(0)-2--2-2-2-|
|-0--2--2--2-2-2/3--5--5--5-5-2--0--0--0-2------------------|

VERSE (with no singin yet, just "yeah yeah")
prechorus

lead to the chorus
NOTE: There may be too less of those '14s' just use your instic!
|--------------------------------------------------------------
|--------------------------------------------------------------
|-5--5--5--5-5-5/7--7--7--7-7-7/14--14--14--14-14-14-14-14-14--
|--------------------------------------------------------------

---------------------------------------------|
---------------------------------------------|
--14-14-14-12-14-14--14--14-14-12--7/--14--|
---------------------------------------------|

CHORUS (also a lead to guitar solo)

|-------------------------|
|-------------------------|
|-------------------------|
|--10----10----/12--12----| x3

|--------------------------------------------------------
|--------------------------------------------------------
|--14--14--14--14--14--14--14--14--14--12h14--14--14--14-
|--------------------------------------------------------

----------------------|
----------------------|
--14-14-12--7/--14--|
----------------------|

same notes which are in the chorus!
|------------------------------------------------------------------|
|------------------------------------------------------------------|
|--------------------------------------------14-14-14-14--14-14-14-|
|-0--2--2--2-2-2-2-(/)5--5--5-5-2--0--0--0-0-----------------------|

CHORUS (B comes an octave higher but it doesn't really matter)

the END
|---------------------------------------------------------------------
|---------------------------------------------------------------------
|---------------------------------------------------------------------
|-10---10-10-10-10---10-12--12--12--10---10-10-10-10---10-12--12--12--

-------------------------------------------------|
-------------------------------------------------|
-------------------------------------------------|
--10---10-10-10-10---10-12--12--12--2~~~~~~------|

Вверх

Do You Know What I Mean? (2 вариант)

Verse:
Em7 G
Step off a train, all alone at dawn,
Dsus4 Asus4
back into the hole where I was born,
Em7 G Dsus4 Asus4
Sun in the sky, never raised an eye to me(eee).

This riff is used throughout
let ring
e-12-12------------
b-------12-12------
g--------------12--
d------------------

Theres blood on the tracks, and they must be mine,
Fool on the hill, and I feel fine,
Dont look back, 'cause you know what you might see(eee).

Mini solo:

Look into the wall of my minds eye,
I think I know, but I dont know why,
Questions of the answers you might need(ddd).

Coming in a mess, going out in style,
I aint good looking, but I'm someones child,
Noone can give me the air thats mine to breathe.

Riff 1:
e-----------------------
b-----------------------
g---4b5r4---2-----2-----
d--------------4-----4--
a-----------------------
E-----------------------
together
e----------------------------
b----------------------------
g---16b17r16---14----14------
d-----------------16-----16--
a----------------------------
E----------------------------

Chorus:
Em7 Dsus4 Asus4
I met my maker, I made him cry, (Riff 1)
And on my shoulder, he asked me why, (Riff 1)
As people won't fly thru the storm, (Riff 1)
Cadd9 Dsus4 Asus4
I said listen up now, we dont even know your born

Em7 G Dsus4
All my people right here, right now,
Asus4 Em7 G Dsus4
D'You Know What I Mean? Yeah Yeah
All my people right here, right now,
D'You Know What I Mean? Yeah Yeah
All my people right here, right now,
D'You Know What I Mean? Yeah Yeah
Yeah, Yeah, Yeah, Yeah.

I don't really care for what you believe,
So open up your fist and you're well recieved,
The thoughts and the words of every man you'll meet.

Get up off the floor of the leaving line,
No-ones ever gonna ever ask you twice,
Get all the fuss and bring it all home to me(eee).

I met my maker, I made him cry,
And on my shoulder, he asked me why,
As people won't fly thru the storm,
I said listen up now, we dont even know your born

All my people right here, right now,
D'You Know What I Mean? Yeah Yeah
All my people right here, right now,
D'You Know What I Mean? Yeah Yeah
All my people right here, right now,
D'You Know What I Mean? Yeah Yeah

Bridge: Cadd9 Dsus4 x3
A

Guitar Solo: Chords and rhythm are the same as the chorus.

e-------------------------------------
b--17b18r17------15-------------------
g------------16------16p14------------
d---------------------------16--16----
a-------------------------------------
E-------------------------------------

e--------------------------------------------------
b--------------------------------------------------
g----------14---14----------------------14---------
d---14h16------------16--14--14h16----------16-----
a--------------------------------------------------
E--------------------------------------------------

e-------------------------------------
b--17b18r17------15-------------------
g------------16------16p14------------
d---------------------------16--16----
a-------------------------------------
E-------------------------------------

(at this part use some bends and the wah and basically adlib)
e------------------------------------------
b--14----14-----14-------------------------
g--14----14-----14------------------------- or something kinda like
d-----16----16-----16---16b17-------------- this
a------------------------------------------
E------------------------------------------

e-------------------------------------
b--17b18r17------15-------------------
g------------16------16p14------------
d---------------------------16--16----
a-------------------------------------
E-------------------------------------

e-----------------------------------------------------------
b-----------------------------------------------------------
g--------------------14--16---14--16b17-----14-----14-------
d---------14---16------------------------------16-----------
A-----16----------------------------------------------------
E-----------------------------------------------------------

e-------------------------------------
b--17b18r17------15-------------------
g------------16------16p14------------
d---------------------------16--16----
a-------------------------------------
E-------------------------------------

e------------------------------------------
b--14----14-----14-------------------------
g--14----14-----14------------------------- or something kinda like
d-----16----16-----16---16b17-------------- this just improvise
a------------------------------------------
E------------------------------------------

All my people right here, right now
D'You know What I Mean? Yeah, Yeah
All my people right here, right now
D'You know What I Mean? Yeah, Yeah
All my people right here, right now
D'You know What I Mean? Yeah, Yeah

Вверх

Do You Know What I Mean? (3 вариант)

F#m7 A
Step off a train, all alone at dawn
Esus Bsus2
Back into the hole where I was born
F#m7 A Esus Bsus2
Sun in the sky, never raised an eye to me

F#m7 A
There's blood on the tracks, and it must be mine
Esus Bsus2
Fool on the hill and I feel fine
F#m7 A Esus Bsus2
Dont look back, 'cause you know what you might see

F#m7 A
Look into the wall of my minds eye
Esus Bsus2
I think I know but I don't know why
F#m7 A Esus Bsus2
Questions are the answers you might need

F#m7 A
Comin' in a mess goin' out in style
Esus Bsus2
I aint good looking, but I'm someones child
F#m7 A Esus Bsus2
No-one can give me the air that's mine to breathe


F#m7 A Esus
I met my maker, I made him cry,
F#m7 A Esus
And on my shoulder, he asked me why,
F#m7 A Esus
His people wont fly through the storm
D Esus B7
I said listen up man, they don't even know you're born

F#m7 A Esus
All my people right here, right now,
Bsus2 F#m7 A Esus Bsus2
D'You Know What I Mean? Yeah, Yeah

F#m7 A Esus
All my people right here, right now,
Bsus2 F#m7 A Esus Bsus2
D'You Know What I Mean? Yeah, Yeah

F#m7 A Esus
All my people right here, right now,
Bsus2 F#m7 A Esus Bsus2
D'You Know What I Mean? Yeah, Yeah

F#m7 A Esus
All my people right here, right now,
Bsus2 F#m7 A Esus Bsus2
D'You Know What I Mean? Yeah, Yeah



I don't really care for what you believe,
So open up your fist or you wont recieve,
The thoughts and the words of every man you'll meet.

So get up off the floor and believe in life
No one's gonna ever ask you twice,
Get on the bus and bring it all home to me.

I met my maker, I made him cry,
And on my shoulder, he asked me why,
His people wont fly through the storm
I said listen up man, they dont even know you're born

All my people right here, right now,
D'You Know What I Mean? Yeah Yeah.

All my people right here, right now,
D'You Know What I Mean? Yeah Yeah.

All my people right here, right now,
D'You Know What I Mean? Yeah Yeah

All my people right here, right now,
D'You Know What I Mean? Yeah Yeah
Yeah, Yeah,
Yeah, Yeah.

Вверх

D You Wanna Be A Spaceman

Intro and all through the verses, the chord progression is: G A7 C G

Verse 1
-------
G A7 C G
I haven't seen your face 'round since I was a kid
G A7 C G
you're bringing back the memories of the things that we did
G A7 C G
you're hanging 'round and climbing trees pretending to fly
G A7 C G
d'yer wanna be a spaceman and live in the sky

Verse 2
-------
You got how many bills to pay and how many kids
and you for-got about the things that we did
the town where we're living has made you a man
and all of your dreams are washed away in the sand

Chorus
------
Em X
Well it's alright it's alright
G A
and who are you or me to say what's wrong or what's right?
Cadd9 G
Do you still feel like me?
Cadd9 G
We'll sit down here and we shall see
Cadd9 G
We can talk about common ground
Am
and we can just forget about feeling down
F D/F# G A7 C G
we can just forget about life in this town

Verse 3
-------
It's funny how your dreams change as you're growing old
you don't wanna be no spaceman, you just want the gold
all the dream stealers are lying in wait
but if you wanna be a spaceman, it's still not too late

Вверх

Fade Away

A
When I was young I thought I had my own key
C#m
I knew exactly what I wanted to be
Dsus2 A
Now I'm sure
B7 Dsus2
You've boarded up every door


Verse 2
-------
A
Lived in a bubble days were never ending
C#m
Was not concerned about what life was sending
Dsus2 A
Fantasy was real
B7 Dsus2
Now I know much about the way I feel

Pre-chorus
----------
B7 Dsus2
I'll paint you the picture
B7 Dsus2
'Cos I don't think you live round here no more
B7 Dsus2
I've never even seen the key to the door
B7 Dsus2
We only get what we will settle for

Chorus
------
A E
While we're living
G D
The dreams we had as children
A
Fade away
E
While we're living
G D
the dreams we had as children
A
fade away
E
While we're living
G D
the dreams we had as children
A
fade away
E
While we're living
G D
the dreams we had as children
Fmaj7 Dsus2 A Asus2 A
fade away, away, away
Fmaj7 Dsus2 A Asus2 A
they fade away, away, away

Verse 3
-------
Now my life has turned another corner
I think it's only fair that I should warn yer
Dream it while you can
Maybe someday I'll make you understand

Pre-Chorus

Chorus

Ending:
-------

h = hammer on

e--------------------------------------------------------------------
B--------0-----------0-----------0------3-----5-----3-----0-----2----
G------2---2-------2---2-------2---2-------2-----2-----2-----2-------
D----2-------2---1-------1---0-------0-------------------------------
A--0-----------0-----------0-----------------------------------------
E--------------------------------------------------------------------


e--------------------------------------------------------------------
B--------0-----------0-----------0------3-----5-----3-----0-----2----
G------2---2-------2---2-------2---2-------2-----2-----2-----2-------
D----2-------2---1-------1---0-------0-------------------------------
A--0-----------0-----------0-----------------------------------------
E--------------------------------------------------------------------


e--------------------------------------------------------------------
B--------0-----------0-----------0------3-----5-----3-----0-----2----
G------2---2-------2---2-------2---2-------2-----2-----2-----2-------
D----2-------2---1-------1---0-------0-------------------------------
A--0-----------0-----------0-----------------------------------------
E--------------------------------------------------------------------

e--------0-----------------------------------------------------------
B----------2---------0-----------0------3-----5-----3-----0-----2----
G------2-----2-----2---2-------2---2-------2-----2-----2-----2-------
D----2-----------1-------1---0-------0-------------------------------
A--0-----------0-----------0-----------------------------------------
E--------------------------------------------------------------------

e--------------------------------------------------------------------
B---2h3---------------2----------------------------------------------
G---2-----------------2----------------------------------------------
D---2h4---------------2----------------------------------------------
A---0-----------------0----------------------------------------------
E--------------------------------------------------------------------

Вверх

Fade In-Out

D5 A7sus4
Get on the rollercoaster the fairs in town today
G/B Csus2 D5
y'gotta be bad enough to beat the brave

So get on the helter skelter bowl into the fray
y'gotta be bad enough to beat the brave

(chorus)
D5 Csus2 G/B D5
You fade in- out
D5 Csus2 G/B D5
she fade in-out
D5 Csus2 G/B D5
Without a doubt
F6sus2 G5
And I dont see no shine today is just a daydream tommorow
D5
she'll be cast away

Coming out of nowhere singing rhapsody y'gotta be bad enough to
wanna be
sitting upside a high chair with the devils refugee
Is goona be blinded by the light that follws me
(Chorus)

here is the main slide guitar part for fade in-out
D|-------------0------------|
A|--------------------------|
E|-0--0----3s5----0-----3s2-|

Вверх

Fade In-Out (2 вариант)

Intro:

Dsus2 Am7 A Dsus2 (x3) F G F Dsus2
Dsus2 C Am F (x4)
Dsus2

Verse 1:
Dsus2
Get on the rollercoaster
Am7
The fair's in town today
G F Dsus2
Y'gotta be bad-enough to beat the brave
Dsus2
So get on the helter-skelter
Am7
Bowl into the fray
G F Dsus2
Y'gotta be bad-enough to beat the brave

Chorus:
C Em7 Am Dsus2
You fade in-out
C Em7 Am Dsus2
You fade in-out
C Em7 Am Dsus2
Without a doubt

I don't see no shine
F
Today is just a daydream
G F Dsus2 Dsus2 Am7 F
Tomorrow we'll be castaway

Verse 2:
Dsus2
Coming out of nowhere
Am7
singing rhapsody
G F Dsus2
Y'gotta be bad-enough to wanna be
Dsus2
Sitting upside a high chair
Am7
with the devil's refugee
G F
Is gonna be-blinded by the light
Dsus2
that follows me

Chorus:
C Em7 Am Dsus2
She fade in-out
C Em7 Am Dsus2
She fade in-out
C Em7 Am Dsus2
Without a doubt

I don't see no shine
F
Today is just a daydream
G F Dsus2 Dsus2 Am7 F
Tomorrow we'll be castaway

Dsus2 Am7 F (x4)

(C Dsus2 riff repeated under solo)

(Repeat chorus chords)

(Repeat verse chords)

Dsus2
Get on the rollercoaster
Am7
The fair's in town today
G F Dsus2
Y'gotta be bad-enough to beat the brave
Dsus2
So get on the helter-skelter
Am7
Bowl into the fray
G F Dsus2
Y'gotta be bad-enough to beat the brave

(Repeat "you fade in-out" chords x7)

Then:
F G
You fade in-out You fade in-out

Dsus2 D Dsus2 (repeat to end)

Вверх

Flashbax

A G
I SPEND MY TIME SITTING ON THE FENCE
D?
WITH A MATE OF MINE,
G A G D
AND TRY TO WRITE THE LINE OF A STORY,
A G
WE BELIEVE THAT EVERYTHING SAID
D?
IS A WASTE OF TIME,
G A
HIS LIFE IS WELL TRIED AND IT BORES ME,
G D
YEAH, YEAH, YEAH,

Bm F#
IN MY WELL PAID OPINION
G A
THESE THINGS THEY REALLY DON'T MATTER,
Bm F# G
BUT FROM MY CRYSTAL GAZING EYE,
A E
THERE SHINES A LIGHT, LIKE DYNAMITE,

B E
SITTING ON A PROBLEM GIVING BAD BACK TO YER?
B E
LIVING ON MY OWN IS LIKE A FLASHBACK
F# G A
TO THE DAYS WHEN I WAS LOST AND LONELY,
B E
SAYING WHAT I SAID WAS JUST A DIFFERENT STORY,
B E F#
ALL YOUR LIES, MAN, THEY STILL BORE ME,
G A
THERE`S NOTHING WRONG WITH MY WORLD,
G A
THESE THINGS THEY REALLY DON`T MATTER
E
NOW,

A G
I SPEND MY TIME SITTING ON THE FENCE
D?
WITH A MATE OF MINE,
G A G D
I`M TRYIN' TO WRITE THE LINE OF A STORY,
A G
WE BELIEVE THAT EVERYTHING SAID
D?
IS A WASTE OF TIME,
G A
'COS LIFE IS WELL TRIED AND IT BORES ME,
G D
YEAH, YEAH, YEAH,

Bm F#
IN MY WELL PAID OPINION
G A
THESE THINGS THEY REALLY DON'T MATTER,
Bm F# G
`COS FROM MY CRYSTAL GAZING EYE,
A E
THERE SHINES A LIGHT, LIKE DYNAMITE,

B E
SITTING ON A PROBLEM GIVING BAD BACK TO YER?
B E
LIVING ON MY OWN IS LIKE A FLASHBACK
F# G A
TO THE DAYS WHEN I WAS LOST AND LONELY,
B E
SAYING WHAT I SAID WAS JUST A DIFFERENT STORY,
B E F#
ALL YOUR LIES, MAN, THEY STILL BORE ME,
G A
THERE`S NOTHING WRONG WITH MY WORLD,
G A
THESE THINGS THEY REALLY DON`T MATTER
| B//F# / E |
NOW,


| B//F# / E | |B//F# / E | | B//F# / E |

| Bm / F# | G / A | | Bm / F# | G / A | | Bm / F# | G / A |

| Bm / F# | G | | A | E | E |


B E
SITTING ON A PROBLEM GIVING BAD BACK TO YER?
B E
LIVING ON MY OWN IS LIKE A FLASHBACK
F# G A
TO THE DAYS WHEN I WAS LOST AND LONELY,
B E
SAYING WHAT I SAID WAS JUST A DIFFERENT STORY,
B E F#
ALL YOUR LIES, MAN, THEY STILL BORE ME,
G A
THERE`S NOTHING WRONG WITH MY WORLD,
G A
THESE THINGS THEY REALLY DON`T MATTER
G A
THESE THINGS THEY REALLY DON`T MATTER
B F# E
NOW,
B F# E B F#E
DON`T MATTER NOW, DON`T MATTER NOW,
B F# E B F# E
DON`T MATTER NOW, DON`T MATTER NOW,
B F# E B F# E
DON`T MATTER NOW, DON`T MATTER NOW,
G A
DON`T MATTER NOW, DON`T MATTER NOW,
B.
DON`T MATTER NOW.

Вверх

Force Of Nature

G
Talking to the songbird yesterday
D/F Em7
Flew me to a past not far away

She's a little pirate in my mind
D/F G
Singing songs of love to pass the time

Gonna write a song so she can see
D/F Em7
Give her all the love she gives to me

Talk of better days that have yet to come
D/F G
Never felt this love from anyone

(Plays chord progression G-D/F-Em7-D/F-G while singing
"She's not anyone" a few times)

G
A man can never dream these kinds of things
D/F Em7
Especially when she came and spread her wings

Whispered in my ear the things I'd like
D/F G
Then she flew away into the night

Gonna write a song so she can see
D/F Em7
Give her all the love she gives to me

Talk of better days that have yet to come
D/F G
Never felt this love from anyone


She's not anyone

now you play the chords for a litlle bit more and then finsh


cescanta

Вверх

Force Of Nature (2 вариант)

|C D|A |C D|A |


Verse 1 -

C D A C
Yeah i feel like a force of nature, could make you sing
D A
like a bird released

C D A C D
If what you seek is a wise mans treasure, you know it's
A
buried beneath your feet

C D A C
You know you look like a faded picture, i see the cracks
D A
breathing on your skin

C D A
And as the world slowly turns it hits ya.

C D A
That the thieves of the night i'll come and i'll take you in


Chorus -

|D F|A# |
You're smokin on my stash.

|D F|A# |
I'm burning all my cash.

|D F|A# |
I bet ya knew right away

C F G A#
It's all over town as the suns going down and the state of your easy life

|D F|A# |
I bet ya knew right away

|D F|A# |
Ya hope ya don't know where it's at

C F G
It's all over town as the suns going down and it's high
F E
time you paid


Verse 2 -

C D A C D
Yeah i feel like a force of nature, could make you sing
A
like a bird released

C D A C D
If what you seek is a wise mans treasure, you know it's
A
buried beneath your feet


Verse 3 -

C D A C
You know you look like a faded picture, i see the cracks
D A
breathing on your skin

C D A
And as the world slowly turns it hits ya.

C D A
That the thieves of the night i'll come and i'll take you in


Chorus

|D F|A# |
You're smokin on my stash.

|D F|A# |
I'm burning all my cash.

|D F|A# |
I bet ya knew right away

C F G A#
It's all over town as the suns going down and the state of your easy life

|D F|A# |
I bet ya knew right away

|D F|A# |
Ya hope ya don't know where it's at

C F G
It's all over town as the suns going down and it's high
F E
time you paid

Вверх

Forever Acoustic

{intro} G

{verse 1}

D
Maybe I don't really wanna know
Am7
how ya garden grows
C C* D
'cos I just wanna fly
G D
Lately did you ever feel the pain
Am7
in the morning rain
C C* D
as it soaks you to the bone?

{chorus 1}

Em D
Maybe I just wanna fly
Am7
wanna live don't wanna die
C
Maybe I just wanna breathe
C* C Em
Maybe I just don't believe
D
maybe you're the same as me
Am7
we see things they'll never see
Cadd9
You and I are gonna live forever

{verse 2 same as verse 1 then}

{chorus 2}

G D
Maybe I will never be
Am7
all the things that I wanna be
C
but now is not the time to cry
C* C Em
now is the time to find out why
D
I think you're the same as me
Am7
we'll see things they'll never see
Cadd9
you and I are gonna live forever

{Guitar solo}

G D Am7 C D (x2)

G then quickly play D Dsus4 D Dsus2

G C G D Dsus4 D

G D G*


{repeat verse 1 then chorus 1}
{ends with}
...gonna live forever (X2)
we're gonna live forever (x4)

{alternate Cadd9 and Em}

{note: Liam sings "morning" as "maurning"}

CHEERS...

Вверх

Fuckin In The Bushes

Main Riff
G|--------------------------|
D|--------------------------|
A|---------------5---5---7--|
E|--0--0-0-3-0-----0---0----|

"Kids are running around naked, fuckin' in the bushes..."
G|--------------------------|
D|--------------------------|
A|---------------7-0-5-0-7--|
E|--0--0-0-3-0--------------|

Вверх

Fuckin In The Bushes (2 вариант)

(0:05)
Bloke: We put this festival on you bastards, with
E--0h3-
a lot of love. We worked for 1 year for

you pigs. And you wanna brake are walls down
(0:20)
and you wanna destroy us. Well you go-da HELL!

Main riff

(0:20) till (1:31)

e-------------------------
B-------------------------
G-------------------------
D---------------2-----0h2-
A-----------------0h2-----
E--0--3p0--3r0------------

Play these riffs at these times:

(1:23) (1:26) (1:28) (1:31)
e-------|-------|-------|-------|
B-------|-------|-------|-------|
G-------|-------|-------|-------|
D-7br5--|-7br5--|-7br5--|-7br5--|
A------7|------7|------7|-------|
E-------|-------|-------|-------|

Then

This riff and old man start at(1:31) and end at(1:50)

(1:31)
Kids are running around nacked fuckin in the bushes
(1:36)
Kids are running around nacked fuckin in the bushes
(1:41)
Kids are running around nacked fuckin in the bushes
(1:46)
Kids are running around nacked fuckin in the bushes

(1:31) (1:42) (1:47)
this riff 4x
e---5----------------|-------5---9b-8-5-8-5--
B-----5--------------|-----5---5------------5
G7b-----7b7r5---5-7b-|--7b-------------------
D-------------7------|-----------------------
A--------------------|-----------------------
E--------------------|-----------------------

(1:48) (1:50) (1:59)
e--------------|---------------------------------------------------------
B--------------|---------------------------------------------------------
G--7br5---5----|---------------------------------------------------------
D-------7---7v-|----------7b7r5-----------7b7r5---------7b7r5---7b7r5----
A--------------|-7-77-77--------7-77-77---------7-77-77-------7-------7--
E--------------|-0-00-00--------0-00-00---------0-00-00------------------

(1:50)
Old woman: I love it

(2:00) till (2:19)
main riff

e------------------------
B------------------------
G------------------------
D---------------2-----0h2
A-----------------0h2----
E--0--3p0--3r0-----------

(2:04) till (2:24)
e------------|
B------------|
G------------|
D-7br5---5---|
A------7---7v|
E------------| this bit 9x

(2:24)
Kids are running around nacked fuckin in the bushes
(2:29)
Kids are running around nacked fuckin in the bushes
(2:33)
Kids are running around nacked fuckin in the bushes
(2:38)
Kids are running around nacked fuckin in the bushes

(2:45)
Old woman:I love it, room for every body dear, yes all are welcome, yes in deed

i love them, fun, nice, life, youth, beautiful, im all for it.

Start playing this riff at (2:24) till (3:03)
e---5----------------|
B-----5--------------|
G7b-----7b7r5---5-7b-| Repeat this riff till (3:03)
D-------------7------|
A--------------------|
E--------------------|

Then

(3:02)
Old woman:I love it, room for every body dear, yes all are welcome, yes in deed
(3:08 music stops) (3:17)
i love them, fun, nice, life, youth, beautiful, im all for it.

(3:03) (3:08)
e------5--------------
B---------------------
G--7b-----7vvvvvvvvvvv
D---------------------
A---------------------
E---------------------

Вверх

Fuckin In The Bushes (3 вариант)

-------------------------|----------------------------------------------------
-------------------------|----------------------------------------------------
-------------------------|----------------------------------------------------
---------------2-----0h2-|----------------------------------------------------
-----------------0h2-----|----------------------------------------------------
--0--3p0--3r0------------|----------------------------------------------------
Maine Riff/ Repeat most of song
----3-----2-----1---------|---------------------------------------------------
----3-----2-----1------17v|---------------------------------------------------
----4-----3-----2---------|---------------------------------------------------
----5-----4-----3---------|---------------------------------------------------
----5-----4-----3---------|---------------------------------------------------
----3-----2-----1---------|---------------------------------------------------
organ part (after fourth time add) 4th time/
---------------------------|---5----------------|-------5---9b-8-5-8-5--------
---------------------------|-----5--------------|-----5---5------------5------
---------------------------|7b-----7b7r5---5-7b-|--7b-------------------------
-7br5---7br5---7b7r5---7br5|-------------7------|-----------------------------
------7------7-------7-----|--------------------|-----------------------------
---------------------------|--------------------|-----------------------------
play 4x but 4th time play this variation
--------------|---------------------------------------------------------------
--------------|---------------------------------------------------------------
--7br5---5----|---------------------------------------------------------------
-------7---7v-|----------7b7r5-----------7br5---------7b7r5---7b7r5-----------
--------------|-7-77-77--------7-77-77--------7-77-77-------7-------7---------
--------------|-0-00-00--------0-00-00--------0-00-00-------------------------

---------------|------5---------------|-----5---------------------------------
---------------|----------------------|-------5-------------------------------
---------------|--7b-----7vvvvvvvvvvv-|--7b-----7b7r5---5-7b------------------
---------------|----------------------|---------------7-----------------------
---------------|----------------------|---------------------------------------
---------------|----------------------|---------------------------------------
Organ part 2X play until end with small variations

Вверх

Full On

Ab E B Ab E b Ab E b
I hear my heart beatin faster, I feel it in my bones,
I want it now 'cos I has to
Ab E B Ab E B Ab E b
But why, no-one knows, I'm like the angel on the A train,
My eyes are diamond white
Ab E B Ab E B
and from the cradle till your insane, For life you have to fight
Db E Ab
But no-one knows why there's a spirit in the sky, there's escape for so long
Db E F#
He will understand, while I take him by the hand,
that life's time tunnel is long
Ab E B Ab E B Ab E B
Well it will be alright, If you stay tonight, It's where we both belong
Ab|E B|
It's gonna be full on
Ab|E B|
It's gonna be full on
Ab|E B|
It's gonna be full on
Ab|E B|
It's gonna be full on
Ab|E B|
It's gonna be full on

Ab E B Ab E b Ab E b
I hear my heart beatin faster, I feel it in my bones,
I want it now 'cos I has to
Ab E B Ab E B Ab E b
But why, no-one knows, I'm like the angel on the A train,
My eyes are diamond white
Ab E B Ab E B
and from the cradle till your insane, For life you have to fight
Db E Ab
But no-one knows why there's a spirit in the sky, there's escape for so long
Db E F#
He will understand, while I take him by the hand,
that life's time tunnel is long
Ab E B Ab E B Ab E B
Well it will be alright, If you stay tonight, It's where we both belong
Ab|E B|
It's gonna be full on
Ab|E B|
It's gonna be full on
Ab|E B|
It's gonna be full on
Ab|E B|
It's gonna be full on
Ab|E B|
It's gonna be full on

({Solo})

E|--14b15-14-15----------14b15-14-15---------------------------------|
B|---------------14b15----------------14b15-----14b14.5--12----------|
G|-------------------------------------------13-------------13-11h13-|
D|-------------------------------------------------------------------|
A|-------------------------------------------------------------------|
E|-------------------------------------------------------------------|

E|--14b15-14-15----------14b15-14-15----------------------|
B|---------------14b15----------------14b15-----12--14b15-|
G|-------------------------------------------13-----------|
D|--------------------------------------------------------|
A|--------------------------------------------------------|
E|--------------------------------------------------------|
Ab|E B|
It's gonna be alright
Ab|E B|
You're gonna stay tonight
Ab|E B|
It's where we both belong
Ab|E B|
It's gonna be full on (repeat to fade)

Вверх

Gas Panic

Bb9 F(add9)/A G Cadd9 Dsus4 F
-3------3------3----3-----3----1---
-3------3------3----3-----3----1---
-0------0------0----0-----2----2---
-3------3------0----2-----0----3---
-1------0------2----3----------3---
---------------3---------------1---
Phrase 1 (guitar break)
BU BD
E----------------
B--10-(11)-10--8-
INTRO (over loop)
Bb9 F(add9)/A / G
VERSE 1
Bb9 F(add9)/A G
What tone is ???? secret through my curtains
Sailing on a sea of sweat on a stormy night
I think he don't got a name but i can't be certain
And in me he starts to confide
CHORUS
Bb9 F(add9)/A G
That my family don't seem so familiar
And my enemies all know my name
And if you hear me tap on your window
Cadd9
You better get on your knees and pray
Dsus4
Panic is on the way
Bb9 Csus2 / G (x2)
Bb9 F(add9)/A G
My ??????
My eyes are dead and my thoughts like a big black hole
And if there's a god would he give another chancer
An hour to sing for his soul
CHORUS
Bb9 F(add9)/A G
'Coz my family don't seem so familiar
And my enemies all know my name
And if you hear me tap on your window
Cadd9
You better get on your knees and pray
Dsus4
Panic is on the way
Bb9 Csus2 / G (x2)
GUITAR BREAK (Repeat phrase 1 over these chords)
G / G / F / Cadd9 / G / G / F / Cadd9 / Bb9 / Cadd9 / Cadd9
HARP SOLO (Over chorus chords)
(Repeat chorus x 2)
Bb9 Csus2 / G (Repeat to end)

Вверх

Getting Older

Intro: A A7 D Dm A E D A



A
It's nine o'clock
A7
I'm getting tired
D
I'm sick of all my records
Dm A
And the clothes I've bought today
E
Am I cracking up?
D A
Or just getting older?



A
I'm staying in
A7
I can't be bothered
D
Making conversation
Dm A
With the friends that I don't know
E
Am I cracking up?
D A
Or just getting older?

Solo: over chords A A7 D A E D A
e--------------------------------------------------
B--------------------------------------------------
G---------------11/9-------------------------------
D-9/11--7--9/11-------9--9/11/9--7--7/9/7--7-------
A--------------------------------------------------
E--------------------------------------------------



A D
And I bet that this is how life
D A
Turns out when you're finally grown up
A D
And you know if this is my life
D A
I'll sit around all day and moan



A
I'm half-way up
A7
To the bottom
D
Of another bottle of
Dm
My next best favourite friend
E
Am I cracking up?
D A
Or just getting older?




E D A
You're not cracking up, you're just getting older
E D A
We're not cracking up, we're just getting older
E D A
We're not cracking up, we're just getting older

Вверх

Girl In The Dirty Shirt

Cadd9
e--0-----------0------------0--------
B-----3---3--------3---3--------3----
G-----------0------------0-----------
D------------------------------------
A------------------------------------
E------------------------------------

Intro
=====

Em G C9 Em G C9
Em G C9 G D Cadd9

Verse 1
=======
Em G C9
If I may be so bold could I just say something
G D Cadd9
Come and make me my day
Em G C9
The clouds around your soul don't gather there for nothing
G D Cadd9
But I can chase them all away

Verse 2
=======
Why'd you need a reason for to feel happy
Or be shining for the rest of the world
Give me just a smile and would you make it snappy
Get your *** together girl

Pre-Chorus
==========
D B7 Em D Cadd9
You got a feeling lost inside it just won't let you go
e------------10~~--
B----10~bbb12------
G------------------
D------------------
A------------------
E------------------
D B7 Em D Cadd9
Your life is sneaking up behind it just won't let you go
e----------10~~--
B--10~bbb12------
G----------------
D----------------
A----------------
E----------------
Em D Cadd9
No it just won't let you go
e------------10~~--
B----10~bbb12------
G------------------
D------------------
A------------------
E------------------
B7
What I'm trying to say...
e---------------------------------------------------------------------------
B---------------------------------------------------------------------------
G------------------7h8------------------7--7h8------------------------------
D----------------------9--7--9------7h9--------9--7--9--9>------------------
A-------------------------------7h9-----------------------------------------
E---------------------------------------------------------------------------

Chorus
======
G2 C2 G2 C2
Is would you maybe, come dancing with me
e------------------------10>--------------------------10>-------------------
B-------------------10b12-----------------------10b12-----------------------
G---------------------------------------------------------------------------
D---------------------------------------------------------------------------
A---------------------------------------------------------------------------
E---------------------------------------------------------------------------

G2 C2 Am C2
Cos' to me it doesn't matter if your hopes and dreams are shattered
e-------------------------------10>-----------------------------------------
B-------------------------10b12---------------------------------------------
G------------------------------------------12----12-14-14b15.5r14-12--12----
D------------------------------------12h14----14----------------------------
A---------------------------------------------------------------------------
E---------------------------------------------------------------------------

G2 C2 G2 C2
When you say something, you make me believe
e--------------------------10>--------------------------10>-----------------
B---------------------10b12------------------------10b12--------------------
G---------------------------------------------------------------------------
D---------------------------------------------------------------------------
A---------------------------------------------------------------------------
E---------------------------------------------------------------------------

G2 C2
In the girl who wears the dirty shirt
e---------------------------------10>--
B----------------------------10b12-----
G--------------------------------------
D--------------------------------------
A--------------------------------------
E--------------------------------------

Am C2
She knows exactly what she's worth
e---------------------------------------------------------------------------
B---------------------------------------------------------------------------
G---------12----12-14-14b15.5r14-12-12--------------------------------------
D---12h14----14-------------------------------------------------------------
A---------------------------------------------------------------------------
E---------------------------------------------------------------------------

Am
Knows exactly what she's worth to me
e---------------------------------------------
B---------------------------------------------
G-------12----12-14-14b15.5~~~~r14p12---------
D-12h14----14-------------------------14~~~---
A---------------------------------------------
E---------------------------------------------

Em G C9 Em G C9
e-----------------------------------------------------------------------
B--------------------5------------------------------5-------------------
G----------------------3b3.5--------------------------3b3.5-------------
D-----------------------------5------------------------------5----------
A--------------------------------5--5h7-------------------------5--5h7--
E-----------------------------------------------------------------------

Em G C9 G D Cadd9
e---------------------------------------------------------------------------
B--------------------5-------5----------------------------------------------
G----------------------3b3.5---3b3.5----------------------------------------
D-------------------------------------5-------------------------------------
A---------------------------------------------------------------------------
E---------------------------------------------------------------------------

Verse 3
=======
Em G C9
If you ever find yourself inside a bubble You've
e-------------------
B---5-------5-------
G-----3b3.5---3b3.5-
D-------------------
A-------------------
E-------------------

G D Cadd9 Em G
Gotta find your own way home You can call me anytime
e---------------------------------------------------------------------------
B--------------------------------5------------------------------------------
G----------------------------------3b3.5------------------------------------
D-5---------------------------------------5---------------------------------
A--------------------------------------------5--5h7-------------------------
E---------------------------------------------------------------------------

C9 G D Cadd9
You're seeing double Now you know you're not alone
e---------------------------------------------------------------------------
B-------------5-------5-----------------------------------------------------
G---------------3b3.5---3b3.5-----------------------------------------------
D------------------------------5--------------------------------------------
A---------------------------------------------------------------------------
E---------------------------------------------------------------------------

Pre-chorus (chords and fills exactly the same as first pre-chorus)
==========
You've got a feeling lost inside it just won't let you go
You're life is sneaking up behind it just won't let you go
No, it just won't let you go
What I'm trying to say....

Chorus (chords and fills same as first chorus until end of 2nd time through)
======
Is would you maybe come dancing with me
Cos' to me it doesn't matter if your hopes and dreams are shattered
When you say something, you make me believe
In the girl who wears the dirty shirt, she knows exactly what she's worth

Would you maybe come dancing with me
Cos' to me it doesn't matter if your hopes and dreams are shattered
When you say something, you make me believe
In the girl who wears the dirty shirt,
Am C2
She knows exactly what she's worth
e---------------------------------------------------------------------------
B---------------------------------------------------------------------------
G---------12----12-14-14b15.5r14-12-12--------------------------------------
D---12h14----14-------------------------------------------------------------
A---------------------------------------------------------------------------
E---------------------------------------------------------------------------

Am C2
She knows exactly what she's worth
e--------------------------------------
B--------------------------------------
G---------12----12-14-14b15.5r14-12-12-
D---12h14----14------------------------
A--------------------------------------
E--------------------------------------

G2 C2 G2 C2 G2
to me * *
e---------------------------------------------------------------------------
B-------------------------------13--------------------------13--------------
G--14-12--14b15.5---------12h14-----12----------------12h14-----12--14b15.5-
D-------------------12h14---------------14>-----12h14-----------------------
A---------------------------------------------------------------------------
E---------------------------------------------------------------------------

C2 Am C2
she knows exactly what she's worth
e---------------------------------------------
B---------------------------------------------
G-------------12----12--14-14b15.5r14--12--12-
D-------12h14----14---------------------------
A---------------------------------------------
E---------------------------------------------

G2 C2 G2 C2 G2
to me * *
e---------------------------------------------------------------------------
B-------------------------------13--------------------------13--------------
G--14-12--14b15.5---------12h14-----12----------------12h14-----12--14b15.5-
D-------------------12h14---------------14>-----12h14-----------------------
A---------------------------------------------------------------------------
E---------------------------------------------------------------------------

C2 Am C2
she knows exactly what she's worth
e------------------------------------------------
B----------------------------------15------------
G-------------12----12--14-14b15.5---b15.5r14-12-
D-------12h14----14------------------------------
A------------------------------------------------
E------------------------------------------------

G2 C2 G2 C2 G2
to me * *
e---------------------------------------------------------------------------
B-------------------------------13--------------------------13--------------
G--14-12--14b15.5---------12h14-----12----------------12h14-----12--14b15.5-
D-------------------12h14---------------14>-----12h14-----------------------
A---------------------------------------------------------------------------
E---------------------------------------------------------------------------

C2 Am C2
she knows exactly what she's worth
e------------------------------------------------
B------------------------------------------------
G-------------12----12--14-14b15.5~~~~~~~~~~~r14-
D-------12h14----14------------------------------
A------------------------------------------------
E------------------------------------------------

G C9 G C9 G C9 G C9
to me Now I see Now I see Now I see
e-----
B-----
G--12-
D-----
A-----
E-----


G C9


*for a little variation, try throwing in this little fill the organ plays
with your guitar in one of the sections marked with a "*"
e---------------------------
B-------------13--11h12-----
G-------12h14-----12----12>-
D-12h14---------------------
A---------------------------
E---------------------------

Вверх

Going Nowhere

Verse 1:
A B A B
Hate the way that you've taken back, everything you given to me
A B A B
And the way that you'd always say, it's nothing to do with me
A B A B
Different versions of many men, come before you came
A B A B
All the questions were similar, the answers just the same

Bridge:
D
I'm gonna get me a motorcar, maybe a Jaguar, maybe a plane or
A A Asus4 A
a day of fame
D
I'm gonna be a millionare, so can you take me now, wanna be
A
wild cause my life's so tame

Chorus:
A B D A
Here am I, going nowhere on a train
A B D A B A B A
Here am I, growing older in the rain (heeey heeeey)

End Chorus:
A B D A
Here am I, going nowhere on a train
A B D
Here am I, getting lost and lonely, sad and only want some
A
times cause my life feels so tame

Вверх

Go Let It Out

- A
3,4

Make no illusion, try to click with what you got

Taste every potion as if you like yourself a lot
D F G A
Go let it out, got let it in, and go let it out

Life is precocious in the most peculiar way
Sister psychosis don't got a lot to say
She go let it out, she go let it in, she go let it out
She go let it out, She go let it in, she go let it out


D F A G
Is it any wonder why princes and kings
D F A G
Are clowns that caper in their sawdust rings
D F A G
Ordinary people that are like you and me
D
We're the keepers of their destiny
G D A
We're the keepers of their destiny


I'm gonna live in the city, I'm gonna drive in out of town
And you're coming with me, the right time is always now
So go let it out, and go let it in, and go let it out
So go let it out, and go let it in, and go let it out


D F A G
Is it any wonder why princes and kings
D F A G
Are clowns that caper in their sawdust rings
D F A G
Ordinary people that are like you and me
D
We're the keepers of their destiny
G D
We're the keepers of their destiny
G D
We're the keepers of their destiny
G D
We're the keepers of their destiny
G D
We're the keepers of their destiny


F G
So go let it out, go let it in,
D F G
So go let it out, go let it in,
D F G
So go let it out, go let it in,
D F G
Go let it out, go let it, go let it, go let it


Solo on same chords ( D - F- G)

Вверх

Go Let It Out (2 вариант)

(3x)
E -----------------------------------------------------|
B -7-7--8-8--10---10-10-10----7-7-8-7------7-----------|
G ------------------------------------9--9---9-7--7--o-|
D -----------------------------------------------9---o-|
A -----------------------------------------------------|
e -----------------------------------------------------|

E ------------------------------------10~--------------|
B -7-7--8-8--10---10-10-10----7-7--10------------------|
G -----------------------------------------------------|
D -----------------------------------------------------|
A -----------------------------------------------------|
e -----------------------------------------------------|

(Repeat some times)
E ---------------|---------------------|---------------|
B -8--8-8--8-8-7-|---7-8--8-8--8-8-7---|---------------|
G ---------------|-o-----------------o-|---------------|
D ---------------|-o-----------------o-|---------------|
A ---------------|---------------------|---------------|
e ---------------|---------------------|---------------|
(Repeat some
times)
E ------------------------------------------------8-10-8------------------- ||
B ------------------------------8------------------------10-8-10-8--------- ||
G -7-10--7-10---7----7-10--7-10---7----7-10--7-10------------------10-7--o- ||
D -----------------------------------------------------------------------o- ||
A ------------------------------------------------------------------------- ||
e ------------------------------------------------------------------------- ||
(Fade out)

Вверх

Guess God Thinks I’m Abel

Intro: A7 A7sus4 A/D A7 x2

Verse:

A7 A7sus4 A/D A7
I could be your lover, you could be all mine

A7sus4 A/D A7
We'd go on forever, till the end of time

A7sus4 A/D A7
You could be my best friend, stay up all night long

A7sus4 A/D A7
You could be my railrod, we'll go on and on

Prechorus:

Em G A7
Let's get along, there's nothing here to do

Em G A7
Let's go find our rainbow

Em G A7
I could be wrong, but what am I to do

Em G A7
Guess God thinks I'm Abel

Chorus:

G
No one could take us

D
No one could break us

A7 A7sus4 (switch back to verse rythym )
If they tried

G
No one could take us

D
No one could break us

A7 A7sus4
If they tried


End Line:

A G
Come on along

D A
Let's make it tonight

Вверх

Half The World Away

{Intro}: C F (x3)

{Verse}:
C F
I would like to leave this city
C F
This old town don't smell too pretty and
C Em Am (Aadd9) D Dsus4 D F
I can feel the warning signs running around my mind
C F C F
And when I leave this island I'll book myself into a soul asylum
C Em Am (Aadd9) D Dsus4 D F
And I can feel the warning signs running around my mind

{Chorus}:
Am C E7 Am (Aadd9)
So here I go still scratching around the same old hole
F Fm G G7
My body feels young but my mind is very old
Am (Aadd9) C
So what do you say?
E7 Am (Aadd9)
You can't give me the dreams that are mine anyway
F
You're half the world away
Fm
Half the world away
C Em Am
Half the world away
D Dsus4 D F
I've been lost I've been found but I don't feel down.

{Verse 2}:

{same as Chorus chords}:
So here I go still scratching around in the same old hole
My body feels young but my mind if very old
So what do you say?
You can't give me the dreams that are mine anyway
You're half the world away
Half the world away
Half the world away Fadd9
I've been lost I've been found but I don't feel down

{Outro}: C F( or Fadd9)

G7 : 353433
Fadd9: xx3213
Aadd9: x02200

Вверх

Half The World Away (2 вариант)

=Intro=

C F

E|---0----1----
B|---1----1----
G|---0----2---- x3
D|---2----3----
A|---3----3----
E|--------1----

=Verse1=

C F C Em Am D Dsus4 D F

E|---0----1-----0--0--0--2---3---2---1-|
B|---1----1-----1--0--1--3---3---3---1-|
G|---0----2-x2--0--0--2--2---2---2---2-|
D|---2----3-----2--2--2--0---0---0---3-|
A|---3----3-----3--2--0--------------3-|
E|--------1--------0-----------------1-|

C F C Em Am D Dsus4 D F

E|---0----1-----0--0--0--2---3---2---1-|
B|---1----1-----1--0--1--3---3---3---1-|
G|---0----2-x2--0--0--2--2---2---2---2-|
D|---2----3-----2--2--2--0---0---0---3-|
A|---3----3-----3--2--0--------------3-|
E|--------1--------0-----------------1-|

=Chorus=

Am C E7 Am F Fm G G7 Am C E7 Am F Fm C Em Am D Dsus4 D F

E|----0--0--0---0---1--1--3--1---0--0--0--0--1--1--0--0--0---2---3----2--1-|
B|----1--1--0---1---1--1--3--0---1--1--0--1--1--1--1--0--1---3---3----3--1-|
G|----2--0--1---2---2--1--0--0---2--0--1--2--2--1--0--0--2---2---2----2--2-|
D|----2--2--0---2---3--3--0--0---2--2--0--2--3--3--2--2--2---0---0----0--3-|
A|----0--3--2---0---3--3--2--2---0--3--2--0--3--3--3--2--0---------------3-|
E|----------0-------1--1--3--3---------0-----1--1-----0------------------1-|

=Verse2=

C F C Em Am D Dsus4 D F

E|---0----1-----0--0--0--2---3---2---1-|
B|---1----1-----1--0--1--3---3---3---1-|
G|---0----2-x2--0--0--2--2---2---2---2-|
D|---2----3-----2--2--2--0---0---0---3-|
A|---3----3-----3--2--0--------------3-|
E|--------1--------0-----------------1-|

C F C Em Am D Dsus4 D F

E|---0----1-----0--0--0--2---3---2---1-|
B|---1----1-----1--0--1--3---3---3---1-|
G|---0----2-x2--0--0--2--2---2---2---2-|
D|---2----3-----2--2--2--0---0---0---3-|
A|---3----3-----3--2--0--------------3-|
E|--------1--------0-----------------1-|

=Chorus=

Am C E7 Am F Fm G G7 Am C E7 Am F Fm C Em Am D Dsus4 D Fadd9

E|----0--0--0---0---1--1--3--1---0--0--0--0--1--1--0--0--0---2---3----2--1-|
B|----1--1--0---1---1--1--3--0---1--1--0--1--1--1--1--0--1---3---3----3--1-|
G|----2--0--1---2---2--1--0--0---2--0--1--2--2--1--0--0--2---2---2----2--2-|
D|----2--2--0---2---3--3--0--0---2--2--0--2--3--3--2--2--2---0---0----0--3-|
A|----0--3--2---0---3--3--2--2---0--3--2--0--3--3--3--2--0---------------0-|
E|----------0-------1--1--3--3---------0-----1--1-----0------------------3-|

=Outro=

C F

E|---0----1-|
B|---1----1-|
G|---0----2-|
D|---2----3-|
A|---3----3-|
E|--------1-|

Вверх

Headshrinker

D C Bb5 G5 F5
e---------------------------------------------------------------------------2-
B--7-8p7-8p7--7--7-8p7-8p7-7s5-6p5-6p5--5-5-6p5-6p5-5s3-4p3-4p3-------------3-
G--7-7---7----7--7-7---7---7s5-5---5----5-5-5---5---5s3-3---3---------------2-
D--7-7---7----7--7-7---7---7s5-5---5----5-5-5---5---5s3-3---3---5--5--3--3--0-
A---------------------------------------------------------------5--5--3--3--0-
E---------------------------------------------------------------3--3--1--1----

D C Bb5 G5 F5 D/A

Verse 1
-------
D
I know a girl who's lost and lonely
C
Sits by the phone on her own
Bb5
But the phone don't ring
G5 F5 D/A
And the birds don't sing in her tree
D
She lost herself in a haze of pity
C
And doesn't know where to run
Bb5
Needs a headshrinker now
G5 F5 D/A
And I think it's time we had some fun

Pre-chorus
----------
G5 F5 G5 D/A
Lost in a fog up a tree like a dog and I'm out of here
G5 F5 G5 D/A
I got no name and I feel no shame and I got no fear
G5 F5 G5
And I bow down to the tears of a clown
D/A
Whatever's going down is coming around
F5 A
I hope you don't regret today for the rest of your...

Chorus
------
D C G/B Bb5 C5 D
...lives For the rest of your lives
C G/B Bb5 C5 D
For the rest of your lives
C G/B Bb5 C5 A
For the rest of your liiiiiives

[Guitar Solo]

[Repeat Verse 1]

[Repeat Pre-chorus]

[Chorus]

Вверх

Heroes

Intro: D G D G

D G
I, I wish I could swim
D G
Just like a dolphin, like dolphins can swim
C D
But nothing is gonna keep us together
C D
Yeah we can be there for ever and ever
C G D
Cos we can be heroes just for one day
D G
I, I will be king and you you're gonna be my queen
D G
Yeah but nothing is gonna drive us away
C G D
Cos we can be heroes just for one day
C G D
And we're gonna be ourselves just for one day
D G
I, I can remeber, I can remember
D G
When I was standing by the wall
D G
And then the guards they shot over our heads
D G
And then we kissed as though nothing could fall
C D
And in the shooting the Seine was on their side
C D
But we're gonna beat them for ever and ever
C G D
Then we can be heroes just for one day
C G D
We can be heroes just for one day
C G D
We can be heroes just for one day
C G D
We can be heroes just for one day
C G D
We can be heroes just for one day

Вверх

I Hope, I Think, I Know

Intro:
D Em G Bm A G

Verse 1:
D Em G
They're trying hard to put me in my place
Bm A G
And that is why i gotta keep running
D Em G
The future's mine and it's no disgrace
Bm A G
Cos in the end the past means nothing

Verse 2:
You tell me I'm free then you tie me down
And from my chains I think it's a pity
What did it cost you to wear my crown
You don't like it so why don't you admit it

Bridge:
A Em
D'yer feel a little down today?
G D
Bet you ain't got much to say?
A Em
You're gonna miss me when I'm not there
G D/F# G D/F# G D/F#
And you know I don't care,
G D/F# G D/F# G A
you know I don't care

Chorus:
D A G D/F# G D/F# G D/F#
As we beg and steal and borrow
D A
Life is hit and miss and this
Em D/F# G
I hope, I think, I know
D A
And if I ever hear the names you call
Em G F#m
If I stumble catch me when I fall
A D
Cos baby after all, you'll never forget my name

Вверх

Importance Of Being Idle

INTRO: (listen to song for strumming)
Am E x4


Am F
I sold my soul for the second time
C E7 E
Cos the man don’t pay me
Am F
I begged my landlord for some more time
C E7 E
He said son the bills waitin
Am F
My best friend called me the other night
C E7 E
He said man you crazy
Am F
My girlfriend told me to get a life
C E7 E
She said boy! You lazy!

CHORUS
Dm Am
But I don’t mind
Dm Am
As long as theres a bed beneath the stars that shine
Dm Am
I’ll be fine
F
If you give me a minute, a man’s gotta limit
C E7
I can’t get a life if my hearts not in itttt



e-|---------------------------------------|
B-|------------13-12---------8-10-8-------|
G-|7-9-7-------------14-12-----------9-8-9| (x2)
D-|-------10-7-------------14-------------|
A-|---------------------------------------|
E-|---------------------------------------|

e-----------------------------------------
B15-15-13—13---15-15-13—13-12-13----------
G--------14—14---------14-------13-12-----
D-----------------------------------------
A-----------------------------------------
E-----------------------------------------



Dm Am
i don't mind
Dm Am
as long as there's a bed beneath the stars that shine
Dm Am
i'll be fine
Fmaj7
if you give me a minute, a man's got a limit
G E
i can't get a life if my heart's not in it...

(repeat intro)
Fmaj7 Am

Am Fmaj7
i lost my faith in the summertime
C E7 E
cos it don't stop raining
Am Fmaj7
the sky all day is as black as night
C E7 E
but i'm not complaining
Am Fmaj7
i begged my doctor for one more line
C E7 E
he said "son... words fail me"
Am Fmaj7
it ain't no place to be killing time
C E7 E
i guess i'm just lazy

Dm Am
i don't mind
Dm Am
as long as there's a bed beneath the stars that shine
Dm Am
i'll be fine
Fmaj7
if you give me a minute, a man's got a limit
G E
i can't get a life if my heart's not in it...

(repeat intro)

Am E (ends with Am)

Вверх

It's Getting Better

Verse 1:
A
Say something
A G D A
Shout it from the rooftops of your head
A
Make it sort of mean something
A G D A
Make me understand or I'll forget
A
The people here on lifes beaches
A G D A
They wish upon the waves that hide the sand
A
Let them know that life teaches you
A G D A
To build a castle in your hand

Bridge:
A G D A
Maybe the signs I've seen are wrong
A G D A
Maybe the dreams I've dreamed are gone
A G D A
So bring it on home and it wont be long
(N.C.) A F#m
It's Getting Better Man!!

Chorus:
F#m A-A-E-E-F#m
And what was that you said to me?
F#m A-A-E-E-F#m
Just say the word and I'd be free?
F#m Bm
And where the stars are shining bright
D A
It's Getting Better Man!
F#m A-A-E-E-F#m
And crashing in upon a wave
F#m A-A-E-E-F#m
It's calling out beyond the grave
F#m Bm
And we're the fire in the sky
D A
It's Getting Better Man

Verse 2:
A
Build Something
A G D A
Build a better place and call it home
A
Even if it means nothing
A G D
You'll never ever feel that you're alone.

Bridge:
A G D A
Maybe the songs that I sing are wrong
A G D A
Maybe the dreams we dream are gone
A G D A
So bring it on home and it won't be long
(N.C.) A F#m
It's Getting Better Man!!

Вверх

Keep the Dream Alive

*CAPO 2ND FRET*

Intro: A Asus4 Asus4/B Asus4/F#

A Asus4 Asus4/B Asus4/F# A Asus4 Asus4/B Asus4/F#
Four seasons seconds flicker and flash I?m alone
A Asus4 Asus4/B Asus4/F# E
A lonely screen provides the scene it?s not home
D E
Every night I hear you scream
D G D
But you don?t say what you mean
A Asus4 Asus4/B Asus4/F# A Asus4 Asus4/B Asus4/F#
This was my dream but now my dream has flown

I?m at the cross roads waiting for a sign
My life is standing still but I?m still alive
Every night I think I know
In the morning where did it go
The answers disappear when I open my eyes

A
I?m no stranger to this place where real life and dreams collide
G
And even though I fall from grace
A
I will keep the dream alive
G D A Asus4 Asus4/B Asus4/F#
I will keep the dream alive

Four seasons seconds flicker and flash I?m alone
A lonely screen provides the scene it?s not home
Every night I hear you scream
But you don?t say what you mean
This was my dream but now my dream has flown

I?m no stranger to this place where real life and dreams collide
And even though I fall from grace I will keep the dream alive

Вверх

Live Forever

Intro: Drums


Verse 1: (0:12)

G D
Maybe, I don't really wanna know
Am7
How your garden grows
C D
Cos I just wanna fly
G D
Lately, did you ever feel the pain
Am7
In the morning rain
C D
As it soaks you to the bone


Chorus 1: (0:34)

Em7 D
Maybe I just wanna fly
Am7
Wanna live but don't wanna die
C
Maybe I just wanna breath
D Em7
Maybe I just don't believe
D
Maybe you're the same as me
Am7
We see things they'll never see
Fsus4
You and I are gonna live forever


[ Lead Guitar plays this after Fsus4 ]

E-----3------|
B--1----1----|
G---------0--|
D-3----------|
A------------|


Verse 2: (0:57) [ Same as Verse 1 ]

Maybe, I don't really wanna know
How your garden grows
cos I just wanna fly
Lately, did you ever feel the pain
In the morning rain
As it soaks you to the bone


Chorus 2: (1:19) [ Same as Chorus 1 ]

Maybe I will never be
All the things that I wanna be
but now it's not the time to cry
Now it's time to find out why
I think you're the same as me
We see things they'll never see
You and I we're gonna live forever


Solo: (1:42)

G D Am7 C D G

B----------------------------------------------------------------------|
G------12b--14b14-12-12h14---14b14-12--12h14---------------------------|
D-12h14-------------------------------14---14---12h14h12---------------|
A-----------------------------------------------------12h14h12--10b10b-|

D Am7 C D Em
B--------------------------------------------------(15)^17b17b-|
G------------12h14---14b14-12--12h14---------------------------|
D-12-12-12h14-----------------14---14---12h14-14-12------------|
A--------------------------------------------------------------|

D Am7 C D
B-17h15--15------------------------------------------------------------|
G------16--16h14h16--14----14b14-12h14h12------------12-14b14b14h12-14-|
D------------------17--17----------------14b-----12h14-----------------|
A--------------------------------------------12h14---------------------|

Em D Am7 Fsus4
B(12)-15h17b17b--17h15--15--------------------------------------------|
G---------------------16--16h14h16--14--14b14-12h14h12------------12b-|
D---------------------------------17--17--------------14b-----12h14---|
A---------------------------------------------------------12h14-------|

Fsus4
B----------------------------------|
G---------12h12-------14b14b14h12b-|
D-----12h14-------12h14------------|
A-12h14-------12h14----------------|



Verse 3: (2:27)

G D
G---------14^16h14-------------------12----|
D----12h14----------------------12h14--14b-|
A------------------------------------------|
Maybe, I don't really wanna know

Am7 C D
G------------------------12h12----------------------------|
D-------------------12h14-----14-12h14------14h12---------|
A-----------------------------------------------10h12-10b-|
How your garden grows cos I just wanna fly

G D
G---------14^16h14---------------------12----|
D----12h14------------------------12h14--14b-|
A--------------------------------------------|
Lately, did you ever feel the pain

Am7 C D
G-----------------------12h12---------------------------|
D------------------12h14-----14-12h14----------12h14-12-|
A---------------------------------------------10--------|
In the morning rain as it soaks you to the bone



Chorus: (2:49)

Em7 D Am7
G---------------------------------------------------------------|
D-12h14b---------------12-12h14b-------------------12-12-12h14b-|
A---------------------------------------------------------------|
Maybe I just wanna fly Wanna live but don't wanna die

C D
B--------------12--------------------------------------|
G----------------14-----12-14-12-----------------------|
D------------------------------------------------------|
Maybe I just wanna breath Maybe I just don't believe

Em7 D Am7
B-12---------12h12---14h12b12----------------------------12----------|
G--14-----------------------14b14------------------12h14b--14b-------|
D--------------------------------------------------------------------|
Maybe you're the same as me We see things they'll never see

Fsus4
D----------------------------------------|
A------------------------------0-2h3h2-0-|
E----------------------------------------|
You and I are gonna live forever



Outro: (3:42)

Am Fsus4
E----0---------------------0---------------|
B---1-1-------------------1-1--------------|
G--2---------------------------------------| (x6)
D------------------------3-----------------|
A--------------------------------(2)3h2--0-|
We're gonna live forever


Am Fsus4 Am Fsus4 Am Fsus4 Am
B-----------------------5h5------5-----------------------------------------|
G----7b7-5--5--------5h7---7-5h7--7--------7b7-5h7h5-7b7-5h7-5---------7b7-|
D---------7b--------------------------------------------------7b-----------|
A-------------3-2-0-----------------3-2-0------------------------3-2-0-----|

Fsus4 Am Fsus4 Am Fsus4
B------------------------------------5h5----------5h5---------5h5--------|
G-5h7h5-7b7-5h7-5--------5h5-5-------5h5-5--------5h5-5-------5h5-5------|
D----------------7b---------7-7-5h7-----7-7-5h7b-----7-7-5h7-----7-7-5h7-|
A-------------------3-2-0------------------------------------------------|

Am Fsus4 Am Fsus4 Am
B-----------------5h5--------------5h5--------------5h5--------------------|
G-------5h5-------5h5-5------------5h5-5------------5h5-5----------9-------|
D----5h7---7-5h7-----7-7-5h7-5h7b-----7-7-5h7-5h7b-----7-7-5h7-7b---7-10-7-|
A-5h7----------------------------------------------------------------------|

Вверх

Love Like a Bomb

INTRO- E



A D G E
I’m seeing a whole nother world in my mind
A D G E
Girl I’m feelin an breathing in love all the time
A D G E
You turn me on, your loves like a bomb, blowing my mind
A D G E
You turn me on, your loves like a bomb, blowing my mind


And I’m reaching, the world that I want deep inside
Girl I mean it and you hold the key to the shrine
You turn me on, your loves like a bomb, blowin my mind
You turn me on, your loves like a bomb, blowin my mind
E E E
Blowing my mind, blowin my mind, blowin my mind
E E
Blowing my mind
A D G E
La la la la la la la, ,la la la la la la la la la la la

La la la la la la la la la la la


Yeah I’m seein a whole nother world in my mind

Girl I’m feelin that we’ve been in love all the time

You turn me on, your loves like a bomb blowin my mind

You turn me on, your loves like a bomb, blowin my mind
A
Yeah I’m seeing

Вверх

Lyla

INTRO: A (hammer down on e-3)


VERSE:

Dsus2
Callin all the stars to fall
F G A
An catch the silver sunlight in your hands
Dsus2
Comfort me and set me free
F G A
Lift me up and take me where I stand
Dsus2
She believes in everything
F G A
And everyone of you and yours and mine
F
I’ve waited for a thousand years
G A Dsus2 A e-5 A Dsus2 A
For you to come and blow me out my mind.


CHORUS:
A Dsus2-A
Hey Ly- la
G D
The stars about to fall
A Dsus2-A
Whatcha say, Ly - la
G D A Dsus2-A
The world around us makes me feel so small, Ly - la
G D A Dsus2-A
If you could hear me call, then I can say Ly - la
G D E
Heaven help you catch me if I fall!


VERSE:
She’s the queen of all I’ve seen
And every song and city far or near
Heaven hell my mademoiselle
She ringed a bell for all the world to hear


CHORUS

Musical interlude: E G E G D E G E G D E

CHORUS

Вверх

Magic Pie

Intro:
Dm Am F G

Verse:
Dm Am
An extra-ordinary guy
F G
Can never have an ordinary day
Dm Am
He might live the long goodbye
F G
But that is not for me to say
Dm Am
I dig his friends, I dig his shoes
F G
He is just a child with nothing to lose
Dm Am F G
But his mind, his mind

Verse 2: (same chords as in the first verse)
They are sleeping while they dream
And they want to be adored
The who don't say what they mean
Will live and die by their own sword
I dig their friends, I dig their shoes
They are like a child with nothing to lose
In their minds, their minds

Bridge:
D F G
But I'll have my way
D F G
In my own time
D F G
I'll have my say
D F G
My star will shine

Chorus
A C G
Cos you see me I got my magic pie
A C G
Think of me yeah that was me I was that passed by
C F C G F G
I've been and now I'm gone


Verse 3:
There are but a thousend days prepearing for thousend years
Many minds to educate the people who have disappeared
D'you dig my friends, d'you dig my shoes
I'm just a child with nothing to lose
But my mind, my mind

Bridge:

Chorus (Fade To End):

Вверх

Married with Children

Intro:

E G# C#m A C B E E G# C#m A C B E
B-----------5h7-5b-7b7-5b-----------------------5-7b7-7b7-5-7b7-5--7b7--5b-|
G----------------------------4--------------4-6----------------------------|
D--------------------------6---4h6h4-2--4^6--------------------------------|


E G# C#m A
There's no need for you to say you're sorry

C B E
B---------5--------7b7-5b------------------------|
G-----4h6------------------------4---------------|
D-4h6------------------------4h6---6-4-6-4-6-4-2-|
Goodbye, I'm going home

E G# C#m A C B E
B-------------------------------------------------5--------7b7-5b-----|
G---------------------------------------------4h6---------------------|
D-----------------------------------------4h6-------------------------|
I don't care no more so don't you worry Goodbye, I'm going home

A E A
B------------5--------------------------------------------7b7-5-------|
G-----4--4h6----------------------------------------------------------|
D-4h6-----------------------------------------------------------------|
I hate the way that even though you know you're wrong

E A
B---------------------------------------------------------------------|
G---------------------4-----------------------------------------------|
D-----------------4h6-----4h6-4-6-4-2---------------------------------|
You say you're right I hate the books you read and

E F# A7
e---------------------------------0---------------------------------------|
B---------------------------0--------0------------------------------------|
G------------------------------3--------3-----------------------------3-0-|
all your friends Your music's shite it keeps me up all night up all night

E G# C#m A C B E
B-----------------------------------------------5h7-5--------7b7-5-----|
G-------------------------------------------4h6------------------------|
D----------------------------------------------------------------------|
There's no need for you to say you're sorry Goodbye, I'm going home

E G# C#m A
B-----------------------------------------------------------------|
G-----4-----------------------------------------------------------|
D-4h6---6---4-6-4-6-4-2-------------------------------------------|
I don't care no more so don't you worry

C B E A E
B--5--7--5--------7b8-7-5----------5--------------------------------------|
G------------------------------4h6----------------------------------------|
D-------------------------------------------------------------------------|
Goodbye, I'm going home I hate the way the you are so sarcastic

A E A
B---7b7-7-5-------------------------------------------------------------|
G----------------------------------------4------------------------------|
D------------------------------------4h6---6--4-6-4-6-4-2---------------|
And you're not very bright You think that

E F#
e--------------------------------------------------0-----------------|
B---------------------------------------------0-------0--------------|
G------------------------------------------------3-------3-----------|
everything you've done's fantastic Your music's shite it keeps me

A7
B---------------------------|
G---------------------------|
D----------------------3-0--|
up all night up all night


Solo:

E G# C#m A C B E E
B----------5---5-7b7-7b7--7-5---------------------------------------------|
G------4-6---6------------------------------------------4-----------------|
D--4^6---------------------------4b4-4b4-4--2-4-2---4h6---6--4-6-4-6-4-2--|

E G# C#m A C B E
E----------------------------------7------------|
B----------5---5-7b7-7b7--7-5--7^9---9-7b-7b-5b-|
G------4-6---6----------------------------------|
D--4^6------------------------------------------|



C#m G#m A E
And it will be nice to be alone for a week or two
C#m G#m A
Then I know that I will be right, right back here with
B A G#m F# B A G#m F#
E---0--------0--------4------2--2-------0--------0--------4-----0---|
B----0--------0--------4-----2---2-------0--------0--------4-----0--|
G----------------------------3--------------------------------------|
D-9--------7--------6--------4--------9--------7--------6-----4-----|
A-9--------7--------6--------4--------9--------7--------6-----4-----|
E-7--------5--------4--------2--------7--------5--------4-----2-----|
you with you with you with you with you with you with you.....


E G# C#m A C B E
B-----------------------------------------7b7-5---5--------7b8r7--------|
G------------------------------------------------6----------------------|
D-----------------------------------------------------------------------|
There's no need for you to say you're sorry Goodbye, I'm going home

E G# C#m A
B---------------------------------------------------------|
G-----4-----4---------------------------------------------|
D-4h6---4h6---4-2-----------------------------------------|
I don't care no more so don't you worry

C B E
Goodbye I'm going home
E------------------------------------------------0--|
B-------5b--7b-----7b7-5b-------------5---5b-----8--|
G----4^6--------------------------4h6---6--------7--|
D-4h6--------------------------------------------6--|
A------------------------------------------------7--|
E------------------------------------------------x--|

Вверх

Meaning of Soul

INTRO- G EM x 3



G Em G Em
I gotta show you man the meaning of soul

I’m takin on love tonight

Get out of my way man I dig what you say

But that aint enough alright?

I’m a different breed an I’m out of your league

I’m a ten out of ten alright

Get out of my way yeah man

I dig what you say if that aint enough alright


G D A Em
Al - right I see the love in your eyes
G D
Cause it’s a - ll right

Can I be your light


REPEAT ALL


I gotta show you man the meaning of soul

I’m takin on love tonight.

Вверх

Mucky Fingers

INTRO: A D5 E x 4

VERSE

A Ds E A Ds E
I know you think you deserve an explanation on the meanings of life
A Ds E A Ds E
But what you think that you heard slipped away out the back of your mind
A Ds E
You get your mucky fingers burned
A Ds E
You get your truth from the lies you were learned
A Ds E A Ds E
When all your plastic believers will leave us an they wont return

(same as above)

And when you look in that mirror an your tying up your buttons an bows

An as you face your disease you can squeeze into the emperors clothes

You found your God in a paperback

You get your history from the Union Jack

An all your brothers an sisters have gone an they wont come back


CHORUS

D/F# E A D/F#
Fed up with life in the city, all the phonies have blown my mind
Bm
When im gone yeah you’d look like you missed me, so come along with me
D
Don’t ask why
A Ds E
Cause it’s all mine ( x4 )

Вверх

My Big Mouth

Intro: A5 D5 C5 G5 F5

Verse:
F5 A5 D5 C5 G5 F5
Everybody knows
F5 A5 D5 C5 G5 F5
And no one's saying nothing
F5 A5 D5 C5 G5 F5
Is the sound so very loud
F5 A5 D5 C5 G5 F5
That no one can hear
F5 A5 D5 C5 G5 F5
And there's something in my shoes
F5 A5 D5 C5 G5 F5
That's keeping me from walking
F5 A5 D5 C5 G5 F5
Down along the winding road
F5 A5 D5 C5 G5 F5
Back home to you

Bridge :
Fsus2
When all your songs cease to be
G
That's what you get for sleeping with the enemy
Fsus2
Where angels fly, you won't play
E
So guess who's gotta take the blame for

Chorus:
F5 A5 D5 C5 G5 F5
My big mouth
F5 A5 D5 C5 G5 F5
And my big name
F5 A5 D5 C5
I put on my shoes while I'm walking
G5 F5 A5 D5 C5 G5
Slowly down the hall of fame
F5 A5 D5 C5 G5 F5
Into my big mouth
F5 A5 D5 C5 G5 F5
You could fly a plane
F5 A5 D5 C5
I put on my shoes while i'm walking
G5 F5 A5 D5 C5 G5
Slowly down the hall of fame

Verse 2:
I ain't ever spoke to God
And I ain't ever been to heaven
But you assume I knew the way
Even though I'm not worth giving
As you look into the eye
Of a bloody cold assassin
Only then you realise
This is what you have been missing

Chorus:

Solo:

Chorus (To End):

Вверх

My Sister Lover

Verse 1:
Em B7
I'm falling sleepy deep inside
Em B7
Your heart is sold I'll never find
Em B7
Today I think I'll waste my time
Em B7
You never notice you are blind

Verse 2: (Same chords)
The dream I have can never be
To photograph but I can't see
I fight to live another day
I live to find out came what may

Bridge:
Am Em
Faith in our love is something I could never have
Am Em
Thinking mt sister's gonna set me free
Am Em
Faith in our love is something I could never have
Am B7
'Cos the lover I know don't got no faith in me

Chorus 1:
Em C G B7
Your my lover (x4)

Verse 3: (same as other verses)
She gives me life when the sun goes down
She gives me the strenght so I don't drown
She gives me hope and destiny
She gives me air that I can breathe

Chorus 2: (same chords)
Your my lover
I'm your brother (x2)

Solo and Chorus 2 (To Fade):

Вверх

On A Different Cloud

INTRO

Dm(ish) A

e--7-7-7-7-7-7-7-7----0-0-0-0-0-0-0-0--------------------------------
b--6-6-6-6-6-6-6-6----2-2-2-2-2-2-2-2--------------------------------
g--7-7-7-7-7-7-7-7----2-2-2-2-2-2-2-2-----<<<<<----Times two---------
d--0-0-0-0-0-0-0-0----2-2-2-2-2-2-2-2------------followed by E-------
a--x-x-x-x-x-x-x-x----0-0-0-0-0-0-0-0--------------------------------
E--------------------------------------------------------------------

Am
Born on a dirfferent cloud
G
To the ones that have passed round town
F
its no surprise to me
G
that you're classless clever and free

Am
Loaded just like a gun
G
You the hero thats still on song
F
Living on Borrowed time
G
You're my son and your gonna shine

MIDDLE 8

Same music as intro

Talking to myself again
This time i think im getting through
its funny how you think
its funny how well you do

G
Lonely soul
Am
Busy working overtime
G
nothing ever gets done
Am
especially when you're hands are tied
G
Lonely soul
Am
Breaking up you're mothers pride
G
nothing ever gets done
E
not until you're wars won

OUTRO

Am
Born on a different cloud
G
Born on a different cloud
F
Born on a different cloud
G
Born on a different cloud
Am
na na na na, na na na na na na
G
na na na na, na na na na na na
F
na na na na, na na na na na na
G
na na na na, na na na na na na

Вверх

Part of the Queue

INTRO- Am Em F G x 4 (listen to song for strumming)

Am Em F G Am Em F G
Suddenly I found that I'd lost my way in the city
Am Em F G Am Em F G
Streets in the thousands of colors all bleed into one
Am Em F G
I fall down heaven won't help me
Am Em F G
I call out no one would hear
Am Em F G Am Em F G
All of a sudden I lost my out of the city

F
Stand tall
Am
Stand proud
F
Every beginning is breaking its promise
G E Am
I'm having trouble just finding some soul in this town

Am Em F G Am Em F G

Am Em F G Am Em F G
The names and the faces in the places they mean nothing to me

Am Em F G Am Em F G
Cos all they can do to be part of the queue in this town
Am Em F G
I fall down heaven wont help me
Am Em F G
I call out no one will hear
Am Em F G Am Em F G
People tomorrow they say "well I say mores the pity"

F
Stand tall
Am
Stand proud
F
Every beginning has broken its promise
G E Am Em F G
I'm having trouble just finding some soul in this town

rhythm
Am Em F G (x10)

Lead
E—0-0-0------------- repeat
B-------1-0---------
G-----------2-------
D-------------------
A-------------------
E-------------------

F
Stand tall
Am
Stand proud
F
Every beginning has broken its promise
G Em Am Em F G Am
I'm having trouble just finding my soul in this town
F G Am Em F G Am
Finding my soul in this town
Am Em F G

Вверх

Rock 'N' Roll Star

Intro:

E---------------------------------|
B---------------------------------|
G-7h8-8b-----------7b8-8b---------|
D-------9------7-9-------9-(9999)-|
A----------7-9--------------------|
A---------------------------------|

B E5 B E5 C#m A B E5
B------------------------------------------------|
G-----9b9-7-----9b9-7---9-9-8-9-8-9-8-----9b9-7--|
D----------9---------9-------------------------9-|
A------------------------------------------------|
[ Lead Guitar plays that part during Verse ]


Verse 1: (0:28)

B E5
I live my life in the city
B E5
There's no easy way out
C#m A B
The day's moving just too fast for me
B E5
Need some time in the sunshee-ine
B E5
Gotta slow it right down
C#m A B
The day's moving just too fast for me


Bridge: (0:56)

[ Lead Guitar Repeat this Riff during Bridge ]

B-------------------------|
G- 9-9-8--9-8--9-8--9-8-8-|
D-(9-9)-------(9)---------|
A-------------------------|


G#m E
I live my life for the stars that shine
B
And people say it's just a waste of time
G#m E
Then they said I should feed my head
B
But that to me was just a day in bed
G#m E
I'll take my car and drive real far
B
To where they're not concerned about the way we are
A
Cos in my mind my dreams are real
F#
Now, Are you concerned about the way I feel


Chorus: (1:23)

A E B
Toniiiiiiiiiiiiiiiiight I'm a rock n' roll star
A E B
Toniiiiiiiiiiiiiiiiight I'm a rock n' roll star


[ Repeat Verse and Bridge ]


Chorus: (2:33)

A E B
Toniiiiiiiiiiiiiiiiight I'm a rock n' roll star
A E B
Toniiiiiiiiiiiiiiiiight I'm a rock n' roll star
A E B
Toniiiiiiiiiiiiiiiiight I'm a rock n' roll star

A [ G F# ] (just 6th string)
You're not down with who I am
E
Look at you now you're all in my hands tonight


Solo: (3:01) [ Rhythm Guitar plays same as verse ]

E------------------------------------------------------------|
B-----------------------------------10-----------------------|
G-7-8-7--------7----7-8-7---7-9-9^11--11-9-8--9-9-8--9-8-9-8-| (x2)
D------7-9-7-9--9--------7-9---------------------------------|
A------------------------------------------------------------|

E-----------------|
B-----------------|
G-7-8-7--------7--|
D------7-9-7-9--9-|
A-----------------|


Chorus: (3:25)

A E B
Toniiiiiiiiiiiiiiiiight I'm a rock n' roll star
A E B
Toniiiiiiiiiiiiiiiiight I'm a rock n' roll star
A E B
Toniiiiiiiiiiiiiiiiight I'm a rock n' roll star


Outro: (3:46)

A A
B----------------------|
G---6--6-6-----6--6-6--|
D--7-7-7--7---7-7-7--7-| (x2)
A-7----7-----7----7----|
A----------------------|


F# E (x8) [ Play a bit faster starting from 5th time ]

F# E
It's just Rock n' Roll [ Repeat several times ]

Вверх

Sad Song

NOTE: tune the guitars 1/2 step down


Intro:


Am C Am C Am C Am Am
Eb---0-0-------------0-------------0--------0---0---0---0----------3--3-|
Bb----1-1------1-0-1--1------1-0-1--1------1---1---1---1---1-0-1--1-----|
Gb----------------------------------------------------------------------|
Db-------------------------------------------0--------------------------|
Ab-------3-3-0---------3-3-0---------3-3-0-------3---2---0--------------|
Eb----------------------------------------------------------------------|


Verse 1: (0:19)

Am Fsus4
Sing a sad song in a lonely place,
Dsus4 E G
And try to put a word in for me
Am Fsus4
It's been so long since I found a space,
Dsus4 E G
You'd better put in two or three
Am Fsus4
We as people are just walking round,
Dsus4 E G
Our heads are firmly fixed in the ground
Am Fsus4
What we don't see, well it can't be real,
Dsus4 E G
What we don't touch we cannot feel


Chorus: (0:53)

C Em/Badd6
While we're livin' in this town
Am Fsus4
The sun is coming up and it's going down,
C G D Dsus4 D Dsus2 D
But it's all just the same at the end of the day
C Em/Badd6
And we cheat and we lie,
Am Fsus4
Nobody says it's wrong so we don't ask why,
C G D Dsus4 D Dsus2 D
'Cos it's all just the same at the end of the day


Fsus4 C
We're throwing it all away?
Fsus4 C
We're throwing it all away,
Fsus4 C
We're throwing it all away
E E7
at the end of the day...


Am C Am C Am C Am Am
Eb---0-0-------------0-----------------------0---0---0---0----------3--3-|
Bb----1-1------1-0-1--1------1-0-1-1-3------1---1---1---1---1-0-1--1-----|
Gb-----------------------------------------------------------------------|
Db--------------------------------------------0--------------------------|
Ab-------3-3-0---------3-3-0----------3-3-0-------3---2---0--------------|
Eb-----------------------------------------------------------------------|


Verse 2: (2:00)

Am Fsus4
If you're needing something I can give,
Dsus4 E G
You know I help you if I can
Am Fsus4
If you're honest and you say that you did,
Dsus4 E G
You know that I would give you my hand
Am Fsus4
Or a sad song in a lonely place,
Dsus4 E G
I'll try and put a word in for you
Am Fsus4
Need a shoulder? Well if that's the case,
Dsus4 E G
You know there's nothing I wouldn't do


While we're livin' in this town
The sun is coming up and it's going down
But it's all just the same at the end of the day
And we cheat and we lie
Nobody says it's wrong so we don't ask why,
'Cos it's all just the same at the end of the day

Don't throw it all away
Don't throw it all away
Don't throw it all away
Don't throw it all away...


Solo: (3:20)

Fsus4 C Fsus4 C
Eb-------------------------------------------|
Bb-----------------------------------8-------|
Gb-------5-7h5-7^9^7-7h5------5-7-7^9--9-7-5-|
Db----5h7------------------5h7---------------|
Ab-5h7------------------5h7------------------|
Eb-------------------------------------------|

Fsus4 C Fsus4 C
Eb---------------------------------------|
Bb-----------------------------------8b8-|
Gb-------5-7h5-7^9^7-7h5------5-7-7^9----|
Db----5h7------------------5h7-----------|
Ab-5h7------------------5h7--------------|
Eb---------------------------------------|


Fsus4 C
Eb-7------7------7------7----|
Bb---8------8------8------8--|
Gb------5------5------5------|
Db---------------------------| (x3)
Ab---------------------------|
Eb---------------------------|
Throwing it all away

E
at the end of the day...



Outro: (3:51)

Am C Am C Am C Am Am
Eb---0-0-------------0-----------------------0---0---0---0-------0--3--3-|
Bb----1-1------1-0-1--1------1-0-1-1-3------1---1---1---1---1-0-1--1-----|
Gb-----------------------------------------------------------------------|
Db--------------------------------------------0--------------------------|
Ab-------3-3-0---------3-3-0----------3-3-0-------3---2---0--------------|
Eb-----------------------------------------------------------------------|

[ Ends with Am7 ]

Вверх

Shakermaker

Intro:

E--------------------0-----------------------------------------|
B----0------0------0--0---------0-------0----------0-------0---|
G---2-2----2-2----2-2--2-------7-7-----7-7--------2-2-----2-2--|
D--1---1--1---1--1---1--1-----6---6---6---6------1---1---1---1-|
A-2-----2------2-------------7------7-----------2------2-------|
E--------------------------------------------------------------|

[ Band Kicks In ] A E B13 F#


Verse 1: (0:30)

B13
I'd like to be somebody else and not know where I've been
E B13
I'd like to build myself a house out of plasticine
A E B13
Aaaah, aaaaah, Shake along with me
A E B13 F#
Aaaah, aaaaah, Shake along with me


Verse 2: (1:10)

I've been driving in my car with my friend Mr. Soft
Mr. Clean and Mr.Ben are living in my loft
Aaaah, aaaaah, Shake along with me
Aaaah, aaaaah, Shake along with me


Solo: (1:50)

G------------| G--------------|
D----9b------| D--------------|
A-4^9--5b-2b-| (x4) A----5-2-0-2^5-| (x2)
E------------| E-0-0----------|


G------------| G-------------------------------------|
D----9b------| D----9-11b9-----9-----9-11-9--11b11b9-|
A-4^9--5b-2b-| (x4) A-4^9-------9-11--9-11----------------|
E------------| E-------------------------------------|


Chorus: (2:20)

D A B13
I'm sorry but I just don't know
D A B13
I know I said I told you so
D A B13
But when you're happy and you're feeling fine
A E
Then you'll know that it's the right time
A E
Yeah, you know that it's the right time


[ With Intro ]

shake along with me! shake along with me!
shake along with me! shake along with me!


Verse 3: (3:18)

Mister Sifter sold me songs when I was just sixteen
Now he stops at traffic lights but only when they're green
A E B13
Aaaah, aaaaah, Shake along with me
A E B13
Aaaah, aaaaah, Shake along with me
A E B13
Aaaah, aaaaah, Shake along with me
A E
Aaaah, aaaaah...


Outro: (4:14)

[ With Intro and then mix with this ]

B-----------------------------------|
G-----------------------4b4b4b4-2b2-|
D--0-1--0-1----0-1--0-1-------------|
A-2----2----2-2----2----------------|
E-----------------------------------|

shake along with me! shake along with me!
shake along with me! shake along with me!
shake along with them! shake along with me!
shake along with them! shake along with me!


[ Ends with E ]

Вверх

Slide Away

Intro:

E-------------3-0-------3----------0--3-0-----3-------0-|
B----------------1-0------0---0---1-------1-0--1-----1--|
G-5h7b------0----------0----0----0--------------0---0---|
D---------2---------------------3------------------3----|
A-------0-----------------------------------------------|
E--------------------3----------------------------------|

Am7 G Fsus9 Am7 G Fsus9
E-------------------------------------------|
B-------------------------------------------|
G-7^9b--7b9-7-5-----------5--5--------------|
D--------------7-------5h7-----7-------7----|
A-------------------5h7------------6^5---0--|
E-------------------------------------------|


Verse 1: (0:22)

Am7 G Fsus9
Slide away, and give it all you've got
Am7 G Fsus9
My today, fell in from the top
Am7 G Fsus9
I dream of you, and all the things you say
Am7 G Fsus9
I wonder where you are now


Verse 2: (0:43) [ Same as Verse 1 ]

Hold me down - all the world's asleep
I need you now - you've knocked me off my feet
I dream of you - we talk of growing old
But you said please don't


Bridge: (1:03)

G Fsus9 G Fsus9
Slide in, baby, together we'll fly
G Fsus9 G G
I've tried praying but I Don't know what you're sayin to me


Chorus: (1:15)

C
Now that you're mine,
G
we'll find a way
Fsus9
of chasing the sun
Am7
Let me be the one
G
Who shines with you
Dsus4 Fsus9
In the morning when you don't know what to do
C
Two of a kind
G
We'll find a way
Fsus9
To do what we've done
Am7 G
Let me be the one that shines with you
Fsus9 Dsus4 Fsus9 Dsus4
And we can slide away slide away
G E
Away...


Solo: (2:13)

Am7 G Fsus9 Am7 G Fsus9 Am7 G Fsus9
E--------5----------------------8-8h10p8-----------------------------------|
B----------5----------------8h10--------10-8-8h10--------------------------|
G-7^9b-7-----7-5-5-5h7-5-------------------------7b9-9r7-5-5-5h7-5---------|
D------------------------5h7--------------------------------------5h7---7--|
A--------------------------------------------------------------------6b7-0-|
E--------------------------------------------------------------------------|

G Fsus9 G
E------------------------------------------------------------------|
B-15^17b-17-15-13---------------13^15^17--15^17b-15b17-17-15-13----|
G-----------------14------12h14---------------------------------14-|
D--------------------14h14-----------------------------------------|
A------------------------------------------------------------------|
E------------------------------------------------------------------|

Fsus9
E---------------------------|
B---------------------------|
G--------12-----------------|
D-12h14---14-12-10----------|
A------------------12-10h12-|
E---------------------------|


Slide away, and give it all you've got
My today, fell in from the top
I dream of you, and all the things you say
I wonder where you are now


Slide in, baby, together we'll fly
I've tried praying but I Don't know what you're sayin to me


Now that you're mine,
we'll find a way
of chasing the sun
Let me be the one
Who shines with you
In the morning when you don't know what to do
Two of a kind
We'll find a way
To do what we've done
Let me be the one that shines with you
And we can slide away... slide away
Slide away... slide away
Slide away... slide away


Fsus9
Slide away (And I wanna try now)
Dsus4
Slide away (Gonna make you mine now)

(x3)

Fsus9 Dsus4
B------------------------------------|
G--7b9--b9r7--5-------------5--7--5--|
D----------------7------5h7----------| [ Lead Guitar keep playing this ]
A-------------------5h7--------------|
(ooooooooooo....oo....ooooooo)

Fsus9
I don't know, I don't care
Dsus4
All I know is you take me there s

Fsus9
I don't know, I don't care
Dsus4
All I know is you take me there (Slide Away)

[x5]

Fsus9
Take me there, take me there
Dsus4
Take me there, take me there (Slide Away)
Fsus9
Take me there, take me there
Dsus4
Take me there, All I know is you take me there
Fsus9
Take me there, take me there
Dsus4
Take me there, take me there
Fsus9 D7sus4
Take me there, take me there

Fsus9 Dsus4 Fsus9 Dsus4
E-----------------------------------------------|
B------13-----13-----13-----13-----13-----13----|
G-12h14--12h14--12h14--12h14--12h14--12h14--12--|
D-----------------------------------------------|
slide Away Slide Away Slide Away Slide Away....


[ Music Fades ]

Вверх

Stay Young

Intro: D Em G

Verse:
D Em G
Far away out is all you're ever gonna get from
D Em G
those who have their mouths don't ever let them upset you
D Em
'Cos they'll put words into my mouth
G Em
they're making me feel so ashamed
G Em
making me take all the blame
G Em
making me cold in the night
G A
making me question my heart and my soul
A
and I think that it's not quite right

Chorus:
D F# G D/F#
Hey Stay Young and invincible
Em A
'Cos we know just what we are
D F# G D/F#
Come what may we're unstoppable
Em A
'Cos we know just who we are
Em A
Yeah we know just who we are

Verse 2:
Feed your head with all the things
You need when you're hungry
Stay in bed and sleep all day
As long as it's sunny
Cos they'll put words into my mouth
They're making me feel so ashamed
Making me take all the blamed
Making me cold in the night
Making me question my heart and my soul
And I think that it's not quite right

Chorus:
Hey! Stay young and invincible
Cos we know just what we are
Come what may we're unstoppable
Cos we know just what we are
Yeah we know just what we are
Yeah we know just what we are

Hey! Stay young and invincible
Cos we know just what we are
Come what may we're unstopable
Cos we know just what we are

Hey! Stay young and invincible
Cos we know just what we are
Come what may my fate's unshakeable
Cos we know just what we are
Cos we know just what we are
Cos we know just what we are
Cos we know just what we are
Cos we know just what we are
Know just what we are
Know just what we are
Know just what we are
Know just what we are

Вверх

Supersonic

Intro:

E------0---------------| E------0----------------------|
B--------0-------------| B--------0--------------------|
G-----2----2-----2-----| G-----2----2-----2------------|
D---4---------4--2---1-| (x3) D---4---------4--2---------4b-|
A-4--------------0---2-| A-4--------------0--2-3b2h0---|
E----------------------| E-----------------------------|
(I need...)

Verse 1: (0:27)


Riff 1: Riff 2:

G--------------| E---7-------|
D-----------4b-| (*) B-----5-----| (**)
A--(2)-3b2h0---| G-------6---|
E--------------| D-----------|

[ Transitions between B and F#m ]


F#m A B (**)
I need to be myself
F#m A B (*)
I can be no one else
F#m A B (**)
I'm feeling supersonic give me gin & tonic
F#m A B
You can have it all, but how much do you want it
F#m A B **
You make me laugh
F#m A B (*)
Give me your autograph
F#m A B (**)
Can I ride with you in your BMW
F#m A B
You can sail with me in my yellow submarine


Pre-Chorus:

E
You need to find out 'cos no one's gonna tell you
F#m (**)
What I'm on about
E C#
You need to find a way for what you want to say
C#
But before tomorrow


Chorus: (1:25)

Riff 3: [ Lead Guitar during Chorus ]

D A E F#m
G-----------------------|
D------4-4---------4-4--|
A-0h2h4---4h2-0h2h4-----|
E---------------------2-|

D A
'Cos my friend said
E F#m
He'd take you home
D A
He sits in the corner
E F#m
All alone
D A E F#m
He lives under a waterfall
D A
Nobody can see him
E F#m (***)
Nobody could ever hear him call
D A E F#m
Nobody could ever hear him call


Solo: (***) [ Play this TWICE ]

D A E F#m D A E F#m
B---------------------------------------------17-14----------------------|
G--16b16-14--16-14-----14----------16b16-14--------16-14-----14h16-14-14-|
D-----------------14-16-16-14h(16)----------------------14h16------------|
A------------------------------------------------------------------------|


[ Rhythm Guitar plays F#m E C# then Lead Guitar plays (*) ]


Verse 2: (2:10) [ Same as Verse 1 ]

You need to be youself
You can be no one else
I know a girl called Elsa - She's into alka-seltza
She sniffs it through a cane On a supersonic train
And she makes me laugh
I've got her autograph
She done it with a doctor On a helicopter
She's sniffin' in a tissue - Selling the big issue


When she finds out
No ones's gonna tell her what I'm on about
You need to find a way for What you want to say
But before tomorrow


Cos my friend said he'd take you home
he sits in a corner all alone
He lives under a waterfall
Nobody can see him
Nobody can ever hear him call
Nobody can ever hear him call

[ Instead of playing Solo (***) play this twice ]

D A E F#m D A E F#m
B---------------------------------------------17-14----------------------|
G--16b16-14--16-14-----14----------16b16-14--------16-14-----14h16-14-14-|
D-----------------14-16-16-14h(16)----------------------14h16------------|
A------------------------------------------------------------------------|

D A E F#m D A E F#m
B--------------------------------------------------------------------------|
G--16b16-14--16-14---------14--------14--------14--16b16-14-16h16-14h16h14-|
D-----------------(16)14h16--16h14h16--16h14h16----------------------------|
A--------------------------------------------------------------------------|


Outro: (4:01)

D A E F#m D A E F#m
B------------------------------------------------------------------------|
G-14----14--14h16h14-14h16h14-14h16h14--14----14-14-16h14-16b16b16b14-14-|
D-14h16h14--14--------------------------14h16h14-------------------------|
A------------------------------------------------------------------------|

D A E F#m D A E F#m
B------------------------------------------------------------------------|
G-14----14--14h16h14-14h16h14-14h16h14--14----14-14-16h14-16b16b16b14-14-|
D-14h16h14--14--------------------------14h16h14-------------------------|
A------------------------------------------------------------------------|

D A E F#m D A E F#m D....
B-------------------------------------------------------------------------|
G-16b16-16h14-----14-16b16h14------16b16h14--16b16b16b16h14-14---16b16-14-|
D------------14h16--------------------------------------------------------|
A-------------------------------------------------------------------------|


[ Music fades ]

Вверх

The Girl In The Dirty Shirt

Intro:
Em G C7 x3
G Dsus2 Cadd9

Verse 1:
Em G C7
If I may be so bold as to say something
G Dsus2 Cadd9
Come and make me my day.
Em G C7
The clouds around your soul don't gather there for nothing
G Dsus2 Cadd9
I can chase them all away

Verse 2:
Why do you need a reason for to feel happy
Or shining for the rest of the world
Give me just a smile and wont you make it snappy
Get your shit together girl

Bridge:
D B7
You got a feeling lost inside
Em Dsus2/F# Cadd9
It just won't let you go.
D B7
Your life is sneaking up behind
Em Dsus2/F# Cadd9
It just won't let you go
Em Dsus2/F# Cadd9
No it just won't let you go
B7
Is what I'm trying to say...

Chorus:
G Cadd9
Is would you maybe,
G Cadd9
come dancing with me
G Cadd9
'Cos to me it doesn't matter
Asus4 Cadd9
if your hopes and dreams are shattered.
'Cos when you say something
you make me believe
In the girl who wears a dirty shirt,
she knows exactly what she's worth
she knows exactly what she's worth to me!

Verse 3:
If you ever find yourself inside a bubble
You've got a find your own way home
You can call me anytime you're seeing double
Now you know you're not alone.

Bridge:

Chorus (To End):

Вверх

Turn Up the Sun

*CAPO 2nd FRET*

INTRO-

E|-----------------------------------------------------|
B|-1-0-1-0-----------------------------------------0---|
G|-----2---0-2-0-3-2-0-3-2-0--2-0-2-0--------0-2-1-2---|
D|-------------------------3-0--3---4-2-0-3----------3-|
A|-----------------------------------------------------|
E|-----------------------------------------------------|

Where * is pick bass notes as follows: Am-e- - -2- -3
Dsus2 B- - 2- -3

Am
I carry madness * everywhere
I go * Over the border * and back to the snow *
Dsus2
So if you see me * and I look right through *,
you shouldn't take it * as a reflection on you *

F G Dsus2
Come on, turn up the sun. Turn it up for everyone

Am
Love one another*, love one another*
Am
The boys in the bubble* they wanna be free*.
They got so blind* that they cannot see*
Dsus2
But I'm not your keeper* I don't have a key*.
I got a piano*, I can't find the 'C'*

F G Dsus2
Come on, turn up the sun. Turn it up for everyone

Am
Love one another*, love one another*

OUTRO:

E|----------0-1-0------------------------0-------------|
B|--1-0-1--3-----3-1-3-1-0--1---0-1-0-1-3-3-1-0-1-0----|
G|-------------------------2-----------------------2-0-|
D|-----------------------------------------------------|
A|-----------------------------------------------------|
E|-----------------------------------------------------|

E|-------------------------------------------------------|
B|---------3-4-3--------------------------3--------------|
G|--3-2-3-5-----5-3-5-3-2--0-3---2-3-2-3-5-5-3-2-3-2--0--|
D|-----------------------------------------------------3-|
A|-------------------------------------------------------|
E|-------------------------------------------------------|
Am
E|---0--------0---------------------------------------0-|
B|------1-0---------------------------------0---1-----1-|
G|-2--------2----0--------------0-2---1---2-----------2-|
D|-----------------4-2-0--2-3-------------------------2-|
A|----------------------------------------------------0-|
E|------------------------------------------------------|

Вверх

Up In The Sky

Intro:

B-------------------------------|
G---0----------0----0---------0-|
D-----------3-------------3-5---| (x2) (Riff)
A------3-5------------3-5-------|
E-3---------------3-------------|

[ Lead Guitar keeps playing that Riff and Rhythm Guitar plays: ]

G Cadd9 A7 Cadd9sus4 [ Listen the song for this part ]


G Cadd9 G Cadd9 [ After drums ]



Verse 1: (0:23) [ With Riff ]

G Cadd9 G
Hey you, up in the sky
Cadd9 G Cadd9 G
Learning to fly, so tell me how high.
Fmaj7 Cadd9
Do you think you'll go,
G Cadd9 G Cadd9
Before you start falling.
G Cadd9 G
Hey you, Up in a tree
Cadd9 G Cadd9 G
You wanna be me, but that couldn't be
Fmaj7 Cadd9
Cos the people here
G Cadd9 G Cadd9
they don't hear you calling.

C A7
So how does it feel?
G Cadd9 G Cadd9
When you're inside me.



Verse 2: (1:04) [ With Riff ]

Hey you, wearing the crown,
making no sound, I hear you feel down.
Well that's just too bad
welcome to my world.
Hey you, stealing the light,
I heard that the shine's, gone out of your life.
Well that's just too bad
welcome to my world.

How does it feel?
When you're inside me.



Chorus: (1:46)

D
You'll need assistance with the things that you
Emsus2 Cadd9
Have never ever seen.
D
E-3-3-------------------------------------3---|
B-0h1-3h1-0h1-------------0h2--3--2--0h2--3---|
G-----------------------------------------0---|
It's just a case of never breathing out
Emsus2 Cadd9
Before you're breathing in.
C A7 G Cadd9 G Cadd9
E-3-3-------------------------------------3-----3-|
B-0h1-3h1-0h1-------------0h2--3--2--0h2--3-0-2-3-|
G-----------------------------------------0-------|
So how does it feel? When you're inside me...


[ With Riff ]
G Cadd9 A7 Cadd9sus4
I can feel you, Can you feel me?


G Cadd9 G Cadd9



Hey you, up in the sky
Learning to fly, so tell me how high.
Do you think you'll go,
Before you start falling.
Hey you!, Up in a tree
You wanna be me, but that couldn't be
Cos the people here
they don't hear you calling.

So how does it feel?
When you're inside me.


You'll need assistance with the things that you
Have never ever seen.
It's just a case of never breathing out
Before you're breathing in.
So how does it feel?
When you're inside me...


[ With Riff ]
G Cadd9 G Cadd9 (x3)


[ With Riff ]
G Cadd9 A7 Cadd9sus4


[ With Riff ] [ Speeds down a little bit ]
G Cadd9 G Cadd9 (x3)


[ Music Fades ]

Вверх

Wonderwall

VERSE 1:

D|--9--7----9----9---9--9---9--9-----7---9-----|
A|--------10--10--10-----10--10---10--------10-|

Em                        G                       D
Today is gonna be the day that theyґre gonna throw it back
A7sus4
 to you

Em                        G                       D
By now you shouldґve somehow realized what you
A7sus4
 gotta do

G|----7---7--7--9--7----------------------------------------|
D|--9---9--------------9----7---7---7---9-------------------|
A|------------------------10-------------10--7--7--7--10--7-|

Em            G                   D            A7sus4
I donґt believe that anybody feels the way I do
         C        D   A7sus4
About you now

VERSE 2:

Backbeat the word is on the street
that the fire in your heart is out
Iґm sure youґve heard it all before
but you never really had a doubt
I donґt believe that anybody feels the way I do
About you now

PRE-CHORUS:

C		       D		  Em
And all the lights that lead us there are blinding
C                      D
There are many things that I
G       D              Em          G               A7sus4
would like to say to    you but I donґt know how

CHORUS:

C           Em                G    Em  	     C   Em  G
Because maybe	        Youґre gonna be the one that saves me
 Em            C   Em   G         Em         C  Em  G  Em
And after all		     Youґre my wonderwall

VERSE 3:

Today was gonna be the day but
theyґll never throw it back to you
By now you shouldґve somehow realized what youґre not to do
I donґt believe that anybody feels the way I do about you now

PRE-CHORUS:

And all the roads that lead you there were winding
And all the lights that light the way are blinding
There are many things that I would like to say to you,
but I donґt know how

CHORUS:

I said maybe
Youґre gonna be the one that saves me
And after all
Youґre my wonderwall

OUTRO:
G|-----------------12----9----|             8 times
D|---10---9---10--------------|

Вверх

Wonderwall (2 вариант)

Tuning: EADGBE
Tempo: 90
Capo: 2nd fret

h - hammer on
p - pull off

Rhythm Figure 1

   Em7             G
E|-3---3---3-----3-3-3-3---3---3-3-|
B|-3---3---3-----3-3-3-3---3---3-3-|
G|-0---0---0-----0-0-0-0---0---0-0-|
D|-2---2---2-----0-0-0-0---0---0-0-|
A|-2---2---2-----2-2-2-2---2---2-2-|
E|-0---0---0-----0-3-3-3---3---3-3-|

   Dsus4         A7sus4
E|-3-3-3---3---3-3---3---3-3-3-3-3-|
B|-3-3-3---3---3-3---3---3-3-3-3-3-|
G|-2-2-2---2---0-2---2---2-2-2-0-0-|
D|-0-0-0---0---0-2---2---2-2-2-0-0-|
A|---------------0---0---0-0-0-0-0-|
E|---------------------------------|

   Em7             G
E|-3---3---3-----3-3-3-3---3-----3-|
B|-3---3---3-----3-3-3-3---3-----3-|
G|-0---0---0-----0-0-0-0---0-----0-|
D|-2---2---2-----0-0-0-0---0-----0-|
A|-2---2---2-----2-2-2-2---2-----2-|
E|-0---0---0-----0-3-3-3---3-----3-|

   Dsus4         A7sus4
E|-3-3-3---3---3-3---3-3-3-3-3-3-3-|
B|-3-3-3---3---3-3---3-3-3-3-3-3-3-|
G|-2-2-2---2---0-2---2-2-2-2-2-0-0-|
D|-0-0-0---0---0-2---2-2-2-2-2-0-0-|
A|---------------0---0-0-0-0-0-0-0-|
E|---------------------------------|

   Em7             G
E|-3---3---3-----3-3-3-3---3---3-3-|
B|-3---3---3-----3-3-3-3---3---3-3-|
G|-0---0---0-----0-0-0-0---0---0-0-|
D|-2---2---2-----0-0-0-0---0---0-0-|
A|-2---2---2-----2-2-2-2---2---2-2-|
E|-0---0---0-----0-3-3-3---3---3-3-|

   Dsus4         A7sus4
E|-3-3-3---3---3-3---3-3-3-3-3-3-3-|
B|-3-3-3---3---3-3---3-3-3-3-3-3-3-|
G|-2-2-2---2---0-2---2-2-2-2-2-0-0-|
D|-0-0-0---0---0-2---2-2-2-2-2-0-0-|
A|---------------0---0-0-0-0-0-0-0-|
E|---------------------------------|

  continue simile ...

Rhythm Figure 2

   Cmaj7         Dsus4
E|-3---3---3-3-3-3---3-3-3-3-3-3-3-|
B|-0---0---0-0-0-3---3-3-3-3-3-0-0-|
G|-0---0---0-0-0-2---2-2-2-2-2-0-0-|
D|-2---2---2-2-2-0---0-0-0-0-0-0-0-|
A|-3---3---3-3-3-------------------|
E|---------------------------------|

   A7sus4
E|-3-3-3---3---3-3---3-3-3-3-3-3-3-|
B|-0-0-3---3---3-3---3-3-3-3-3-0-0-|
G|-0-0-0---0---0-0---0-0-0-0-0-0-0-|
D|-0-0-2---2---2-2---2-2-2-2-2-0-0-|
A|-----0---0---0-0---0-0-0-0-0-----|
E|---------------------------------|

Riff A

   Csus2           D
E|-----3-----------2h3p2-----------|
B|---------1-------------3---------|
G|-------------0-------------2-----|
D|---------------0-----------------|
A|-3-------------------------------|
E|---------------------------------|

   Em
E|---------------------------------|
B|---------------------------------|
G|---------------0---------0-------|
D|---------0-----------0h2-----0---|
A|-----0h2-------------------------|
E|-0-------------------------------|

   Csus2           D
E|-----3-----------2h3p2-----------|
B|---------1-------------3---------|
G|-------------0-------------2-----|
D|---------------0-----------------|
A|-3-------------------------------|
E|---------------------------------|

   Em
E|---------------------------------|
B|---------------------------------|
G|---------------0---------0-------|
D|---------0-----------0h2-----0---|
A|-----0h2-------------------------|
E|-0-------------------------------|

   Csus2           D
E|-----3-----------2h3p2-----------|
B|---------1-------------3---------|
G|-------------0-------------2-----|
D|---------------0-----------------|
A|-3-------------------------------|
E|---------------------------------|

   G       G/F#    Em7
E|---3-------3-------3-------3-----|
B|-----3-------3-------3-------3---|
G|-------0-------0-------0-------0-|
D|---------------------------------|
A|---------------------------------|
E|-3-------2-------0-------0-------|

   A7sus4
E|---------0-------------0---------|
B|-----3-------3-------3-----3-----|
G|---0-----------0---0-----------0-|
D|---------------------------------|
A|-0---------------0---------------|
E|---------------------------------|

E|---------0-----------------------|
B|-----3-------3-------3-----3-----|
G|---0-----------0---0-----0---0---|
D|-----------------------2-------2-|
A|-0---------------0---------------|
E|---------------------------------|

Rhythm Figure 3

   Cadd9           Em7
E|---------------------------------|
B|-3---3---3-----3-3-3-3---3-----3-|
G|-0---0---0-----0-0-0-0---0-----0-|
D|-2---2---2-----0-2-2-2---2-----0-|
A|-3---3---3-----0-2-2-2---2-----2-|
E|-----------------0-0-0---0-----0-|

   G             Em7
E|---------------------------------|
B|-3-3-3---3---3-3---3-3-3-3---3-3-|
G|-0-0-0---0---0-0---0-0-0-0---0-0-|
D|-0-0-0---0---0-2---2-2-2-2---2-2-|
A|-2-2-2---2---2-2---2-2-2-2---2-2-|
E|-3-3-3---3---3-0---0-0-0-0---0-0-|

  continue simile ...

Rhythm Figure 4

   Cadd9           Em7
E|---------------------------------|
B|-3---3---3-----3-3-3-3---3-----3-|
G|-0---0---0-----0-0-0-0---0-----0-|
D|-2---2---2-----0-2-2-2---2-----0-|
A|-3---3---3-----0-2-2-2---2-----2-|
E|-----------------0-0-0---0-----0-|

   G             Em7
E|-----------------|
B|-3-3-3---3-----3-|
G|-0-0-0---0-----0-|
D|-0-0-0---0-----2-|
A|-2-2-2---2-----2-|
E|-3-3-3---3-----0-|

                   A7sus4
E|---------------------------------|
B|-----------------3-3-3-3-3-3-3-3-|
G|-----------------0-0-0-0-0-0-0-0-|
D|-----------------2-2-2-2-2-2-2-2-|
A|-----------------0-0-0-0-0-0-0-0-|
E|---------------------------------|

Rhythm Figure 5

   Cadd9           Em7               G           Em
E|---------------------------------|-------------0-|
B|-3---3---3-----3-3-3-3---3-----3-|-3-3-3---3---0-|
G|-0---0---0-----0-0-0-0---0-----0-|-0-0-0---0---0-|
D|-2---2---2-----0-2-2-2---2-----0-|-0-0-0---0---2-|
A|-3---3---3-----0-2-2-2---2-----2-|-2-2-2---2---2-|
E|-----------------0-0-0---0-----0-|-3-3-3---3---0-|

[Rhythm Figure 1]
[Rhythm Figure 2]
[Rhythm Figure 1]
[Riff A]
[Rhythm Figure 3]
[Rhythm Figure 4]
[Rhythm Figure 1]
[Riff A]
[Rhythm Figure 3]
[Rhythm Figure 5]

Вверх

Wonderwall (3 вариант)

The easiest i have seen. it sounds ok!


F#m      A
Today is gonna be the day
             Asus4                    D
That they're gonna throw it back to you,
F#m        A
By now you should of somehow
  Asus4                 D
Realised what you gotta do.
F#m                  A       Asus4           D
I don't believe that anybody feels the way I do
          Dsus
About you now.

Verse 2:

Back beat, the word is on the street
That the fire in your heart is out,
I'm sure you've heard it all before,
But you never really had a doubt.
I don't believe that anybody feels the way I do
About you now.

Bridge:

F#m                  A                Asus4      D
And all the roads we have to walk are winding,
F#m                 A                    Asus4       D
And all the lights that lead us there are blinding,
F#m            A                  Asus4           D
There are many things that I would like to say to you
                 Dsus
But I don't know how.

Chorus:

        F#m     A     Asus4
Because maybe,
       D                     F#m         A    Asus4
You're gonna be the one that saves me,
     D    F#m      A     Asus4
And after all,
         D       Dsus
You're my wonderwall.

Verse 3:

Today was gonna be the day,
But they'll never throw it back at you,
By now you should have somehow
Realised what you've gotta do.
I don't believe that anybody feels the way I do
About you now.

Bridge 2:

And all the roads we have to walk are winding,
And all the lights that lead us there are blinding,
There are many things that I would like to say to you
But I don't know how.

Chorus 2:

I said maybe,
You're gonna be the one that saves me,
And after all,
You're my wonderwall. *2

Вверх
English songs 109

ABBA
AC-DC
Adams Bryan
Adriano Celentano
Aerosmith
A-Ha
Animals
Antonio Banderos
Apocalyptica
Armstrong Louis
Billy's Band
Bjork
Blink 182
Blondie
Blur
Bob Dylan
Boney M
Bon Jovi
Bowie David
Brainstorm
Braxton Toni
Butch
Celine Dion
Chris De Burgh
Chris Isaak
Chuck Berry
Clapton Eric
Cohen Leonard
Cranberries
Deep Purple
Depeche Mode
Dire Straits
Donovan Jason
Eagles
Electric Light Orchestra
Elton John
Elvis Presley
Era
Europe
Evanescence
Garbage
Gary Moore
Glen Wiston
Gorillaz
Green Day
Guano Apes
Guns N Roses
Hendrix Jimi
Iggy Pop
Iron Maiden
Joe Dassin
Kansas
King Crimson
Kiss
Led Zeppelin
Leonard Cohen
Limp Bizkit
Linkin Park
Louis Amstrong
Madonna
Marilyn Manson
Marley Bob
Metallica
Moby
Morricone Ennio
Muse
Nazareth
Nelly Furtado
Nick Cave
Nirvana
No Doubt
Oasis
Offspring
Ottawan
Outkast
Ozzy Osbourne
Pain
Para Bellum
Pink Floyd
Placebo
P.O.D.
Queen
RadioHead
Rainbow
Rammstein
Rea Chris
Red Hot Chili Peppers
Ritchie Blackmore
Rolling Stones
Roxette
Rufus Wainwright
Santana
Sarah Brightman
Scorpions
Sex Pistols
Simon & Garfunkel
Shocking Blue
Soul Asylumx
Status Quo
Sting
System of a down
Sum 41
The Beatles
The Doors
Tito & Tarantula
U2
UB 40
Uriah Heep
Van Halen

Українські пісні 109

Boom Box
Escape
Flit
Kapela Drewutnia
Lama
LЮK
Mad Heads (XL)
Motor' rolla
NEON
Ot Vinta
The Вйо
Абздольц
Аероплан
Акорд
Ані Лорак
Бандурна розмова
Білик Ірина
Борщ
Брати Гадюкіни
Вася Club
Вій
Воплі Відоплясова
Гайдамаки
Гончар Олесь
Гринжоли
Гроно
Гуляйгород
Дарка і Славко
Дивні
Друга Ріка
Другий подих
Дударик
Експампей
Євтушенко Андрій
Жарівка (Дяк Олесь)
Журбовіз
Зібров Павло
Зінкевич Василь
Злотник Олександр
Івасюк Володимир
Калєкція
Карна
Карпа Ірена
Клямка
Козловський Віталій
Кому вниз
Крихітка Цахес
Курінь
Лесик-Band
Лорд Юрія
Львівські музики
Мандри
Менестрелі
Мері
Мертвий Півень
Міпеніум
Монте Крісто
Морозов Віктор
Нахтіґаль
Не журись!
Неборак Віктор
НеДІля
НЕМО
Нічлава блюз
Океан Ельзи
ПереBANDя
Перкалаба
Петрович
Піккардійська Терція
Піпа Олександр
Плач Єремїі
Пономарьов Олександр
Пророк
Росава
Ротару Софія
Руслана
Рутенія
С.К.А.Й.
САД
Самі свої
Серцевий Напад
Скрябін
Смерічка
Сокира Перука
Соколи
Таліта Кум
Тартак
Тінь сонця
Ткач Михайло
ТНМК
Тостер
Тріо Мареничів
Фарбований лис
Фестиваль Снів
Хвилю тримай
Цісик Квітка
Черемош
Черемшина
Четвертий кут
Чорний вересень
Чорні черешні
Шевченко Тарас
Щастя
Юркеш
Юрченко Юрко
Юрчишин Ярослав
Явір
Яка існуЄ
Яремчук Назарій

   
 sait@i.ua



Рейтинг@Mail.ru