accordS-land.ru Аккорды и табулатуры к гитаре.
Главная | Песенник | Аккорды | Учебник
Руссике песни 180
5nizza
7Б
9-й Район
Animal ДжаZ
Billy's Band
Butch
Para Bellum
TequilaJazzz
Worms
Zdob Si Zdub
Автоматические удовлетворители
Агата Кристи
Агузарова Жанна
Агутин Леонид
Адо
Аквариум
Алиса
Алсу
Амирамов Е.
Антонов Ю.
Арефьева Ольга
Ария
АукцЫон
Барыкин
Башаков Михаил
Башлачев Александр
БекХан
Бернес М.
Би - 2
Бони неМ
Борзов Найк
Боярский Михаил
Браво
Братья Грим
Ва-Банкъ
Вертинский Александр
Визбор Юрий
Високосный год
Воскресенье
Восьмая Марта
Высоцкий В.С.
Високосный год
Газманов О.
Галич Александр
Герман А.
Городницкий Александр
Глызин А.
Градский Александр
Гражданская Оборона
Гребещенков
Данко
ДДТ
Дидюля
Диоды
Дискотека Авария
Дягилева Янка
Ёлка
Жуки
Заблудовский Андрей
Запрещенные Барабанщики
Звери
Земляне
Земфира
Зинчук Виктор
Зоопарк
Иван Кайф
Иванов А.
Иваси
ИЗ КИНО И МУЛЬТФИЛЬМОВ
Империя
Калинов мост
Кашин Павел
Кельми К.
КИНО
Кипелов
Конец Фильма
Контингент
Корни
Король и Шут
Коррозия металла
Крематорий
Крупнов Анатолий
Кузьмин Владимир
Куликов Е.
Кукрыниксы
Курехин Сергей
Лаэртский Александр
Ласковый май
Ленинград
Леонидов Максим
Лесоповал
Лещенко Л.
Линда
Лицей
Лоза Юрий
Любэ
Люмен
Ляпис Трубецкой
Мальчишник
Манго-манго
Мара
Маркин В.
Маршал Александр
Маша и медведи
Машина времени
Мечтать
Мистер Кредо
Митяев Олег
Многоточье
Монгол Шуудан
Моральный Кодекс
Мультfильмы
Мумий Тролль
Настя
Науменко Майк
Наутилус Помпилиус
Непара
Неприкасаемые
Несчастный случай
Никоваев И.
Никольский Константин
Ногу свело
Ноль
Носков Николай
Ночные Снайперы
Окуджава Булат
Оркрист
Осин Е.
Оскар
Отиева И.
Паперный Т.А.М.
Парк Горького (Gorky Park)
Пикник
Пилот
Пламя
Полковник и однополчане
Пугачева А.
ПЭХ
Приключения Электроников
Просто прикольные песни
Рада и Терновник
Римский-Корсаков
Розенбаум Александр
Рок-Острова
Рондо
Сансара
Саруханов
Сегодня Ночью
Секрет
Сектор газа
Сенчина Л.
СерьГа
Смысловые Галлюцинации
Сплин
Солодуха А.
Старые блатные песни
Сукачев Гарик
Сурганова и Оркестр
Сюткин Валерий
Тальков Игорь
Танцы минус
Тараканы
Тату
Технология
УмаТурман
Умка и Броневичок
Ундервудъ
Фабрика звезд
Х.З. (Хуй Забей)
Центр
ЧайФ
Черный кофе
Черный Лукич
Чиж и Ко
Чистяков Федор
Шанхай
Щербаков Михаил
Ю-Питер

Классика 22

Албениз Исаак
Албениз Матео
Бах Иоган Себостьян
Бетховен Людвиг ван
Бизе Жорж
Брамс Иоганнес
Вивальди Антонио
Гендель Георг Фридрих
Гершвин Джордж
Григ Эдвард
Дебюсси Клод
Камиль Сен-Санс
Мендельсон
Моцарт Вольфгант Амадей
Мусоргский Модест Пертрович
Норис Крис
Огинский Михал Клеофас
Паганини Никколо
Рахманинов Сергей Васильевич
Римский-Корсаков
Чайковский Пётр Ильич
Шуберт Франц
 

 

Blondie

Atomic
Call Me
Call Me (2 вариант)
Denis
Denis (2 вариант)
Dreaming
Free To Fall
Hanging On The Telephone
Hanging On The Telephone (2 вариант)
Heart Of Glass
Heart Of Glass (2 вариант)
I Know But I Dont Know
In The Flesh
I Want That Man
Maria
Maria (2 вариант)
One Way
One Way Or Another
One Way Or Another (2 вариант)
Picture This
Picure This
Presence Dear
Raptuer
Rapture
Rip Her To Shreads
Sunday Girl
Tide Is High
Union City Blues
X Offender
Вверх

Atomic

C A
Tonight make it right

D Em
Uh huh make me tonight

C
Tonight

A
Tonight

D Em
Oh uh huh make it magnificent

C
Tonight

A
Right

F C
Oh your hair is beautiful

Dm G
Oh tonight

Atomic

BRIDGE SAME AS INTRO

D Em
Uh huh make me tonight
C
Tonight

A
Tonight
F C
Oh your hair is beautiful

Dm G
Oh tonight

Atomic

BRIDGE SAME AS INTRO

Dm Bb
Tonight make it magnificent

G
Tonight

C Am Dm Bb
Make me tonight

G
Your hair is beautiful

C Am Dm
Oh tonight

Bb
Atomic

G C Am
Atomic

solo:

E|----------------------------------------------------------|
B|----------------------------------------------------------|
G|----------------------------------------------------------|
D|----------------------------------------------------------|
A|--0---8---7---5-------0---8---7---5-----0---0---8---7---5-|
E|----------------------------------------------------------|

E|----------------------------------------------------------|
B|----------------------------------------------------------|
G|----------------------------------------------------------|
D|----------------------------------------------------------|
A|--0---8---7---5-------0---8---7---5-----0---0---8---7---5-|
E|----------------------------------------------------------|

Intro:
E|-----------------------------------------------|
B|-----------------------------------------------|
G|-----------------------------------------------|
D|-----5--4----2-------5--4----2-------5--4----2-|
A|--2---------------2---------------2------------|
E|-----------------------------------------------|

E|-------------------------------------------|
B|-------------------------------------------|
G|--------------------4---(2)(4)-------------|
D|-----5--4\7------------------------5----4-|
A|--2------------------------------2---------|
E|-------------------------------------------|

Вверх

Call Me

Dm G F
Dm F C

Verse

Dm
Colour me...
Bb
Colour me...
Dm
Colour me...
Bb
I know who you are
G A
Come...colour chart
G A
I know...coming from


Chorus

Dm F
Call me...line
G Bb
Call me...anytime
Dm F
Call me...life
G Bb
...call me...day or night
Dm G F
Call me

Dm F C

After second verse
Dm G F
Em A G

Bridge

Em Bm
Ooh...languages...
Em Bm
Ooh...chiamami...
F C
Ooh...mon cherie...
Dm Bb
Anytime...anywhere...
G A
Anytime...anyway

Solo (same as bridge)

Em Bm
Em Bm
F C
Dm Bb
G A
A C

Riff between Bm and Em in solo

e -----------------------I
B -----------------------I
G -----------------------I
D --------------------7--I
A ----------7--7--h9-----I
E --7--h10---------------I

###

Recommended chord positions

Dm

e --5--I
B --6--I
G --7--I
D --7--I
A --5--I
E -----I

Dm (alternate)

e --10--I
B --10--I
G --10--I
D --12--I
A --12--I
E --10--I


F

e ------I
B --10--I
G --10--I
D --10--I
A --8---I
E ------I

G (riff and chorus)

e ------I
B --12--I
G --12--I
D --12--I
A --10--I
E ------I

C

e --8--I
B --8--I
G --9--I
D --10-I
A --10-I
E --8--I

Bb

e --6--I
B --6--I
G --7--I
D --8--I
A --8--I
E --6--I

G (verse and bridge)

e --3--I
B --3--I
G --4--I
D --5--I
A --5--I
E --3--I

A (verse and bridge)

e --5--I
B --5--I
G --6--I
D --7--I
A --7--I
E --5--I

Em

e --7--I
B --8--I
G --9--I
D --9--I
A --7--I
E -----I

A (riff after second verse)

e -----I
B --14-I
G --14-I
D --14-I
A --12-I
E -----I

Bm

e --7--I
B --7--I
G --7--I
D --9--I
A --9--I
E --7--I

Вверх

Call Me (2 вариант)

intro2x
G|*-----------------|-------------|-----------------|-------------------*-|
D|*-----------------|---------5-3-|-----------------|------------3----5-*-|
A|*-5-5-5-5-5-5-5-5-|-5-5-5-5-----|-5-5-5-5-5-5-5-5-|-5-5--5-5----------*-|
E|*-----------------|-------------|-----------------|-------------------*-|

verse 2x
G|-----------------|-----------------|-----------------|-----------------|
D|-----------------|-----------------|-----------------|-----------------|
A|-5-5-5-5-5-5-5-5-|-5-5-5-5-5-5-5-5-|-----------------|-----------------|
E|-----------------|-----------------|-6-6-6-6-6-6-6-6-|-6-6-6-6-6-6-6-6-|

prechorus 2x
G|----------------------|---------------------|
D|--5-5--5-5--5-5--5-5--|--7-7--7-7--7-7--7-7-|
A|----------------------|---------------------|
E|----------------------|---------------------|

chorus 2x
G|*-----------------|-----------------|-----------------|-3-3-3-3-3-3-3-3-*-|
D|*-----------------|-3-3-3-3-3-3-3-3-|-5-5-5-5-5-5-5-5-|-----------------*-|
A|*-5-5-5-5-5-5-5-5-|-----------------|-----------------|-----------------*-|
E|*-----------------|-----------------|-----------------|-----------------*-|

intro 1x
G|-----------------|-------------|-----------------|-------------|
D|-----------------|---------5-3-|-----------------|---------3-5-|
A|-5-5-5-5-5-5-5-5-|-5-5-5-5-----|-5-5-5-5-5-5-5-5-|-5-5-5-5-----|
E|-----------------|-------------|-----------------|-------------|

verse 2x

prechorus 2x - then ride out the A for another bar
G|---------------------|
D|--7-7--7-7--7-7--7-7-|
A|---------------------|
E|---------------------|

chorus 2x

pre bridge
G|-----------------|-------------|-----------------|-------------|
D|-----------------|---------5-3-|-----------------|---------7-5-|
A|-5-5-5-5-5-5-5-5-|-5-5-5-5-----|-7-7-7-7-7-7-7-7-|-7-7-7-7-----|
E|-----------------|-------------|-----------------|-------------|

bridge2x
G|*-----------------|-----------------|-----------------|-----------------|
D|*-----------------|-----------------|-----------------|-----------------|
A|*-7-7-7-7-7-7-7-7-|-7-7-7-7-7-7-7-7-|-----------------|-----------------|
E|*-----------------|-----------------|-7-7-7-7-7-7-7-7-|-7-7-7-7-7-7-7-7-|

G|-----------------|-----------------|-----------------|-----------------|
D|-----------------|-----------------|-----------------|-----------------|
A|-7-7-7-7-7-7-7-7-|-7-7-7-7-7-7-7-7-|-----------------|-----------------|
E|-----------------|-----------------|-7-7-7-7-7-7-7-7-|-7-7-7-7-7-7-7-7-|
fill inserted for above 2nd time around on repeat only
G|----------------------|
D|----------------------|
A|--7-7--7-7--7-9-10----|
E|-------------------10-|

G|-----------------|-----------------|-----------------|-----------------|
D|-----------------|-----------------|-----------------|-----------------|
A|-8-8-8-8-8-8-8-8-|-8-8-8-8-8-8-8-8-|-----------------|-----------------|
E|-----------------|-----------------|-8-8-8-8-8-8-8-8-|-8-8-8-8-8-8-8-8-|

G|-----------------|-----------------|-----------------|-----------------|
D|-----------------|-----------------|-----------------|-----------------|
A|-5-5-5-5-5-5-5-5-|-5-5-5-5-5-5-5-5-|-----------------|-----------------|
E|-----------------|-----------------|-6-6-6-6-6-6-6-6-|-6-6-6-6-6-6-6-6-|
fill inserted for above 2nd time around on repeat only
G|------------9---8---6-|
D|----------------------|
A|----------------------|
E|--6-6--6-6------------|

G|----------------------|----------------------|----------------------*-|
D|--5-5--5-5--5-5--5-5--|--5-5--5-5--5-5--5-5--|--7-7--7-7--7-7--7-7--*-|
A|----------------------|----------------------|----------------------*-|
E|----------------------|----------------------|----------------------*-|

tag
G|---------|
D|-------3-|
A|---5-----|
E|---------|

chorus 6x to fade

Вверх

Denis

Intro: A D / A E
A D / A E

A D E A
Oh Denis doo-be-do, I'm in love with you
D E A
Denis doo-be-do, I'm in love with you
D E A
Denis doo-be-do, I'm in love with you

A D E
Denis Denis, oh with your eyes so blue..
A D E
Denis Denis, I've got a crush on you
A D E A D A E
Denis Denis, I'm so in love with you

A D E
Oh when we walk it always feels so nice,
A D E
and when we talk it seems like paradise.
A D E A D A
Denis Denis I'm so in love with you.

D A
You're my king and I'm in heaven every time I look at you!
D
When you smile it's like a dream...
B E F#
And I'm so lucky 'cause I found a boy like you!

A# D# F
Denis Denis, avec tes yeux si bleux, (With your eyes so blue,)
A# D# F
Denis Denis, moi j'ai flashe a nous deux. (I'm always thinking about us.)
A# D# F A# D# A# F
Denis Denis, un grand baiser d'eternite. (One deep kiss that will last for
ever.)
A# D# F
Denis Denis, je suis si folle de toi. (I'm so crazy about you.)
A# D# F
Denis Denis, oh embrasse-moi ce soir. (Please kiss me tonight.)
A# D# F A# D# A# F
Denis Denis, un grand baiser d'eternite. (One deep kiss that will last all
night.)

A# D# F A#
Oh Denis doo-be-do, I'm in love with you
D# F A#
Denis doo-be-do, I'm in love with you
D# F A#
Denis doo-be-do, I'm in love with you

A# D# A# F A# D# A# F

A# D# F A#
Oh Denis doo-be-do, I'm in love with you
D# F A#
Denis doo-be-do, I'm in love with you
D# F A#
Denis doo-be-do, I'm in love with you

Вверх

Denis (2 вариант)

Intro: A D / A E
A D / A E

B E F B
Oh Denis doo-be-do, I'm in love with you
E F B
Denis doo-be-do, I'm in love with you
E F F
Denis doo-be-do, I'm in love with you

B E F
Denis Denis, oh with your eyes so blue..
B E F
Denis Denis, I've got a crush on you
B E F B E B F
Denis Denis, I'm so in love with you

B E F
Oh when we walk it always feels so nice,
B E F
and when we talk it seems like paradise.
B E F B E B
Denis Denis I'm so in love with you.

D A
You're my king and I'm in heaven every time I look at you!
D
When you smile it's like a dream...
B E F#
And I'm so lucky 'cause I found a boy like you!

C F G
Denis Denis, avec tes yeux si bleux, (With your eyes so blue,)
C F G
Denis Denis, moi j'ai flashe a nous deux. (I'm always thinking about us.)
C F G C F A G
Denis Denis, un grand baiser d'eternite. (One deep kiss that will last for
ever.)
C F G
Denis Denis, je suis si folle de toi. (I'm so crazy about you.)
C F G
Denis Denis, oh embrasse-moi ce soir. (Please kiss me tonight.)
C F G C F C G
Denis Denis, un grand baiser d'eternite. (One deep kiss that will last all
night.)

C F G C
Oh Denis doo-be-do, I'm in love with you
F G C
Denis doo-be-do, I'm in love with you
F G C
Denis doo-be-do, I'm in love with you

C F C G C F C G

C F G C
Oh Denis doo-be-do, I'm in love with you
F G C
Denis doo-be-do, I'm in love with you
F G C
Denis doo-be-do, I'm in love with you

Вверх

Dreaming

Intro ||: D X 2 G X 2:||

D G D G
When I met you in the restaurant you could tell I was no debutante
D A Em
You asked me what's my pleasure; "A movie or a measure"?
G D D/A D
I'll have a cup of tea and tell you of my ||:dreaming
G/A G Em G
Dreaming is free:||

D G
I don't want to live on charity
D G
Pleasure's real or is it fantasy?
D A
Real to real is living rarity
Em G
People stop and stare at me we just walk on by
A D/A D
We just keep on dreaming
G
Feet, feet, walking a two mile

Mee,t meet, meet me at the turnstile
D A
I never met him I'll never forget him
G
Dream, dream, even for a little while

Dream, dream, filling up an idle hour
D A ( A CHORD LAST FOR 4 BARS)
Fade away radiate
D G
I sit by and watch the river flow
D G
I sit by and watch the traffic go
D A Em
Imagine something of your very own; something you can have and hold
G A D/A D
I'd build a road in gold just to have some ||;drea ming
G/A G Em G
Dreaming is free:|| SEVERAL TIMES

Вверх

Free To Fall

C#m A C#m A

F#m C#m F#m C#m
If I could right the wrongs the past just wouldn't be
F#m C#m F#m C#m
How could I fall in love at zero gravity
E B
And if I did make you love me
C#m A
Will you make me belong
E B
And I'm waiting for the time
C#m A
Like the calm before the storm


Chorus:
E B A
Oh no, you're not free to fall,
E B C#m
Free to fall,
E B A
Oh no, you're not free to fall,
E G#m C#m
Oh no Oh no.
F#m C#m F#m C#m
This must be someone else 'Cause the part just isn't me
F#m C#m F#m C#m
Can this be happening 'Cause it sounds like lines to me
E B
First you're sailing then you're swimming
C#m A
Then you're sinking in the sea of love
E B
Still you sparkle and you sizzle
C#m A
'Cause a live wire always does.

Chorus

G#m C#m
Within the atmosphere so rare so rare so rare
G#m
I can see my liquid love light fading
C#m A C#m A
fading draining it's raining raining

Solo:
F#m C#m F#m C#m

F#m C#m F#m C#m

E B
And if I could make you love me
C#m A
What did I do wrong
E B
And I'm waiting, waiting
C#m A
Like the calm before the storm

Chorus

C#m A
You're not free to fall {Four times}

{Solo chords to fade.}

Вверх

Hanging On The Telephone

Verse

E|----------------------------------------------------|
B|-666666--------666666--8-6h8-6666-------------------|
G|-333333-3------333333-3------3333-3h5p3-------------|
D|---------5-3h5--------------------------3h5p3-------|
A|----------------------------------------------1h3p1-|
E|----------------------------------------------------|

First Chorus

E|------------------------|
B|------------------------|
G|-8-7-5------------------|
D|--------3---------------|
A|-6-5-3--------5-----5---|
E|--------1--3-6-6-3-6-6/-|

Verse

Pre Chorus

E|---------12121212-15151515-12121212----------------------------------|
B|-13131313-----------------------------------11111111-151515-11111111-|
G|------------------------------------12121212-------------------------|
D|---------------------------------------------------------------------|
A|---------------------------------------------------------------------|
E|---------------------------------------------------------------------|

Chorus

Verse

Chorus (miss out end lead part)

Solo

E|-----------------------------|---|--------------------|
B|-88-10^-8--------------------|---|--------------------|
G|----------101010-------------|---|-101010-------------|
D|-----------------8h10p8------|X3-|--------8h10p8------|
A|------------------------10-8-|---|---------------10-8-|
E|-----------------------------|---|--------------------|

Solo End

E|-----------|
B|-----------|
G|-8-7-3-----|
D|-------3-5-|
A|-6-5-1-----|
E|-------1-3-|

Verse

Pre Chorus

Chorus

Outro

E|---------------|
B|-------6666666-|
G|-------3333333-|
D|---------------|
A|----5----------|
E|-3-6-6---------|

Solo End

Вверх

Hanging On The Telephone (2 вариант)

N.C. Eb
I'm in the phone booth, it's the one across the hall
Gm Eb
If you don't answer, I'll just ring it off the wall
Gm Eb
I know he's there, but I just got to call
Eb Cm Gm
Don't leave me hanging on the telephone
Eb Cm Gm
Don't leave me hanging on the telephone

Gm Eb
I heard your mother now she's going out the door
Gm Eb
Did she go to work or just go to the store?
Gm Eb
All those things she said, I told you to ignore
Cm Gm
Oh, why can't we talk again
Cm Gm
Oh, why can't we talk again
Cm
Oh, why can't we talk again
Cm Bb Gm
Don't leave me hanging on the telephone
Cm Bb Gm
Don't leave me hanging on the telephone

N.C. Eb
It's good to hear your voice, you know it's been so long
Gm Eb
If I don't get your call then everything goes wrong
Gm Eb
I want to tell you something you've known all along
Eb Cm Gm
Don't leave me hanging on the telephone

[Thought I'd better put the solo in since it absolutely rocks.|

e|-----------------------------------|
B|-8-8-10b11r10-8--------------------|
G|----------------10-10-10-----------|
D|-------------------------10p8------|
A|------------------------------10p8-|
E|-----------------------------------| x3

e|--------------------------------------|
B|--------------------------------------|
G|-/10-10-10----------------8-7-3-------|
D|-----------10p8-------------------3-5-|
A|----------------10p8------6-5-1-------|
E|----------------------------------1-3-|

N.C. Eb
I had to interrupt and stop this conversation
Gm Eb
Your voice across the line gives me a strange sensation
Gm Eb
I'd like to talk when I can show you my affection
Cm Gm
Oh, I can't control myself
Cm Gm
Oh, I can't control myself
Cm
Oh, I can't control myself
Cm Bb Gm
Don't leave me hanging on the telephone
Eb
Hang up and run to me
Gm Eb
Woah, hang up and run to me
Gm Eb
Woah, hang up and run to me
Gm Eb
Woah, hang up and run to me
Gm Eb
Woah oh oh oh oh run to me

Then the last part of the solo repeats once more -

e|-------------|
B|-------------|
G|-8-7-3-------|
D|---------3-5-|
A|-6-5-1-------|
E|---------1-3-|

...and thats it.

Вверх

Heart Of Glass

E C#m
Once I had a love and it was a gas,
E
Soon turned out I had a heart of glass.
E C#m
Seemed like the real thing, only to find
E
Mucho mistrust, love's gone behind.


E C#m
Once I had a love and it was divine,
E
Soon found out I was losing my mind.
E C#m
It seemed like the real thing but I was so blind,
E
Mucho mistrust, love's gone behind.

A E
In between "what I find is pleasing" and "I'm feeling fine",
E
Love is so confusing.
A
There's no peace of mind if I fear I'm losing you,
F# B
It's just no good, you teasing like you do.

Interlude:
A E
G:11---9-----9-11-9-11-9-11-13-11---9-----9-11-9-11-9-11-13-11-9
D:-------9----------------------------9-------------------------

A F# B
B:--------------------------------------------12----------------
G:11---9-----9-11-9-11-9-11-13-11-------------------------------
D:-------9------------------------------------------------------


E C#m
Once I had a love and it was a gas,
E
Soon turned out I had a heart of glass.
E C#m
Seemed like the real thing, only to find
E
Mucho mistrust, love's gone behind.


A E
Lost inside adorable illusion and I cannot hide,
E
I'm the one you're using
A E
Please don't push me aside, we coulda made it cruising, yeah.


Solo: (repeat first two bars of Interlude 5 times, then Interlude end once)
A E A E A E A E
A E A F# B
Yeah, riding high on love's true bluish light.
E
Oo-oo, wo... Oo-oo, wo... Oo-oo, wo... Oo-oo, wo...


E C#m
Once I had a love and it was a gas,
E
soon turned out to be a pain in the ass.
E C#m
Seemed like the real thing, only to find
E
Mucho mistrust, love's gone behind.


A E
In between "what I find is pleasing" and "I'm feeling fine",
E
Love is so confusing.
A
There's no peace of mind if I fear I'm losing you,
F# B E
It's just no good, you teasing like you do.


Coda:
||:A E A F# B :|| - repeat Interlude and fade

Вверх

Heart Of Glass (2 вариант)

INTRO:

(x3) (x4)

G|-----------|--.-.-.-----------|
D|*-r-r-r-r-*|*-2-2-2---2h4-.-*-|
A|*---------*|*-------------2-*-|
E|-----------|------------------|

VERSE:

G|-.-.-.-----|-----------|-----------|-.-.-.---------|-.-.-.---------|
D|-2-2-2-2h4-|-.-.-.-----|-.-.-.-----|-2-2-2---2h4-.-|-2-2-2---2h4-.-|
A|-----------|-4-4-4-4h2-|-4-4-4-4h2-|-------------2-|-------------2-|
E|-----------|-----------|-----------|---------------|---------------|

G|-.-.-.---------|---------|-----------|-.-.-.---------|
D|-2-2-2---2h4-.-|---------|-.-.-.-----|-2-2-2---2h4-.-|
A|-------------2-|-4-------|-4-4-4-4h2-|-------------2-|
E|---------------|---------|-----------|---------------|

PRE-CHORUS:

G|---9---11----12----13-|
D|----------------------|
A|-7---9----10----11----|
E|----------------------|

1ST & 3RD CHORUS/END:

G|---------|---------|---------|---------|---------|---------|
D|-.-.-.-.-|-.-.-.-.-|---------|---------|-.-.-.-.-|-.-.-.-.-|
A|-0-0-0-0-|-0-0-0-0-|-.-.-.-.-|-.-.-.-.-|-0-0-0-0-|-0-0-0-0-|
E|---------|---------|-0-0-0-0-|-0-0-0-0-|---------|---------|

G|-.-.-.-.-|---------|---------|---------|---------|---------|
D|-4-4-4-4-|---------|-.-.-.-.-|-.-.-.-.-|---------|---------|
A|---------|-2-4-5-6-|-0-0-0-0-|-0-0-0-0-|-.-.-.-.-|-.-.-.-.-|
E|---------|---------|---------|---------|-0-0-0-0-|-0-0-0-0-|

G|---------|---------|-.-.-.-.-|---4---6---7---8-|
D|-.-.-.-.-|-.-.-.-.-|-4-4-4-4-|-----------------|
A|-0-0-0-0-|-0-0-0-0-|---------|-2---4---5---6---|
E|---------|---------|---------|-----------------|

2ND CHORUS:

G|----------|---------|---------|---------|---------|---------|
D|*-.-.-.-.-|-.-.-.-.-|---------|---------|-.-.-.-.-|-.-.-.-.-|
A|*-0-0-0-0-|-0-0-0-0-|-.-.-.-.-|-.-.-.-.-|-0-0-0-0-|-0-0-0-0-|
E|----------|---------|-0-0-0-0-|-0-0-0-0-|---------|---------|

(x3)

G|---------|---9---11----12----13---|
D|---------|----------------------*-|
A|-.-.-.-.-|-7---9----10----11----*-|
E|-0-0-0-0-|------------------------|

G|---------|---------|---------|---------|---------|---------|
D|-.-.-.-.-|-.-.-.-.-|---------|---------|-.-.-.-.-|-.-.-.-.-|
A|-0-0-0-0-|-0-0-0-0-|-.-.-.-.-|-.-.-.-.-|-0-0-0-0-|-0-0-0-0-|
E|---------|---------|-0-0-0-0-|-0-0-0-0-|---------|---------|

G|-.-.-.-.-|---4---6---7---8-|
D|-4-4-4-4-|-----------------|
A|---------|-2---4---5---6---|
E|---------|-----------------|

Вверх

I Know But I Dont Know

[drum intro] x2, then [Riff-G] x4

[v1]
G A G A
I know but I don't know
I know but I don't know
I know but I don't know
I know but I don't know
[Riff-G] x2

[v2]
G A G A
I give but I don't get
I will but I won't yet
I lose but I don't bet
I'm your dog but not your pet...Owoooo
[Ch]
G A B A
I know but I don't care
Then I know but I don't see
Now I see but I don't know
I care but I don't care
[Riff-G] x4

[v3]
I could but I won't be
You can but not with me
It's all a mystery
Locked out without a key
[Ch]
Now I care but I don't care
And I know but I don't see
Now I see but I don't know
I know but I don't know
[Riff-D] x4

[solo over chorus x2]

[drum solo] x2, [drums/bass] x2, [all] x2

[Ch]
Now I know that you don't know
And I see that you don't see
I care but I don't care
I don't care that you don't know
[outro on Riff-D] repeat

Riff-G Riff-D
|----------------||----------------|
|----------------||----------------|
|----------------||----------------|
|----------------||--7-6-----7--6--|
|--5-4-----5--4--||5--5--7-5---5--7|
|3--3--5-3---3--5||----------------|

Вверх

In The Flesh

Intro A E D E A E D E


A D E
Darlin darlin darlin I can't wait to see you
C#m B E
Your picture ain't enough I cant wait to touch you
A E D E
In the flesh ooh ooh ooh
A D E
Darlin darlin darlin I can't wait to hear you
C#m B E
Remembering your love is nothing without you
A E D E
In the flesh
C#m Abm
Went walking one day on the lower east side
F#m A Abm
Met you with a girlfriend you were so divine
F#m Abm
She said hands off this one sweetie this boy is mine
F#m A B A E D E
I couldn't resist you Im not deaf dumb and blind
A D E
Darlin darlin darlin now your out of town
C#m B E
Those girls that you run with they bring my head down
A D E
Ooh darlin darlin darlin watch out if I see you
C#M B E A
Cause if you say hello it'll mean you wanna see me in the flesh
E D E A
Ooh ooh ooh warm and soft in the flesh
E D E A
Ooh ooh ooh close and hot in the flesh
E D E A
Ooh ooh ooh ooh ooooh ooh

Вверх

I Want That Man

Intro ||:E Bsus4 A Bsus4:|| X 4 Piano for 4 bars strings for 4 bars
E A E
I wanna Dance with Harry Dean
A E
Drive through Texas in a black limousine
A D-Bsus4
I want a piece of heaven before I die
E A E
I wanna pair of pink high heels
A E
That catch the lights up on the Ferris wheel

Chords found by Jedi
A D-Bsus4
What I really want I just can't buy

Chorus
Bsus4 E Bsus4
Here comes the twenty first century
A Bsus4
It's gonna be much better for a girl like me
E Bsus4
Cause I want everything I can
A Bsus4
But most of all I want that man
E
I want that man
(Bridge same as last 4 bars of intro)
E A E
I wanna move like what's-his-name
E A
I'll keep the money
E
You can have the fame
A D-Bsus4
Everything that's yours will soon be mine
E A
Yeah I wanna be the Queen of the USA
E A
You could send me roses every other day
E A D-Bsus4
What I really want I just can't buy

Chorus
Bsus4 E Bsus4
Here comes the twenty first century
A Bsus4
It's gonna be much better for a girl like me
E Bsus4
Cause I want everything I can
A Bsus4
But most of all I want that man
E
I want that man
(BRIDGE PIANO FOR 4 BARS(no drum or bass) all GUITAR SOLO FOR 4 BARS)
E A E (BASS AND DRUMS ONLY IN ITALICS)
I wanna be kissed from head to toe
A E
By that man in the very back row
E D-Bsus4 (Keys join in single notes)
But he won't even look me in the eye
E A All in on (right)
I want his love to rain right down on me
E A
I want him to be king of all my dreams
E A D-Bsus4
What I really want I just can't hide

Chorus
Bsus4 E Bsus4
Here comes the twenty first century
A Bsus4
It's gonna be much better for a girl like me
E Bsus4
Cause I want everything I can
A Bsus4
But most of all I want that man
E
E Bsus4 A
I want that man

Вверх

Maria

E||--------------------------|--------------------------|
B||--------------------------|--------------------------|
G||--------------------------|--------------------------|
D||--2--2--2--2--2--2--2--2--|--------------------------|
A||--0--0--0--0--0--0--0--0--|--7--7--7--7--7--7--7--7--|
E||--------------------------|--4--4--4--4--4--4--4--4--|

E|--------------------------|--------------------------|
B|--------------------------|--------------------------|
G|--------------------------|--------------------------|
D|--------------------------|--------------------------|
A|--4--4--4--4--4--4--4--4--|--2--2--2--2--2--2--2--2--|
E|--2--2--2--2--2--2--2--2--|--0--0--0--0--0--0--0--0--|

E|--------------------------|--------------------------|
B|--------------------------|--------------------------|
G|--------------------------|--------------------------|
D|--------------------------|--9--9--9--9--9--9--9--9--|
A|--7--7--7--7--7--7--7-----|--7--7--7--7--7--7--7--7--|
E|--5--5--5--5--5--5--5--0--|--------------------------|

E|--------------------------|--------------------------||
B|--------------------------|--------------------------||
G|--------------------------|--------------------------||
D|--7--7--7--7--7--7--7--7--|--7--7--7--7-----7-----7--||
A|--5--5--4--5--5--5--4--5--|--5--5--4--5--5--5--5--5--||
E|--------------------------|--------------------------||

 Verse:
E|---------------------------|--------------------------|
B|---------------------------|--------------------------|
G|*--------------------------|--------------------------|
D|*--2--2--2--2--2--2--2--2--|--------------------------|
A|---0--0--0--0--0--0--0--0--|--2--2--2--2--2--2--2--2--|
E|---------------------------|--0--0--0--0--0--0--0--0--|

E|--------------------------|--------------------------|
B|--------------------------|--------------------------|
G|--------------------------|--------------------------|
D|--------------------------|--7--7--7--7--7--7--7--7--|
A|--4--4--4--4--4--4--4--4--|--5--5--5--5--5--5--5--5--|
E|--2--2--2--2--2--2--2--2--|--------------------------|

E|--------------------------|--------------------------|
B|--------------------------|--------------------------|
G|--------------------------|--------------------------|
D|--2--2--2--2--2--2--2-----|--------------------------|
A|--0--0--0--0--0--0--0-----|--2--2--2--2--2--2--2--2--|
E|-----------------------0--|--0--0--0--0--0--0--0--0--|

E|--------------------------|---------------------------||
B|--------------------------|---------------------------||
G|--------------------------|--------------------------*||
D|--7--7--7--7--7--7--7--7--|--7--7--7--7--7--7--7--7--*||
A|--4--5--5--5--4--5--5--5--|--4--5--5--5--4--5--5--5---||
E|--------------------------|---------------------------||

E|---------------------------|--------------------------|
B|---------------------------|--------------------------|
G|*--------------------------|--------------------------|
D|*--7--7--7--7--7--7--7--7--|--9--9--9--9--9--9--9--9--|
A|---5--5--5--5--5--5--5--5--|--7--7--7--7--7--7--7--7--|
E|---------------------------|--------------------------|

E|-------------------------|--------------------------||
B|-------------------------|--------------------------||
G|-------------------------|-------------------------*||
D|-11-11-11-11-11-11-11-11-|-11-11-11-11-11-11-11-11-*||
A|-9--9--9--9--9--9--9--9--|-9--9--9--9--9--9--9--9---||
E|-------------------------|--------------------------||

Refrain:
E|---------------------------|--------------------------|
B|---------------------------|--------------------------|
G|*--------------------------|--------------------------|
D|*--------------------------|--------------------------|
A|---7--7--7--7--7--7--7--7--|--7--7--7--7--7--7--7--7--|
E|---5--5--5--5--5--5--5--5--|--4--4--4--4--4--4--4--4--|

E|-------------------------|--------2--------2----2--|
B|-----------------7----7--|--------3--------3----3--|
G|--------6--------6----6--|--2--2--2--------2----2--|
D|--4--4--4--4--4--4----4--|--0--0--0--0--0--0----0--|
A|-------------------------|-------------------------|
E|-------------------------|-------------------------|

E|--------------------------|--------------------------|
B|--------------------------|--------------------------|
G|--2--2--2--2--2--2--2--2--|--------------------------|
D|--2--2--2--2--2--2--2--2--|--2--2--2--2--2--2--2--2--|
A|--0--0--0--0--0--0--0--0--|--2--2--2--2--2--2--2--2--|
E|--------------------------|--0--0--0--0--0--0--0--0--|

E|-------------------------|---------------------------||
B|-------------------------|---------------------------||
G|-------------------------|--------------------------*||
D|-------0--0-----0--0-----|--0--0-----0--0-----0--0--*||
A|--4b---------4b-------4b-|--------4b-------4b--------||
E|-------------------------|---------------------------||

E|---------------------------|--------------------------|
B|---------------------------|--------------------------|
G|*--------------------------|--------------------------|
D|*--2--2--2--2--2--2--2--2--|--------------------------|
A|---0--0--0--0--0--0--0--0--|--2--2--2--2--2--2--2--2--|
E|---------------------------|--0--0--0--0--0--0--0--0--|

E|--------------------------|--------------------------|
B|--------------------------|--------------------------|
G|--------------------------|--------------------------|
D|--------------------------|--7--7--7--7--7--7--7--7--|
A|--4--4--4--4--4--4--4--4--|--5--5--5--5--5--5--5--5--|
E|--2--2--2--2--2--2--2--2--|--------------------------|

E|--------------------------|--------------------------|
B|--------------------------|--------------------------|
G|--------------------------|--------------------------|
D|--2--2--2--2--2--2--2-----|--------------------------|
A|--0--0--0--0--0--0--0-----|--2--2--2--2--2--2--2--2--|
E|-----------------------0--|--0--0--0--0--0--0--0--0--|

E|-------------------------|---------------------------||
B|-------------------------|---------------------------||
G|-------------------------|--------------------------*||
D|-------0--0-----0--0-----|--0--0-----0--0-----0--0--*||
A|--4b---------4b-------4b-|--------4b-------4b--------||
E|-------------------------|---------------------------||

E|--------------------------|--------------------------|
B|--------------------------|--------------------------|
G|--------------------------|--------------------------|
D|--7--7--7--7--7--7--7--7--|--9--9--9--9--9--9--9--9--|
A|--5--5--5--5--5--5--5--5--|--7--7--7--7--7--7--7--7--|
E|--------------------------|--------------------------|

E|----------------------|--------------------------|
B|------9h10-----9------|--12-----10----9---------|
G|------9-11-----9/-----|--13------11----9------9--|
D|----------------------|-------------------11-----|
A|----------------------|--------------------------|
E|----------------------|--------------------------|

E|--------------------------|--------------------------|
B|--------------------------|--------------------------|
G|--------------------------|--------------------------|
D|--7--7--7--7--7--7--7--7--|--9--9--9--9--9--9--9--9--|
A|--5--5--5--5--5--5--5--5--|--7--7--7--7--7--7--7--7--|
E|--------------------------|--------------------------|

E|----------------------|-------------------------|
B|------9h10-----9------|--10------10-------------|
G|------9-11-----9/-----|--11------11----9--------|
D|----------------------|-------------------11----|
A|----------------------|-------------------------|
E|----------------------|-------------------------|

E|------------------------|-----------------------|
B|------------------------|-----------------------|
G|*-----------------------|-----------------------|
D|*------------------2----|--2/4---------------2--|
A|-------0----0-2/4-------|-------------2/4-------|
E|------------------------|-----------------------|

E|-----------------------|--------------|--------------------|
B|-----------------------|--------------|--------------------|
G|-----------------------|--------------|--------------------|
D|-2/4---2---------------|------------2-|-2/4---2------------|
A|-------------2/4--2--0-|-0----0/-4----|-------------2/4--2-|
E|-----------------------|--------------|--------------------|

E|-------------------------|---------------------------||
B|-------------------------|---------------------------||
G|-------------------------|--------------------------*||
D|-------0--0-----0--0-----|--0--0-----0--0-----0--0--*||
A|--4b---------4b-------4b-|--------4b-------4b--------||
E|-------------------------|---------------------------||

E|---------------------------|--------------------------|
B|---------------------------|--------------------------|
G|*--------------------------|--------------------------|
D|*--7--7--7--7--7--7--7--7--|--9--9--9--9--9--9--9--9--|
A|---5--5--5--5--5--5--5--5--|--7--7--7--7--7--7--7--7--|
E|---------------------------|--------------------------|

E|-------------------------|--------------------------------|
B|-------------------------|--------------------------------|
G|-------------------------|--------------------------------|
D|-11-11-11-11-11-11-11-11-|-11--11--11--11--11--11--11--11-|
A|-9--9--9--9--9--9--9--9--|-9---9---9---9---9---9---9---9--|
E|-------------------------|--------------------------------|

E|--------------------------|--------------------------|
B|--------------------------|--------------------------|
G|--------------------------|--------------------------|
D|--2--2--2--2--2--2--2--2--|--------------------------|
A|--0--0--0--0--0--0--0--0--|--2--2--2--2--2--2--2--2--|
E|--------------------------|--0--0--0--0--0--0--0--0--|

E|--------------------------|--------------------------|
B|--------------------------|--------------------------|
G|--------------------------|--------------------------|
D|--------------------------|--7--7--7--7--7--7--7--7--|
A|--4--4--4--4--4--4--4--4--|--5--5--5--5--5--5--5--5--|
E|--2--2--2--2--2--2--2--2--|--------------------------|

--------------------------|--------------------------|
--------------------------|--------------------------|
--------------------------|--------------------------|
--2--2--2--2--2--2--2-----|--------------------------|
--0--0--0--0--0--0--0-----|--2--2--2--2--2--2--2--2--|
-----------------------0--|--0--0--0--0--0--0--0--0--|

E|-------------------------|--------------------------|----|
B|-------------------------|--------------------------|----|
G|-------------------------|--------------------------|----|
D|-------0--0-----0--0-----|--0--0-----0--0-----0--0--|--0-|
A|--4b---------4b-------4b-|--------4b-------4b-------|----|
E|-------------------------|--------------------------|----|

E|----------------|--------------------|-----------------------|
B|----------------|--------------------|-----------------------|
G|*---------------|--------------------|-----------------------|
D|*-------------2-|-2/4--------------2-|-2/4---2---------------|
A|--0----0-2/4----|-----------2/4------|-------------2/4--2--0-|
E|----------------|--------------------|-----------------------|

E|----------------------|------------------------|
B|----------------------|------------------------|
G|----------------------|------------------------|
D|-----------------2----|--2/4---2---------------|
A|------0----0/-4-------|--------------2/4--2----|
E|----------------------|------------------------|

E|-------------------------|---------------------------||
B|-------------------------|---------------------------||
G|-------------------------|--------------------------*||
D|-------0--0-----0--0-----|--0--0-----0--0-----0--0--*||
A|--4b---------4b-------4b-|--------4b-------4b--------||
E|-------------------------|---------------------------||

solo
E|--------------------|---------------------------|
B|--------------x--x--|--9h10-----10~----------9--|
G|--------------x--x--|--9-11-----11~---9--11-----|
D|--------------------|---------------------------|
A|--------------------|---------------------------|
E|--------------------|---------------------------|

E|-----------------------------|---------------------|
B|--10p-9--10p-9---------------|---------------------|
G|----------------11--9-8--9p-|--8------------------|
D|-----------------------------|-----9----9~---------|
A|-----------------------------|---------------------|
E|-----------------------------|---------------------|

E|---------------------------|-----------------------|
B|---------------------------|-----------------------|
G|--------2--4--4b-4h2-4--2--|--4b-2-----------------|
D|----2/4--------------------|--------4------2-------|
A|---------------------------|--------------------2--|
E|---------------------------|-----------------------|

E|----------------------|----------------------|
B|----------------------|----------------------|
G|----------------------|----------------------|
D|----------------------|----------------------|
A|--0--2b---2--0-----0--|--2~---------2--4/-6--|
E|----------------2-----|----------------------|

E|------------------------|--------------------------|
B|------------------------|--------------------------|
G|--------4--4-------4----|--------7-----9h-7--------|
D|--4h-6----------4--4----|--------------------------|
A|----------------6-------|--7/-9-----9----------10/-|
E|------------------------|--------------------------|

E|---------------------------||---------------------------|
B|------9--x--x--9--x--9--9--||---------------------------|
G|------9--x--x--9--x--9--9--||*--------------------------|
D|------9--x--x--9--x--9--9--||*--------------------------|
A|--11-----------------------||---7--7--7--7--7--7--7--7--|
E|---------------------------||---5--5--5--5--5--5--5--5--|

--------------------------|-------------------------|
--------------------------|-----------------7----7--|
--------------------------|--------6--------6----6--|
--------------------------|--4--4--4--4--4--4----4--|
--7--7--7--7--7--7--7--7--|-------------------------|
--4--4--4--4--4--4--4--4--|-------------------------|

E|--------2--------2----2--|--------------------------|
B|--------3--------3----3--|--------------------------|
G|--2--2--2--------2----2--|--2--2--2--2--2--2--2--2--|
D|--0--0--0--0--0--0----0--|--2--2--2--2--2--2--2--2--|
A|-------------------------|--0--0--0--0--0--0--0--0--|
E|-------------------------|--------------------------|

E|--------------------------|-------------------------|
B|--------------------------|-------------------------|
G|--------------------------|-------------------------|
D|--2--2--2--2--2--2--2--2--|-------0--0-----0--0-----|
A|--2--2--2--2--2--2--2--2--|--4b---------4b-------4b-|
E|--0--0--0--0--0--0--0--0--|-------------------------|

E|---------------------------||--------------------------|
B|---------------------------||--------------------------|
G|--------------------------*||--------------------------|
D|--0--0-----0--0-----0--0--*||--7--7--7--7--7--7--7--7--|
A|--------4b-------4b--------||--5--5--5--5--5--5--5--5--|
E|---------------------------||--------------------------|

E|--------------------------|----------------------------------|
B|--------------------------|----------------------------------|
G|--------------------------|----------------------------------|
D|--9--9--9--9--9--9--9--9--|--11--11--11--11--11--11--11--11--|
A|--7--7--7--7--7--7--7--7--|--9---9---9---9---9---9---9---9---|
E|--------------------------|----------------------------------|

E|----------------------------------|
B|----------------------------------|
G|----------------------------------|
D|--11--11--11--11--11--11--11--11--|
A|--9---9---9---9---9---9---9---9---|
E|----------------------------------|

E|--------------------------|--------------------------|--0----|
B|--------------------------|--------------------------|--2----|
G|--------------------------|--------------------------|--2----|
D|--7--7--7--7--7--7--7--7--|--9--9--9--9--9--9--9--9--|--2----|
A|--5--5--5--5--5--5--5--5--|--7--7--7--7--7--7--7--7--|--0----|
E|

Вверх

Maria (2 вариант)

verse 1:
    A        E
she moves... care
F#m       D
smooth... cool...
A      E        D   D
ooh it makes... cry!

verse 2 (same cords):
she doesn't...

bridge:
F#m   E       D  D
uh... wanna...
F#m      E       D  D
   wanna make... own

chorus:
     A   E
   maria
       F#m    D
   ... see her
      A          E      D    D
   go insane .......... mind
     A   E
   latina
         F#m
   ... maria
     A          E      D     D
   a million... one... lights

verse3:
i've seen...

verse4:
now comming...

bridge:
don't you wanna...

chorus:
maria...

Вверх

One Way

Intro

-------------------|
-------------------|
-----77--777-------|
-----77--777-------|
-----55--555-------|
-------------------|


Verse Repeat and listen to the song for timeing

---------------------------------------|
---------------------------------------|
-----77--777-----7654-----444----------|
-----77--777-----7654-----444----------|
-----55--555-----5432-----222----------|
---------------------------------------|

chorus
play this twice then....
----------------------------------------|
--------------2-------------------------|
--------------2-------------------------|
--5--4--6--4--2--4----------------------|
--5--4--6--4-----4----------------------|
--3--2--4--2-----2----------------------|

chorus extention

-------------------------------|
-----2-------------------------|
-----2--4----------------------|
--5--2--4--2--444444-----------|
--5-----2--2--444444-----------|
--3--------0--222222-----------|

solo
play twice then...
---4-5-4-0----4-5-4-0----4-5-4-0---------0-----------|
---------------------------------0h2---0-------------|
-----------------------------------------------------|
-----------------------------------------------------|
-----------------------------------------------------|
-----------------------------------------------------|


---555--4--------------0-----555--4-------------0----|
---777--55-----------0-------777--55---5/7----0------|
---------6---0h6-------------------6-----------------|
-----------------------------------------------------|
-----------------------------------------------------|
-----------------------------------------------------|

then slide up the neck and to the verse
---4/555/4/555-------5/777/5/777----------------------|
---4/555/4/555-------5/777/5/777----------------------|
------------------------------------------------------|
------------------------------------------------------|
------------------------------------------------------|
------------------------------------------------------|

Вверх

One Way Or Another

Opening and verse guitar riff:


e:------------------|------------------|----------------|-----------------|
B:------------------|------------------|----------------|-----------------|
G:------7---x-7---7-|-----7---x-7----7-|----7---x-7---7-|-----7-----------|
D:-(7)--7---x-7---7-|-----7---x-7----7-|----7---x-7---7-|-----7-7-7-6-5-4-|
A:--5---5---x-5---5-|-----5---x-5----5-|----5---x-5---5-|-----5-5-5-4-3-2-|
E:------------------|------------------|----------------|-----------------|



e:-----------------|-----------------|-----------------|-----------------||
B:-----------------|-----------------|-----------------|-----------------||
G:-----4---x-4---4-|-----4---x-4---4-|-----4---x-4---4-|-----4-----------||
D:-4---4---x-4---4-|-----4---x-4---4-|-----4---x-4---4-|-----4---4-4-5-6-||
A:-2---2---x-2---2-|-----2---x-2---2-|-----2---x-2---2-|-----2---2-2-3-4-||
E:-----------------|-----------------|-----------------|-----------------||



Melody line played over chorus:

Repeat 2x
e:---------|--------|-------------------|-------||-----------------|-------|
B:---------|--------|-------------------|-------||-----------------|-------|
G:---------|-4~-----|-4/6-----4-----2---|-------||-------2-----4---|-------|
D:--5~-----|--------|-------------------|-4~----||-5---------------|-2~----|
A:---------|--------|-------------------|-------||-----------------|-------|
E:---------|--------|-------------------|-------||-----------------|-------|



e:--------||
B:--------||
G:--------||
D:-4~-----||
A:--------||
E:--------||



Guitar Solo:

F#m F#m A C#m F#m

e:--5-----4---0-----|-4h5---4---0-----|-4h5---4---0------|-----------0-----|
B:------------------|-----------------|---------------2~-|(2)~-------------|
G:------------------|-----------------|------------------|-----------------|
D:------------------|-----------------|------------------|-----------------|
A:------------------|-----------------|------------------|-----------------|
E:------------------|-----------------|------------------|-----------------|



F#m A C#m

e:-4h5---4---0-----|-4h5---4---0-----|-4h5---4---0------|-----------0-----|
B:-----------------|-----------------|---------------2~-|(2)~-------------|
G:-----------------|-----------------|------------------|-----------------|
D:-----------------|-----------------|------------------|-----------------|
A:-----------------|-----------------|------------------|-----------------|
E:-----------------|-----------------|------------------|-----------------|



Bm7 E F#m F#m

e:-5-5-5-4-------4-|(4)--------------|-5-5-5-4-------4-/-5-------4---4---|
B:-7-7-7-5---5---5-|(5)----------5-7-|-7-7-7-5---5---6-/-7-------5---5---|
G:-----------6-----|-----------6-----|-----------6-----|-----------6-----|
D:-----------------|-----------------|-----------------|-----------------|
A:-----------------|-----------------|-----------------|-----------------|
E:-----------------|-----------------|-----------------|-----------------|



A5 A5 B5
^ ^ ^ ^ ^ ^ ^ ^ ^ ^ ^ ^
e:-4/5-5-5-4/5-5-5-4/5-5-|-5-4/5-5-5-4/5-5-5---|-5/7-7-7-5/7-7-7-5/7-7-|
B:-4/5-5-5-4/5-5-5-4/5-5-|-5-4/5-5-5-4/5-5-5---|-5/7-7-7-5/7-7-7-5/7-7-|
G:-----------------------|---------------------|-----------------------|
D:-----------------------|---------------------|-----------------------|
A:-----------------------|---------------------|-----------------------|
E:-----------------------|---------------------|-----------------------|



B5
^ ^ ^ ^
e:-7-5/7-7-7-7-8-9-10-||
B:-7-5/7-7-7-7-8-9-10-||
G:--------------------||
D:--------------------||
A:--------------------||
E:--------------------||



Fadeout:


e:------------------|---------------|-----------------|-----------------||
B:------------------|---------------|-----------------|-----------------||
G:--7-------7-------|-7-------7-----|-4-------4-------|-4-------4-------||
D:--7-------7-------|-7-------7-----|-4-------4-------|-4-------4-------||
A:--5-------5-------|-5-------5-----|-2-------2-------|-2-------2-------||
E:------5-------5---|-----5-------5-|-----2-------2---|-----2-------2---||

Вверх

One Way Or Another (2 вариант)

Intro

G-----------------------|
D-----------------------|
A--5-4-3-2------2-3-4-5-|
E-----------------------|

G------------------------------------|
D------------------------------------|
A-5---5---5---5-5432---2---2---2-234-|
E---5---5---5--------2---2---2-------|


"One way, or another..."
G------------------------------------|
D------------------------------------|
A-5---5---5---5-5432---2---2---2-234-|
E---5---5---5--------2---2---2-------|

G------------------------------------|
D------------------------------------|
A-5---5---5---5-5432---2---2---2-----|
E---5---5---5--------2---2---2-------|


"I will drive past your house..."
G-----------------------------------|
D-----------------------------------|
A-2--2-0---4--4-2---2--2-0---2--240-| x2
E-----2--------4--------2-----------|

G-----------|
D-----------|
A-3-4-5-0-/-|
E-----------|


"One way, or another..."
G------------------------------------|
D------------------------------------|
A-5---5---5---5-5432---2---2---2-234-|
E---5---5---5--------2---2---2-------|

G------------------------------------|
D------------------------------------|
A-5---5---5---5-5432---2---2---2-----|
E---5---5---5--------2---2---2-------|


"And if the lights are all out..."
G-----------------------------------|
D-----------------------------------|
A-2--2-0---4--4-2---2--2-0---2--240-| x2
E-----2--------4--------2-----------|

G-----------|
D-----------|
A-3-4-5-0-/-|
E-----------|


GUITAR SOLO

G-------------------|
D-------------------|
A-----------22-2-44-| x2
E-22-2-22-2---------|

G----------------------------------|
D----------------------------------|
A-----0000111122224444444455555555-|
E-2222-----------------------------|


"One way, or another..."
G------------------------------------|
D------------------------------------|
A-5---5---5---5-5432---2---2---2-234-|
E---5---5---5--------2---2---2-------|

G------------------------------------|
D------------------------------------|
A-5---5---5---5-5432---2---2---2-----|
E---5---5---5--------2---2---2-------|


Outro
G------------------|
D------------------|
A--5-5-5-5-2-2-2-2-|
E-5-5-5-5-2-2-2-2--| Repeat until fade

Вверх

Picture This

C F x3
E---||------------------------|-----------8--7--5------||---------------
B---||------------8--6--5-----|--------------------8---||---------------
G---||*--5--x--5-----------7--|-----------------------*||---------------
D---||*-----------------------|--3--x--3--------------*||---------------
A---||------------------------|------------------------||---------------
E---||------------------------|------------------------||---------------


F (G) Ab
E------------------|--8-----8--9--8--|-----------------|----------------
B---6--x--6--6--8--|--9--x--9--9--9--|--9--9--8--6-----|----------------
G------------------|-----------------|--------------8--|----------------
D------------------|-----------------|-----------------|----------------
A------------------|-----------------|-----------------|----------------
E------------------|-----------------|-----------------|----------------


C C NC
E------------------|-----------------------|----------------------------
B------------6--8--|-----------5--6--7--8--|----------------------------
G---5--x--5--------|--5--x--5--------------|--5-------------------------
D------------------|-----------------------|----------------------------
A------------------|-----------------------|----------------------------
E------------------|-----------------------|----------------------------

C F
All I want is a room with a view
C F
A sight worth seeing a vision of you
C F F (G) Ab C NC
All I want is a room with a view, oooooh
C F
I will give you my finest hour
C F
The one I spent watching you shower
C F C G
I will give you my finest hour oh yeah
C F
All I want is a photo in my wallet
C F
A small remembrance of something more solid
C F C C
All I want is a picture of you
F G
Picture this a day in December
F G
Picture this freezing cold weather
F G
You got clouds on your lids and you'd be on the skids
A A
If it weren't for your job at the garage
A A
If you could only, oohh, oh
F G
Picture this a sky full of thunder
F G
Picture this my telephone number
F G A
One and one is what I'm telling you oh yeah

RIFF CHORDS
A D
A D
A D
D D
F F
G G A NC

C F
All I want is 20/20 vision
C F
A total portrait with no omissions
C F F (G) Ab
All I want is a vision of you, ooooh
Ab
If you can
F G
Picture this a day in December
F G
Picture this freezing cold weather
F G
You got clouds on your lids and you'd be on the skids
A A
If it weren't for your job at the garage
F
If you could only
F G
Picture this a sky full of thunder
F G
Picture this my telephone number
F G
One and one is what I'm telling you
A A (HANG)
Get a pocket computer, try to do what ya' used to do, yeah

Вверх

Picure This

Intro Bb-Eb-Bb-Eb-Bb-Eb-F-F#


Bb Eb Bb
All I want is a room with a view
Eb Bb
A sight worth seeing a vision of you
Eb F-F#---Bb
All I want is a room with a view, oooooh
Eb Bb Eb Bb
I will give you my finest hour, the one I spent watching you shower
Eb Bb F
I will give you my finest hour oh yeah
Bb Eb Bb
All I want is a photo in my wallet
Eb Bb
A small remembrance of something more solid
Eb Bb
All I want is a picture of you
Eb F Eb
Picture this a day in December
F
Picture this freezing cold weather
Eb F
You got clouds on your lids and you'd be on the skids
G
If it weren't for your job at the garage
Eb
If you could only, oohh, oh
F Eb
Picture this a sky full of thunder
F Eb
Picture this my telephone number
F ( G
One and one is what I'm telling you oh yeah
(G-C-G-C-G-C x 3 Eb x 2 F x 2 G x1 Bb)
Solo from yeah

Eb Bb
All I want is 20/20 vision
Eb Bb
A total portrait with no omissions
Eb F-F#
All I want is a vision of you, ooooh
Eb
If you can
F Eb
Picture this a day in December
F
Picture this freezing cold weather
Eb F
You got clouds on your lids and you'd be on the skids
G
If it weren't for your job at the garage
Eb
If you could only
F Eb
Picture this a sky full of thunder
F Eb
Picture this my telephone number
F
One and one is what I'm telling you
G_________________________________AND FADE
Get a pocket computer try to do what ya used to do yeah

Вверх

Presence Dear

Intro on A & D chords

A
Was it destiny?
D A
don't know yet

Was it just by chance?
D B
Could this be kismet?
E B E B
Something in my consciousness told me you'd appear
D A
Now I'm always touched by your presence dear
D
When we play at cards you use an extra sense
A
It's really not cheating, you know?
D B
You can read my hand I've got no defense
E B E B
When you send your messages, whispered loud and clear
D A E
I'm always touched by your presence dear
A E A F#
Floating pass the evidence of possibilities
B F# B
We could navigate together psychic frequencies

Guitar Solo using A & D Chords (on A play notes AAABC X 2 on D play DDDEF#
x 2 the alternate notes AB on A & DE on D) solo lasts for 11 bars

E A E A
Coming into contact with outer entities
F# B F# B
We could entertain each one with our theosophies
A D A
Stay awake at night and count your REM's
D
Ron when you're talking with your sly friends
B E B E
Levitating Gordon in your secret stratosphere
B D A
I still dislike your presence dear

Вверх

Raptuer

Em
Toe to toe dancing very close

Body breathing almost comatose

Wall to wall people hypnotized
F A G/C B/Em
And they're stepping lightly
F A C G Em
Hang each night in rapture

Back to back sacroiliac

Spineless movement and a wild attack

Face to face sightless solitude

And it's finger popping

Twenty four hour shopping in rapture

Fab Five Freddy told me everybody's fly

DJ spinning I said "My My"

Flash is fast flash is cool

Francois c'est pas flashe non due

And you don't stop sure shot

Go out to the parking lot

And you get in your car

and drive real far

And you drive all night

and then you see a light

And it comes right down

and it lands on the ground

And out comes the man from Mars

And you try to run but he's got a gun
And he shoots you dead

and he eats your head

And then you're in the man from Mars

You go out at night eating cars

You eat Cadillacs Lincolns too

Mercurys and Subaru

And you don't stop

You keep on eating cars

Then when there's no more cars
you go out at night


And eat up bars

where the people meet

Face to face

Dance cheek to cheek

One to one

Man to man

Dance toe to toe

Don't move too slow

'cause the man from Mars

is through with cars

He's eating bars

Yeah wall to wall

Door to door

Hall to hall

He's gonna eat 'em all

Rapture

Be pure

Take a tour through the sewer

Don't strain your brain

Paint a train

You'll be singing in the rain

Said don't stop to the punk rock

13 bar sax solo every one still stays in EM

back to back, body muscular spinless movement,

bite the jugular one to one technology

And a ardour, no sign of saviour in Rapture

Well now you see what you wanna be

Just have your party on TV

'Cause the man from Mars

won't eat up bars

where the TV's on

And now he's gone back up to space

where he won't have a hassle with the
human race

And you hip hop

And you don't stop

Just blast off sure shot

Because the man from Mars

stopped eating cars

And eating bars

And now he only eats guitars


Get up!(after 1 bar then)

finish

A C D E
A C D G
A C D F
A C D G

Em and fade

Вверх

Rapture

Riff #1

G|-----------------------------------------------|
D|-------2-0---0----4--5---------2-0---0----4--2-|
A|-----------2-----------------------2-----------|
E|--0--0--------------------0--0-----------------|

Riff #2

G|----------------------------------------------|
D|--------------------2-------------------------|
A|--------------3-----------------------3-------|
E|--1-----5-----------------1-----5-----------3-|

Song Structure:

Riff 1..... x10
Riff 2..... x1
Riff 1..... x8
Riff 2..... x1
Riff 1..... x27
(I may have misscounted this part. May be 28. Use your judgement)
Riff 2..... x1
Riff 1..... x20

Вверх

Rip Her To Shreads

E
Hey psst psst here she comes now

Oh you know her
A
Would ya look at that hair
E
Yeah you know her
A
Check out those shoes
F# A E
She looks like she stepped out of the middle of somebody's blues
F# A E
She looks like the Sunday comics
F# A E
She thinks she's Brenda Starr
F# A E
Her nose job is real atomic
F# A#/F# B
All she needs is an old knife scar
A B
Ehhh, she's so dull come on rip her to shreds
A B
She's so dull come on rip her to shreds
E A
Oh you know her "Miss Groupie Supreme"
E A
Yeah you know her "Vera Vogue" on parade
F#
Red eye shadow

Green mascara
A
Yuck
E
She's too much
F# A E
She looks like she don't know better
F# A E
A case of partial extreme
F# A E
Dressed in a Robert Hall sweater
F# A#/F# B
Acting like a soap opera queen
A B
Ehhh, she's so dull come on rip her to shreds
A B
She's so dull come on rip her to shreds
F# A E
She got the nerve to tell me she's not "on it"
F# A E
But her expression is too serene
F# A E
Yeah she looks like she washes with Comet
F# A#/F# B
Always looking to create a scene
A B
Ehhh, she's so dull come on rip her to shreds
A B
She's so dull come on rip her to shreds
A
She's so dull
B E
Rip her to shreds
A
Oh you know her "Miss Groupie Supreme"
E A
Yeah you know her "Vera Vogue" on parade
E A
Yeah you know her with the fish eating grin
E
She's so dull
A E
Yeah she got the nerve to tell me
A
Huh she's so dull
E A
Yeah there she goes now
E A
She making out with King Kong
E A
She take her boat to Hong Kong
E A
Well bye bye sugar
E A AND FADE
And not a minute too soon

Вверх

Sunday Girl

D

D G A D
I know a girl from a lonely street
G A D
Cold as ice-cream, but still as sweet
G A D
Dry your eyes sunday girl
D G A D
Hey I saw your guy with a different girl
G A D
Looks like he's in another world
G A D
Run and hide sunday girl
G
Hurry up hurry up and wait
D
I stay away all week and still I wait
G
I got the blues please come see
E A B
What your loving means to me

E A B E
She can't catch up with the working crowd
A B E
The weekend mood and she's feeling proud
A B E
Live in dreams sunday girl
A B E
Baby I would like to go out tonight
A B E
If I go with you my folks'll get uptight
A B C#m
Stay at home Sunday girl
G#m F# A B
Ooo Ooo Oooh
E A B E
He j'ai vu ton mec avec une autre fille
A B E
Il semblait dans un autre monde
A B E
Cours te cacher sunday girl
A B E
Quand je t'ai revu l'ete j'ai decide
A B E
Si ton amour etait pareil au mien
A B E
Je pourrais etre sunday girl
A
Depeche-toi depeche-toi et attends
E
Toute la semaine absent et pourtant j'attends
A
J'ai le cafard Je t'en prie viens voir
E
Ce que ton amour represente pour moi
A
Depeche-toi depeche-toi et attends
E
Toute la semaine absent et pourtant j'attends
A
J'ai le cafard Je t'en prie viens voir
E
Ce que ton amour represente pour moi
A E A E
I got the blues
A
Depeche toi
E
Depeche toi

A E
e [-------------------------"---------------------------]
B [-------------------------"---------------------------]
G [-------------------------"---------------------------]
D [----2-4-2-2----2-4-2-2-2-"------4-2-2-----4-2-2-2----]
A [--4----------4-----------"----2---------2------------]
E [-------------------------"--4---------4--------------]

Вверх

Tide Is High

. A D E A D E
The Tide is high but I'm holdin' on, I'm gonna be your number one.
. A D E A D E
. I'm not the kinda girl who gives up just like that, oh no____
. A D E '
It's not the things you do that tease and hurt me bad,
. A D E
. but it's the way you do the things you do to me,
. A D E A D E
. I'm not the kinda girl who gives up just like that, oh no____
. A D E A D E
The tide is high but I'm holdin' on, I'm gonna be your number one.
D E (first riff?)
Num - ber one.
_
A D E A D E
Ev'ry girl wants you to be her man, but I'll wait my dear, till it's my turn,
. A D E A D E
. I'm not the kinda girl who gives up just like that, oh no____
. A D E A D E
The tide is high but I'm holdin' on, I'm gonna be your number one.
D E D E
Num - ber one. Num - ber one. (instrumental)
_
A D E A D E
Ev'ry girl wants you to be her man, but I'll wait my dear, till it's my turn,
. A D E A D E
. I'm not the kinda girl who gives up just like that, oh no____
. A D E A D E
The tide is high but I'm holdin' on, I'm gonna be your number one.
D E D E
Num - ber one. Num - ber one.
_
repeat and fade: (end on A)
. A D E A D E
The tide is high but I'm holdin' on, I'm gonna be your number one.
_
Chord chart: (SIMPed by Sennet)
string: E A D G B e E A D G B e E A D G B e
A - 0 2 2 2 0 D x - 0 2 3 2 E 0 2 2 1 0 0
B7 x 2 1 2 0 2
_
Riff 1: Tab for E string
E string |-12--10---9---7---5---4---2---0--|
note: |--E---D---C#--B---A---G#--F#--E--|

Вверх

Union City Blues

A6 A A6 A A6 A E A6 E
Oh ho Oh ho what are we gonna do?
A6 A A6 A E A6 E
Union Union Union City blue
E B
Tunnel to the other side
E
It becomes daylight
B
I say he's mine
A6 A A6 A A6 A E A6 E
Oh power, passion plays a double hand
A6 A A6A E A6 E
Union union union city man
E B E
Arrive climb up four flights to the orange side
B
Rearrange my mind
A6 A A6 A E A6 E
In turquoise Union Union Union City blue
A6 A A6 A E A6 E
Skyline passion Union City blue

BRIDGE
||:A X 2 E X 2 :||
STAY ON E FOR 1 BAR 3 BEATS
BASS BRINGS IN PLAYING E F# G# ( But gordon could never get it right )

A6 A A6 A E A6 E
Power, passion plays a double hand
A6 A A6 A E A6 E
Union union union city man
A6 A A6 A
I say he's mine
E A6 E
I have a plan
A6 A A6 A E A6 E
I say he's my Union City man

A6 A A6 A A6 A E A6 E
||:Oh oh Oh ho what are we gonna do:||

Вверх

X Offender

e|-------------------------------------------------------------------------|
B|--------------9---9--7--------7-----10----------9---9--7---------7-------|
G|-----9---------------------9---------------------------------9--------9--|
D|-------------------------------------------------------------------------|
A|-------------------------------------------------------------------------|
E|-------------------------------------------------------------------------|

Вверх
English songs 109

ABBA
AC-DC
Adams Bryan
Adriano Celentano
Aerosmith
A-Ha
Animals
Antonio Banderos
Apocalyptica
Armstrong Louis
Billy's Band
Bjork
Blink 182
Blondie
Blur
Bob Dylan
Boney M
Bon Jovi
Bowie David
Brainstorm
Braxton Toni
Butch
Celine Dion
Chris De Burgh
Chris Isaak
Chuck Berry
Clapton Eric
Cohen Leonard
Cranberries
Deep Purple
Depeche Mode
Dire Straits
Donovan Jason
Eagles
Electric Light Orchestra
Elton John
Elvis Presley
Era
Europe
Evanescence
Garbage
Gary Moore
Glen Wiston
Gorillaz
Green Day
Guano Apes
Guns N Roses
Hendrix Jimi
Iggy Pop
Iron Maiden
Joe Dassin
Kansas
King Crimson
Kiss
Led Zeppelin
Leonard Cohen
Limp Bizkit
Linkin Park
Louis Amstrong
Madonna
Marilyn Manson
Marley Bob
Metallica
Moby
Morricone Ennio
Muse
Nazareth
Nelly Furtado
Nick Cave
Nirvana
No Doubt
Oasis
Offspring
Ottawan
Outkast
Ozzy Osbourne
Pain
Para Bellum
Pink Floyd
Placebo
P.O.D.
Queen
RadioHead
Rainbow
Rammstein
Rea Chris
Red Hot Chili Peppers
Ritchie Blackmore
Rolling Stones
Roxette
Rufus Wainwright
Santana
Sarah Brightman
Scorpions
Sex Pistols
Simon & Garfunkel
Shocking Blue
Soul Asylumx
Status Quo
Sting
System of a down
Sum 41
The Beatles
The Doors
Tito & Tarantula
U2
UB 40
Uriah Heep
Van Halen

Українські пісні 109

Boom Box
Escape
Flit
Kapela Drewutnia
Lama
LЮK
Mad Heads (XL)
Motor' rolla
NEON
Ot Vinta
The Вйо
Абздольц
Аероплан
Акорд
Ані Лорак
Бандурна розмова
Білик Ірина
Борщ
Брати Гадюкіни
Вася Club
Вій
Воплі Відоплясова
Гайдамаки
Гончар Олесь
Гринжоли
Гроно
Гуляйгород
Дарка і Славко
Дивні
Друга Ріка
Другий подих
Дударик
Експампей
Євтушенко Андрій
Жарівка (Дяк Олесь)
Журбовіз
Зібров Павло
Зінкевич Василь
Злотник Олександр
Івасюк Володимир
Калєкція
Карна
Карпа Ірена
Клямка
Козловський Віталій
Кому вниз
Крихітка Цахес
Курінь
Лесик-Band
Лорд Юрія
Львівські музики
Мандри
Менестрелі
Мері
Мертвий Півень
Міпеніум
Монте Крісто
Морозов Віктор
Нахтіґаль
Не журись!
Неборак Віктор
НеДІля
НЕМО
Нічлава блюз
Океан Ельзи
ПереBANDя
Перкалаба
Петрович
Піккардійська Терція
Піпа Олександр
Плач Єремїі
Пономарьов Олександр
Пророк
Росава
Ротару Софія
Руслана
Рутенія
С.К.А.Й.
САД
Самі свої
Серцевий Напад
Скрябін
Смерічка
Сокира Перука
Соколи
Таліта Кум
Тартак
Тінь сонця
Ткач Михайло
ТНМК
Тостер
Тріо Мареничів
Фарбований лис
Фестиваль Снів
Хвилю тримай
Цісик Квітка
Черемош
Черемшина
Четвертий кут
Чорний вересень
Чорні черешні
Шевченко Тарас
Щастя
Юркеш
Юрченко Юрко
Юрчишин Ярослав
Явір
Яка існуЄ
Яремчук Назарій

   
 sait@i.ua



Рейтинг@Mail.ru