accordS-land.ru Аккорды и табулатуры к гитаре.
Главная | Песенник | Аккорды | Учебник
Руссике песни 180
5nizza
7Б
9-й Район
Animal ДжаZ
Billy's Band
Butch
Para Bellum
TequilaJazzz
Worms
Zdob Si Zdub
Автоматические удовлетворители
Агата Кристи
Агузарова Жанна
Агутин Леонид
Адо
Аквариум
Алиса
Алсу
Амирамов Е.
Антонов Ю.
Арефьева Ольга
Ария
АукцЫон
Барыкин
Башаков Михаил
Башлачев Александр
БекХан
Бернес М.
Би - 2
Бони неМ
Борзов Найк
Боярский Михаил
Браво
Братья Грим
Ва-Банкъ
Вертинский Александр
Визбор Юрий
Високосный год
Воскресенье
Восьмая Марта
Высоцкий В.С.
Високосный год
Газманов О.
Галич Александр
Герман А.
Городницкий Александр
Глызин А.
Градский Александр
Гражданская Оборона
Гребещенков
Данко
ДДТ
Дидюля
Диоды
Дискотека Авария
Дягилева Янка
Ёлка
Жуки
Заблудовский Андрей
Запрещенные Барабанщики
Звери
Земляне
Земфира
Зинчук Виктор
Зоопарк
Иван Кайф
Иванов А.
Иваси
ИЗ КИНО И МУЛЬТФИЛЬМОВ
Империя
Калинов мост
Кашин Павел
Кельми К.
КИНО
Кипелов
Конец Фильма
Контингент
Корни
Король и Шут
Коррозия металла
Крематорий
Крупнов Анатолий
Кузьмин Владимир
Куликов Е.
Кукрыниксы
Курехин Сергей
Лаэртский Александр
Ласковый май
Ленинград
Леонидов Максим
Лесоповал
Лещенко Л.
Линда
Лицей
Лоза Юрий
Любэ
Люмен
Ляпис Трубецкой
Мальчишник
Манго-манго
Мара
Маркин В.
Маршал Александр
Маша и медведи
Машина времени
Мечтать
Мистер Кредо
Митяев Олег
Многоточье
Монгол Шуудан
Моральный Кодекс
Мультfильмы
Мумий Тролль
Настя
Науменко Майк
Наутилус Помпилиус
Непара
Неприкасаемые
Несчастный случай
Никоваев И.
Никольский Константин
Ногу свело
Ноль
Носков Николай
Ночные Снайперы
Окуджава Булат
Оркрист
Осин Е.
Оскар
Отиева И.
Паперный Т.А.М.
Парк Горького (Gorky Park)
Пикник
Пилот
Пламя
Полковник и однополчане
Пугачева А.
ПЭХ
Приключения Электроников
Просто прикольные песни
Рада и Терновник
Римский-Корсаков
Розенбаум Александр
Рок-Острова
Рондо
Сансара
Саруханов
Сегодня Ночью
Секрет
Сектор газа
Сенчина Л.
СерьГа
Смысловые Галлюцинации
Сплин
Солодуха А.
Старые блатные песни
Сукачев Гарик
Сурганова и Оркестр
Сюткин Валерий
Тальков Игорь
Танцы минус
Тараканы
Тату
Технология
УмаТурман
Умка и Броневичок
Ундервудъ
Фабрика звезд
Х.З. (Хуй Забей)
Центр
ЧайФ
Черный кофе
Черный Лукич
Чиж и Ко
Чистяков Федор
Шанхай
Щербаков Михаил
Ю-Питер

Классика 22

Албениз Исаак
Албениз Матео
Бах Иоган Себостьян
Бетховен Людвиг ван
Бизе Жорж
Брамс Иоганнес
Вивальди Антонио
Гендель Георг Фридрих
Гершвин Джордж
Григ Эдвард
Дебюсси Клод
Камиль Сен-Санс
Мендельсон
Моцарт Вольфгант Амадей
Мусоргский Модест Пертрович
Норис Крис
Огинский Михал Клеофас
Паганини Никколо
Рахманинов Сергей Васильевич
Римский-Корсаков
Чайковский Пётр Ильич
Шуберт Франц
 

Паганини Никколо

26 композиций для гитары, №1 Андантино в С
26 композиций для гитары, №2 Ариэтта в D
26 композиций для гитары, №3 Андантино в D
26 композиций для гитары, №4 Марш в D
26 композиций для гитары, №5 Минуэт в А
26 композиций для гитары, №6 Аллегретто в А
26 композиций для гитары, №7 Виваче в А
Ариэтта в D
Большая саната в А, 1-ая часть
Каприз №1
Каприз №11
Каприз №16
Каприз №2
Каприз №24
Каприз №24 (2 вариант)
Каприз №24 (3 вариант)
Каприз №3
Каприз №5
Каприз №5 (2 вариант)
Каприз №7
Соната в C
Вверх

26 композиций для гитары, №1 Андантино в С

Обозначения:

Пальцы левой руки подписаны под табом

\      Слайд вниз
/      Слайд вверх
--6--  6 нот играется за одну четверть
CIII   Большое баррэ на 3-ем ладу
cV     Малое баррэ на 5-ом ладу
3p1    пулл с 3-его лада на 1-ый



Размер: 2/4  
Ритм: Andantino

0   .        |     .     |     .        |     .     |     .
E---3-----|--5-----3----\2----/3-----|--5-----3-----2-----3-----|
B---5-----|--6-----5----\4----/5-----|--6-----5-----4-----5-----|
G---------|--------------------------|--------------------------|
D---------|--------------------------|--------------------------|
A---------|--------------------------|--------------------------|
E---------|--------------------------|--------------------------|
    1        2     1
    3        3     3
	

      -----6----- ----6------                CIII........
3     |     .     |     .        |     .     |     .
E--|--------0-----------1-----|--------0-----------3-----|
B--|------1---1-------3---3---|--------1-----3-----5-----|
G--|----0-------0---0-------0-|--------0-----------------|
D--|--------------------------|--------------------------|
A--|--3-----------2-----------|--3-----------------------|
E--|--------------------------|--------------3-----------|
                  2   4                            1
                                                   3

5      |     .     |     .        |     .     |     .
E---|--5-----3----\2----/3-----|-/5-----3-----2-----3-----|
B---|--6-----5----\4----/5-----|--6-----5-----4-----5-----|
G---|--------------------------|--------------------------|
D---|--------------------------|--------------------------|
A---|--------------------------|--------------------------|
E---|--------------------------|--------------------------|
       2     1
       3     3


      -----6----- ----6------
7     |     .     |     .        |     .     |      .
E--|--------0-----------1-----|--------0-----0--||--0-----|
B--|------1---1-------3---3---|--------1-----1--||--------|
G--|----0-------0---0-------0-|--------0-----0--||--------|
D--|--------------------------|-----------------||--------|
A--|--3-----------2-----------|--3--------------||--------|
E--|--------------------------|-----------------||--------|


                 cV...........
9     |     .     |     .        |     .     |     .
E--|--8-----7-----5-----------|--1-----------0-----------|
B--|--------------------5-----|--------------------3-----|
G--|--------------------------|--------------------------|
D--|--------------------------|--------------------------|
A--|--0-----------0-----------|--------------------------|
E--|--------------------------|--0-----------------------|
      4     3     1


11    |     .     |     .        |     .     |     .
E--|--------------------------|--------------------0-----|
B--|--3p1---0-----1-----------|--------0-----------------|
G--|--------------------2-----|--1-----------------------|
D--|--------------------------|--------------2-----------|
A--|--0-----------------------|--------------------------|
E--|--------------------------|--0-----------0-----------|


                 cV...........
13    |     .     |     .        |     .     |     .
E--|--8-----7-----5-----------|--1-----------0-----------|
B--|--------------------5-----|--------------------3-----|
G--|--------------------------|--------------------------|
D--|--------------------------|--------------------------|
A--|--0-----------0-----------|--------------------------|
E--|--------------------------|--0-----------------------|



15    |     .     |     .        |     .     |     .
E--|--------------------------|--------------------------||
B--|--1-----------0-----------|--------------------------||
G--|--------2-----------1-----|--2-----2-----2-----------||
D--|--------------------------|--------------------------||
A--|--0-----------------------|--0-----0-----0-----------||
E--|--------------0-----------|--------------------------||
Вверх

26 композиций для гитары, №2 Ариэтта в D

Обозначения:
Пальцы левой руки подписаны под табом
\    слайд
2h3  Хаммер со 2-ого лада на 3-ий
3p2  Пулл со 3-его лада на 2-ой


Размер: 4/4

0  |  .      |   .   |   .   |   .   |   .      |   .   |   .   |   .   |   .
E--2----0-|--------------------------0-----2-|--3-------0---------------5-----3-|
B---------|--2h3-------------------3---------|----------------------------------|
G---------|----------2-----------------------|----------------------------------|
D---------|--0---------------0---------------|----------------------------------|
A---------|----------------------------------|--0---------------0---------------|
E---------|----------------------------------|----------------------------------|
   1                                                                    4     2


3     |   .   |   .   |   .   |   .      |   .   |   .   |   .   |   .
E--|--3p2---0-----------------------0-|--------------------------2-----0-|
B--|----------3-----2-0-----2-3-------|--2-----3-0-----2-----------------|
G--|----------------------------------|------------------2---------------|
D--|--0-------------------------------|----------------------------------|
A--|----------------------------------|--0---------------0---------------|
E--|------------------3---------------|----------0-----------------------|
                      2


5     |   .   |   .   |   .   |   .      |   .   |   .   |   .   |   .
E--|--------------------------0-----2-|--2h3-----0---------------5-----3-|
B--|--2h3-------------------3---------|----------------------------------|
G--|----------2-----------------------|----------------------------------|
D--|--0---------------0---------------|----------------------------------|
A--|----------------------------------|--0---------------0---------------|
E--|----------------------------------|----------------------------------|


7     |   .   |   .   |   .   |   .      |   .   |   .   |       |   .
E--|--2-----5-5p3---2-0-----3-3p2-0---|----------------------||--5-----5-|
B--|----------------------------------|--3-------3-------3---||--7-----7-|
G--|----------------------------------|----------------------||----------|
D--|--0-------------------------------|--0-------0-------0---||----------|
A--|------------------0---------------|----------------------||----------|
E--|----------------------------------|----------------------||----------|
                                                                 1
                                                                 3


9     |   .   |   .   |   .   |   .      |   .   |   .   |   .   |   .
E--|--7-----5-7-----5-7-----5-3-----2-|--0-----2-3-----2-0-----2-3-----4-|
B--|--8-----7-8-----7-8-----7-5-----3-|--2-----3-5-----3-2-----3-5-----6-|
G--|--0---------------0---------------|----------------------------------|
D--|----------------------------------|----------------------------------|
A--|----------------------------------|--0---------------0---------------|
E--|----------------------------------|----------------------------------|
      2     1
	  3     3


11    |   .   |   .   |   .   |   .      |   .   |   .   |   .   |   .
E--|--5----\4-5-----4-5-----3-2-----0-|--------------------------2-----0-|
B--|--7----\6-7-----6-7-----5-3-----2-|--3-----2-0-----3-2---------------|
G--|----------------------------------|--4-----2-1-----4-2---------------|
D--|--0---------------0---------------|----------------------------------|
A--|----------------------------------|------------------0---------------|
E--|----------------------------------|--0-------------------------------|
      1
	  3


13    |   .   |   .   |   .   |   .      |   .   |   .   |   .   |   .
E--|--------------------------0-----2-|--2h3-----0---------------5-----3-|
B--|--2h3-------------------3---------|----------------------------------|
G--|----------2-----------------------|----------------------------------|
D--|--0---------------0---------------|----------------------------------|
A--|----------------------------------|--0---------------0---------------|
E--|----------------------------------|----------------------------------|


15    |   .   |   .   |   .   |   .      |   .   |   .   |   .
E--|--2-----5-5p3---2-0-----3-3p2---0-|--------------------------||
B--|----------------------------------|--2h3-----3-------3-------||
G--|----------------------------------|--------------------------||
D--|--0-------------------------------|--0-------0-------0-------||
A--|------------------0---------------|--------------------------||
E--|----------------------------------|--------------------------||
Вверх

26 композиций для гитары, №3 Андантино в D

Обозначения:
Пальцы левой руки указаны под табом
\ = Слайд вниз
/ = Слайд вверх
CII = Большое баррэ на 2-ом ладу
5p3 = Пулл с 5-ого лада на 3-ий

||------||
||*----*|| = Повторить (реприза)
||*----*||
||------||


Размер: 2/4
0   .        |     .     |     .        |     .     |     .
E---2-----|--0-----0-----0-----3--2--|--------------------2-----|
B---------|--------------------------|--3-----------------------|
G---------|--0-----0-----0-----------|--------------2-----------|
D---------|--------------------------|--0-----------------------|
A---------|--0-----0-----0-----------|--------------------------|
E---------|--------------------------|--------------------------|


3     |     .     |     .        |     .     |     .
E--|-\0-----0-----0-----2--3--|--7-----------5----\2-----|
B--|--------------------------|--6-----------7-----------|
G--|--0-----0-----0-----------|--------------------------|
D--|--------------------------|--0-----------------------|
A--|--0-----0-----0-----------|--------------------------|
E--|--------------------------|--------------------------|
                                 4           1
                                 2           3


5     |     .     |     .        |     .     |     .
E--|--0-----0-----0-----3--2--|--------------------------|
B--|--------------------------|--3-----------------------|
G--|--0-----0-----0-----------|--------------2-----2-----|
D--|--------------------------|--0-----------------------|
A--|--0-----0-----0-----------|--------------------------|
E--|--------------------------|--------------------------|


7     |     .     |     .        |     .     |         .
E--|--------------------------|--------------------||--2-----|
B--|--------3-----------5-----|--3-----------------||--------|
G--|--4-----------6-----------|--------------------||*-------|
D--|--5-----------5-----------|--4-----------------||*-------|
A--|--------------0-----------|--5-----------------||--------|
E--|--------------------------|--------------------||--------|


     CII.................................................
9     |     .     |     .        |     .     |     .
E--|--2--3--2--3--2-----------|--------------------------|
B--|-----------------5--3--2--|--------------------------|
G--|--------------------------|--4-----------------4-----|
D--|--------------------------|--------4-----4-----------|
A--|--2-----2-----2-----2-----|--2-----------------------|
E--|--------------------------|--------------------------|
                     4  2   1	
                     1

  CII....................................................
11    |     .     |     .        |     .     |     .
E--|--------------------------|--------------------2-----|
B--|--2-----2-----3--2-----2--|--3-----------------------|
G--|--------------------4-----|--------------4-----------|
D--|--------------------------|--------------------------|
A--|--------------------------|--2-----------------------|
E--|--2-----2-----2-----------|--------------------------|


  CII....................................................
13    |     .     |     .        |     .     |     .
E--|--2--3--2--3--2-----------|--------------------------|
B--|-----------------5--3--2--|--------------------------|
G--|--------------------------|--4-----------------4-----|
D--|--------------------------|--------4-----4-----------|
A--|--2-----2-----2-----2-----|--2-----------------------|
E--|--------------------------|--------------------------|

  CII........................................
15    |     .     |     .        |     .     |         .
E--|--------------------------|--------------------||--2-----|
B--|--2-----2-----2-----3--2--|--------------------||--------|
G--|--------------------------|--4-----------------||--------|
D--|--------------------------|--------------------||--------|
A--|--------------------------|--2-----------------||--------|
E--|--2-----2-----2-----------|--------------------||--------|


17    |     .     |     .        |     .     |     .
E--|-/7----\5-----5p3---2-----|--5-----3-----3p2---0-----|
B--|--0-----------------------|--------------------------|
G--|--------------------------|--------------------------|
D--|--------------------------|--------------------------|
A--|--------------------------|--------------------------|
E--|--------------------------|--0-----------------------|


19    |     .     |     .        |     .     |     .
E--|--5-----3-----3p2---0-----|--3-----2-----2p0---------|
B--|--------------------------|--------------------3-----|
G--|--------------------------|--------------------------|
D--|--------------------------|--0-----------------------|
A--|--o-----------------------|--------------------------|
E--|--------------------------|--------------------------|

     CII.................................................
21    |     .     |     .        |     .     |     .
E--|--2--3--2--3--2-----------|--------------------------|
B--|-----------------5--3--2--|--------------------------|
G--|--------------------------|--4-----------------4-----|
D--|--------------------------|--------4-----4-----------|
A--|--2-----------2-----------|--2-----------------------|
E--|--------------------------|--------------------------|

  CII........................................      
23    |     .     |     .        |     .     |
E--|--------------------------|--------------------||
B--|--2-----2-----2-----3--2--|--------------------||
G--|--------------------------|--4----------------*||
D--|--------------------------|-------------------*||
A--|--------------------------|--2-----------------||
E--|--2-----2-----2-----------|--------------------||

Вверх

26 композиций для гитары, №4 Марш в D

Обозначения:

Пальцы левой руки указаны под табом
2p0  = Пулл со 2-ого лада на открутую струну
CVII = Большое баррэ на 7-ом ладу


Размер: 4/4 
Строй: DADGBE

0   .   |   .      |   .   |    .    |   .   |   .
e-----5---7---9-|--10------10-----10-10------10------|
B---------------|------------------------------------|
G---2---4---6---|--7-------7------7--7-------7-------|
D---------------|----------0------0--0-------0-------|
A---------------|------------------------------------|
D---------------|--0---------------------------------|
      4
    1


2      |   .   |   .   |   .   |   .      |   .   |   .   |   .   |   .
e---|--10------------------------------|----------2---3---5-------5---3---|
B---|----------------------------------|----------3---5---7-------7---5---|
G---|--7-------------------------------|----------------------------------|
D---|--0-------------------------------|----------0---------------0-------|
A---|----------------------------------|----------------------------------|
D---|----------0-----0-0-------0-------|--0---------------0---------------|
                                                  1   1   1
                                                  2   3   3


4      |   .   |   .   |   .   |   .      |   .   |   .   |   .   |   .
e---|--2-------2-----2-2---------------|------------------------2-2p0-----|
B---|--3-------3-----3-3---------------|--3-------3-----3-3-------------3-|
G---|----------------------------------|--2-------2-----2-2---------------|
D---|----------------------------------|--4-------4-----4-4---------------|
A---|----------------------------------|----------------------------------|
D---|--0-------0-------0---------------|--0-------0-------0---------------|


6      |   .   |   .   |   .   |   .      |   .   |   .   |   .   |   .
e---|--0-------0-----0-0-----3-3p2---0-|----------------0-2---3-2-0-------|
B---|--2-------2-----2-2---------------|--3-----2-3-------------------3---|
G---|--2-------2-----2-2---------------|----------------------------------|
D---|----------------------------------|----------0---------------0-------|
A---|--0-------0-------0---------------|----------------------------------|
D---|----------------------------------|--0---------------0---------------|


8      |   .   |   .   |   .   |   .
e---|--5-------------------------------||
B---|----------------------------------||
G---|----------2-----2-2---------------||
D---|----------------------------------||
A---|--0-------0-----0-0---------------||
D---|----------------------------------||


    dolce (мягко)
9      |   .   |   .   |   .   |   .      |   .   |   .   |   .   |   .
e---|--3-------3-----3-5p3---2-3p2---0-|--0-------0-----0-0-----0---2---3-|
B---|--5-------5-----5-5-----3-3-----2-|--2-------2-----2-2---2---3---5---|
G---|----------------------------------|----------------------------------|
D---|----------------------------------|----------------------------------|
A---|--0-------------------------------|--0-------0-------0---------------|
D---|----------------------------------|----------------------------------|
       1                                                          2 1 3 1
	   3


11     |   .   |   .   |   .   |   .      |   .   |   .   |   .   |   .
e---|--5-------5-----5-7p5---3-5p3---2-|--2-------2-----2-2---------------|
B---|--7-------7-----7-7-----5-5-----3-|--3-------3-----3-3---------------|
G---|----------------------------------|----------------------------------|
D---|----------0---------------0-------|----------0-----------------------|
A---|----------------------------------|----------------------0---2---4---|
D---|--0---------------0---------------|--0---------------0---------------|
       1
       3


13     |   .   |   .   |   .   |   .      |   .   |   .   |   .   |   .
e---|----------2-----2-2-------3-------|----------5-----5-5-------10------|
B---|----------3-----3-3-------5-------|----------7-----7-7-------7-------|
G---|----------------------------------|----------------------------------|
D---|----------0-------0-------0-------|----------0-------0-------0-------|
A---|----------------------------------|----------------------------------|
D---|--0-------------------------------|--0-------------------------------|


                       CVII....
15     |   .   |   .   |   .   |   .      |   .   |   .   |   .   |   .
e---|--10----5-------5---------0-------|----------------------------------|
B---|--7-------7-------7-------2-------|--3-------3-----3-3---------------|
G---|------------------7-------2-------|--2-------2-----2-2---------------|
D---|----------0-------0---------------|--4-------4-----4-4---------------|
A---|--------------------------0-------|----------------------------------|
D---|--0-------------------------------|--0-------0-------0---------------|
Вверх

26 композиций для гитары, №5 Минуэт в А

Обозначения:
Пальцы левой руки указаны под табом
1  - Указательный
2  - Средний
3  - Безымянный
4  - Мизинец

 CII   = Большое баррэ на 2-ом ладу
__3__  = триоль






Размер: 3/4 

1   |   .   |    .    |   .      |   .    |   .    |    .   
e|--9---9---10-9--------------|----------------------------9--|
B|--------------12-10-9---10--|--11----12-12-------9-10-12----|
G|----------------------------|---------------9-11------------|
D|----------------------------|-------------------------------|
A|--0---0---0----0----0---0---|-------------------------------|
E|----------------------------|--0--------0-------------------|
    1


3   |   .   |     .    |   .      |  .   |   .   |   .   
e|--10--10--12-10-9------------|--8----9-9-----0-2-4-5-4-|
B|------------------12-11--12--|-------------------------|
G|-----------------------------|-------------------------|
D|-----------------------------|-------------------------|
A|-----------------------------|--0------0---------------|
E|--0---0---0-----0----0---0---|-------------------------|
                                                 1


5   |   .   |   .   |   .      |   .   |   .   |   .   
e|--4-2-5-2-0-------0-2-4-5-|--4-2-5-2-0-------5-4-2-0-|
B|--------------2-3---------|----------------2---------|
G|--------------------------|--------------------------|
D|--0-----------------------|--0-----------------------|
A|----------4---------------|----------4---------------|
E|--------------------------|--------------------------|


    CII.............
7   |   .   |   .   |   .      |   .   |   .   |   .   
e|------2-------------------|----0---0---0---0---------||
B|--4-5---5-4-2-------------|------0-------------------||
G|--------------4-2-1-------|----------1---------------||
D|--------------------4-2-1-|--------------2-----------||
A|--2-----------------------|--------------------------||
E|--------------------------|--0---------------0-------||
    3 4 1 4 3 1 3 1 1
    1


9   |    .    |   .   |   .      |   .   |    .   |   .   
e|--10-9-7------0-1-0-2-0-4-0-|--5-0-9-7--------0---------|
B|---------10-9---------------|----------10-9-7---3-2-0---|
G|----------------------------|-------------------------2-|
D|----------------------------|---------------------------|
A|----------------------------|--0------------------------|
E|--0---------0---------------|---------------------------|
    4  3 1 4                         3   4  3 1


11  |   .   |   .   |   .       |   .   |   .   |   .   
e|-----0---0---0---0---0---0-|-----0---0---0---0---0---0-|
B|----0---2---2---3---2---0--|----2---3---4---5---3---2--|
G|---1---2---3---4---2---1---|---2---4---5---6---4---2---|
D|---------------------------|---------------------------|
A|---------------------------|--0---0---0---0---0---0----|
E|--0---0---0---0---0---0----|---------------------------|
              2---2                   2---2---2---2   2
             3---3                   3---3---3---3   1


13  |   .    |   .    |    .      |   .   |   .   |   .   
e|-----------7-9-10-9-7--------|----0---2---4---5---7---9-|
B|----7-9-10------------10-9-7-|--------------------------|
G|-----------------------------|--------------------------|
D|--0--------------------------|------0---2---4---6---7---|
A|-----------------------------|--4-----------------------|
E|-----------------------------|--------------------------|
      1 3 4  1                              4---4---4---4
                                          1   2---2   1


    __3__  __3__ __3__ __3__ __3__ __3__
15  |      .     |     .     |     .        |    .    |   .   |   .   
e|-10-9-7-10-9-7-9-7-5-9-7-5-7-5-4-7-5-4-|--------------5------------||
B|---------------------------------------|----10-9-10-5-----5--------||
G|---------------------------------------|----------------6----------||
D|--0------0-----------------------------|--------------------7------||
A|---------------0-----0-----------------|--0-----------------0------||
E|---------------------------0-----0-----|---------------------------||
    4 3 1        4 3 1       4 2 1             4  
Вверх

26 композиций для гитары, №6 Аллегретто в А

Обозначения:
пальцы правой руки над табом      i - Указательный
                                  m - Средний

пальцы левой руки над табом       1 - Указательный
                                  2 - Средний
                                  3 - Безымянный
                                  4 - Мизинец

  CV    -  Большое Баррэ на 5-ом ладу

 __5__  -  пять нот по длительности играются как 4

   r    -  Пауза на пол четверти
   R    -  четвертная пауза

  7p6   =  Пулл

|---  ---||
|---  ---||
|*--  --*|| повторить (реприза)
|*--  --*|| 
|---  ---||
|---  ---||





Размер: 2/4 

     CV
      __5__                       __5__
1    |     r     |     ,         |     r     |     ,
e|---5-----------9-----7-----|---5-----------7-----9-----|
B|----5----------------------|----5----------------------|
G|-----6---------------------|-----6---------------------|
D|------7--------------------|------7--------------------|
A|-------0-------------------|-------0-------------------|
E|---------------------------|---------------------------|
     1123        4     2                     1     3



3    |     ,     |     ,         |     ,     |     ,
e|---10-0--9--0--7--0--12-0--|---9--0--7--0--5-----------|
B|---------------------------|---------------------------|
G|---------------------------|---------------------------|
D|---------------------------|---------------------------|
A|---------------------------|---------------0-----------|
E|---0-----0-----0-----0-----|---0-----0-----------------|
     4     3     1     4


      __5__                       __5__
5    |     r     |     ,         |     r     |     ,
e|---5-----------9-----7-----|---5-----------7-----9-----|
B|----5----------------------|----5----------------------|
G|-----6---------------------|-----6---------------------|
D|------7--------------------|------7--------------------|
A|-------0-------------------|-------0-------------------|
E|---------------------------|---------------------------|
     1123        4     2                     1     3



7    |     ,     |     ,         |     ,     R     ,
e|---10-0--9--0--7--0--12-0--|---5----------------------||
B|---------------------------|--------------------------||
G|---------------------------|--------------------------||
D|---------------------------|--------------------------||
A|---------------------------|---0----------------------||
E|---0-----0-----0-----0-----|--------------------------||
     4     3     1     4


     m  i  m  i  m  i  m  i
9    |     ,     |     ,         |     ,     |     ,
e|---9--9--9--9--9--9--9--9--|---9--9--9--9--9--9--9--9--|
B|---------------------------|---------------------------|
G|*--------------------------|---------------6-----7-----|
D|*--------------6-----------|---------7-----------------|
A|---------8-----------8-----|---9-----------------------|
E|---9-----------------------|---------------------------|
     4
     3     2     1               3     2     1     2


11   |     ,     |     ,         |     ,     |     r
e|---9--9--9--9--9--9--9--9--|---9--9--9--9--9-----------|
B|---------------------------|---------------------------|
G|--7p6----------------------|---------------------------|
D|---------9----9p7----6-----|--9p7----6-----------------|
A|---------------------------|---------------9-----------|
E|---------------------------|---------------------------|
           3      2    1        3 2    1     3



13   |     ,     |     ,         |     ,     |     ,
e|---7--7--7--7--7--7--7--7--|---7--7--7--7--7--7--7--7--|
B|---------------------------|---------------------------|
G|---------------------------|---------------4-----6-----|
D|---------------4-----------|---------6-----------------|
A|---------6-----------6-----|---7-----------------------|
E|---7-----------------------|---------------------------|
     4
     3     2     1               3     2     1     2


15   |     ,     |     ,         |     ,     |     r
e|---7--7--7--7--7--7--7--7--|---7--7--7--7--7----------||
B|---------------------------|--------------------------||
G|--6p4----------------------|-------------------------*||
D|---------7----7p6----4-----|--7p6----4---------------*||
A|---------------------------|---------------7----------||
E|---------------------------|--------------------------||
           3      2    1        3 2    1     3
Вверх

26 композиций для гитары, №7 Виваче в А

Обозначения:
Пальцы левой руки под табом :     1 - Указательный
                                  2 - Средний
\\    -  Слайд вниз               3 - Безымянный
//    -  Слайд вверх              4 - Мизинец

CII   -  Большое баррэ на 2-ом ладу (римская цифра после С указывает
на лад где берётся баррэ)

Размер: 3/4 


1   |  .  |  .  |  .     |  .  |  .  |  .     |  .  |  .  |  .
e|--------------------|--------------------|--------------------|
B|--------------------|--------------------|--------------------|
G|--------------------|-----------7--6\\4--|--2--------2--4//6--|
D|-----------7--6\\4--|--2-----------------|--------------------|
A|--------------------|--------------------|-----0--------------|
E|--------------------|-----0--------------|--------------------|
             4  3..3     1        4  3..3     1        1  4..4



4   |  .  |  .  |  .     |  .  |  .  |  .     |  .  |  .  |  .
e|--------------------|--------------------|-----------10-9\\7--|
B|--------------------|-----------10-9\\7--|--5-----------------|
G|--4-----------------|--------------------|--------------------|
D|-----------7--4\\1--|--2-----------------|--------------------|
A|-----2--------------|--------------------|--------------------|
E|--------------------|-----0--------------|-----0--------------|
    3  1     4  1..1     2        4  3..3     1        4  3..3


                         CVII..
7   |  .  |  .  |  .     |  .  |  .  |  .     |  .  |  .  |  .
e|--5--------5--7//9--|--7-----------------|--------------5--4--|
B|--------------------|-----------10-7\\4--|--5--------5--------|
G|--------------------|--------------------|--------------------|
D|--------------------|--------------------|--------------------|
A|-----0--------------|--------------------|--------------------|
E|--------------------|-----7--------------|-----0--------------|
    1        1  4..4     1  1     4  1..1     3        3  5  4



10  |  .  |  .  |  .     |  .  |  .  |  .     |  .  |  .  |  .
e|-----2--------------|--------------4--2--|--------------------|
B|-----------5--3--2--|--------------------|-----5-----3\\2--0--|
G|--------------------|-----4-----4--------|--------------------|
D|--0-----------------|--------------------|--------------------|
A|--------------------|--------------------|--4-----------------|
E|--------------------|--4-----------------|--------------------|
       1     4  2  1     2  3     3  4  1     3  4     1..1


    CII....................................
13  |  .  |  .  |  .     |  .  |  .  |  .     |  .  |  .  |  .
e|--------------2-----|--------------------|-----------0--------|
B|-----------------5--|-----3-----2--------|--------0-----3--0--|
G|-----2-----2--------|--------------4--2--|-----1--------------|
D|--------------------|--------------------|--------------------|
A|--------------------|--2-----------------|--------------------|
E|--2-----------------|--------------------|--0-----------------|
    1  1     1  1  4     1  2     1  4  1        1        4


    CV......... CVII..
16  |  .  |  .  |  .     |  .  |  .  |  .     |  .  |  .  |  .
e|--------5-----------|--------7-----------|--------7-----------|
B|-----------7--------|-----9-----9--10----|-----9-----9--10----|
G|-----6--------9--8--|--9--------------11-|--9--------------11-|
D|--------------------|--------------9-----|--------------9-----|
A|--------------------|--------------------|--------------------|
E|--5-----------7-----|--0-----------------|--0-----------------|
       2  1  4  3  2     2  3  1  3  3  4     2  3  1  3  3  4
    1           1                    1                    1


19  |  .  |  .  |  .     |  .  |  .  |  .     |  .  |  .  |  .
e|--0-----0-----2-----|--0-----2--0--------|--------------------|
B|-----4-----4-----4--|-----4--------4--3--|--2--1--0-----------|
G|--------------------|--------------------|--------------------|
D|--------------------|--------------------|-----------7--6--4--|
A|--------------------|--------------------|--------------------|
E|--0-----------------|--------------------|--------------------|
       4     4  1  4        4  1     4  3     2  1     4  3  2



22  |  .  |  .  |  .     |  .  |  .  |  .     |  .  |  .  |  .
e|--------------------|--------------------|--------------------|
B|--------------------|--------------------|--------------------|
G|-----------7--6--4--|--2--------2--4--6--|--4-----------------|
D|--2-----------------|--------------------|-----------7--4--1--|
A|--------------------|-----0--------------|-----2--------------|
E|-----0--------------|--------------------|--------------------|
    1        4  3  2     1        1  3  4     3  1     5  2  1



25  |  .  |  .  |  .     |  .  |  .  |  .     |  .  |  .  |  .
e|--------------------|-----------10-9--7--|--5--------5--7//9--|
B|-----------10-9--7--|--5-----------------|--------------------|
G|--------------------|--------------------|--------------------|
D|--2-----------------|--------------------|--------------------|
A|--------------------|--------------------|-----0--------------|
E|-----0--------------|-----0--------------|--------------------|
    2        4  3  2     1        4  3  2     1        1  2..2


                   CIX..........................................
28  |  .  |  .  |  .     |  .  |  .  |  .     |  .  |  .  |  .
e|--------10----------|-----9--12-9--10----|-----9--12-9--10----|
B|-----------12-10-9--|--10-------------12-|--10-------------12-|
G|-----11-------------|--------------------|--------------------|
D|--0-----------------|--------------------|--------------------|
A|--------------------|--0-----------------|--0-----------------|
E|--------------0-----|--------------0-----|--------------0-----|
       3  2  4  2  1     2  1  4  1  2  4     2  1  4  1  2  4


  .................
31  |  .  |  .  |  .     |  .  |  .  |  .     |  .  |  .  |  .
e|--9--------------0--|--------------------|--2-----0-----4-----|
B|-----12-10-9--------|--3--2--0-----------|--3-----2-----3-----|
G|--------------11----|-----------2--1--2--|--2-----2-----4-----|
D|--------------------|--------------------|--0-----2-----------|
A|--0-----------------|--------------------|--------------------|
E|--------------------|--------------------|--------------0-----|
    1  4  2  1  3        3  2     2  1  2     3     4     4
                                              4     3     2
                                              2     2     3

34  |  .  |  .  |  .     |  .  |  .  |  .     |  .  |  .  |  .
e|--------------------|--------------------|--------------------|
B|--------------------|--------------------|--------------------|
G|--------------------|-----------7--6\\4--|--2-----------------|
D|-----------7--6\\3--|--2-----------------|--------------------|
A|--------------------|--------------------|-----0--------------|
E|--------------------|-----0--------------|--------------------|
             4  3..3     1        4  3..3     1


                         CII
37  |  .  |  .  |  .     |  .  |  .  |  .
e|--2-----0-----4-----|--5-----------------||
B|--3-----2-----3-----|--2-----------------||
G|--2-----2-----4-----|--2-----------------||
D|--0-----2-----------|--------------------||
A|--------------------|--0-----------------||
E|--------------0-----|--------------------||
    3     4     4        4
    4     3     2        1
    2     2     3        1
Вверх

Ариэтта в D

Обозначения:

Пальцы левой руки подписаны под табулатурой
\  Слайд вниз
3p1  Пулл с 3-его на 1-ый лад
2h3  Хаммер со 2-ого лада на 3-ий

Размер: 4/4

0 -|--.---|--|---.---|---.---|---.---|---.---|--|---.---|---.---|---.---|---.---|
E--2----0-|--------------------------0-----2-|--3-------0---------------5-----3-|
B---------|--2h3-------------------3---------|----------------------------------|
G---------|----------2-----------------------|----------------------------------|
D---------|--0---------------0---------------|----------------------------------|
A---------|----------------------------------|--0---------------0---------------|
E---------|----------------------------------|----------------------------------|
   1                                                                    4     2


3 -|--|---.---|---.---|---.---|---.---|--|---.---|---.---|---.---|---.---|
E--|--3p2---0-----------------------0-|--------------------------2-----0-|
B--|----------3-----2-0-----2-3-------|--2-----3-0-----2-----------------|
G--|----------------------------------|------------------2---------------|
D--|--0-------------------------------|----------------------------------|
A--|----------------------------------|--0---------------0---------------|
E--|------------------3---------------|----------0-----------------------|
                      2


5 -|--|---.---|---.---|---.---|---.---|--|---.---|---.---|---.---|---.---|
E--|--------------------------0-----2-|--2h3-----0---------------5-----3-|
B--|--2h3-------------------3---------|----------------------------------|
G--|----------2-----------------------|----------------------------------|
D--|--0---------------0---------------|----------------------------------|
A--|----------------------------------|--0---------------0---------------|
E--|----------------------------------|----------------------------------|


7 -|--|---.---|---.---|---.---|---.---|--|---.---|---.---|---||--|---.---|
E--|--2-----5-5p3---2-0-----3-3p2-0---|----------------------||--5-----5-|
B--|----------------------------------|--3-------3-------3---||--7-----7-|
G--|----------------------------------|----------------------||----------|
D--|--0-------------------------------|--0-------0-------0---||----------|
A--|------------------0---------------|----------------------||----------|
E--|----------------------------------|----------------------||----------|
                                                                 1
                                                                 3


9 -|--|---.---|---.---|---.---|---.---|--|---.---|---.---|---.---|---.---|
E--|--7-----5-7-----5-7-----5-3-----2-|--0-----2-3-----2-0-----2-3-----4-|
B--|--8-----7-8-----7-8-----7-5-----3-|--2-----3-5-----3-2-----3-5-----6-|
G--|--0---------------0---------------|----------------------------------|
D--|----------------------------------|----------------------------------|
A--|----------------------------------|--0---------------0---------------|
E--|----------------------------------|----------------------------------|
      2     1
          3     3


11-|--|---.---|---.---|---.---|---.---|--|---.---|---.---|---.---|---.---|
E--|--5----\4-5-----4-5-----3-2-----0-|--------------------------2-----0-|
B--|--7----\6-7-----6-7-----5-3-----2-|--3-----2-0-----4-2---------------|
G--|----------------------------------|--4-----2-1-----3-2---------------|
D--|--0---------------0---------------|----------------------------------|
A--|----------------------------------|------------------0---------------|
E--|----------------------------------|--0-------------------------------|
      1
          3



13-|--|---.---|---.---|---.---|---.---|--|---.---|---.---|---.---|---.---|
E--|--------------------------0-----2-|--2h3-----0---------------5-----3-|
B--|--2h3-------------------3---------|----------------------------------|
G--|----------2-----------------------|----------------------------------|
D--|--0---------------0---------------|----------------------------------|
A--|----------------------------------|--0---------------0---------------|
E--|----------------------------------|----------------------------------|


15-|--|---.---|---.---|---.---|---.---|--|---.---|---.---|---.---||
E--|--2-----5-5p3---2-0-----3-3p2---0-|--------------------------||
B--|----------------------------------|--2h3-----3-------3-------||
G--|----------------------------------|--------------------------||
D--|--0-------------------------------|--0-------0-------0-------||
A--|------------------0---------------|--------------------------||
E--|----------------------------------|--------------------------||
Вверх

Большая саната в А, 1-ая часть

Allegro risoluto
E||----------------------|--2-----0--------2-0---------|
B||--2---------3----4----|---------------------3-2-3-0-|
G||----------------------|---------------2-------------|
D||-------2--------------|-------------2---------------|
A||--0-------------------|-----0--4--------------------|
E||----------------------|---------------------0-------|


--------------------------|--------------------------|--2---------4--7--5--2--|
--------------0-----3--2--|--0-----------2-----------|--3---------------------|
--2-----------------------|-----1--1--1--2-----------|-------2----------------|
-----2-----2-----2--------|-----------------2--------|--0---------------------|
--0-----4-----------------|--0-----------------4--0--|------------------------|
--------------4-----0-----|--------------------------|------------------------|


----------------5-4-2-0-----|-------------------------|
--4--5--5---------------3-2-|--2--0--0-------2--0-----|
--------2-------------------|----------------------2--|
----------------------------|--0----------1-----------|
--4--------0----------------|-------------------------|
----------------------------|-------------------------|


--------------------------|--9----------10----11----|
--------------------------|-------------------------|
--2--1--------------------|-------------------------|
--------4--2-----0--------|-------11----------------|
--------------------4--2--|--0----------------------|
--0-----------0-----------|-------------------------|


--14-----12------14-12-10-9-10----|---------------7----10--9--|
-------------------------------12-|--10-----------------------|
----------------------------------|---------------------------|
----------------------------------|---------------------------|
------0---------------------------|------0-----0--------------|
----------------------------------|---------9----------0------|


--7------------------------|--2---------4--7--5--2--|-------------------------|
-----9--9--9--10-----------|--3---------------------|--4--5--5--3--3--2----2--|
---------------------------|-------2----------------|--------2-----2----------|
--------------7------------|--0---------------------|--------------4----------|
------------------7-----0--|------------------------|--4----------------------|
--0------------------9-----|------------------------|-------------------------|


-----------2-------------|-----9--7-------------------------7--9--|
-----0--3----------2--0--|-----------10--9--7-----7--9--10--------|
--3-----------2----4-----|---------------------9------------------|
--0-----------2----------|--7-------------------------------------|
-------------------------|--0------------------0------------------|
-------------------0-----|----------------------------------------|


--10--9--7--7------------------0--2--4--|--5----------------------------------|
---------------10--9--9--7--5-----------|-----2--0-----------------------0--2-|
----------------------------------------|-----------2--1-----------1--2-------|
----------------------------------------|-----------------4--2--4-------------|
----------------------------------------|--0-----------------0----------------|
--0---------0---------0--------0--------|-------------------------------------|


--------------------------------------|-----------5--------|
--3--2--0--0--------------------------|-----------2--------|
--------------2--1--1--------------1--|--2--------2--------|
-----------------------4--2--2--4-----|-----------2--------|
--------------------------------------|--0--------0--------|
--0--------0--------0--------0--------|--------------------|


--9-------7--5--4--------|-------------2--4--5--9--|--7-------5--4--2--------|
-------------------7--6--|--7-------2--------------|-------------------5--4--|
--6----------------------|-------------------------|-------------------------|
-------------------------|-------------------------|-------------------------|
-------0-----------4-----|-------------------------|--7----------------------|
-------------------------|-------2-----------------|-------0-----------------|


--0----------------0--2--|--3-------------------0---0---0---|
----------0--2--4--------|----------1---------------1-------|
-------------------------|----0---0---0---0---0---0---0---0-|
--2----------------------|------2-------2-------2-------2---|
-------------------------|--3---------------3---------------|
-------0-----------------|----------------------------------|


--3-------------------0---0---0---|--3-------------------3---2---0---|
----------0---------------0-------|----------0---------------0-------|
----0---0---0---0---0---0---0---0-|----0---0---0---0---0---0---0---0-|
------2-------2-------2-------2---|------2-------2-------2-------2---|
--2---------------2---------------|--1---------------1---------------|
----------------------------------|----------------------------------|


-----------0-2-4-5--5--4--2--|--4----4---5---6---7---7---5---4-|
--4--0-2-4----------------0--|--0------------------------------|
--------------------4--4-----|---------------------------------|
--------------------4--2--1--|--2--2---4---5---6---6---4---2---|
--2--------------------------|---------------------------------|
-----------------------------|---------------------------------|


--2--------0-2-4-5--5--4--2--|--4----4---5---6---7---7---5---4-|
-----0-2-3----------------0--|--0------------------------------|
--------------------4--4-----|---------------------------------|
--1-----------------4--2--1--|-----2---4---5---6---6---4---2---|
-----------------------------|---------------------------------|
-----------------------------|--0------------------------------|


-----2--2--4--2--4--2--4--|--2--11--11--12--11--12--11--12--|
-----0--0--0--0--0--0--0--|--0------0---0---0---0---0---0---|
--------------------------|---------11--13--11--13--11--13--|
-----------2-----2-----2--|---------------------------------|
--2-----2-----2-----2-----|--2------------------------------|
--------------------------|---------------------------------|


--11--14--17--16--14--------------|-------------------------------------|
--0-------------------17--16--14--|--12--11-12-13-14--12--10--9--10--7--|
--11------------------------------|-------------------------------------|
----------------------------------|-------------------------------------|
----------------------------------|-------------------------------------|
----------------------------------|-------------------------------------|


--0-----------0--0--------|--------------------------|--0--4--0----------5----|
-----0-----0--------4--2--|--0--------------0--2--4--|-----------4--2----7----|
--------1-----------------|-----2-----2--------------|------------------------|
--------------------------|--------1-----------------|------------------------|
--------------------------|--------------2-----------|--------------0---------|
--0-----------0-----------|--------------------------|--------4---------------|


-------------------------|--------------------------|-------------------------|
--9-------10-9-7----8----|--9-----------9--7--------|-----------------------9-|
--9------------8---------|--------------------9--8--|--6--------------8--9----|
-------9-------9---------|-----6-----6--------------|-----6-----6-------------|
-------------------------|--------6-----------------|--------7----------------|
--7----------------------|--8-----------8-----------|--9-----------9----------|


-----7--------0----------------|------------------------|
--7--------9-------------4--2--|--2---------------------|
--------7--------6--4----------|------------4--2--1-----|
--------------------4----------|-------4-------------4--|
-----------7-------------------|------------------------|
-------------------------2-----|------------------------|


--12---------------12--11--9--|--------------------------------|
------------------------------|--12------------12--12--11--10--|
--9---------------------------|--------------------------------|
------9------9----------------|--------------------------------|
---------11-------------------|------9------9------------------|
----------------0-------------|--11-----11-----11--------------|


-------------------5----|--4-----------2----3----|--4--------------4--6--8--|
--9--7------------------|-----0-----0--4----2----|--------------------------|
--------9--8--6----6----|--------3-----4----2----|--5-----------------------|
------------------------|------------------------|--6--1-----1--------------|
-------------------0----|--2---------------------|--------3-----------------|
--0---------------------|------------------------|--------------4-----------|


--9--11--12-------9----------|--------------------------|
---------9-----------10------|--9-----------------9--7--|
---------9---------------11--|------11--9---------8-----|
-----------------------------|----------8----9----------|
--0------------0-------------|--11----------------------|
-----------------------------|--------------------7-----|


--------0-6-7-9-7-------0-6-7-9-7-|--------2-5-4-2-0-----------------|
------0---------------0-----------|------0-----------4-2-0-----------|
----------------------------------|----2-------------------2-1-------|
----6---------------6-------------|----------------------------4-2-1-|
----------------------------------|--2-------------------------------|
--0---------------0---------------|----------------------------------|


--------0-6-7-9-7-------0-6-7-9-7-|--------2-5-4-2-0-----------------|
------0---------------0-----------|------0-----------4-2-0-----------|
----------------------------------|----2-------------------2-1-------|
----6---------------6-------------|----------------------------4-2-1-|
----------------------------------|--2-------------------------------|
--0---------------0---------------|----------------------------------|


--------0---4---5---7----9----10----9-|-----10----9---7---5---4---2---0-----|
------0---5---7---9---10---12----11---|--12----10---9---7---5---3---2---0-3-|
----1---------------------------------|-------------------------------------|
--------------------------------------|-------------------------------------|
--------------------------------------|-------------------------------------|
--0---------------0-------------------|-------------0-------0-------0-------|


-----------0--2--4--5--7--|--9--11--12--11--14--12--11--9--|
--2--2--4-----------------|--------------------------------|
--2-----------------------|--------------------------------|
--------------1--2--4--6--|--7--9---11--10--13--11--9---7--|
-----0--2--4--------------|--------------------------------|
--------------------------|--------------------------------|


--7--12--11--10--9--8--7--6--|--7--12--16--0--4--4-2-4-2-0-2-|
-----------------------------|-------------------------------|
-----------------------------|-------------------------------|
--6--------------------------|-------------------------------|
-----------------------------|-------------------------------|
-----------------------------|-------------------------------|


--------0-6-7-9-7-------0-6-7-9-7-|--------2-5-4-2-0-----------------|
------0---------------0-----------|------0-----------4-2-0-----------|
----------------------------------|----2-------------------2-1-------|
----6---------------6-------------|----------------------------4-2-1-|
----------------------------------|--2-------------------------------|
--0---------------0---------------|----------------------------------|


--------0-6-7-9-7-------0-6-7-9-7-|--------2-5-4-2-0-----------------|
------0---------------0-----------|------0-----------4-2-0-----------|
----------------------------------|----2-------------------2-1-------|
----6---------------6-------------|----------------------------4-2-1-|
----------------------------------|--2-------------------------------|
--0---------------0---------------|----------------------------------|


--------0---4---5---7----9----10----9-|-----10----9---7---5---4---2---0-----|
------0---5---7---9---10---12----11---|--12----10---9---7---5---3---2---0-3-|
----1---------------------------------|-------------------------------------|
--------------------------------------|-------------------------------------|
--------------------------------------|-------------------------------------|
--0---------------0-------------------|-------------0-------0-------0-------|


-----------0--2--4--5--7--|--9--11--12--11--14--12--11--9--|
--2--2--4-----------------|--------------------------------|
--2-----------------------|--------------------------------|
--------------1--2--4--6--|--7--9---11--10--13--11--9---7--|
-----0--2--4--------------|--------------------------------|
--------------------------|--------------------------------|


--7----7---9---10----12----14----16----17-|--19------------------16--19--19--|
------------------------------------------|------12--14--16--17--------------|
------------------------------------------|----------------------------------|
--6--6---7---9----11----12----14----16----|--18------------------------------|
------------------------------------------|----------------------------------|
------------------------------------------|----------------------------------|


----------0--4--7--12----------|--4---2-4-2-4-2-4-2-4-2-4-2-0-2-|
--------0--------------12------|--------------------------------|
------1--------------------13--|--4-----------------------------|
----2--------------------------|--------------------------------|
--2----------------------------|--------------------------------|
-------------------------------|--------------------------------|


--0-----------------------|-----------------7--6--5--|
-----0-----0-----5--4--2--|--0-----------------------|
--------1-----------------|-----2-----2--------------|
--------------------------|--------1-----------------|
--------------------------|--------------2-----------|
--0-----------0-----------|--------------------------|


--5----4----4--2--4--5--7--9--|--9--------------------|
------------------------------|-----------------9--7--|
------------------------------|-------9---------8-----|
------------------------------|-------8----9----------|
------------0-----------------|-----------------------|
--0---------------------------|-----------------7-----|


--0----------------0--------------|-----------------7--6--5--|
-------0-----0--------4--3--2--1--|--0-----------------------|
----------1-----------------------|-----2-----2--------------|
----------------------------------|--------1-----------------|
----------------------------------|--------------2-----------|
--0-------------0-----------------|--------------------------|


--5----4-------2--4--5--7--9--|--9----0---------------|
------------------------------|------------0----9--7--|
------------------------------|-----------------8-----|
------------------------------|-------8---------------|
------------0-----------------|-----------------------|
--0---------------------------|-----------------7-----|


--------0----2--------0----11--|--------0----2--------0----11--|
------0------0------0---0--10--|------0------0------0---0--10--|
----1-------------1--------11--|----1-------------1--------11--|
----------1-----2--------------|----------1-----2--------------|
-------------------------------|-------------------------------|
--0----------------------------|--0----------------------------|


-----0--4--7--12-----------|-------0----0--------|---------------------|
---------------------------|-------0----0--------|---------------------|
---------------------------|-------1----1--------|---------------------|
------------------2--------|--2----2----2--------|--9--------7----6----|
---------------------2-----|-------2----2--------|---------------------|
--0---------------------4--|--0----0----0--------|--7--------5----4----|


--------------------|---------------------|--------------------|
--------------------|---------------------|--------------------|
--------------------|---------------------|--------------------|
--4--------2--------|--9--------7----6----|--4--------3--------|
--------------------|---------------------|--------------------|
--2--------0--------|--7--------5----4----|--2--------1--------|


---------------------|----------------------|--4--2--0-----------------|
---------------------|----------------------|--6--3--2--3--2--0--------|
--7--------6----4----|----------------------|-----------4--2--1--2--1--|
---------------------|--7----6----4----3----|--------------------4--3--|
--5--------4----2----|----------------------|--------------------------|
---------------------|--5----4----2----1----|--------------------------|


---------------------------------|----------------------------------|
---------------------2---2---2---|--3-------2-----------2---2---0---|
--2------------------------------|----1---1---1---1---1---1---1---1-|
-------4---4---4---4---4---4---4-|------3-------3-------3-------3---|
-----0-------0-------0-------0---|----------------------------------|
--2------2-------2-------2-------|--1-------1-------1-------1-------|


----------------------------------|---------------------4-2-0-------|
----------------------2---2---2---|--3-------2----------------3-2-0-|
--2-------------------------------|----1---1---1---1----------------|
----4---4---4---4---4---4---4---4-|------3-------3------------------|
------0-------0-------0-------0---|---------------------------------|
--2-------2-------2-------2-------|--1-------1-------1--------------|


----------------------------------|----------3-----------0-----------|
----------------------2---2---2---|--2-----------------------3---2---|
--2-------------------------------|----------------------------------|
----4---4---4---4---4---4---4---4-|----2---2---2---2---2---2---2---2-|
------0-------0-------0-------0---|------0-------0-------0-------0---|
--2-------2-------2-------2-------|--0-------0-------0-------0-------|


----------------------------------|----------2-----------------------|
--3-------------------3---3---3---|--2-------------------5---3---2---|
----------------------------------|----3---3---3---3---3---3---3---3-|
----0---0---0---0---0---0---0---0-|------4-------4-------4-------4---|
------0-------0-------0-------0---|----------------------------------|
--2-------2-------2-------2-------|--2-------2-------2-------2-------|


----------------------------------|----------2----------5-3-2-0-----|
--3-------0-----------0---2---3---|--2--------------------------3-2-|
----------------------------------|----3---3---3---3----------------|
----0---0---0---0---0---0---0-----|------4-------4------------------|
------2-------2-------2-------2-4-|---------------------------------|
--2-------2-------2-------2-------|--2-------2-------2--------------|


----------------------------------|----------------------------------|
--0-------------------0---0---0---|--3-------1-----------3-1-0---1---|
----------------------------------|----------------------------------|
----0---0---0---0---0---0---0---0-|----0---0---0---0---0---0---0---0-|
------2-------2-------2-------2---|------0-------0-------0-------0---|
--2-------2-------2-------2-------|--2-------2-------2-------2-------|


----------------------3-----------|---------------------5-3-2-0-----|
--0-------3---------------3---0---|--3-------1------------------3-1-|
----------------------------------|---------------------------------|
----0---0---0---0---0---0---0---0-|----0---0---0---0----------------|
------2-------2-------2-------2---|------0-------0------------------|
--3-------3-------3-------3-------|--2-------2-------2--------------|


----------------------------------|----------2-----------------------|
--0-------------------0---0---0---|--0-------------------0---0---0---|
----------------------------------|----2---2---2---2---2---2---2---2-|
----0---0---0---0---0---0---0---0-|------1-------1-------1-------1---|
------2-------2-------2-------2---|----------------------------------|
--3-------3-------3-------3-------|--2-------2-------2-------2-------|


----------3-----------------------|----------3-----------3-1-0-------|
--0-------------------0---0---0---|--0-------------------------3-1-0-|
----1---1---1---1---1---1---1---1-|----0---0---0---0---0---0---0---0-|
------2-------2-------2-------2---|------0-------0-------0-------0---|
----------------------------------|----------------------------------|
--0-------0-------0---------------|--1-------1-------1-------1-------|


-----3-3-3-3-3-3-3-3---3---3---3-|----3---3---3---3---3---3---3---3-|
--1----------------------3---5---|--3-------------------------------|
---------------------5-----------|------5---4---2---0---------------|
---------------------------------|----------------------3---2---0---|
---------------------------------|----------------------------------|
--0------------------------------|----------------------------------|


--3--0-0-0-0-0-0-0-0---0---0---0-|----0---0---0---0---0---0---0---0-|
--1----------------------0---1---|--0-------------------------------|
--0------------------2-----------|------2---1-----------------------|
--2------------------------------|--------------3---2---0-----------|
--3------------------------------|--------------------------3---2---|
---------------------------------|----------------------------------|


--0--5-5-5-5-5-5-5-5---5---5---5-|----5-5-5---5-5-5-5-5---5---5---5-|
--1------------------------------|----------------------------------|
--2------------------------------|----------2-----------------------|
--2--------------------------2---|--3---------------------------3---|
--0------------------0---3-------|----------------------0---3-------|
---------------------------------|----------------------------------|


----5-5-5---5-5-5-5-5---5---5---5-|----5-5-5---5-5-5-5-5---5---5---5-|
----------------------------------|----------------------------------|
----------2-----------------------|----------------------------------|
--2---------------------------2---|----------7-----------------------|
----------------------0---3-------|--6-------------------8---7---6---|
----------------------------------|----------------------------------|


-----------------9-11-12--0--0--0--|--0----------10-12-14-16-17--0--0--0--|
---------9-10-12----------0--1--3--|--1-10-12-13-----------------1--3--1--|
----9-11------------------1--2--4--|--2-----------------------------4--2--|
-----------------------------------|--------------------------------------|
-----------------------------------|--0--------------------------0--0--0--|
--0-----------------------0--0--0--|--------------------------------------|


-----------------9-11-12--0--0--0--|--0----------10-12-14-16-17--0--0--0--|
---------9-10-12----------0--1--3--|--1-10-12-13-----------------1--3--1--|
----9-11------------------1--2--4--|--2-----------------------------4--2--|
-----------------------------------|--------------------------------------|
-----------------------------------|--0--------------------------0--0--0--|
--0-----------------------0--0--0--|--------------------------------------|


--0--0--0--0--0--11--12--11--|--12-----------4--5--7--9--|
--0--1--0--1--0--10--9---10--|--9---4--5--7--------------|
--1--2--1--2--1--------------|--9------------1--2--4--6--|
-----------------------------|------1--2--4--------------|
-----0-----0-----------------|---------------------------|
--0-----0-----0--------------|--0------------------------|


--10----9---10---9---10---9---10---9-|--7----5---7---5---7---5---7---5-|
-------------------------------------|---------------------------------|
--7---6---7----6---7----6---7----6---|---------------------------------|
-------------------------------------|--9--7---9---7---9---7---9---7---|
-------------------------------------|---------------------------------|
-------------------------------------|---------------------------------|


----4---3---4---2---0-------0---1-|----2---1---0---------------------|
------------------------4---------|----------------4---3---2---1---0-|
--1---0---1-----------------------|----------------------------------|
--------------4---2---1---2---3---|--4---3---2---1---0---------------|
----------------------------------|----------------------4---3---2---|
----------------------------------|----------------------------------|


------------------------------|-----------------------|
------------------------------|-----------------------|
----3---2---1---0-------------|-------------------0-1-|
--------------------4---3-----|-----2---------3-4-----|
--1---0-----------------------|-----------------------|
----------4---3---2---1-------|--0--------------------|


--------------------------|--------------------------|------------------------|
--------------------------|--------------------------|-----2-------------3----|
--2--------------2--1-----|-----------------------1--|--2-----2--1-------4----|
-----2-----2-----------4--|--2--------------2--4-----|--------------4---------|
--0-----4-----0-----------|-----2-----2--------------|--0-----------5---------|
--------------------------|--------4-----0-----------|------------------------|


------------------------|--------------------------|--------------------------|
--2-------3-2-0----1----|--2--------------0--------|-----------------------2--|
--2---------------------|-----1-----1--------2--1--|-----------------1--2-----|
-------2----------------|--------3-----------------|--4-----------------------|
--0---------------------|--------------4-----------|-----4-----4--------------|
-------0----------------|--------------------------|--------5-----2-----------|


--------0----------------------|------------------------|
--0--4-----2-------------------|------------------------|
--------------2----------1-----|------------------------|
-----------------4--2-------4--|-------1----2--0--------|
-----------0--------2----2-----|--2---------------4--2--|
--4----------------------------|------------0-----------|


--5--------------5--4--2--|--0--------------0--2--4--|
--------------------------|--------------------------|
--2-----------------------|--------------------------|
-----2-----2--------------|--2-----------------------|
--0-----4-----0-----------|-----2-----2--------------|
--------------------------|--------4-----0-----------|


--5--7--9--5--------10----|--9-------10-9-7----8----|
--------------7-----------|---------------0---------|
-----------------7--------|-------------------------|
--------------0-----------|-------------------------|
--0-----------------------|--0----------------------|
--------------------------|-------0-----------------|


--9--------------9--11--13--|--14--16--17-------14----------|
----------------------------|-----------------------15--12--|
--6-------------------------|-------------------------------|
-----6-----6----------------|----------------0--------------|
--------8-------------------|-------------------------------|
--------------9-------------|-------------------------------|


---------------------9--7--|--------0-11-12-14-12-------0-11-12-14-12-|
--14--12--10---------------|------------------------------------------|
----------8-----9----6-----|------6-------------------6---------------|
----------7----------9-----|----7-------------------7-----------------|
---------------------------|--0-------------------0-------------------|
---------------------0-----|------------------------------------------|


----------10-9-7--------------------|-------0-11-12-14-12-------0-11-12-14-12-|
------0----------10-9-7-------------|-----------------------------------------|
--------7---------------9-7-6-------|-----6-------------------6---------------|
----6-------------------------9-7-6-|---7-------------------7-----------------|
------------------------------------|-0-------------------0-------------------|
--0---------------------------------|-----------------------------------------|


----------10-9-7--------------------|
------0----------10-9-7-------------|
--------7---------------9-7-6-------|
----6-------------------------9-7-6-|
------------------------------------|
--0---------------------------------|


--------0----9----10----12----14----15----14-|
----------10---12----14----15----17----16----|
------6--------------------------------------|
----7----------------------------------------|
--0------------------------------------------|
---------------------------------------------|


-----16----14----12----10----9---7---5---4-|--2--2--4--5--7--9--10--12--|
--17----15----14----12----10---9---7---5---|--3-------------------------|
-------------------------------------------|----------------------------|
-------------------------------------------|-----0--2--4--6--7--9---11--|
--------------0-----------0--------0-------|----------------------------|
-------------------------------------------|----------------------------|


--14--16--17--16--17--16--17--14--|--12--17--16--15--14--13--12--11--|
----------------------------------|----------------------------------|
----------------------------------|----------------------------------|
--12--14--16--15--16--15--16--12--|--11------------------------------|
----------------------------------|----------------------------------|
----------------------------------|----------------------------------|


--12--17--12--9--9------9----------|--------0-11-12-14-12-------0-11-12-14-12-|
--------------------12----12-10-12-|------------------------------------------|
-----------------------------------|------6-------------------6---------------|
-----------------------------------|----7-------------------7-----------------|
-----------------------------------|--0-------------------0-------------------|
-----------------0-----------------|------------------------------------------|


----------10-9-7--------------------|-------0-11-12-14-12-------0-11-12-14-12-|
------0----------10-9-7-------------|-----------------------------------------|
--------7---------------9-7-6-------|-----6-------------------6---------------|
----6-------------------------9-7-6-|---7-------------------7-----------------|
------------------------------------|-0-------------------0-------------------|
--0---------------------------------|-----------------------------------------|


----------10-9-7--------------------|
------0----------10-9-7-------------|
--------7---------------9-7-6-------|
----6-------------------------9-7-6-|
------------------------------------|
--0---------------------------------|


--------0----9----10----12----14----15----14-|
----------10---12----14----15----17----16----|
------6--------------------------------------|
----7----------------------------------------|
--0------------------------------------------|
---------------------------------------------|


-----16----14----12----10----9---7---5-0-3-|--2--2--4--5--2--2--4--5--|
--17----15----14----12----10---8---7-------|--3-----------------------|
-------------------------------------------|--------------------------|
-------------------------------------------|-----0--3--4--0--0--3--4--|
--------------0-----------0--------0-------|--------------------------|
-------------------------------------------|--------------------------|


--2--2--4--5--7--5--4--2--|--0----0---2---4---5---7---9---10-|
--------------------------|----------------------------------|
--------------------------|----------------------------------|
--0--0--3--4--6--4--2--0--|---------0---2---4---6---7---9----|
--------------------------|--4--4----------------------------|
--------------------------|----------------------------------|


--12--0-------------9--12--12--|------------0-5-9-12--17----------|
-------------9--10-------------|----------2---------------17------|
---------11--------------------|--------2---------------------18--|
--11---------------------------|------2---------------------------|
-------------------------------|----0-----------------------------|
-------------------------------|--0-------------------------------|


--9--9-7-9-7-9-7-9-7-9-7-9-7-5-7-|--5--0-----0-----5--4--2--|
---------------------------------|--------2-----------------|
---------------------------------|--------------------------|
---------------------------------|--------------------------|
---------------------------------|--0-----------0-----------|
--0------------------------------|--------------------------|


--0-----------0--12--11--10--|--10----9-------7--9--10--12--14--|
-----0-----0-----------------|----------------------------------|
--------1--------------------|----------------------------------|
-----------------------------|-------------0--------------------|
-----------------------------|--0-------------------------------|
--------------0--------------|----------------------------------|


--14----------------9--7--|------0-----0-----5--4--3--2--1--|
--------------------9-----|--10-----2-----------------------|
--------14----------------|---------------------------------|
--------13----14----------|---------------------------------|
--------------------------|--0------------0-----------------|
--------------------0-----|---------------------------------|


--0-----------0--14--12--10--|--10----9-----9--7--9--10--12--14--|
-----------------------------|-----------------------------------|
-----1-----1-----------------|-----------------------------------|
--------2--------------------|--12----11----0--------------------|
-----------------------------|--0--------------------------------|
--------------0--------------|-----------------------------------|


--14----------------9--7--|--------0----0--------0----12--|
--------------------------|------2------3------2------15--|
--------14----------6-----|----2--------4----2--------13--|
--------13----14----9-----|-------------------------------|
--------------------------|--0-------------0--------------|
--------------------0-----|----------4-------------0------|


--------0----0--------0----12--|---------9---12--17-------------------|
------2------3------2------15--|--------------------------------------|
----2--------4----2--------13--|-----14----------14-----14------------|
-------------------------------|---------11--14---------------14---11-|
--0-------------0--------------|--0--12--------------12---------------|
----------4-------------0------|---------------------------12----9----|

-----------5----5----|--5----------------||
---------------------|-------------------||
-----------6----6----|--6----------------||
--7--------7----7----|--7----------------||
--0--------0----0----|--7----------------||
---------------------|--5----------------||
Вверх

Каприз №1

Andante
                       Все похожие пассажи            IV
     p m i m a m i p <-играются так же
E||--------0-0-------------2-2-------------0-0-------------7-7-------|
B||------0-----0---------0-----0---------0-----0---------4-----4-----|
G||----1---------1-----2---------2-----1---------1-----4---------4---|
D||--2-------------2-1-------------1-2-------------2-----------------|
A||------------------------------------------------------------------|
E||--------------------------------------------------7-------------7-|
     2 1             1 2   3         2 1             3 1 1 4



                                                    IV

--------0-0-------------2-2-------------0-0-------------7-7-------|
------0-----0---------0-----0---------0-----0---------4-----4-----|
----1---------1-----2---------2-----1---------1-----4---------4---|
--2-------------2-1-------------1-2-------------2-----------------|
------------------------------------------------------------------|
--------------------------------------------------7-------------7-|
  2 1             1 2   3         2 1             3 1 1 4



                  V                            VII

--------4-4-------------5-9-12-------6-6-------------7-11-14-|
-------------------------------------------------------------|
------4-----4---------6------------6-----6---------8---------|
----2---------2------------------4---------4-----------------|
--------------------7----------------------------9-----------|
--4-------------4-5------------6-------------6-7-------------|
  2 1 3 4         1 3 2 1 1 4  2 1 3 4         1 3 2 1 1  4




--------11-11-----------12-12------------14-14---------------16-16-------|
-----------------------9-----9--------12-------12----------12-----12-----|
------11-----11-----------------------------------------------------14---|
-----9---------9------9-------9-----13-----------13------14--------------|
--------------------7-----------7-9-----------------9-11--------------11-|
--11-------------11------------------------------------------------------|
  1  3 2 1          1 2 2 4       1 3 2  4            1  3 2 1




                       (Один и тот же аккорд, только перемещайте его по грифу)
                           V               VIII              V

-----------17-17---------------9-9-------------12-12-------------9-9-------|
--------14-------14----------5-----5---------8-------8---------5-----5-----|
---------------------------------------------------------------------------|
-----14-------------14-----5---------5-----8-----------8-----5---------5---|
--12-------------------0---------------------------------------------------|
-------------------------6-------------6-9---------------9-6-------------6-|
  1  2  3  4             2 1 1 4         2 1 1 4           2 1 1 4




                                                 VIII            VII

---------18-18---------------15-15--------------12-12-------------7-11-14-|
----------------------------------------------8-------8-------------------|
-------18-----18-----------15-----15----------------------------8---------|
-----14---------14--------------------------8-----------8-----------------|
-------------------------16---------16------------------------9-----------|
--15---------------15-12---------------12-9---------------9-7-------------|
   2 1 3 4            1   3 2 4           2 1 1 4           1 3 2 1 1  4




                          (флаж)                       (флаж)
                             |                          |  |
--------2-2-------------4-7-12-------2-2-------------4----12-|
------0-----0----------------------0-----0-------------12----|
----------------------4----------------------------4---------|
----1---------1-----2------------1---------1-----2-----------|
--0-------------0--------------0-------------0---------------|
------------------4----------------------------4-------------|
    1   2         2 1 3 4 1 4    1   2         2 1 3 4  1  1




   V          VIII    VII    IX (Малое б)

----5---7---9---8---7---7----12--|
--------5--------------------9---|
----6-------9---9---9---8----9---|
--------6---7---8---6--------9---|
----7-------------------9----11--|
--5---7---9---8---7---7---0------|
  1 1 3 4 2 4 1 1 2 3 1 1    4
    2   1   3   2   4   2    1
    3   2   1   1   1   3    1
                             1
                             3


                  IV (Малое б)                     VII

--------0-0-----------------------------0-0-------------7-7-------|
------------------------7-7---------------------------------------|
------4-----4---------4-----4---------4-----4---------8-----8-----|
----5---------5-----4---------4-----5---------5-------------------|
--7-------------7-6-------------6-7-------------7---9---------9---|
--------------------------------------------------7-------------7-|
  4 2 1           3 1 1 4         4 2 1           1 3 2 1




--------0-0-----------------------------0-0-------------7-7-------|
------------------------7-7---------------------------------------|
------4-----4---------4-----4---------4-----4---------8-----8-----|
----5---------5-----4---------4-----5---------5-------------------|
--7-------------7-6-------------6-7-------------7---9---------9---|
--------------------------------------------------7-------------7-|
  4 2 1           3 1 1 4         4 2 1           1 3 2 1



  VII                                             III

--------7-7-------------8-8-------------5-5-----------------------|
--------------------------------------------------------3-3-------|
------7-----7---------7-----7---------7-----7---------4-----4-----|
--------------------4---------4-----4---------4-------------------|
----9---------9---0-------------0-0-------------0---5---------5---|
--7-------------7---------------------------------3-------------3-|
  1 3 1 1           1 3 4           1 4 2         1 3 2 1


                                                       VIII
   III
--------3-3-------------7-7-------------10-10-------------8---12-|
--------------------------------------0-------0------------------|
------4-----4---------0-----0---------------------------9-----12-|
------------------------------------0-----------0----------------|
----5---------5-----5---------5--"10"------------"10"-10------12-|
--3-------------3-3-------------3-3---------------3-8-------9----|
  1 3 2 1         1 2   4         1     4           1 3 2 1 1 4
                                 "1"   "3"                    3
                                                              2

                    XII

-----------10----14----------12----14----15----17----19---8-|
-----------------------------------------12----15----15---5-|
--------11-------14-------12-------14---------------------0-|
-----------------------------------12----12----16----17-----|
-----12----------14----15-------------------12----14--------|
--10----------11----12----------14----15----------------8---|
  1  3  2  1  1  4  1  2  1  1  2  4  3  4  1   4 1  4  3 4
                 3                 3     2      2    2    1
                 2                 1     1      3    3



    VIII           i  i  a i  i a i i a i a
                   m  m  p m  m p m m p m p
--------12-15------10-8--7------------------|
------8------------12-10-8-10-8-7-5-3-1-0---|
---------------------------11-9-7-5-4-2-0-2-|
----8-------------------------------------4-|
--------------------------------------------|
--9-----------9-10--------------------------|
  2 1 1 4  4  1 1  2  1  1 2  2 1 4 1 1   1
                   4  3  2 3  3 1 3 2 2   3



                    I(partial)    i  i  a i  i a i i a i a
                                  m  m  p m  m p m m p m p
--------3-3-------------2-2-------10-8--7------------------|
------0-----0---------1-----1-----12-10-8-10-8-7-5-3-1-0---|
------------------------------------------11-9-7-5-4-2-0-2-|
----0---------0-----1---------1-0------------------------4-|
-----------------------------------------------------------|
--3-------------3-3-------------3--------------------------|
  3     4         3 1 1 2         2  1  1 2  2 1 4 1 1   1
                                  4  3  2 3  3 1 3 2 2   3



                                  i  i  a i  i a i i a i a
                                  m  m  p m  m p m m p m p
--------3-3-------------2-2-------10-8--7-5--3-2-----------|
------0-----0---------1-----1-----12-10-8-7--5-3-5-3-1-0---|
-------------------------------------------------5-4-2-0-2-|
----0---------0-----1---------1-0------------------------4-|
-----------------------------------------------------------|
--3-------------3-3-------------3--------------------------|
  3     4         3 1 1 2         2  1  1 2  2 1 4 1 1   1
                                  4  3  2 4  4 2 4 2 2   3



                                     P i  i a i i a i i a i a
                                     P m  m p m m p m m p m p
--------3-3-------------3-3-------|----9--8-6-6-4-3-----------|
----------------------------------|----11-9-8-8-6-4-6-4-2-1---|
------4-----4---------3-----3-----|-----------------6-5-3-1-3-|
----0---------0-----0---------0---|-------------------------5-|
----------------------------------|--6------------------------|
--3-------------3-3-------------3-|--3------------------------|
  1   3 2         1   3 2            4 2  2 2   2 1 4 2 1 2 1
                                     1 4  3 4   4 2 4 3 2 3 3



                                     P i  i  a i i a i i a i a
  IV              IV                 P m  m  p m m p m m p m p
--------4-4-------------4-4-------|----10-9--7-7-5-4-----------|
----------------------------------|----12-10-9-9-7-5-7-5-3-----|
------5-----5---------4-----4-----|------------------7-6-4-6-4-|
----------------------------------|------------------------7-6-|
----6---------6-----6---------6---|--7-------------------------|
--4-------------4-4-------------4-|--4-------------------------|
  1 3 2 1         1 3 1 1            4 1  1  1 1 1 1 4 2 1 2 1
                                     1 3  2  3 3 3 2 4 3 2 3 3



                                     p i  i  a  i  i a i i a i i
  V               V                  p m  m  p  m  m p m m p m m
--------5-5-------------5-5-------|----11-10-8--8--6-5-----------|
----------------------------------|----13-11-10-10-8-6-8-6-4-----|
------6-----6---------5-----5-----|--------------------8-7-5-7-5-|
----------------------------------|--------------------------8-7-|
----7---------7-----7---------7---|--8---------------------------|
--5-------------5-5-------------5-|--5---------------------------|
  1 3 2 1         1 3 1 1              2  2  2     2 1 4 2 1 2 1
                                       4  3  4     4 2 4 3 2 3 3



  VI              VI                 VI
--------6-6-------------6-6-------|--------6-6-------------9-9-------|
----------------------------------|----------------------------------|
------7-----7---------6-----6-----|------6-----6---------9-----9-----|
----------------------------------|----------------------------------|
----8---------8-----8---------8---|----9---------9-----9---------9---|
--6-------------6-6-------------6-|--6-------------6-6-------------6-|
  1 3 2 1         1 3 1 1            1 4 1 1         1 2 3 4



  VII             VII                VII
--------7-7-------------7-7-------|---------7-7----------------10-10---------|
----------------------------------|------------------------------------------|
------8-----8---------7-----7-----|-------7-----7-----------10-------10------|
----------------------------------|------------------------------------------|
----9---------9-----9---------9---|----10---------10-----10-------------10---|
--7-------------7-7-------------7-|--7---------------7-7-------------------7-|
  1 3 2 1         1 3 1 1            1  4 1 1          1 2  3  4



  VIII              VIII
---------8-8---------------8-8--------|
--------------------------------------|
-------9-----9-----------8-----8------|
--------------------------------------|
----10---------10-----10---------10---|
--8---------------8-8---------------8-|
  1 3  2 1          1 3  1 1



  VIII                                             VI (Малое б)
---------8-8---------------11-11--------|----------------------|
-------------------------7-------7------|------------6-6-------|
-------8-----8--------------------------|Pause-----6-----6-----|
----------------------------------------|----------------------|
----11---------11-----11-----------11---|--------8---------8---|
--8---------------8-8-----------------8-|------9-------------9-|
  1  4 1 1          2 3  1 4                   4 3 1 1



                                     IV
----------------------------------|--------4-4-------------0-0-------|
--------7-7-------------6-6-------|----------------------2-----2-----|
------8-----8---------6-----6-----|------5-----5---------------------|
----------------------------------|--------------------2---------2---|
----6---------6-----8---------8---|----6---------6---4-------------4-|
--8-------------8-9-------------9-|--4-------------4-----------------|
  3 1 4 3         4 3 1 1            1 3 2 1         4 1 2




--------2-2-------------0-0-------|--------4-4-------------0-0-------|
------4-----4---------2-----2-----|------1-----1---------2-----2-----|
----------------------------------|----------------------------------|
----1---------1-----2---------2---|----1---------1-----2---------2---|
--3-------------3-4-------------4-|------------------4-------------4-|
----------------------------------|--4-------------4-----------------|
  3 1 4 2         4 1 2              3 1 1 4         4 1 2



                                       V (Малое б)   VII
--------0-0-------------5-5-------|--------9-9---------7---7-|
------3-----3---------------------|------5-----5-------------|
----1---------1-------6-----6-----|--------------------8---8-|
----------------------------------|----5---------5-----------|
--2-------------2---7---------7---|--------------------9-0-9-|
------------------5-------------5-|--6-------------6-7-------|
  2 1 4           1 3 2 1            2 1 1           1 1
                                                       2
                                                       3


     (Малое б)       (Малое б)
        II     VII      IX
----4---5---7---7-|-----12--------0-0-------|
--------2---5-----|-----9-------------------|
----4-----------8-|-----9-------4-----4-----|
----2---2---6-----|-----9-----6---------6---|
------0---------9-|-----11--7-------------7-|
--4-------7---7---|--0----------------------|
  2 4   4 3 4 1 1       4   4 3 1
    3   1   1   2       1
    1   1   2   3       1
                        1
                        3


                                             a  i  i a  i  i  a i i
                                     p i m a p  m  m p  m  m  p m m
--------0-0-------------0-0-------|------------------9--------------|
----------------------------------|--------5-12-10-9-10-12-10-9-7-5-|
------5-----5---------3-----3-----|------4---13-11-9----13-11-9-8-6-|
----7---------7-----5---------5---|----6----------------------------|
--7-------------7-7-------------7-|--7------------------------------|
----------------------------------|---------------------------------|
  3 4 1           4 2 1              4 3 1 2 2  2  1 1  2  2  1 3 1
                                             3  3  1 2  3  3  1 4 2




                  VII                p i m a m  i
--------7-7-------------7-7-------|--------0-16-12-------12-12-------|
------5-----5---------------------|------0-------------9-------9-----|
----------------------8-----8-----|----------------------------------|
----6---------6-------------------|----6-------------9-----------9---|
--------------------9---------9---|--7-------------7---------------7-|
--7-------------7-7-------------7-|----------------------------------|
  3 2 1 4         1 3 2 1            2 1     4  1  1 2 3 4



                                                      a i
                                             p i m a  p m
----------12-12---------------12-12-------|--------12-----|
-------10-------10----------8-------8-----|------9--------|
------------------------------------------|---------------|
----11-------------11-----8-----------8---|----9------6-7-|
--7-------------------7-7---------------7-|--7--------7-9-|
------------------------------------------|---------------|
  1 3  2  4             1 2 3 4              1 2 3 4  1 2
                                                      2 4



  i  a i i  a i i
  m  p m m  p m m     IX
-------------------|--------12-12-------------11-11-------|
------------7-9-10-|------9-------9---------7-------7-----|
-----6-8-9--8-9-11-|----9-----------9-----8-----------8---|
--9--7-9-11--------|--9---------------9-9---------------9-|
--11---------------|--------------------------------------|
-------------------|--------------------------------------|
  2  1 3 2  1 4 2     1 1 1 4           3 2 1 4
  4  2 4 4  2 3 3




------------16---------------------17----------|
---------17---------------------17-------------|
-----------------------------14-------14-------|
-------14------14------------------------------|
-----14----------14-------15-------------15----|
--0-----------------0--0--------------------0--|
     1 1  4  3             2  1 3  4




------------16---------------------17----------|
---------17---------------------17-------------|
-----------------------------14-------14-------|
-------14------14------------------------------|
-----14----------14-------15-------------15----|
--0-----------------0---0-------------------0--|
     1 1 4  3             2  1  3  4



                                         a m m a m m a m m a m
                                       p p i i p i i p i i p i
------------16---------------12-----|----7-5-4-----------------|
---------17----------------8--------|----9-7-5-7-5-4-----------|
------------------------------------|----------8-6-4-6-4-------|
------14-------14--------8----------|----------------7-6-7-6-4-|
----14-----------14-----------------|--------------------9-7-6-|
--0-----------------0--9--------9-6-|--7-----------------------|
     1 1  4  3         2 1 1 4  2 1    2 2 2 1 2 2 1 4 1 2 1 1
                                         4 4 2 3 3 1 3 3 4 2 3




    (Малое б)       (Малое б)         (Малое б)        (Малое б)
       IV               V                IV                V
  p m i m a m i p p m i m a m i p    p m i m a m i p p m i m a m i p
----------4---------------5-------|----------4---------------5-------|
--------5---------------5---------|--------5---------------5---------|
------4-----4---------5-----5-----|------4-----4---------5-----5-----|
----6---------6-----7---------7---|----6---------6-----7---------7---|
--7-------------7-7-------------7-|--7-------------7-7-------------7-|
----------------------------------|----------------------------------|
  4 3 1 2 1       3 4 1 1 1          4 3 1 2 1       3 4 1 1 1




    (Малое б)      (Малое б)         (флаж)
       IV             III          i   | a m m  a m m  a  m
  p m i m a m i p p p i m a m   p  m p a p i i  p i i  p  i
----------4---------------3---|--------7---------------------|
--------5---------------5---5-|----5-------------------------|
------4-----4---------3-------|----4-------------------------|
----6---------6-----5---------|------6----------6-7-9--11-13-|
--7-------------7-4-----------|----------6-7-9--7-9-11-12-14-|
------------------------------|--7-------7-9-11--------------|
  4 3 1 2 1       2 3 1 4 1 4            1 2 2  1 2 2  2  2
                                         2 4 4  2 4 4  3  3




-----------0-0-------------------0-0-------------------0-0----------|
--------12-----12-------------13-----13-------------12-----12-------|
-----13-----------13-------14-----------14-------13-----------13----|
--14-----------------14-14-----------------14-14-----------------14-|
--------------------------------------------------------------------|
--------------------------------------------------------------------|
   3  2  1               3 2  1               3  2  1




-----------0-0-------------------0-0-------------------0-0----------|
--------12-----12-------------10-----10-----------------------------|
-----11-----------11-------11-----------11----------13-----13-------|
--13-----------------13-11-----------------11----13-----------13----|
----------------------------------------------14-----------------14-|
--------------------------------------------------------------------|
   3 1  2               2  3  1                3  1 2




--------0-0-------------0-0-------------0-0-------|
------7-----7---------4-----4---------5-----5-----|
----6---------6-----2---------2-----1---------1---|
--7-------------7-4-------------4-2-------------2-|
--------------------------------------------------|
--------------------------------------------------|
  3 2 4           3 1 4           2 1 4


                                                       a      a
                                                     p i m    i m  p m i m
--------0-0-------------0-0-------------0-0-------|------0------0--------0-|
------4-----4---------5-----5---------4-----4-----|----5------9--------5---|
----2---------2-----1---------1-----2---------2---|------------------------|
--3-------------3-2-------------2-3-------------3-|----6------6------6-----|
--------------------------------------------------|----------------7-------|
--------------------------------------------------|--0------0--------------|
  2 1 4           2 1 4           2 1 4                1    4      3 2 1
                                                       2    1



  a m i p p m i m a m i p    p    m
--0-------------0-0-------|--0----0--------||
----9---------5-----9-----|--0-------------||
--------------------------|--1-------------||
------6-----6---------6---|--2-------------||
--------7-7-------------7-|--2-------------||
--------------------------|--0-------------||
    4 2 3 3 2 1     4 3 2

Вверх

Каприз №11

(трель)
  E-------7--5--3--1----------------------------------------------------
  B--8----0----------6-----5----3----1----------------5--3--------------
  G--5--------------------------1---------5--7-5-4-5---------4h5p4h5p4--
  D-------0----------5-----5---------2----4-----------5------3----------
  A--7---------------3-----3----2----0----------------------------------
  E---------------------------------------4-----------3------3----------
     C    G          Csus4 C    E7   Am   D7b5/Ab     G      G7



                  (tr)
  E----8--7-5---------------8--765---------------8---6-4-4-3---3--2--3----
  B-----------8-------------------98--------------------------------------
  G----5----------4h5p4h5---5----------454545----5-------------------4----
  D---------------3--------------------3----------------------------------
  A----7--------------------7--------------------6-------------------5----
  E---------------3--------------------3----------------------------------
       C          G7        C          G7        Cm                  G



   ...Это "минорная" часть, изменение настроения....
                                             (*напряжение здесь)
  E----------6--5---------------3--1-------------------------------------
  B----8-----------8--6--4------------4--3--1--4--3--6--4--4--4--3-------
  G----------3------------------0----------------------------------------
  D----8-----------------5-----------------------------------------------
  A----6-----5-----------3------1--------------0--1--2--3--2--1--1-------
  E-----------------------------------------4----------------------------
       Eb    Bb/D        Cm     Gm/Bb       *???                 Bb



       (tr)                     (tr)                    (tr)
  E--------------------------------------------------------------------
  B---------------4--3--1-----------------4-3-2-1----------------------
  G----3h5p3h5p3-----------3----3h5p3h5-----------4-3---4h5p4h5--------
  D---------------1-----------------------1----------------------------
  A--------------------------------------------------------------------
  E----4----------3-------------4---------3-------------4--------------
       Ab         Eb            Ab        Eb



                        Более напряжённо...     замедление.....
  E-----------------------4-3---4-3------8------------------------
  B-----3-4-4-3------------------------8-----9-6---8-4-----6--3---
  G---5---------5--4-5--4-----4------5-----6-----5------4---------
  D---------------------5-----3------5-----6-----5------3---------
  A----------------------------------6-----8-----6------5---------
  E---3-----4---3-------------------------------------------------
                        G7           Cm    Db    Cm     G7



   Медленное ускорение...     (Эта часть подобна началу)
  E-------------------------------7-5----------------------------------
  B--------------------5-6-7-8--------8-6--6---5----3----1-------------
  G------------5-6-7-8-------5----4-----------------1------------------
  D---5--7-8-9-----------------------------5---5---------2-------------
  A--------------------------7----5--------3---3----2----0-------------
  E--------------------------------------------------------------------    
                             C    G            C    E7   Am


                                ...Напряжённо....
  E----------------------3--------8-7------7-8------10-8-----8-10--------
  B---------------5--3---------8-------10-------10--------12-------12----
  G---5--7-5-4-5---------4-----5----------------7------------------9-----
  D---4-----------5------3-------------10-----------------12-------------
  A----------------------------7-------8--------9---------10-------11----
  E---4-----------3------3-----------------------------------------------
      D7b5/Ab     G      G7    C       F        D          G       E


                      |-------прекрасный аккорд...
                      V
  E--12-10--8--10-12--13--10----10-----------------------------
  B---------------------------------13---13------12------------
  G---------9---------10--------9--------12------12------------
  D---------7--------------------------------------------------
  A-------------------11--------10-------10------10------------
  E------------------------------------------------------------
            Am        G#dim??   Cadd9    Gadd11  G


       финальные аккорды                          тянуть....
  E--------------------------------------------------------------
  B---------------------------------------------3----------------
  G----5-----5---5-----5---5---5---3---3---2---------------------
  D----2-----3---5-----7---7---4---5---2---3----3----------------
  A----3-----5---7-----8---6---5---5---3---3---------------------
  E---------------------------------------------4----------------
       C     Dm7 C/E   F   F7  D7  Gm  C7  F    G#dim


                     forte
  E---------------------------|
  B---------------------------|
  G----5------4------5--------|
  D----2-------------2--------|
  A-----------5------3--------|
  E----3------3---------------|
       C      G      C


Замечание:Аккорды звучат лучше если вы проводите по ним своими пальцами,
	  тогда каждая нота является, как бы дополнением предыдущей. Ко-
	  цовка, например, должна выглядить так.

                                                        тянуть....
  E-------------------------------------------------------------------
  B------------------------------------------------------3------------
  G------5-----5----5-----5----5----5----3----3----2------------------
  D-----2-----3----5-----7----7----4----5----2----3-----3-------------
  A----3-----5----7-----8----6----5----5----3----3--------------------
  E----------------------------------------------------4--------------
       C     Dm7  C/E   F    F7   D7   Gm   C7   F     G#dim?


      ...но проще это записать аккордами, для экономии пространства.

Вверх

Каприз №16

||-------3--5--6--2--5--3-------|------------10--8-------------------------|
||-----3------------------3-----|-------------------10--7------------------|
||---3----------------------3---|---2---2------------------7---------------|
||-5--------------------------5-|-4---1---0-------------------10--7--------|
||------------------------------|------------------------------------------|
||------------------------------|------------------------------------------|


|-----------------8---------------------|----------------------------13p10--|
|--------------7-----10--7--------------|-------------------------12------12|
|-----------8---------------8-----------|----7-----7-----------12-----------|
|----7--10---------------------10--8--7-|-8-----7-----------12--------------|
|-9-------------------------------------|------------10h14------------------|
|---------------------------------------|-----------------------------------|


|-8----------------------11p8------|-6-----------------------8-------------|
|---8-----------------10-------10--|---6---------11-10-8-------10----------|
|-----8------------10--------------|-----7------------------------11-------|
|-------10------10-----------------|-------8-------------------------------|
|------------12--------------------|----------------------9----------------|
|----------8-----------------------|----------6----------------------------|


|----------------------------------|----------10----14-10-----------------||
|-11p8-----11---11---11---11---11--|----10-------10-------10--------------||
|----------------------------------|-------11----------------11-----------||
|----------------------------------|----------------------------12-10-----||
|-------10----8----6----5----4-----|----------------------------------12--||
|----------------------------------|-10-----------------------------------||

повторить от начала


|-------------------------|---------------------------|---------------------
|---------6-9-8-6-----9-8-|-6-------------------------|-----------7-6-------
|-------7---------7-------|---8-7-5---8----10---8---7-|-------5-8-----8-5---
|---5-9-------------9-----|---------------------------|---3-7-------------7-
|-------------------------|---------------------------|---------------------
|-7-----------------------|---------8---10----8---6---|-5-------------------


-----|------------------------------|-----------------------------|---------
-7-6-|---------------------11-------|-10p8------8p6---------------|---------
-----|-8-7-5-----7----10---------10-|-------------------10p8------|-8p7-----
-----|-------8----------------------|-----------------------------|---------
-----|-------------------8----------|------6-10-----5-8-----------|---------
-----|---------6---10---------10----|------------------------8-11-|---------


---------------------13h18-|-------------------------------------|----------
------------------15-------|-------14-------------14-------------|----------
----------7h10-15----------|-14-15----15-------------15----------|----------
--------8------------------|-------------17-15-14-------17-15-14-|-17-15-14-
------8--------------------|-------------------------------------|----------
-6-10----------------------|-------------------------------------|----------


----------------------------|-------------------------------------|---------
----------------------------|-------------------------------------|---------
----------------------------|-------------------------------------|---------
-16-15-14-17-15-14-15-13----|-12----------------------------------|---------
-------------------------15-|----13-12-14-13-12-15-13-12-13-------|---------
----------------------------|-------------------------------14-12-|-15-13---


-12-14-13-12-15-13-12-13-------|-------------------------------------|------
-------------------------16-13-|-15----------------------------------|------
-------------------------------|----15-14-16-15-14-17-15-14-15-------|------
-------------------------------|-------------------------------16-14-|-17-15
-------------------------------|-------------------------------------|------
-------------------------------|-------------------------------------|------


------------------------------|----------------------------|---8-5-8---8---8
------------------------------|----------------------------|---------6------
------------------------------|----------6-7---------------|-------------8--
-14-16-15-13------------------|--------8-----7-10-8--------|----------------
-------------15-12------------|------8--------------8------|----------------
-------------------13-12-11-8-|-6-10------------------10-6-|-5--------------


---8---8-|-------------------------|---10-6-10---10---10---10---10-|----11--
---------|---------3-4---3---------|-----------6-------------------|--------
-5-------|-----2-5-----4---5-2-----|----------------7--------------|--------
-----7---|-------------------------|-0-------------------8---------|--------
---------|-3h6-----------------6-3-|--------------------------8----|-10-----
---------|-------------------------|-------------------------------|--------


-10-11---10-9-10---9-8-9-|---10-9-10---8-7-8---6-5-6-|----------------------
-------------------------|---------------------------|----------------------
-------------------------|---------------------------|---------------8h12---
-------------------------|---------------------------|------5h8-8h11--------
-------8---------7-------|-8---------6-------5-------|-6h10-----------------
-------------------------|---------------------------|----------------------


------6h11-|-------------------------8h11-|--------------------------8h11--|
-8h11------|--------------------9h13------|--------------------10h13-------|
-----------|-----------5h8-8h13-----------|-----------5h8-8h14-------------|
-----------|------6h10--------------------|------7h10----------------------|
-----------|-6h11-------------------------|-6h12---------------------------|
-----------|------------------------------|--------------------------------|


|-10-13----------10------------------|-------------------------------------|
|-------10-13-11-------10----11------|---------------11-10-9---------------|
|-------------------11----12------10-|----12-----------------12-11-10-9----|
|-------------------------------12---|-14----9-12-10-----------------------|
|------------------------------------|-------------------------------------|
|------------------------------------|-------------------------------------|


|-----------------------------|---------------------------------|-----------
|-----------------------------|---11-10-9-----------------------|-----------
|-12-10-----------------------|-----------12-11-10-9-12-11-10-9-|-12-11-10-9
|-------12-8------------------|---------------------------------|-----------
|------------10-7-9-8-7-8-6---|---------------------------------|-----------
|---------------------------8-|-6-------------------------------|-----------


-----------------|---6--------------------------|--------------------10-----
-----------------|-------8---8------------------|-----------7---10-7----10--
-8-7-5-----------|----------------7-----5----3--|-------7-----7-------------
-------8-7-6-5-4-|-5----------------------------|---4-7---7-----------------
-----------------|-----5------------------------|-5-------------------------
-----------------|---------8----6----5-----3----|---------------------------


-14--|---8---------------------------|-----------3---6---10----15-|13p10----
-----|-------10----------------------|-------3-----3---8----11----|------12-
-----|-------------11---8---7-----5--|---3-----3------------------|---------
-----|-7-----------------------------|-----5----------------------|---------
-----|-----6-------------------------|----------------------------|---------
-----|----------10----8---6----5-----|-3--------------------------|---------


-------------------------|-------------------------|-------------------5---6|
----12p8-----------------|-------------------------|-----------7-5-8-7---8--|
-12------10--------------|-----------------------5-|---7-5-8-7--------------|
------------12-9---------|-----------5-4-7-5-8-7---|-8----------------------|
-----------------10-8----|---6-5-8-6---------------|------------------------|
----------------------10-|-8-----------------------|------------------------|


|----8----10-------------------------|---------------------------|----------
|-10---11-------11----13----10----11-|---8----10---6---8---4---6-|---3---4--
|------------12----14----10----12----|-8---10----7---8---5---7---|-3---5----
|------------------------------------|---------------------------|----------
|------------------------------------|---------------------------|----------
|------------------------------------|---------------------------|----------


------------------|---10---8---6--------------|----------------------------|
---------2h3h4----|----------------8-7--------|---11-10-9-8-7-6-5-------7--|
-2h3h4h5-------5--|---------------------------|-------------------8-7------|
------------------|-8----7---5----------------|----------------------------|
------------------|--------------5------------|-----------------------5----|
------------------|--------------------8-6-5--|-3--------------------------|


|----6-5-4------------------|------------------------10-14-|----------------
|----------8-7-6-5-------7--|------------------------------|----------------
|------------------8-7------|------------------------------|----------------
|---------------------------|---8-7-6----------------------|---8-7-6--------
|----------------------5----|---------10-9-8-7-------------|---------10-9-8-
|-3-------------------------|-3----------------11-10-------|-3--------------


---------10-14--|---15-10---10-6---6-3-|-------------------|----------------
----------------|----------------------|---8-3-------------|----------------
----------------|----------------------|---------7-3-------|----------------
----------------|----------------------|---------------8-5-|----------------
-7--------------|----------------------|-------------------|----------------
---11-10--------|-3-------3------3-----|-3-----3-----3-----|-3--3-5-6-7-----


----------|--3-----||
----------|--------||
----------|--3-----||
----------|--0-----||
-3-4-5-1--|--------||
----------|--3-----||
Вверх

Каприз №2

|-19-21-22-19-21-18-20-17-19-16-18-15-|-17-14-16-13-15-12-14-11-13-10-12-9-|
|-------------------------------------|------------------------------------|
|-------------------------------------|------------------------------------|
|-------------------------------------|------------------------------------|
|-------------------------------------|------------------------------------|
|-------------------------------------|------------------------------------|


|-10-13-15-13-14---------------|-------------------------------------------|
|-------------------14---------|-12-14-15-12-14-11-13-10-12-9-11-8---------|
|----------------16------------|-------------------------------------------|
|------------------------------|-------------------------------------------|
|------------------------------|-------------------------------------------|
|------------------------------|-------------------------------------------|


|------------------------------|-----3---2---------------------------------|
|-10-7-9-6-8-5-7-4-6-3-5-2-----|-3-6---6------2----------------------------|
|------------------------------|-----------4-------------------------------|
|------------------------------|-------------------------------------------|
|------------------------------|-------------------------------------------|
|------------------------------|-------------------------------------------|


(2-ой отрывок)

|----19-18-19-17-19-15-19-14-19----19--|----19----19----19----19----19----19|
|-------------------------------17-----|-15----14----------------------15---|
|-16-----------------------------------|-------------16----15----16---------|
|--------------------------------------|------------------------------------|
|--------------------------------------|------------------------------------|
|--------------------------------------|------------------------------------|


|----18-15-18-14-18----18----18----18-|----18----18----18----18----18----18|
|-14----------------17----15----14----|-------------------14----15----17---|
|-------------------------------------|-16----15----16---------------------|
|-------------------------------------|------------------------------------|
|-------------------------------------|------------------------------------|
|-------------------------------------|------------------------------------|


|----19----19----19----19----19----19-|----22----22----22----22----22----22|
|-15----------------------------------|------------------------------------|
|-------------------------------------|------------------------------------|
|-------16----14----------------------|-17----21----19----17----16----17---|
|-------------------17----16----14----|------------------------------------|
|-------------------------------------|------------------------------------|


|----22----22----22----22----22----22-|---22----22----22----22----22----22-|
|-------------------------------------|------------------------------------|
|-------------------------------------|------19----18----------------------|
|-16----21----17----16----15----16----|15----------------21----17----14----|
|-------------------------------------|------------------------------------|
|-------------------------------------|------------------------------------|


|----------------|
|----------------|
|----------------|
|-16~------------|
|----------------|
|----------------|
Вверх

Каприз №24

   Theme
    Moderately Fast Q=126
    (Am)            (E)             (Am)            (E)
   2/4
    Gtr I
||----------------|---------------|---------------|-----------||
||o---------------|---------------|---------------|----------o||
||----------------|-9-------------|---------------|-9\--------||
||--7--7-7h10p9p7-|---------------|-7--7-7h10p9p7-|-----2-----||
||o---------------|----7-7h11p9p7-|---------------|----------o||
||----------------|---------------|---------------|-----------||


  (A)                  (Dm)
|--------------------|--------------------|
|--------------------|--------------------|
|-14--14-14h15p14p12-|--------------------|
|--------------------|-15--12-12h15p14p12-|
|--------------------|--------------------|
|--------------------|--------------------|


  (G)                  (C)
|--------------------|---------------------|
|--------------------|---------------------|
|-12--12-12h14p12p10-|---------------------|
|--------------------|-14--10-10h14p12p10--|
|--------------------|---------------------|
|--------------------|---------------------|


  (B7)              (Am)            (F7) (E7)      (Am)
|-----------------|---------------|--------------|--------||
|-----------------|---------------|--------------|--------||
|-10--------------|-9-------------|----8---9p7---|--------||
|-----9-9h12p10p9-|----7-7h10p9p7-|------------9-|-7\-----||
|-----------------|---------------|-8----7-------|-----0--||
|-----------------|---------------|--------------|--------||


   Variation 1
    Q=100
    (Am)                   (E)
||-----8-12p8------------|--------------------|
||o-10--------10---------|---9-12-9-----------|
||---------------9-------|-9--------9---------|
||-----------------10----|------------9-------|
||o-------------------12-|--------------11----|
||-----------------------|-----------------12-|


  (Am)                   (E)
|----8-12-8------------|---------||
|-10--------10---------|--------o||
|--------------9-------|-9\------||
|----------------10----|-----2---||
|-------------------12-|--------o||
|----------------------|---------||


        (A)                       (Dm)
|----12-17p12-------------|-------------------10h13-|
|-14----------14----------|----------------10-------|
|----------------14-------|-------------10----------|
|-------------------12----|----------12-------------|
|----------------------16-|-------12----------------|
|-------------------------|-10-13-------------------|


        (G)                      (C)
|----10-15p10-------------|----------------8h12-||
|-12----------12----------|--------------8------||
|----------------12-------|------------9--------||
|-------------------12----|---------10----------||
|----------------------14-|------10-------------||
|-------------------------|-8-12----------------||


        (B7)                    (Am)                   (F7)   (E)     (Am)
|-13p10p7-------------|-12h15p8-----------------|-------------------|--------||
|---------9-----------|---------10--------------|-------------------|--------||
|-----------10p7------|------------9------------|--------7-10---9---|--------||
|----------------9----|--------------10---------|------9----------6-|-7\-----||
|------------------11-|-----------------12------|----8--------7-----|-----0--||
|---------------------|--------------------12p8-|-10----------------|--------||


   Variation 2
    Q=132
    (Am)               (E)                (Am)               (E)
||-------------------|------------------|------------------|----------------||
||o------------------|------------------|------------------|---------------o||
||-----------------7-|-9-8-9-8-9-7------|----------------7-|-9-8-9-8-9\-----||
||--7-6-7-6-7-9-10---|-------------10-9-|-7-6-7-6-7-9-10---|------------2---||
||o------------------|------------------|------------------|---------------o||
||-------------------|------------------|------------------|----------------||


  (A)                       (Dm)
|-------------------------|-------------------------|
|-------------------------|-------------------------|
|-14-13-14-13-14-12-------|-------------------------|
|-------------------15-14-|-12-11-12-11-12-14-15-12-|
|-------------------------|-------------------------|
|-------------------------|-------------------------|


  (G)                       (C)
|-------------------------|-----------------------|
|-------------------------|-----------------------|
|-12-11-12-11-12-10-------|-----------------------|
|-------------------14-12-|-10-9-10-9-10-12-14-10-|
|-------------------------|-----------------------|
|-------------------------|-----------------------|


  (B7)                   (Am)
|----------------------|------------------|
|----------------------|------------------|
|-10-9-10-9-10---------|-9-8-9-8-9--------|
|--------------12-10-9-|-----------10-9-7-|
|----------------------|------------------|
|----------------------|------------------|


  (F7)    (E)         (Am)
|-------------------|-------------------||
|-------------------|-------------------||
|-----------10-9----|-------------------||
|-9-8-9-8-9---------|-------------------||
|----------------11-|-12-11-12-11-12----||
|-------------------|-------------------||


   Variation 3
    Q=72
    (Am)      (E)        (Am)      (E)
||----------|------12--|---------|----11-13-12--||
||o-13---10-|-9S12-----|-13---10s|=12----------o||
||----------|-------9--|---------|-----8-10--9--||
||--10----7-|-6S=9-----|-10----7s|==9-----------||
||o---------|-------7--|---------|-----6--8--7-o||
||---8----5-|-4S=7-----|--8----5s|==7-----------||


  (A)      (Dm)          (G)      (C)
|-17---9s|=10-12-13-14-|-15---7s|=8-10-11-12-|
|--------|-------------|--------|------------|
|-14---6s|==7--9-10-11-|-12---4s|=5--7--8--9-|
|--------|-------------|--------|------------|
|-12---4s|==5--7--8--9-|-10---2s|=3--5--6--7-|
|--------|-------------|--------|------------|


  (B7)      (A)       (F7)  (E)    (Am)
|-13------|-12------|----13-12---|---------||
|------12-|------10s|=12-------9s|=12--10--||
|-10------|--9------|----10--9---|---------||
|-------9-|-------7s|==9-------6s|==9---7--||
|--8------|--7------|-----8--7---|---------||
|-------7-|-------5s|==7-------4s|==7---5--||


   Variation 4
    Q=108
    (Am)                      (E)
||-----17-16-15-------------|-------------------------|
||o-------------19-18-14-16-|-18-17-16-18-17----------|
||--14----------------------|----------------16-------|
||--------------------------|-------------------18-14-|
||o-------------------------|-------------------------|
||--------------------------|-------------------------|


  (Am)                      (E)
|----17-16-15-------------|---------------------||
|-------------19-18-17-16-|-18-17-16-16-17\-5--o||
|-14----------------------|---------------------||
|-------------------------|---------------------||
|-------------------------|--------------------o||
|-------------------------|---------------------||


  (A)                       (A)         (Dm)
|----17-16-15-14----------|----------------------------|
|----------------18-17-15-|-14-17----14-15p14----------|
|-14----------------------|-------14----------14-------|
|-------------------------|----------------------15----|
|-------------------------|-------------------------17-|
|-------------------------|----------------------------|


  (G)                       (G)            (C)
|----15-14-13-12----------|----------------------------|
|----------------16-15-13-|-12-15p12----12-13----------|
|-12----------------------|----------12-------12-------|
|-------------------------|----------------------14----|
|-------------------------|-------------------------15-|
|-------------------------|----------------------------|


  (B7)                      (Am)
|----13-12-11-10----------|---12-11-10-9----------|
|----------------14-13-12-|--------------13-12-10-|
|-10----------------------|-9---------------------|
|-------------------------|-----------------------|
|-------------------------|-----------------------|
|-------------------------|-----------------------|


  (F7)        (F7)  (E)     (Am)
|-------------------------|----17p12---------------||
|-------------------------|----------13------------||
|-------------------------|-------------14S9-------||
|-15-14-13-12-11----------|------------------10----||
|----------------15-14-11S|=12------------------12-||
|-------------------------|------------------------||


   Variation 5
    Q=116
    (Am)              (E)               (Am)              (E)
        T    T            T    T            T    T            T    T
||------------------|-----------------|-----------------|----------------||
||o-----------------|-----------------|-----------------|---------------o||
||------------------|----16p4-17p5----|-----------------|----16p4-17p5---||
||-----15p3-14p2----|-----------------|----15p3-14p2----|----------------||
||o-----------------|-----------------|-----------------|---------------o||
||--h5-----------h5-|-h4-----------h4-|-h5-----------h5-|-h4-------------||


  (A)               (Dm)             (G)               (C)
      T    T            T    T   T       T    T            T    T
|----18p6-17p5----|----------------|-----------------|------------------|
|-----------------|----------------|----21p9-20p8----|------------------|
|-----------------|----------------|-----------------|------------------|
|-----------------|----------------|-----------------|------------------|
|-----------------|-h5-19p7-20p8---|-----------------|----18p6-19p7-----|
|-h9-----------h9-|--------------8-|-h7-----------h7-|-h8-----------h8--|


  (B7)               (Am)              (Dm)    (E)       (A)
      T     T            T    T            T    T            T    T
|------------------|-----------------|-----------------|----------------||
|------------------|-----------------|----18p6-17p5----|----------------||
|------------------|-----------------|-----------------|----17p5--------||
|----22p10-21p9----|----18p0-19p7----|-----------------|---------19p7---||
|-h5------------h5-|-h7-----------h8-|--------------h7-|----------------||
|------------------|-----------------|-h5--------------|-h5-------------||


   Variation 6
    Q=84
    (Am)         (E)                  (Am)       (E)
||--12---10--8-|-7------------------|----------|-------------||
||o-13---12-10-|-9-10-9-------------|----------|------------o||
||-------------|---10-9-10--9-7-5-4-|-5---7--9-|-7-5-4-------||
||-------------|--------12-10-9-7-6-|-7---9-10-|-9-7-6-7-6---||
||o------------|--------------------|----------|-------8-7--o||
||-------------|--------------------|----------|-------------||


  (A)       (Dm)                   (G)       (C)
|---------|-----------9-10-12-13-|---------|----------7-8-10-12-|
|---------|-6-8-10-12------------|---------|-5-6-8-10-----------|
|-6---7-9-|----------------------|-4---5-7-|--------------------|
|---------|-----------7--9-11-12-|---------|----------5-7--9-10-|
|---------|-5-7--8-10------------|---------|-3-5-7--8-----------|
|-5---7-9-|----------------------|-3---5-7-|--------------------|


  (B7)         (Am)        (Dm)  (E)       (Am)
|-13---12-10-|-12---10-8-|---------------|--------||
|------------|-----------|-6-5-----------|--------||
|------------|-----------|-----7-5-5-4-4-|-5\--2--||
|-12---10--9-|-10----9-7-|---------7---6-|-7\-----||
|------------|-----------|-5-7-8-7---7---|-----0--||
|------------|-----------|---------------|--------||


   Variation 7
    Q=104
    (Am)                        (E)
||--12h13p12------------------|---------------------------|
||o----------13-(13)-10h12p10-|-12h13p12-9h10p9-----------|
||----------------------------|-----------------9h10p9----|
||----------------------------|---------------------------|
||o---------------------------|---------------------------|
||----------------------------|------------------------12-|


  (Am)                     (E)
|-12h13p12---------------|---------------------------||
|----------13-(13)-------|--------------------------o||
|------------------------|---------------------------||
|------------------------|---------------------------||
|------------------------|-------7h8p7-11h12p11-----o||
|------------------5h7p5-|-7h8p7----------------12---||


  (A)                         (Dm)
|-12h13p12------------------|-10h12p10-----------------------|
|----------14-(14)-10h11p10-|--------------------------------|
|---------------------------|--------------------------------|
|---------------------------|----------7h8p7-----------------|
|---------------------------|----------------8h10p8----------|
|---------------------------|-----------------------10h12p10-|


  (G)                       (C)
|-10h12p10----------------|-8h10p8---------------------|
|----------12-(12)-8h10p8-|----------------------------|
|-------------------------|----------------------------|
|-------------------------|--------5h7p5---------------|
|-------------------------|--------------7h8p7---------|
|-------------------------|--------------------8h10p8--|


  (B7)                        (Am)
|-10h12p10-13-(13)----------|-8h10p8-12-(12)--------|
|---------------------------|-----------------------|
|---------------------------|-----------------------|
|---------------------------|-----------------------|
|---------------------------|-----------------------|
|------------------10h12p10-|----------------8h10p8-|


  (B7)           (E)           (Am)
|-10h12p10-------7h8p7-------|-------5-7-5------||
|----------------------------|------------------||
|----------------------------|------------------||
|----------------------------|------------------||
|----------------------------|-------------0----||
|----------7h8p7-------4h5p4-|-5h7p5------------||


   Variation 8
    Q=84
    (Am)       (E)       (Am)       (E)
||--0--0-0-0-|-0-7-7-0-|-0--0-0-0-|-0---------||
||o----------|-0-----0-|----------|-0-10-9---o||
||--5--9-7-5-|---------|-5--9-7-5-|----8-9-9--||
||--7-10-9-7-|-6-9-7-6-|-7-10-9-7-|-6------9--||
||o----------|---7-9---|----------|----8-7-7-o||
||-----------|---------|----------|-----------||


  (A)        (Dm)          (G)       (C)
|-0-0--0-0-|-10-12-13-10-|---------|-0-1-3-0-|
|----------|-------------|-0-1-3-0-|---------|
|-6-7--9-6-|-10-12-14-10-|---------|-0-0-0-0-|
|-7-9-11-7-|--0--0--0--0-|-0-2-3-0-|---0-2---|
|----------|-------------|---------|-3-----3-|
|----------|-------------|-3-3-3-3-|---------|


  (B7)      (Am)   (A7)(F7)  (E) (Am)
|---------|----------|---5-5-4-|-5-----||
|-6-3-5-6-|-5-3--1-2-|-3-----0-|-------||
|-4-4-4-4-|-5-4-12-0-|---5-5---|-5-----||
|-0-0-0-0-|----------|-3-------|-7--0--||
|---------|-3-2--0-0-|-5-6-7-7-|-------||
|---------|----------|---------|-------||


   Variation 9
    Q=108
    (Am)                   (E7)
     T       T       T      T      T  T
||-----------------------|--------------------|
||o-13p10p5--------------|-12p9p5-15-12p5-9p5-|
||---------------h9------|--------------------|
||----------10p7----10p7-|--------------------|
||o----------------------|--------------------|
||-----------------------|--------------------|


  (Am)                   (E)
   T       T       T      T        T
|----------------------|-------------------||
|-13p10p5--------------|-12p9p5-----------o||
|--------------h9------|--------h9---------||
|---------10p7----10p7-|-----------9p6-----||
|----------------------|---------------h7-o||
|----------------------|-------------------||


  (A)           (A7)   (Dm)                (G7)                (C)
   T     T       T     T    T    T   T      T     T   T        T   T   T   T
|-12p9p5-------------|-----10p5----------|-10p7p3------------|-----8p3---------|
|--------------------|-------------------|--------6p3--------|-----------------|
|--------9p6---------|----------10p7-----|-------------------|---------9p5-----|
|------------h7------|-------------------|------------9p3----|-----------------|
|---------------10p7-|-8p5-----------8p5-|----------------h5-|-7h9---------7p3-|
|--------------------|-------------------|-------------------|-----------------|


  (B7)              (Am)              (Dm)     (E)         (Am)
  T       T         T       T         T    T    T    T      T        T
|-7p5p4p1---------|-----------------|--------------------|----------------||
|---------5p3p1p0-|-----------------|-----10p6------12p9-|----------------||
|-----------------|-----------------|--------------------|-14p9p5---------||
|-----------------|-7p5p3p2---------|--------------------|--------h7------||
|-----------------|---------5p3p2p0-|-8p5------11p7------|----------------||
|-----------------|-----------------|--------------------|-----------5----||


   Variation 10
    Q=50
    (Am)            (E)
||--[5]-------[8]-|-[7]-[5]-------------------------|
||o-------[5]-----|---------[9]-[7]-[5]-[7]-[9]-[5]-|
||----------------|---------------------------------|
||----------------|---------------------------------|
||o---------------|---------------------------------|
||----------------|---------------------------------|


  (Am)                      (E)
|-[5]--([5])-[7]-[8]-[10]-|-[11]-[12]-------||
|-------------------------|-----------[6]--o||
|-------------------------|-----------------||
|-------------------------|-----------------||
|-------------------------|----------------o||
|-------------------------|-----------------||


  (A)                          (Dm)
|--------------[12]-[9]------|---------------------------------|
|-[10]--([10])----------[10]-|-[8]-----------------------------|
|----------------------------|-----[9]-[6]---------------------|
|----------------------------|-------------[7]-[5]-------------|
|----------------------------|---------------------[8]-[7]-[5]-|
|----------------------------|---------------------------------|


  (G)                       (C)
|------------[10]-[7]-----|----------------------------------|
|-[8]--([8])----------[8]-|-[6]------------------------------|
|-------------------------|-----[7]-[4]----------------------|
|-------------------------|-------------[5]-[3]--------------|
|-------------------------|---------------------[7]-[5]-[3]--|
|-------------------------|----------------------------------|


  (B7)                     (E7)             (Am7)
|------------------------|-----------------------------------|
|-[6]--([6])-------------|-----------------------------------|
|------------[7]---------|-----------------------------------|
|----------------[9]-[7]-|-[6]----------------------[7]------|
|------------------------|-----[7]--------------[7]-----[10]-|
|------------------------|---------[10]-[7]-[8]--------------|


  (F7)            (E)               (Am)
|---------------------[7]---------|-----------------||
|-------------------------[9]-----|-----------------||
|-----[7]---------------------[9]-|-[9]S[10]\--[2]--||
|---------[9]-[7]-[6]-------------|-----------------||
|-[8]-----------------------------|-----------------||
|---------------------------------|-----------------||


   Variation 11
    Q=76
    (Am)    (E)  (Am)  (E)
||-------------0-----|-------------4h7----16------[24]-|
||o------------0---5-|-----------5-----17----[24]------|
||----9---9--------5-|---------4-----------------------|
||----7---7----------|-------6-------------------------|
||o-7---7---11---7---|-----7---------------------------|
||--8---8----7---5---|-4h7-----------------------------|


  (Am)    (E)   (Am)     (E)
|-------------0------|---12p7--------------||
|------------12---10-|--------9-----------o||
|---9---9----------5-|----------9----------||
|---7---7------------|------------9--------||
|-7---7---11----7----|-7------------11p7--o||
|-8---8----7----5----|-4-------------------||


  (A)         (Dm)  (A)     (Dm)
|-------------------------|----------------------------17-22-|
|----14----14----15----17-|-------------------------18-------|
|-----9-----9----10----14-|----------------10h14-19----------|
|-------------------------|-------------12-------------------|
|-12----12----12----16----|----------12----------------------|
|--9-----9----10----12----|-13p10h13-------------------------|


  (G)         (C)   (G)     (C)
|-----------------0-------|--------------------------15-20-|
|----12----12----13----15-|-----------------------17-------|
|-----7-----7----------12-|---------------9h12-17----------|
|-------------------------|------------10------------------|
|-10----10----10----14----|---------10---------------------|
|--7-----7-----8----10----|-12p8h12------------------------|


  (B7)        (Am)  (E)     (Am) (E)   (Am)  (A7)    (Am)        (E)
|-----------------0-----0-|----------0-----0----14-|---------5h8---------4h7-||
|----15----15----13----12-|---10----12----13-------|-------5-----------5-----||
|----10----10-------------|----5----------------14-|-----5-----------4-------||
|-------------------------|------------------------|---7-----------6---------||
|-14----14----12----11----|-7----11----12----15----|-7-----------7-----------||
|-10----10-----8-----7----|-5-----7-----8----11----|-------------------------||


   Finale
    Freely Q=72
    (Am)                       (A)
||---------------------------|--------------------------|
||o-----------5-10p5---------|-----------5-10p5---------|
||----------5--------5-------|---------6--------6-------|
||--------7------------7-----|-------7------------7-----|
||o-----7----------------7---|-----7----------------7---|
||--5h8--------------------8-|-5h8--------------------8-|


  (Dm)                            (B#°(B°7(D°7) G#°7
|-------------------------17-22-|---------------------||
|----------------10----18-------|---3---6-----9---3--o||
|-------------10----19----------|---4---7----10---4---||
|----------12-------------------|-4---6----9----3-----||
|-------12----------------------|--------------------o||
|-10-13-------------------------|-3---7---10----4-----||


  (A)                        (A)
|--------------------------|-------------5-9p5-----------|
|-----------5-10p5---------|-----------5-------5---------|
|---------6--------6-------|---------6-----------6-------|
|-------7------------7-----|-------7---------------7-----|
|-----7----------------7---|-----7-------------------7---|
|-5h9--------------------9-|-5h9-----------------------9-|


  (A)
|-------------5h9-12p9-------------------|
|-----------5----------10----------------|
|---------6---------------9--------------|
|-------7-------------------11-----------|
|-----7------------------------12--------|
|-5h9-----------------------------12p9---|


  (A)
|-------------------12-17p12--------------------|
|-----------5----14----------14-----------------|
|---------6---14----------------14--------------|
|-------7--------------------------14-----------|
|-----7-------------------------------16p12-7-4-|
|-5h9-------------------------------------------|


  (A)                           (A)
|-------------|---------------|------*|
|-------------|---------------|------*|
|-------------|---------------|-6----*|
|-------------|---------------|-7----*|
|-0-2-0tr2----|-(0tr2)--------|-7----*|
|-------------|-----------4h5-|-5----*|
Вверх

Каприз №24 (2 вариант)

E||------------------|-----------------|-----------------|-------------||
B||------------------|-----------------|-----------------|-------------||
G||*-----------------|--9--------------|-----------------|--9/--------*||
D||*--7---7-7h10h9h7-|-----------------|--7---7-7h10h9h7-|-------2----*||
A||------------------|------7-7h11h9h7-|-----------------|-------------||
E||------------------|-----------------|-----------------|-------------||


                                                                     
----------------------|----------------------|----------------------|
----------------------|----------------------|----------------------|
--14---14-14h15h14h12-|----------------------|--12---12-12h14h12h10-|
----------------------|--15---12-12h15h14h12-|----------------------|
----------------------|----------------------|----------------------|
----------------------|----------------------|----------------------|


                                                                              
----------------------|-------------------|-----------------|----------------|
----------------------|-------------------|-----------------|----------------|
----------------------|--10---------------|--9--------------|------8---9h7---|
--14---10-10h14h12h10-|-------9-9h12h10h9-|------7-7h10h9h7-|--------------9-|
----------------------|-------------------|-----------------|--8-----7-------|
----------------------|-------------------|-----------------|----------------|


                                                                   
------------||------8-12h8---------------|------------------------|
------------||---10--------10------------|----9-12h9--------------|
------------||*---------------9----------|--9--------9------------|
--7/--------||*------------------10------|-------------9----------|
-------0----||-----------------------12--|----------------11------|
------------||---------------------------|--------------------12--|


                                                                        
-----8-12h8---------------|-------------||-----12-17h12----------------|
--10--------10------------|-------------||--14----------14-------------|
---------------9----------|--9/--------*||-----------------14----------|
------------------10------|-------2----*||---------------------14------|
----------------------12--|-------------||-------------------------16--|
--------------------------|-------------||-----------------------------|


                                                            
---------------------10--13--|-----10-15h10----------------|
-----------------10----------|--12----------12-------------|
--------------10-------------|-----------------12----------|
-----------12----------------|---------------------12------|
--------12-------------------|-------------------------14--|
--10h13----------------------|-----------------------------|


                                                                               
------------------8--12--|--13h10h7----------------|--12h8--------------------|
---------------8---------|----------9--------------|-------10-----------------|
-------------9-----------|------------10h7---------|----------9---------------|
----------10-------------|------------------9------|------------10------------|
-------10----------------|---------------------11--|---------------12---------|
--8h12-------------------|-------------------------|-------------------12h-8--|


                                                                               
-----------------------|------------||--------------------|-------------------|
-----------------------|------------||--------------------|-------------------|
---------7-10----9-----|------------||*-----------------7-|--9-8-9-8-9-7------|
-------9------------6--|--7/--------||*--7-6-7-6-7-9-10---|--------------10-9-|
-----8--------7--------|-------0----||--------------------|-------------------|
--10-------------------|------------||--------------------|-------------------|


                                                                  
-------------------|-----------------||--------------------------|
-------------------|-----------------||--------------------------|
-----------------7-|--9-8-9-8-9/----*||--14-13-14-13-14-12-------|
--7-6-7-6-7-9-10---|-------------2--*||--------------------15-14-|
-------------------|-----------------||--------------------------|
-------------------|-----------------||--------------------------|


                                                                               
--------------------------|--------------------------|------------------------|
--------------------------|--------------------------|------------------------|
--------------------------|--12-11-12-11-12-10-------|------------------------|
--12-11-12-11-12-14-15-12-|--------------------14-12-|--10-9-10-9-10-12-14-10-|
--------------------------|--------------------------|------------------------|
--------------------------|--------------------------|------------------------|


                                                              
-----------------------|----------------|--------------------|
-----------------------|----------------|--------------------|
--10-9-10-9-10---------|--9-8-----------|------------10-9----|
---------------12-10-9-|---------10-9-7-|--9-8-9-8-9---------|
-----------------------|----------------|-----------------11-|
-----------------------|----------------|--------------------|


                                                                     
--------------------||---------------|---------12----|--------------|
--------------------||---13------10--|--9--12--------|--13------10--|
--------------------||*--------------|---------9-----|--------------|
--------------------||*--10------7---|--6--9---------|--10------7---|
--12-11-12-11-12----||---------------|---------7-----|--------------|
--------------------||---8-------5---|--4--7---------|--8-------5---|


                                                                    
------11--13--12---||--17------9--|--10--12--13--14--|--15------7--|
--12---------------||-------------|------------------|-------------|
------8---10--9---*||--14------6--|--7---9---10--11--|--12------4--|
--9---------------*||-------------|------------------|-------------|
------6---8---7----||--12------4--|--5---7---8---9---|--10------2--|
--7----------------||-------------|------------------|-------------|


                                                                  
--8--10--11--12--|--13----------|--12----------|------13--12-----|
-----------------|----------12--|----------10--|--12----------9--|
--5--7---8---9---|--10----------|--9-----------|------10--9------|
-----------------|----------9---|----------7---|--9-----------6--|
--3--5---6---7---|--8-----------|--7-----------|------8---7------|
-----------------|----------7---|----------5---|--7-----------4--|


                                                                       
--------------||------17-16-15-------------|--------------------------|
--12----10----||---------------19-18-17-16-|--18-17-16-18-17----------|
--------------||*--14----------------------|-----------------16-------|
--9-----7-----||*--------------------------|--------------------18-14-|
--------------||---------------------------|--------------------------|
--7-----5-----||---------------------------|--------------------------|


                                                                              
-----17-16-15-------------|----------------------||-----17-16-15-14----------|
--------------19-18-17-16-|--18-17-16-18-17/-5---||-----------------18-17-15-|
--14----------------------|---------------------*||--14----------------------|
--------------------------|---------------------*||--------------------------|
--------------------------|----------------------||--------------------------|
--------------------------|----------------------||--------------------------|


                                                      
--------------------------|-----15-14-13-12----------|
--14-17----14-15----------|-----------------16-15-13-|
--------14-------14-------|--12----------------------|
--------------------15----|--------------------------|
-----------------------17-|--------------------------|
--------------------------|--------------------------|


                                                                               
--------------------------|-----13-12-11-10----------|----12-11-10-9----------|
--12-15----12-13----------|-----------------14-13-12-|---------------13-12-10-|
--------12-------12-------|--10----------------------|--9---------------------|
--------------------14----|--------------------------|------------------------|
-----------------------15-|--------------------------|------------------------|
--------------------------|--------------------------|------------------------|


                                                                          
--------------------------|-----17-12---------------||-------------------|
--------------------------|-----------13------------||-------------------|
--------------------------|--------------14-9-------||*------------------|
--15-14-13-12-11----------|-------------------10----||*-----15h3-14h2h---|
-----------------15-14-11-|--12------------------12h||-------------------|
--------------------------|-------------------------||---5------------5h-|


                                                                             
------------------|------------------|------------------||-----18h6-17h5h---|
-----16h4-17h5h---|------------------|-----16h4-17h5----||------------------|
------------------|------------------|-----------------*||------------------|
------------------|-----15h3-14h2h---|-----------------*||------------------|
------------------|------------------|------------------||------------------|
--4------------4h-|--5------------5h-|--4---------------||--9------------9h-|


                                                                             
------------------|------------------|------------------|-------------------|
------------------|-----21h9-20h8h---|------------------|-------------------|
------------------|------------------|------------------|-------------------|
------------------|------------------|------------------|-----22h10-21h9h---|
--5--19h7-20h8h---|------------------|-----18h6-19h7h---|--5-------------5h-|
---------------8--|--7------------7h-|--8------------8h-|-------------------|


                                                                           
------------------|------------------|-----------------||---12------10-8--|
------------------|-----18h6-17h5h---|-----------------||---13------12-10-|
-----18h6-19h7h---|------------------|-----17h5--------||*----------------|
------------------|------------------|----------19h7---||*----------------|
--7------------8h-|--5------------7h-|-----------------||-----------------|
------------------|------------------|--5--------------||-----------------|


                                                                     
--7------------------|--------------|----------------||-------------|
--9-10-9-------------|--------------|----------------||-------------|
----10-9-10-9--7-5-4-|--5------7-9--|--7-5-4--------*||--6------6-9-|
---------12-10-9-7-6-|--7------9-10-|--9-7-6-7-6----*||-------------|
---------------------|--------------|--------8-7-----||-------------|
---------------------|--------------|----------------||--5------7-9-|


                                                                             
------------9-10-12-13-|-------------|-----------7-8-10-12-|--13------12-10-|
--6-8-10-12------------|-------------|--5-6-8-10-----------|----------------|
-----------------------|--4------5-7-|---------------------|----------------|
------------7-9--11-12-|-------------|-----------5-7-9--10-|--12------10-9--|
--5-7-8--10------------|-------------|--3-5-7-8------------|----------------|
-----------------------|--3------5-7-|---------------------|----------------|


                                                                            
--12------10-8-|-----------------|------------||---12h13h12----------------|
---------------|--6--5-----------|------------||------------13----10h11h10-|
---------------|-------7-5-5-4-4-|--5/---2----||*--------------------------|
--10------9--7-|-----------7---6-|--7---------||*--------------------------|
---------------|--5--7-8-7---7---|-------0----||---------------------------|
---------------|-----------------|------------||---------------------------|


                                                      
-----------------------------|--12h13h12-------------|
--12h13h12-9h10h9------------|-----------13----------|
------------------9h10h9-----|-----------------------|
-----------------------------|-----------------------|
-----------------------------|-----------------------|
-------------------------12--|-----------------5h7h5-|


                                                         
----------------------------||--12h13h12----------------|
----------------------------||-----------14----10h11h10-|
---------------------------*||--------------------------|
---------------------------*||--------------------------|
--------7h8h7-11h12h11------||--------------------------|
--7h8h7----------------12---||--------------------------|


                                                           
--10h12h10-----------------------|--10h12h10--------------|
---------------------------------|-----------12----8h10h8-|
---------------------------------|------------------------|
-----------7h8h7-----------------|------------------------|
-----------------8h10h8----------|------------------------|
------------------------10h12h10-|------------------------|


                                                                               
--8h10h8--------------------|--10h12h10-13-------------|--8h10h8-12-----------|
----------------------------|--------------------------|----------------------|
----------------------------|--------------------------|----------------------|
---------5h7h5--------------|--------------------------|----------------------|
---------------7h8h7--------|--------------------------|----------------------|
---------------------8h10h8-|-----------------10h12h10-|---------------8h10h8-|


                                                                    
--10h12h10-------7h8h7-------|--------5h7h5------||---0--0---0--0--|
-----------------------------|-------------------||----------------|
-----------------------------|-------------------||*--5--9---7--5--|
-----------------------------|-------------------||*--7--10--9--7--|
-----------------------------|--------------0----||----------------|
-----------7h8h7-------4h5h4-|--5h7h5------------||----------------|


                                                                 
--0--7--7-----|--0--0---0--0--|--0-------------||--0--0--0---0--|
--0--------0--|---------------|--0--10--9------||---------------|
--------------|--5--9---7--5--|-----8---9--9--*||--6--7--9---6--|
--6--9--7--6--|--7--10--9--7--|--6---------9--*||--7--9--11--7--|
-----7--9-----|---------------|-----8---7--7---||---------------|
--------------|---------------|----------------||---------------|


                                                                               
--10--12--13--10--|--------------|--0--1--3--0--|--------------|--------------|
------------------|--0--1--3--0--|--------------|--6--3--5--6--|--5--3--1--2--|
--10--12--14--10--|--------------|--0--0--0--0--|--4--4--4--4--|--5--4--2--0--|
--0---0---0---0---|--0--2--3--0--|-----0--2-----|--0--0--0--0--|--------------|
------------------|--------------|--3--------3--|--------------|--3--2--0--0--|
------------------|--3--3--3--3--|--------------|--------------|--------------|


                                                                           
-----5--5--4--|--5---------||-----------------------|---------------------|
--3--------0--|------------||---13h10h5-------------|--12h9h5-15t12h5h9h5-|
-----5--5-----|--5---------||*---------------9------|---------------------|
--3-----------|--7---------||*----------10h7h--10h7-|---------------------|
--5--6--7--7--|-------0----||-----------------------|---------------------|
--------------|------------||-----------------------|---------------------|


                                                                 
----------------------|-------------------||--12h9h5------------|
--13h10h5-------------|--12h9h5h----------||--------------------|
---------------9------|---------9--------*||---------9h6h-------|
----------10h7h--10h7-|-----------9h6h---*||-------------7------|
----------------------|---------------7---||---------------10h7-|
----------------------|-------------------||--------------------|


                                                                               
------10h5----------|--10h7h3h----------|------8h3---------|--7h5h4h1---------|
--------------------|---------6h3-------|------------------|----------5h3h1h0-|
-----------10h7-----|-------------------|----------9h5-----|------------------|
--------------------|-------------9h3h--|------------------|------------------|
--8h5-----------8h5-|-----------------5-|--7h3---------7h3-|------------------|
--------------------|-------------------|------------------|------------------|


                                                                          
------------------|---------------------|----------------||---5--------8-|
------------------|------10h6------12h9-|----------------||----------5---|
------------------|---------------------|--14h9h5h-------||*-------------|
--7h5h3h2h--------|---------------------|---------7------||*-------------|
----------5h3h2h0-|--8h5------11h7------|----------------||--------------|
------------------|---------------------|-----------5t---||--------------|


                                                                       
--7-5-------------|--5-----7-8-10-|--11---12-------||---------12-9----|
------9-7-5-7-9-5-|---------------|----------------||--10----------10-|
------------------|---------------|----------9----*||-----------------|
------------------|---------------|---------------*||-----------------|
------------------|---------------|----------------||-----------------|
------------------|---------------|----------------||-----------------|


                                                                     
------------------|--------10-7---|------------------|--------------|
--8---------------|--8----------8-|--6---------------|--6-----------|
----9-6-----------|---------------|----7-4-----------|--------7-----|
--------7-5-------|---------------|--------5-3-------|----------9-7-|
------------8-7-5-|---------------|------------7-5-3-|--------------|
------------------|---------------|------------------|--------------|


                                                                            
--------------------|------------7-----|-------------||--------------0-----|
--------------------|--------------9---|--10/--------||--------------0---5-|
--------------------|----7-----------9-|--------2----||*----9---9--------5-|
--6------------7----|------9-7-6-------|-------------||*----7---7----------|
----7--------7---10-|--8---------------|-------------||---7---7---11---7---|
------10-7-8--------|------------------|-------------||---9---8---7----5---|


                                                                              
-------------------------19-24-|-------------0-------|----12h7--------------||
--------------9-12-17-21-------|-------------12---10-|---------9------------||
------------9------------------|----9---9---------5--|-----------9---------*||
------2-6-9--------------------|----7---7------------|-------------9-------*||
----2--------------------------|--7---7---11----7----|--7------------11-----||
--4----------------------------|--8---8---7-----5----|--4---------------12--||


                                                               
--------------------------|-----------------------------17-22-|
-----14----14----15----17-|--------------------------18-------|
-----9-----9-----10----14-|-----------------10-14-19----------|
--------------------------|--------------12-------------------|
--12----12----12----16----|-----------12----------------------|
--9-----9-----10----12----|--13h10h13-------------------------|


                                                             
-----------------0--------|---------------------------15-20-|
-----12----12----13----15-|------------------------17-------|
-----7-----7-----------12-|----------------9-12-17----------|
--------------------------|-------------10------------------|
--10----10----10----14----|----------10---------------------|
--7-----7-----8-----10----|--12h8h12------------------------|


                                                                                
-----------------0-----0--|----------0-----0--------|----------5h8---------4h7-|
-----15----15----13----12-|----10----12----13----19-|--------5-----------5-----|
-----10----10-------------|----5-----------------17-|------5-----------4-------|
--------------------------|-------------------------|----7-----------6---------|
--14----14----12----11----|--7----11----12----15----|--7-----------7-----------|
--10----10----8-----7-----|--5----7-----0-----11----|--------------------------|


                                                        
|---------------5-----------|--------------5-----------|
|-------------5---5---------|------------5---5---------|
|*----------5-------5-------|----------6-------6-------|
|*--------7-----------7-----|--------7-----------7-----|
|-------7---------------7---|------7---------------7---|
|---5h8-------------------8-|--5h9-------------------9-|


                                                        
--------------------------17-22-|---------------------||
-----------------10----18-------|----3---6----9----3--||
--------------10----19----------|----4---7----10---4-*||
-----------12-------------------|--3---6---9-----3---*||
--------12----------------------|---------------------||
--10-13-------------------------|--4---7---10----4----||


                                                          
--------------5-----------|--------------5-9h5-----------|
------------5---5---------|------------5-------5---------|
----------6-------6-------|----------6-----------6-------|
--------7-----------7-----|--------7---------------7-----|
------7---------------7---|------7-------------------7---|
--5h9-------------------9-|--5h9-----------------------9-|


                                                                              
--------------5h9-12h9h5-----------|--------------5h9-12t17t12h9h5-----------|
------------5------------5---------|------------5------------------5---------|
----------6----------------6-------|----------6----------------------6-------|
--------7--------------------7-----|--------7--------------------------7-----|
------7------------------------7---|------7------------------------------7---|
--5h9----------------------------9-|--5h9----------------------------------9-|


                                                                   
--------------------------|--------------------------|--5--------||
--------------------------|--------------------------|--5--------||
--------------------------|--------------------------|--6--------||
--------------------------|--------------------------|--7--------||
--------------------------|--------------------------|--7--------||
--5h7h5h7h5h7h5h7h5h7h5h7h|--5h7h5h7h5h7h5h7h5h7h4h5-|--5--------||

Вверх

Каприз №24 (3 вариант)

Обозначения:
0/                         
/0 :повторить последнюю строку    

0///
///0 : повтроить последние 3 строки

----___---
----5-7--- короткие ноты
----------
Замечание: многие пуллы и хаммеры не подписаны

0:00-56
|---------------------------------|----|
|---------5---------------5-------|----|
|-2--225424-------2--225424-------|-0/-|
|-2-------6----64-2-------6-------|-/0-|
|-3----------77--73-----------7---|----|
|-5---------------5---------------|----|

|-5--5565---------3--3353----------------------------------------|
|-5------86----65-3------65----53-6-------5---------4553---------|
|-6-------7--77--74-------5--55--5---447545----54---22--42-------|
|---------7---------------5-------7-------7--77--73--2-----------|
|---------5---------------3-------5-------7------------------0---|
|-5---------------3----------------------------------------------|

|-5--5565---------3--3353----------------------------------------|
|-5------86----65-3------65----53-6-------5---------4553---------|
|-6-------7--77--74-------5--55--57----75-2--22542--22--42-------|
|---------7---------------5-------8--88--8--------3--2-----------|
|---------5---------------3-------5-------3------------------0---|
|-5---------------3----------------------------------------------|

  _______             _____           _______
|----8-12-8-------------4-7-4------------8-12-8---------------------|----|
|-10--------10\-5-----5-------5-------10--------10\-5-----5---------|----|
|-----------------5-------------4---------------------5---4---------|-0/-|
|-------------------7-------------6---------------------7-6---------|-/0-|
|-(0)-------------------------------7-(0)-----------------7---------|----|
|---------------------(0)---------------------------------------0---|----|
  ________                                ________
|----12-17-12-----------------------10-13----10-15-10--------------------8-12-|
|-14----------14\-10-------------10-------12----------12\-8------------8------|
|--------------------9------7-10----------0-----------------7--------9--------|
|----------------------11-0-----------------------------------9---10----------|
|-(0)-------------------------------------------------------------------------|
|---------------------------------------------------------------8-------------|
  _____                  ____
|-13p10------------------12p8------------------1---0-------------|-----|
|-------12--------------------10-----------0-3-------------------|-----|
|----------13-10-----------------9-5-----------------1-2---------|-0//-|
|----------------12-9----------------7-----0-----2---------------|-//0-|
|---------------------11---------------7---------------------0---|-----|
|----------------------------------------8-----------------------|-----|
...

2:25-52
|------17-16-15-14-13-12-11-13p12-11-13-12-7--------|
|--------------------------------------------9------|
|-14-------------------------------------------9/13-|
|---------------------------------------------------|
|---------------------------------------------------|
|---------------------------------------------------|

|------17\-16-15-14-13-12-11-13-12-11-13-12--------|-----|
|--------------------------------------------------|-----|
|-14-------------------------------------------9---|-0//-|
|--------------------------------------------------|-//0-|
|--------------------------------------------------|-----|
|--------------------------------------------------|-----|

|------17-16-15-14-13-12-10-9-12----9-10-----------|
|--------------------------------10------10--------|
|-14----------------------------------------10\-7/-|
|--------------------------------------------------|
|--------------------------------------------------|
|--------------------------------------------------|

|-----15-14-13-12-11-10-8-7-10---7-8--------|
|------------------------------8-----8------|
|-12-----------------------------------9-5/-|
|-------------------------------------------|
|-------------------------------------------|
|-------------------------------------------|

|----13-12-11-10-9-8-7----12-11-10-9-8-7-5-|
|------------------------------------------|
|-10-------------------9-------------------|
|------------------------------------------|
|------------------------------------------|
|------------------------------------------|

|---------------------17-12---------------|
|-6p5-----------------------13----5-------|
|-----8-7-6p5-4----------------14---5-----|
|---------------6---------------------7..-|
|-----------------12----------------------|
|-----------------------------------------|
...

3:55-5:35
|-12h13p12--------5h7p5-7h8p7-4h5p4-0h1p0------|
|----------13----------------------------------|
|----------------------------------------------|
|-----------------------------------------2----|
|----------------------------------------------|
|----------------------------------------------|

|-12h13p12---------------------------------------|-12..----|
|----------13------------------------------------|---------|
|------------------------------------------------|-----0//-|
|------------------------------------------------|-----//0-|
|-----------------0h2p0-2h3p2-7h8p7-11h12p11-----|-0..-----|
|--------------------------------------------0---|---------|


|-12h13p12-----------------10h12p10---------------------|
|----------14-----10h11p10------------------------------|
|-------------------------------------------------------|
|-----------------------------------7h8p7-3h5p3-0h2p0---|
|-0-----------------------------------------------------|
|-------------------------------------------------------|

|-10h12p10---------------8h10p8-------------------|
|----------12-----8h10p8--------------------------|
|-------------------------------------------------|
|-------------------------------5h7p5-2h3p2-------|
|-10----------------------------------------3h5p3-|
|-------------------------------------------------|

|-10h12p10-13--------------8h10p8-12-------------|
|------------------------------------------------|
|------------------------------------------------|
|------------------------------------------------|
|------------------------------------------------|
|-10--------------10h12p10----------------8h10p8-|

|-10h12p10-------7h8p7-------------5h7p5-----|-------|
|--------------------------------------------|-------|
|--------------------------------------------|-0////-|
|--------------------------------------------|-////0-|
|--------------------------------------------|-------|
|----------7h8p7-------4h5p4-5h7p5-------5---|-------|

|-0---0---0---0---0---7--7---0---0---0---0---0---0---5---5---0---|
|-1---5---3---1---0---0--0---0---1---5---3---1---0---4---4---0---|
|-2---5---4---2------------------2---5---4---2-------------------|
|-----------------6------4---6-------------------6---3---2---2---|
|---------------------7------------------------------------------|
|----------------------------------------------------------------|

|----0--0-0-0-0-0-0-0-0-7-7-7-0-0-0-0-0-0-0-0-0-0-0-0-0-5-5-4-4-0--|
|---1----5---3---1---0---0---5---0---1---5---3---1---0---4---5---0-|
|--2---5---4---2-------------------2---5---4---2------------------1|
|------------------6-------4---6-------------------6---3---2---2---|
|-0--------------------7-------------------------------------------|
|------------------------------------------------------------------|

|---------0--0--0-0-10--10-12--12-13--13-10--10|
|----3---5--5----------------------------------|
|---4---7--6--6--6----10-----12-----14-----10--|
|--5---9-------7---0------0------0------0------|
|-0--------------------------------------------|
|----------------------------------------------|

|-----------------0-0-1-1-3-3-0-0----------------|
|-0-0-1-1-3-3-0-0-----------------6-6-3-3-5-5-6-6|
|------------------0---0---0---0---4---4---4---4-|
|--0---2---3---0-----0---2-------0---0---0---0---|
|----------------3-----------3-------------------|
|3---3---3---3-----------------------------------|

|--0----------------------5-5---5----5454---5-------------|
|---10-3---1-1-2-2---3----------------------5-------------|
|-------4---0---0----------5----5-----------5-------------|
|--------4-----------3------------------------------------|
|-3---2---0---0------5---6------7-----------7-------------|
|-----------------------------------0---------------5-----|

'pizzicato'
|-8p5-------------7p4---10p7-------8p5-------------7p4-------------|----|
|-----5-----5---------5--------9-------5-----5---------5-5---------|----|
|-------5-----5--------------9---9-------5-----5-----------4-------|-0/-|
|---------7-----7--------------------------7-----7-----------6-----|-/0-|
|--------------------------------------------------------------7---|----|
|------------------------------------------------------------------|----|

|-12p9-5p0-------------10------------10p7-----------------8-----------|
|-------------------------10-6------------8p6---------------8-5-------|
|----------6p2-----------------7--------------7p4---------------5-----|
|--------------5p2-3p0----------------------------3p0-----------------|
|--------------------------------8p5------------------7p3---------7p3-|
|---------------------------------------------------------------------|

|-7-5-4------------------------------=---------------5p0---------|-----|
|-------6\5-3-------------------------10p6------12p9-------------|-----|
|-------------5-4-2-0------------------------------------5-------|-0//-|
|---------------------3-2-0--------------------------------7-----|-//0-|
|---------------------------3-2-0-8p5------11p7--------------0---|-----|
|----------------------------------------------------------------|-----|
...

6:13-
|---0---0---0---0-------___-----7-12-|
|---1---1---0---0---__----0---9------|
|---2-2-2---1-2------1---1--9--------|
|-2---2---2---2---------2------------|
|-3---3---2---0-----2-2--------------|
|-----------------4------------------|

|---0---0---7---5---0-12-7---0-------|-----|
|-----------5---5---0------9---0-----|-----|
|---2---2-------5----------------1---|-0//-|
|-----------6------2---------------2-|-//0-|
|-3---3------------------------------|-----|
|---------7---5---4------------------|-----|

                               ___
|---9----9-----10----12---___----5----5-10-|
|--------------------10-----6---6---6------|
|---9----9-----10----------7---7--7--------|
|-------------------------7--7-------------|
|---12---12----12-------5------------------|
|-9----9----10----12-----------------------|

|---7---7----8---10-----------____--------8-|
|-----------------0---_____------8------8---|
|---7---7----9----0-------9-----9-----9-----|
|---5---5---10----------10----10---10-------|
|---------------------10---10---------------|
|-7---7---8----10---8-----------------------|

|----10----10---8---7---5/---7---8-----14---|
|-------------------5---5/---9---10----13---|
|----10----10---9-------5/---7---9-----14---|
|----9-----9----7---6-----------------------|
|-------------------------------------------|
|-10----10----8---7---5----7---8----11------|

|---------5-8------------4-7-|
|-------5--------------5-----|
|-----5--------------4-------|
|---7--------------6---------|
|-7--------------------------|
|---------------0------------|

|-------------5-----------------------5-----------------------------------10--|
|-----------5---5-------------------5---5---------------------10-------10-----|
|---------5-------5---------------6-------6----------------10-------10--------|
|-------7-----------7-----------7-----------7---------7-12-------12-----------|
|-----7---------------7-------7---------------7-4-5/8-------------------------|
|-5h8-------------------8-5h9-------------------------------------------------|

|-----7-------10--------13-------7---|-----|
|-----6--------9--------12-------6---|-----|
|-----7-------10--------13-------7---|-0//-|
|------------------------------------|-//0-|
|------------------------------------|-----|
|-4-------7--------10--------4-------|-----|

|-------------5--------------------------5--9-5------------|
|-----------5---5---------------------5---------5----------|
|---------5-------5-----------------6-------------6--------|
|-------7-----------7-------------7-----------------7------|
|-----7---------------7--------7----------------------7----|
|-5h9-------------------9--5h9--------------------------9--|

|------------------9-12-9-----------------|
|---------------10--------10--------------|
|----------6/-9--------------9\--6--------|
|--------7-------------------------7------|
|-----7------------------------------7----|
|-5h9----------------------------------9--|

|------------------9/-12--17p12-9----------------------|
|---------------10----------------10-------------------|
|----------6/-9----------------------9---6-------------|
|--------7---------------------------------7-----------|
|-----7--------------------------------------7-4--0----|
|-5h9--------------------------------------------------|

|---------------------------------------------------5---|
|---------------------------------------------------5---|
|-3--2--3--2--3-2-3----3p2h3---3p2h3---3p2h3--------6---|
|---------------------------------------------------7---|
|-------------------0--------1-------0--------------7---|
|--------------------------------------------4--5---5---|
Вверх

Каприз №3

Sostenuto                  

                           (*DTR.*)
             II   III      i a i m p a i m p a i m
                           p
E||-----------2----3----|-----------------------------|
B||--5------------------|----1---1---1---1---1---1----|
G||---------------------|--4---4---4---4---4---4------|
D||--2--------4----5----|-----------------------------|
A||---------------------|--2h3p2h3p2h3p2h3p2h3p2h3p2--|
E||--0--------2----3----|-----------------------------|
     4        1    1       4 3 similie
     1        3    3       2 1
              1    1
                          

                        (*DTR.*)
                        i a i m p a i m p a i m
III       V   VII      p
--3--------5----7----|----0---0---0---0---0---0----|
---------------------|--3---3---3---3---3---3------|
---------------------|-----------------------------|
--5--------7----9----|--0h2p0h2p0h2p0h2p0h2p0h2p0--|
---------------------|-----------------------------|
--3--------5----7----|-----------------------------|
  1        1    1       2 1 similie
  3        3    3
  1        1    1

*ВСЕ ДВОЙНЫЕ ТРЕЛИ БУДУТ ОБОЗНАЧАТЬСЯ(*DTR.*)
*НО ИГРАТЬ ИХ КАК УКАЗАНО ВЫШЕ


-----------------------------------|
--13----12-10-8----------------13--|
--------------0-11-9-8-------------|
--10----9--7-----------10-9-7--10--|
----------------9--7-6------0------|
-----------------------8--7--------|
   4    4  4  2 4  4 3 2  1 1  4
   1    1  1    3  1 1 4  4    1


---------------------------------|------------------------------|
--12----10-8-7---------------12--|--10----8-7-5-4-8-----7-5-----|
-----------0---9-7--------0------|--------0-----------------5-3-|
--9----------4-----10-9-7----9---|--7---------------------------|
--------0------7-5------0--------|----------9-7-6-10----9-7-3-1-|
-------------------8--7---3------|------------------------------|
  4     4  4 4 4 3 4  3 3 1  4      4     2 1 1 1 1     1   4 4
  1          1 2 1 2  1      1      1       3 3 3 3     3   1 2


(*DTR.*)                                      (*DTR.*)
-------------------|--12--------14----15----|-----8-------------|
-----1-------------|------------------------|--12----12---------|
-3/4---4-----------|--9---------11----12----|-------------------|
-------------------|------------------------|--9h-10p9----------|
-1/2h3p2-----------|------------------------|-------------------|
-------------------|------------------------|-------------------|
4 4 3 4              4         4     4        4  3  4
2 2 1 2              1         1     1        2  1  2


                                      (If you're like me, your classical)
                                      (guitar only has 19 frets, so if)
                                      (You're feeling daring you can  )
                                      (try for the artificial harmonic)
                                      (at fret 8 <20>, on the high "E")
                              XII     (and pluck fret 13 on the "B"   )
                            (*DTR.*)                      \/
--15--------17----19----|-----12-------------|--11--------20--------|
------------------------|--15----15----------|----------------------|
--12--------14----16----|--------------------|--8---------17--------|
------------------------|--12h14p12----------|----------------------|
------------------------|--------------------|----------------------|
------------------------|--------------------|----------------------|
  4         4     4        4  2  4              4         4
  1         1     1        1  3  1              1         1


                                                
--19----12------13-12-13-15-17-19-20-|--20\12------15\14-15----15----|
-------------------------------------|----------------------19----19-|
--16----9-------10-9--10-12-14-16-17-|--17\9-------------------------|
-------------------------------------|-------------17\16-------------|
-------------------------------------|-------------------------------|
-------------------------------------|-------------------------------|
  4     4       4  4   4  4  4  4  4    4  4       1  1   1 4  1  4
  1     1       1  1   1  1  1  1  1    1  1       3  3



<ФЛАЖ>                                     (*DTR.)
--12-----------------|------------------------8-------|
---------------------|----------------9-10-12----12---|
---------------------|---------7-9-11-----------------|
----------------6----|--7-9-10--------6-7--9h-10p9----|
---------------------|---------5-7-9------------------|
--12------------4----|--5-7-8-------------------------|
<ФЛАЖ>          4       4 4 4  4 4 4  4 4  4  1  4
                1       1 1 1  1 1 1  1 1  2  3  2


                                                                       X
                                             (*DTR.*)             (*.DTR.*)
----------------------------------|--0----------3------|--0-----------10----|
--13-----------13--12--13--10--6--|---------8/7---7----|-----------13----13-|
----------------------------------|--------------------|--------------------|
--10----7------10--9---10--7---3--|--2------5/4h5p4----|--2--------10h12p10-|
----------------------------------|--------------------|--------------------|
--------5-------------------------|--------------------|--------------------|
  4     4      4   4   4   4   4     1      4 4 1 4       1        3  1  3
  1     1      1   1   1   1   1            2 2 3 2                1  2  1


     VII                 II      III
  (*DTR.*) (*DTR.*)   (*DTR.*) (*DTR.*)     (*DTR.*) (*DTR.*)
-----7--------8-----|----2----------------|--------------------|
--10---10--12----12-|--5---5------3-------|----0--------1------|
--------------------|-----------5---5-----|--2---2----4---4----|
--7h-9p7---9h-10p9--|--2h4p2--------------|--------------------|
--------------------|-----------3h5p3-----|--0h2p0----2h3p2----|
--------------------|---------------------|--------------------|
  4  1 4   4  1  4     4 1 4    3 1 3        2 1 2    4 1 4
  1  3 1   2  3  2     1 3 1    1 2 1                 2 3 2


(*DTR.*)            PRESTO!
-------------------|--------0---0-|------6/7------|--------0-----|
-------------------|------0---9---|----0-----8h10-|--9---7-------|
-------------------|--------------|---------------|----8-----5h8-|
----4--------------|----6---------|--8------------|--------------|
--7---7------------|--7-----------|---------------|--------------|
--0h2p0------------|--0-----------|---------------|--------------|
  4 2 4               2 1     4      3   1   2 4     3 2 1   1 4
    1


--------------|--------------|--------------|--7-------------|--------------|
------0-------|--------------|------0---7-9-|----10-6h8------|------0-------|
--6-----------|--------------|----5---8-----|-----------8----|----6---------|
----6---7-----|--------------|--7-----------|-------------10-|--8-----6-----|
----------8h9-|--6h9-----6h9-|--------------|----------------|----------6h7-|
--------------|------8p7-----|--------------|----------------|--------------|
  2 1   2 3 4    1 4 3 2 1 4    2 1   2 1 3    1  4 1 3 2 4     3 1   2 1 3



--4---------5-|--3h4---------|----0---------|--------------|------7-------|
----7p4-------|------4h5-----|--7---------9-|--6h7-------0-|--9-----9-7---|
--------6-5---|----------5h6-|------6-------|------7/8-----|----9---------|
--------------|--------------|--------9-8---|----------8---|--------------|
--------------|--------------|--------------|--------------|------------6-|
--------------|--------------|--------------|--------------|--------------|
  1 4 1 3 3 4    1 2 1 2 1 2    2   1 4 3 4    1 3 2 2 1      4 3 1 4 2 1



--0-----0-----|--------------|--------------|----0---------|--------7p6-5-|
------9-------|----0---------|----------0---|------------7-|------0-------|
----6-----8---|------------6-|--------8-----|------6-------|--8p6---------|
--------------|------6-------|--8-6-------8-|--6-----9-8---|--------------|
--------------|--7-----9-8---|------9-------|--------------|--------------|
------------7-|--------------|--------------|--------------|--------------|
    1 4   3 2    3   1 4 3 1    3 1 4 3   2    1   2 4 3 2    3 1   3 2 1



------7-------|------------7-|--------------|----7----7-------|
--7-8---8---0-|----0---0-----|--7-----------|------11---10h11-|
----------7---|--0-----------|----8---------|-----------------|
--------------|--------------|--------------|-----------------|
--------------|------9---8---|------9p6-7---|-----------------|
--------------|--------------|------------9-|--7--------------|
  3 3 2 3 1          3   2 1    1 2 4 1 2 4    1 1 4  1  3 4



---------------|----------------|--------------|----------|--------0---0-|
--8h9----7-----|--------------0-|--------------|-----0----|------0---9---|
------10---8h9-|--7h8-----------|--0h1---------|-----4----|--------------|
---------------|------10h11-8---|------4p1-2---|----------|----6---------|
---------------|----------------|------------4-|--2-------|--7-----------|
---------------|----------------|--------------|----------|--0-----------|
  2 3 4  1 2 3    1 2  3 4  1        1 4 1 2 4    1  4       2 1     4



------6/7------|--------0-----|--------------|--------------|--------------|
----0-----8h10-|--9---7-------|------0-------|--------------|------0---7-9-|
---------------|----8-----5h8-|--6-----------|--------------|----5---8-----|
--8------------|--------------|----6---7-----|--------------|--7-----------|
---------------|--------------|----------8h9-|--6h9-----6h9-|--------------|
---------------|--------------|--------------|------8p7-----|--------------|
  3   1   2 4     3 2 1   1 4    2 1   2 3 4    1 4 3 2 1 4    2 1   2 1 3



--7-------------|--------------|--4---------5-|--3h4---------|----0---------|
----10-6h8------|------0-------|----7h4-------|------4h5-----|--7---------9-|
-----------8----|----6---------|--------6-5---|----------5h6-|------6-------|
-------------10-|--8-----6-----|--------------|--------------|--------9-8---|
----------------|----------6h7-|--------------|--------------|--------------|
----------------|--------------|--------------|--------------|--------------|
  1  4 1 3 2 4     3 1   2 1 3    1 4 1 3 3 4    1 2 1 2 1 2    2   1 4 3 4



--------------|------7-------|--0-----0-----|--------------|--------------|
--6h7-------0-|--9-----9-7---|------9-------|----0---------|----------0---|
------7h8-----|----9---------|----6-----8---|------------6-|--------8-----|
----------8---|--------------|--------------|------6-------|--8-6-------8-|
--------------|------------6-|--------------|--7-----9-8---|------9-------|
--------------|--------------|------------7-|--------------|--------------|
  1 3 2 2 1      4 3 1 4 2 1      1 4   3 2    3   1 4 3 1    3 1 4 3   2



----0---------|--------7p6-5-|------7-------|------------7-|--------------|
------------7-|------0-------|--7-8---8---0-|----0---0-----|--7-----------|
------6-------|--8p6---------|----------7---|--0-----------|----8---------|
--6-----9-8---|--------------|--------------|--------------|--------------|
--------------|--------------|--------------|------9---8---|------9p6-7---|
--------------|--------------|--------------|--------------|------------9-|
  1   2 4 3 2    3 1   3 2 1    3 3 2 3 1          3   2 1    1 2 4 1 2 4



----7----7-------|---------------|----------------|--------------|----------|
------11---10h11-|--8h9----7-----|--------------0-|--------------|-----0----|
-----------------|------10---8h9-|--7h8-----------|--0h1---------|-----4----|
-----------------|---------------|------10h11-8---|------4p1-2---|----------|
-----------------|---------------|----------------|------------4-|--2-------|
--7--------------|---------------|----------------|--------------|----------|
  1 1 4  1  3 4     2 3 4  1 2 3    1 2  3 4  1        1 4 1 2 4    1  4



                     VII
--------------|------7-------|--------------|------7-------|-----8---8---8-|
--------0---0-|--7-----7-----|------------0-|--7-----7-----|---------------|
----------8---|----8-----8---|----------7---|----7-----7---|---------------|
------4-------|------------9-|----0---9-----|------------9-|--10---9---7---|
----6---------|--------------|------9-------|--------------|---------------|
--7-----------|--------------|--7-----------|--------------|---------------|
  4 3 1   2      1 2 1 1 2 3    1   3 4 1      1 1 1 1 1 3     4 2 3 2 1 2



-----8---8---8-|--------------|----10-9/10-------|----8-7/8-------|
---------------|--------------|------------12----|----------10----|
---------------|--------------|---------------12-|--9----------11-|
---------------|--0h2-0-------|------------------|----------------|
--10---9---7---|--------2h3p0-|------------------|----------------|
---------------|--------------|--3---------------|----------------|
   4 2 3 2 1        1   1 2      1  2 1 1  4  3     3 2 1 1 3  4



----7-6/7-----|----5-4/5-----|--------------|-----0---0---0-|----0---0---0-|
----------8---|----------6---|----8-7/8-6---|---------------|--------------|
--8---------9-|--6---------7-|------------7-|---------------|--0-----------|
--------------|--------------|--9-----------|--10---9---7---|------3---2---|
--------------|--------------|--------------|---------------|--------------|
--------------|--------------|--------------|---------------|--------------|
  3 2 2 2 3 4    3 2 1 1 2 3    4 3 3 3 1 2     4   3   1          2   1



--------------|--------------|------0-------|--------------|----3---3-----|
--------------|--------------|----6---6-----|----4---4-----|------7-----0-|
----5---5---5-|----5---5---5-|----------5---|------7---5---|--0-------7---|
--7---5-------|------0-------|------------7-|--4---------7-|--------------|
----------8---|--7-----------|--8-----------|--------------|--------------|
--------------|----------8---|--------------|--------------|--------------|
  3 1 1 1 4 1    3 1   1 4 1    4 2   2 1 3    1 1 4 1 2 4      1 4 1 4



--------------|--------------|------0---5---|--------------|--------------|
----6---6---0-|----5-----6---|----8-------6-|------0---5---|----6-----8---|
------9---7---|------6-----7-|--------------|----7-------5-|------7-----8-|
--6-----------|--7-----7-----|--7-----7-----|--5-----5-----|--5-----5-----|
--------------|--------------|--------------|--------------|--------------|
--------------|--------------|--------------|--------------|--------------|
  1 1 4 1 2      3 1 2 3 1 2    3 4   3 1 2    1 3   1 1 1    1 2 3 1 4 4



--------------|--------------|--------------|--------------|--------------|
--------------|--------------|----------3---|------5-6---4p|--3-----------|
----5-----7---|----8-5-------|--------3---3-|----------6---|------5p3-----|
------7-----8-|--------7-----|------3-------|----3---------|----7-----4-7-|
--8-----8-----|--8-------6p3-|----5---------|--7-----------|--------------|
--------------|--------------|--6-----------|--------------|--------------|
  3 1 2 3 2 4    4 3 1 2 4 1    4 3 1 1 1 1    4 1 2 4 3 2    1 4 2 1 1 4



--------------|--------------|---------------8-|--11p8-----------|
--------------|--------------|-------7----10---|-------10----7---|
--0-----------|--------------|-----8---10------|----------10---8-|
------3-------|--------4p3-7-|--10-------------|-----------------|
----5---6-3---|----3h6-------|-----------------|-----------------|
------------6-|--5-----------|-----------------|-----------------|
    3 1 4 1 4    3 1 4 2 1 4    4  2 1 3  4  1    4  1 4  3  2 3



--------------|--------------|--------------|--------4-----|--6-----------|
----4---------|----------3---|----------4---|----------6---|----8---------|
--6---7---5---|----2---4---5-|----3---6---7-|----5-------7-|------8---0---|
--------7---8-|--4---5-------|--6---7-------|--7---8-------|--------6-----|
--------------|--------------|--------------|--------------|------------6-|
--------------|--------------|--------------|--------------|--------------|
  3 1 4 3 2 4    2 1 4 3 2 3    4 1 4 3 1 4    3 1 4 1 2 3    1 4 3 1   1



--6-----------|--7-----------|--------------|--------0---0-|------6/7------|
----7-4-------|----7---0-----|----0---0-----|------0---9---|----0-----8h10-|
--------3-----|------8-------|--------------|--------------|---------------|
----------4---|----------4---|------8---7---|----6---------|--8------------|
------------6-|------------6-|------------9-|--7-----------|---------------|
--------------|--------------|--7-----------|--------------|---------------|
  2 3 3 1 2 4    3 2 4   1 3    4   2   1 3    2 1     4      3   1   2 4



--------0-----|--------------|--------------|--0-------------12-|
--9---7-------|--------------|--------------|-------11-14-11----|
----8-----5h8-|--6---0-------|--------0---6-|----12-------------|
--------------|----8---------|----------8---|-------------------|
--------------|--------7-----|------7-------|-------------------|
--------------|----------9p7-|--6h9---------|-------------------|
  3 2 1   1 4    2 4   1 3 1    1 4 2   3 1      2  1  3  1  2


                   <ФЛАЖ>
--9-15h12----------|-----12-11h12-10h11-|--8h9------------|
----------14-11-14-|--12----------------|------11h12-9h10-|
-------------------|--------------------|-----------------|
-------------------|--------------------|-----------------|
-------------------|--------------------|-----------------|
-------------------|--------------------|-----------------|
  1  3 1  3  1  3      3 4   3 4   2 3     1 2  3 4  1 2


                                          Sostenuto
--------------------|-------------------|-----------2----3----|
--------------------|--------0----------|--5------------------|
--12/13-10h11-------|-------------------|---------------------|
--------------13/14-|-----11------------|--2--------4----5----|
--------------------|--13------11h12-9--|---------------------|
--------------------|-------------------|--0--------2----3----|
   4 4   1 2   4 4      3  1    1 2  1     4        1    1
                                           1        3    3
                                                    1    1


(*DTR.*)                                  (*DTR.*)
-------------------|--2--------5----3----|----2---------------|
----1--------------|---------------------|--5---5-------------|
--4---4------------|---------------------|--------------------|
-------------------|--4--------7----5----|--2h4p2-------------|
--2h3p2------------|---------------------|--------------------|
-------------------|--2--------5----3----|--0-----------------|
  2 1 2               1        1    1       4 1 4
  4 3 4               3        3    3       1 3 1
                      1        1    1


--12--------14----15----|--17----5----8---7--10--8---5--1--|
------------------------|----------------------------------|
--9---------11----12----|--14------------------------------|
------------------------|--------7----10--9--12--10--7--3--|
------------------------|----------------------------------|
------------------------|--------5----8---7--10--8---5--1--|
  4         4     4         4    1    1   1  1   1   1  1
  1         1     1         1    3    3   3  3   3   3  3
                                 1    1   1  1   1   1  1


           (*DTR.*)    (*DTR.*)
--0-----------8------|----2---------------|
-----------12----12--|--5---5-------------|
---------------------|--------------------|
--2--------9h-10p9---|--2h4p2-------------|
---------------------|--------------------|
--0------------------|--------------------|
  1        4  1  4      4 1 4
           2  3  2      1 3 1


  (*DTR.*)     (*DTR.*)   (*DTR.*)
-----8-------------------|-------------------||
--12----12--------1------|-------------------||
----------------4---4----|-------------------||
--9h-10p9----------------|----4--------------||
----------------2h3p2----|--7---7------------||
-------------------------|--0h2p0------------||
  4  1  4       4 1 4       4 2 4
  2  3  2       2 3 2         1
Вверх

Каприз №5

|-------------------7--12---11-8-7-----------------------------------------|
|-----------------8----------------10-8-7----------------------------------|
|-----------0---9-------------------------9-8------------------------------|
|---------2---9-------------------------------10-9-7-----------------------|
|-------2--------------------------------------------10-9-7-6--------------|
|-0---3-------------------------------------------------------8-7-5-3-2----|


|--------------------------12--15----14-12-11-8-7---------------------------
|-----------------------12------------------------10-8-7--------------------
|-----------0--------12----------------------------------9-8----------------
|---------2-------14-----------------------------------------10-9-7---------
|-------2------14---------------------------------------------------10-9----
|-0---3---------------------------------------------------------------------


----------------|--------------------------12-15-19----17-15-14-12-11-8-7---
----------------|-----------------------12----------------------------------
----------------|-----------0--------12-------------------------------------
----------------|---------2-------14----------------------------------------
-7-6------------|-------2------14-------------------------------------------
-----8-7-5-3-2--|-0---3-----------------------------------------------------


--------------------------------------|-----------------------------15-19-24
-10-8-7-------------------------------|-----------------------12-17---------
--------9-8---------------------------|-----------0--------12---------------
------------10-9-7--------------------|---------2-------14------------------
-------------------10-9-7-6-----------|-------2------14---------------------
----------------------------8-7-5-3-2-|-0---3-------------------------------


-23-20-19------------------------------------------------------------------|
----------22-20-19---------------------------------------------------------|
-------------------21-20-17-16---------------------------------------------|
-------------------------------19-17-16-14-13------------------------------|
----------------------------------------------15-14-12-10-9-7-6------------|
----------------------------------------------------------------8-7-5-3-2--|


|---------------------------------------------------|-----------------------
|-------------------------------------------1-2-3-4-|-5-4-3-2---------------
|-----------------------------------1-2-3-4---------|---------5-4-3-2-------
|---------------------------2-3-4-5-----------------|-----------------6-5-4-
|-------------------3-4-5-6-------------------------|-----------------------
|-0---1-2-3-4-5-6-7---------------------------------|-----------------------


----------------------------------------|
----------------------------------5-----|
----------------------------------0-----|
3---------------------------------------|
---7-6-5-4------------------------2-----|
-----------8-7-6-5-4-3-2-1-0------------|


||---------------------------------|---------------------------------------|
||---------------------------------|---------------------------------------|
||-------------------9-7-5---------|-------------------9-7-5---------------|
||---5-9-5---7-9-7-5-------9-7-5---|---5-9-5---7-9-7-5-------9-7-5---------|
||-7-------9---------------------9-|-7-------9----------------------9------|
||---------------------------------|---------------------------------------|


|----------------------------------|------------------------------------14--
|----------------------------------|---------------------------------16-----
|------------------------------4---|------------------------------16--------
|---6-9-6---7-10-7---4-7-4---5---5-|-----10-7------14----------16-----------
|-7-------7--------5-------5-------|-6-9------10-7----13-14-18--------------
|----------------------------------|----------------------------------------


-17-19-|-------------------------------------------------|------------------
-------|----------------------------17-15-13-------------|------------------
-------|----12-16-12----14-16-14-12----------16-14-12----|----12-16-12------
-------|-14----------16-------------------------------16-|-14----------16---
-------|-------------------------------------------------|------------------
-------|-------------------------------------------------|------------------


----------------------------------|-------------12----------------14-12-----
-------------17-15-13-------------|-------12-------15-13-12-------------15--
-14-16-14-12----------16-14-12----|----13----13-------------13-14-----------
-------------------------------16-|-14--------------------------------------
----------------------------------|-----------------------------------------
----------------------------------|-----------------------------------------


----------|---------------------------------------------|-------------------
-13-12----|---------------------------------------------|-------------------
-------14-|-12-11------------------------12--------11---|-----9-------7-----
----------|-------14-12-11-12-14-10-9-12----9-7-10----7-|-5-9---9-4-7---7-2-
----------|---------------------------------------------|-------------------
----------|---------------------------------------------|-------------------


---------------|---------------3--------5--------7--|--------8--------------
---------------|-------------3--------7--------8----|------8-------11-------
---5-------5---|-----5-----4--------5--------7------|----9------------12----
-5---2-1-5---1-|-0-4---4-5--------7--------9--------|-10--------11-------14-
---------------|------------------------------------|-----------------------
---------------|------------------------------------|-----------------------


-----10-------------------|----15-14-12----------------14-12---------------|
--------12-------13-10----|-------------15-13-12----13-------15-14-12-11---|
-----------12----------11-|-12-------------------12----------------------11|
-12-----------12----------|------------------------------------------------|
--------------------------|------------------------------------------------|
--------------------------|------------------------------------------------|


|----12-10-8--------------10-8-7----------|---8-7---------------------9-12--
|-12---------12-10-9---10--------10-8-7---|-8-----10-8-7---------8-11-------
|--------------------9------------------7-|--------------9-7-6-9------------
|-----------------------------------------|---------------------------------
|-----------------------------------------|---------------------------------
|-----------------------------------------|---------------------------------


-15-9-|-15-10-------------------14-10------------------|----15-14-13-12-11--
------|-------12----------------------10---------------|--------------------
------|----------12----------------------11------------|--------------------
------|-------------12-9--------------------12---------|--------------------
------|------------------10--------------------12-9----|-10-----------------
------|---------------------10----------------------10-|--------------------


-10-9-------------------------|--------------------------------------------|
------13-12-11-10-------------|--------------------------------------------|
------------------13-12-11-10-|----------------------------9-7---7---------|
------------------------------|-14-13-12-11-10-9-8-7-----9---------10-7----|
------------------------------|-----------------------10-------9-----------|
------------------------------|--------------------------------------------|


|-----------------------------------------||
|-----------------------------------------||
|--------------7-------------------7------||
|----9-----------10-7----9-----------10-7-||
|-10------10-9--------10------10-9--------||
|------10------------------10-------------||

играть концовку 1
повторить от первой || и играть остальное


концовка 1

|----------------------------------|
|----------------------------------|
|-----------5----------------------|
|-5-9-7-5-4---7-4------------7-----|
|-----------------7-10-9-7-6---9-6-|
|----------------------------------|




|-----------------------------------|---8-------7--------------------------|
|-----------------------------------|-----8-------9------10--------8-------|
|----7--------7-------5-------4-----|-------9-7-----7-------9--------7-----|
|------9--------9-------5-------3---|-----------------10------10-9-----9---|
|-10-----10-8-----8-7-----7-5-----5-|-7------------------------------------|
|-----------------------------------|--------------------------------------|


|------------------------------------------|----13----------12--------------
|----10--------8---------------------------|-------13----------14-------15--
|-------9--------9------10----------9------|----------14-12-------12--------
|-10------10-8-----8-------10---------9----|-------------------------15-----
|--------------------12-------12-10-----10-|-12-----------------------------
|------------------------------------------|--------------------------------


-------------------|-------------------------------------------------------|
----------13-------|----15----------13-------------------------------------|
-14----------12----|-------14----------14-------15----------14-------------|
----15-14-------14-|-15-------15-13-------13-------15----------14----------|
-------------------|-------------------------17-------17-15-------15-------|
-------------------|-------------------------------------------------------|


|----18----------17----------15----------13-------|----15-14-13-12-11-10-9--
|-------18----------19----------15----------13----|-------------------------
|----------19-17-------17-15-------15-14-------14-|-12----------------------
|-------------------------------------------------|-------------------------
|-17----------------------------------------------|-------------------------
|-------------------------------------------------|-------------------------


-------------------------|----------------------------------------|----11---
-13-12-11-10-------------|----------------------------------------|---------
-------------13-12-11-10-|---------------------------8-7---7------|---------
-------------------------|-14-13-12-11-10-9-8-7----8---------10-7-|---------
-------------------------|----------------------10-------9--------|-10------
-------------------------|----------------------------------------|---------


-10-9-8-7-6-5-----------------|----------------------------------|----------
--------------9-8-7-6---------|----------------------------------|---4------
----------------------9-8-7-6-|----------------------5-3---3-----|-----3----
------------------------------|-10-9-8-7-6-5-4-3---5---------6-3-|-------5--
------------------------------|------------------6-------5-------|-6-------7
------------------------------|----------------------------------|----------


-------------------------------|-----------------------------7----13-|-11-8-
-2-------2-------6-------4-----|----8--------6-----------8-----------|------
---3-------3-------5-------5---|------7--------7-----7-----7---12----|------
-----5-------5-------6-------7-|--------8--------6-----9-------------|------
-------7-------8-------9-------|-10-------11-------8-----------------|------
-------------------------------|-------------------------------------|------


-----------------------------------|----------------10----11-6-------------|
-8----------------------------9----|----------10-11----11------8-----------|
---8------8--------------9-10---10-|-8-7-------------------------8-7-8-6---|
-----9-10---10-8-------------------|-----10-8----------------------------8-|
-----------------11-10-8-----------|---------------------------------------|
-----------------------------------|---------------------------------------|


|---------------------------------|----------------------------------------|
|-------------------9-8-6---------|-------------7-------7-------6----------|
|---5-8-5---6-8-6-5-------8-6-5---|---5-8-5---8---8---8---8---6---6--------|
|-6-------8---------------------8-|-6-------6-------7-------8--------------|
|---------------------------------|----------------------------------------|
|---------------------------------|----------------------------------------|


|----------------------------------------|----------------------------------|
|----------------------11-10-8-----------|-----6-----6-9-6---6-9-6----------|
|---7-10-7----8-10-8-7---------10-8-7----|---7---7--------------------8-12-8|
|-8--------10-------------------------10-|-8-------8-------9-------10-------|
|----------------------------------------|----------------------------------|
|----------------------------------------|----------------------------------|


|---------------8--------8---------9-------|--------------------------------
|----11-8---------9--------10--------11----|----12-9------------------------
|-------------------10-8------8---------10-|---------10-------------------11
|-11------11-10-----------------11---------|-11---------11-9-----------11---
|------------------------------------------|-----------------11-8-9-13------
|------------------------------------------|--------------------------------


-------14-18-|-------------------------------11-14-|------------------------
-11-14-------|---9-6----------------------11-------|------------------------
-------------|-------7---------------8-11----------|---8-11-8----9-11-9-----
-------------|-8-------8-6---------8---------------|-9--------11--------13--
-------------|-------------8-5-6-9-----------------|------------------------
-------------|-------------------------------------|------------------------


----------------------|----------------------------------------------------|
----12----------12----|-------14----------14----------16----------17-------|
-11----11----12----12-|----13----13----15----15----15----15----16----16----|
----------14----------|-15----------16----------17----------18-------------|
----------------------|----------------------------------------------------|
----------------------|----------------------------------------------------|


|-------14----------14----------------------14----|-------------------12----
|----14----14----16----16----15-18-15----14----14-|----13-16-13----12----12-
|-15----------16----------16----------15----------|-14----------13----------
|-------------------------------------------------|-------------------------
|-------------------------------------------------|-------------------------
|-------------------------------------------------|-------------------------


-------------------10----|---------------8----------------7---|-------------
----11-14-11----10----10-|----9-12-9---8---8---8-11-8---7---7-|---6-11-6----
-12----------11----------|-10--------9-------9--------8-------|-7--------6--
-------------------------|------------------------------------|-------------
-------------------------|------------------------------------|-------------
-------------------------|------------------------------------|-------------


---5-----------------------|--------------------19-23----------------------|
-5---5------10--------11---|--------------16-19------------10--------11----|
----------9----9----9----9-|-----------16----------------9----9----9----9--|
-------10--------10--------|-------116----------------10--------10---------|
---------------------------|-14-18-----------------------------------------|
---------------------------|-----------------------------------------------|


|-------7-------14-19----15-19-15----17-19-17-|----24-22-20-19--------------
|-----7------16-------17----------19----------|-20-------------22-20-19-17--
|---8-----16----------------------------------|-----------------------------
|-9-------------------------------------------|-----------------------------
|---------------------------------------------|-----------------------------
|---------------------------------------------|-----------------------------


-15-19-15----17-19-17-|----24-22-20-19-------------22-20-19----------------|
----------19----------|-20-------------22-21----22----------22-20-19-------|
----------------------|----------------------21----------------------19----|
----------------------|----------------------------------------------------|
----------------------|----------------------------------------------------|
----------------------|----------------------------------------------------|


|----20-19-17----------------19-17-15-------------|----17-15-14-------------
|-20----------20-19-17----19----------19-17-16----|-17----------17-15-13----
|----------------------17----------------------16-|----------------------16-
|-------------------------------------------------|-------------------------
|-------------------------------------------------|-------------------------
|-------------------------------------------------|-------------------------


----15-12----------------|-15-12-------------------14-11-------------------|
----------14-------------|-------12----------------------------------------|
-15----------15-12-------|----------12-------------------14-11-------------|
-------------------14----|-------------14----------------------13----------|
----------------------13-|----------------14----------------------12-------|
-------------------------|-------------------15-12-------------------14-11-|


|----12-11-10-9-8-7-6-------------------|----------------------------------|
|---------------------10-9-8-7----------|----------------------------------|
|------------------------------10-9-8-7-|-----------------------5-4---4----|
|---------------------------------------|-11-10-9-8-7-6-5-4---5---------7-4|
|---------------------------------------|-------------------7-------6------|
|-12------------------------------------|----------------------------------|


|-------------------------------------------------|-------------------------
|-------------------------------------------------|-------------------------
|----------------4-----------------------4--------|----------------4--------
|----5--4--7--5--------4-----5--4--7--5--------4--|----5--4--7--5--------4--
|-7-----------------6-----7-----------------6-----|-7-----------------6-----
|-------------------------------------------------|-------------------------


------------------------|
------------------------|
----------------4-------|
----5--4--7--5--------4-|
-7-----------------6----|
------------------------|


|-------------------7-12----11-9-7-----------------------------------------|
|-------------0---9----------------10-9-7----------------------------------|
|-----------1---9-------------------------9-8-6----------------------------|
|---------2-------------------------------------9-7-6----------------------|
|-------2---------------------------------------------9-7-6----------------|
|-0---4-----------------------------------------------------9-7-5-4-2------|


|-------------------------12-16----14-12-11-9-7-----------------------------
|--------------0-------12-----------------------10-9-7----------------------
|------------1------13---------------------------------9-8-6----------------
|----------2-----14------------------------------------------9-7-6----------
|--------2---------------------------------------------------------9-7-6----
|-0----4-----------------------------------------------------------------9--


----------|----------------------------16-19-24--23-21-19-------------------
----------|--------------0----------17--------------------22-21-19-17-16-14-
----------|------------1---------16-----------------------------------------
----------|----------2--------18--------------------------------------------
----------|--------2-------19-----------------------------------------------
-7-5-4-2--|-0----4----------------------------------------------------------


----------------------------------------------|-----------------------------
----------------------------------------------|-----------------------------
-16-14-13-------------------------------------|-----------------------------
----------16-14-13-11-9-7---------------------|-----------------------------
--------------------------11-9-7-6------------|--------------------3-4-5-6--
-----------------------------------9-7-5-4-2--|-0----1-2-3-4-5-6-7----------


--------------------------|-------------------------------------------------
-----------------1-2-3-4--|-5-4-3-2-----------------------------------------
---------1-2-3-4----------|---------5-4-3-2---------------------------------
-2-3-4-5------------------|-----------------6-5-4-3-------------------------
--------------------------|-------------------------7-6-5-4-----------------
--------------------------|----------------------------------8-7-6-5-4-3-2--


----------||
-------5--||
----------||
-------6--||
-------2--||
-1-0------||
Вверх

Каприз №5 (2 вариант)

Обозначения:
Пальцы правой руки указаны над табом:
p=большой палец
i=указательный палец
m=средний палец
a=безымянный палец

в некоторых местах под табом указаны пальцы левой руки.


E||---------------0--------------------0-5---|
B||-------------1---1----------------1-------|
G||-----------2-------2------------2---------|
D||---------2-----------2--------2-----------|
A||--0h---3---------------3p0h3----------0---|
E||------------------------------------------|


   a     m     i   m     i
|--3p1p0--------------------------------0-------------------0-5-8----|
|--------3p1p0------------------------1---1---------------1----------|
|--------------2p1------------------2-------2-----------2------------|
|------------------3p2p0----------2-----------2-------2--------------|
|------------------------3p2p0-h3---------------3p0h3-----------0----|
|--------------------------------------------------------------------|


|--7p5p4---0--------------------------------0-------------------0-|
|--------6---3p1p0------------------------1---1---------------1---|
|------------------2p1------------------2-------2-----------2-----|
|----------------------3p2p0----------2-----------2-------2-------|
|----------------------------3p2p0-h3---------------3p0h3---------|
|-----------------------------------------------------------------|


|-----8-12----10p8p7--------0-----------------------------|
|--10----------------10p9p6---3p1p0-----------------------|
|-----------------------------------2p1-----------------2-|
|---------------------------------------3p2p0---------2---|
|-------0-------------------------------------3p2p0h3-----|
|---------------------------------------------------------|


|----0-------------------0----8-12-17--------|
|--1---1---------------1---10----------------|
|--------2-----------2-----------------------|
|----------2-------2-------------------------|
|------------3p0h3-----------------0---------|
|--------------------------------------------|


|--15-13-12-10p8p7--------0-----------------------|
|------------------10p9p6---3p1p0-----------------|
|---------------------------------2p1-------------|
|-------------------------------------3p2p0-------|
|-------------------------------------------3p2p0-|
|-------------------------------------------------|


Molto Legato

|----------------------------------------0/1/2/3/4/5/4/3/2/1p0-|
|------------------------------0/1/2/3/4-----------------------|
|----------------------0/1/2/3---------------------------------|
|------------0/1/2/3/4-----------------------------------------|
|--0/1/2/3/4---------------------------------------------------|
|--------------------------------------------------------------|
   3.........2........ 1...... 1........ 1.........2.........


                                           <
|------------------------------------------5--|
|-4p3p2p1p0--------------------------------5--|
|-----------3p2p1p0------------------------5--|
|-------------------4p3p2p1p0--------------7--|
|-----------------------------4p3p2p1p0----7--|
|------------------------------------------5--|


Agitato

   p i a m p i a m p a   i m i
|----------------------------------|----------------------------------|
|----------------------------------|----------------------------------|
|--------------------2p0-----------|--------------------2p0-----------|
|------2-------2---------3-2-------|------2-------2---------3-2-------|
|----3---3---5---5-3---------5-3-2-|----3---3---5---5-3---------5-3-2-|
|--5-------7-----------------------|--5-------7-----------------------|


|----------------------------------|------------------------0-------11-12-|
|----------------------------------|----------------------0------12-------|
|----------------------------------|--------------2-----1-----13----------|
|------2-------3-------3-------2---|------3p0-------1-2-------------------|
|----4---4---5---5---2---2---3---3-|----2-----3p0-------------------------|
|--5-------5-------3-------3-------|--4-----------------------------------|
   4       4 3 1                                               3  2  1  2


   p i a m         p a   m a m i m
|------0-------0-----5p3---0-------|------0-------0-----5p3---0-------|
|----1---1---3---3-------6---3-1-0-|----1---1---3---3-------6---3-1-0-|
|--2-------4-------5---------------|--2-------4-------5---------------|
|----------------------------------|----------------------------------|
|----------------------------------|----------------------------------|
|----------------------------------|----------------------------------|
   2 1     2 1


   p i a p a
|------0---5p3---0-----7p5-3---0---|----------------------------------|
|--------------6-----3-------6---3-|--1-------------------1-----------|
|----6---6---------6---------------|----4-2-0-----2-----0---------4---|
|--7-------------------------------|----------4h5---3-2-----2---3-----|
|----------------------------------|--------------------------5-----5-|
|----------------------------------|----------------------------------|
   4 3             3 1


|----------------------------------|----------------------------------|
|----------------------------------|----------------1-------3-------5-|
|------2-------0-------------------|--------------0-------4-------5---|
|----2-------0---------3-------3---|------3-----2-------3-------5-----|
|--3-----3-2-----2---3-------3-----|----2---2-3-------5-------7-------|
|------------------5-----5-4-----4-|--3-------------------------------|


|----------------------------------|----8p7-5-----------7p5-----------|
|--------6---4-------8p5-----6---0-|----------8p6-5---6-----8-7p5-4---|
|------5-------5---------5-----7---|--5-------------5---------------4-|
|----7-----4-----7-5-------5-------|----------------------------------|
|--8-------------------------------|----------------------------------|
|----------------------------------|----------------------------------|


|----5p3-------------3p1p0---------|----1-0-------------------------8----|
|--5-----6-5p3-2---3-------3p1p0---|--1-----3p1p0-----------4----10------|
|----------------2---------------0-|--------------2-0-----5---11------11-|
|----------------------------------|------------------4h7----------------|
|----------------------------------|-------------------------------------|
|----------------------------------|-------------------------------------|


   a i m a\\\\\\\\ a m i m a\\\\\\      a m  i  m  i m i   p a m i m i m i
|--8---0-----------7---------------|----8--------------------0-------------|
|----8---1-----------8---0---------|------12-11-10-9-8---------4-3-2-------|
|----------0-----------7---0-------|-------------------11-10---------5-4-3-|
|------------2---------------0-----|---------------------------------------|
|--------------3---------------2---|---------------------------------------|
|----------------3---------------3-|--8------------------------------------|


"\\\\" = правой рукой играть как фламенко

|----------------------------------|----------------------------------|
|----------------------------------|----------------------------------|
|--2-------------------2-----------|----------------------------------|
|----6-5-4-3---------2---5---5-3p0-|----2-------5-3p0---2-------5-3p0-|
|------------7-6-5-3-------2-------|--3-----3-2-------3-----3-2-------|
|----------------------------------|------3---------------3-----------|



                                      p i a m p i a m p a   i m i
|----------------------------------|----------------------------------|
|----------------------------------|----------------------------------|
|----------------------------------|--------------------2-0-----------|
|------0-------0-------------0-----|------2-------2---------3-2-------|
|----7-------8-----0-3p2p0-----2---|----3---3---5---5-3---------5-3-2-|
|--8-----8-7-----7---------4-----4-|--5-------7-----------------------|


|----------------------------------|----------------------------------|
|----------------------------------|----------------------------------|
|--------------------2-0-----------|----------------------------------|
|------2-------2---------3-2-------|------2-------3-------3-------2---|
|----3---3---5---5-3---------5-3-2-|----4---4---5---5---2---2---3---3-|
|--5-------7-----------------------|--5-------5-------3-------3-------|


                                          p i a m         p a   m a m i m
|------------------------0-------11-12-|------0-------0-----5p3---0-------|
|----------------------0------12-------|----1---1---3---3-------6---3-1-0-|
|--------------2-----1-----13----------|--2-------4-------5---------------|
|------3p0-------1-2-------------------|----------------------------------|
|----2-----3p0-------------------------|----------------------------------|
|--4-----------------------------------|----------------------------------|


                                      p i a p a
|------0-------0-----5p3---0-------|------0---5p3---0-----7p5-3---0---|
|----1---1---3---3-------6---3-1-0-|--------------6-----3-------6---3-|
|--2-------4-------5---------------|----6---6---------6---------------|
|----------------------------------|--7-------------------------------|
|----------------------------------|----------------------------------|
|----------------------------------|----------------------------------|


|----------------------------------|----------------------------------|
|--1-------------------1-----------|----------------------------------|
|----4-2-0-----2-----0---------4---|------2-------0-------------------|
|----------4h5---3-2-----2---3-----|----2-------0---------3-------3---|
|--------------------------5-----5-|--3-----3-2-----2---3-------3-----|
|----------------------------------|------------------5-----5-4-----4-|


|----------------------------------|----------------------------------|
|----------------1-------3-------5-|--------6---4-------8p5-----6---0-|
|--------------0-------4-------5---|------5-------5---------5-----7---|
|------3-----2-------3-------5-----|----7-----4-----7-5-------5-------|
|----2---2-3-------5-------7-------|--8-------------------------------|
|--3-------------------------------|----------------------------------|


|----8p7-5-----------7p5-----------|----5p3-------------3p1p0---------|
|----------8p6-5---6-----8-7p5-4---|--5-----6-5p3-2---3-------3p1p0---|
|--5-------------5---------------4-|----------------2---------------0-|
|----------------------------------|----------------------------------|
|----------------------------------|----------------------------------|
|----------------------------------|----------------------------------|


                                         a i m a\\\\\\\\ a m i m a\\\\\\
|----1-0-------------------------8----|--8---0-----------7---------------|
|--1-----3p1p0-----------4----10------|----8---1-----------8---0---------|
|--------------2-0-----5---11------11-|----------0-----------7---0-------|
|------------------4h7----------------|------------2---------------0-----|
|-------------------------------------|--------------3---------------2---|
|-------------------------------------|----------------3---------------3-|


     a m  i  m  i m i   p a m i m i m i
|----8--------------------0-------------|----------------------------------|
|------12-11-10-9-8---------4-3-2-------|----------------------------------|
|-------------------11-10---------5-4-3-|--2-------------------2-----------|
|---------------------------------------|----6-5-4-3---------2---5---5-3p0-|
|---------------------------------------|------------7-6-5-3-------2-------|
|--8------------------------------------|----------------------------------|


|----------------------------------|----------------------------------|
|----------------------------------|----------------------------------|
|----------------------------------|----------------------------------|
|----2-------5-3p0---2-------5-3h0-|------0-------0-------------0-----|
|--3-----3-2-------3-----3-2-------|----7-------8-----0-3p2p0-----2---|
|------3---------------3-----------|--8-----8-7-----7---------4-----4-|




   p a m i  (так же)->
|----------------------------------|----------------------------------|
|----------------------------------|----6-------5-------3-------2-----|
|----0-------0---------------------|------5-------6-------2-------0---|
|------2-------2-----3-------2-----|--------7-5-----5-3-----3-2-----2-|
|--3-----3-1-----1-----3-------2---|--0-------------------------------|
|------------------5-----5-3-----3-|----------------------------------|


|----------------------------------|----6-------5---------------------|
|----3-------1---------------------|------6-------7-----8-------7-----|
|------2-------2-----3-------2-----|--------7-5-----5-----7-------5---|
|--3-----3-1-----1-----3-------2---|------------------8-----8-7-----7-|
|------------------5-----5-3-----3-|--5-------------------------------|
|----------------------------------|----------------------------------|


|------------------------------------|
|----6-------6-----------------------|
|------7-------7------8--------7-----|
|--8-----8-6-----6------8--------6---|
|------------------10-----10-8-----8-|
|------------------------------------|


|-----11----------10---------8-------7-----|
|--------11----------12--------8-------6---|
|-----------12-10-------10-8-----8-6-----6-|
|------------------------------------------|
|--10--------------------------------------|
|------------------------------------------|


     a m i a i m i p a m i a i        a i m i
|----8-7-6-5-4-------0-------------|----------------------------------|
|--------------8-7-6---4-3-2-------|----------------------------------|
|--5-------------------------5-4-3-|--2---------------------0---0-----|
|----------------------------------|----6-5-4-3-----0-----6---------0-|
|----------------------------------|------------7-6-----6---------8---|
|----------------------------------|------------------8-------7-------|


           p a m i a i m i a i m i                            p a m i
|----4h3-2---0---------------------|----------------------------------|
|----------6---4-3-2---------------|----------------------------------|
|--------------------5-4-3-2-------|----------------------------------|
|----------------------------6-5-4-|--3-------------------3-1---1-----|
|--3-------------------------------|----7-6-5-4---------3---------4-1-|
|----------------------------------|------------8-7-6-4-------3-------|

           p a m i
|----------------------------------|--------------------------------6-|
|----------------------------------|----------------------------5-----|
|----1---------------3-------1-----|----5-------------------5-----5---|
|------1-----4---------3-------3---|------5-----8p5-----5-----5-------|
|--------3-----6---------4-2-----5-|--------6-------------7-----------|
|--4-------5-----8-6---------------|--8-------9-----9-8---------------|

                                              p p a p a\\\\\\ p   a i
|--4p1-----------------------------|--------------3---4---------------|
|------1-----------------------2---|------------4---4---4-------------|
|--------1-----1-----------2h3---2-|--1p0-----3-----------5-----------|
|----------2h3---3-1---------------|------3-1---------------6-5h6-4---|
|--------------------4p3p1---------|--------------------------------6-|
|----------------------------------|----------------------------------|


                     a   i m i m i
|----------------------------------|----------------------------------|
|--------------------2p1-----------|----------------------------------|
|------1-------1---------3-1-------|------1-------4-------4-------3---|
|----3---3---4---4-3---------4-3-1-|----3---3---6---6---6---6---4---4-|
|--4-------6-----------------------|--4-------4-------5-------6-------|
|----------------------------------|----------------------------------|


|----------------------------------|----------------------------------|
|--------------------4p3-----------|----------------------------------|
|------3-------3---------5-3-------|------3-------6-------6-------5---|
|----5---5---6---6-5---------6-5-3-|----5---5---8---8---8---8---6---6-|
|--6-------8-----------------------|--6-------6-------7-------8-------|
|----------------------------------|----------------------------------|


|-----------------------------------|----0-------------------------7-11-|
|-------------6-------6-------7-----|------2-----------------0---7------|
|----8----------6-------7-------8---|--------3-----------------8--------|
|------10---------8-6-----6-------9-|--4-------4-----------4------------|
|--9------9-8---------------9-------|------------7p4-----6--------------|
|-----------------------------------|----------------6h7----------------|


|-------------------------------4-7-|----------------------0-------0---|
|-----------------------------4-----|------0-------0-----0---0---1---1-|
|----6--------------------1-4-------|----1---1---2---2-0-------2-------|
|------8----------------1-----------|--2-------4-----------------------|
|--6-----10-6---------2-------------|----------------------------------|
|-------------9p6-3h4---------------|----------------------------------|


|------2-------2-------4-------6---|------7-------7-------6-------7---|
|----2---2---4---4---4---4---5---5-|----7---7---9---9---8---8---7---7-|
|--3-------4-------5-------6-------|--8-------9-------9-------8-------|
|----------------------------------|----------------------------------|
|----------------------------------|----------------------------------|
|----------------------------------|----------------------------------|


|------4-------5-------2-------3---|----------------------------------|
|----6---6---5---5---4---4---3---3-|------5-------6-------4-------5---|
|--7-------6-------5-------4-------|----6---6---5---5---5---5---4---4-|
|----------------------------------|--8-------7-------7-------6-------|
|----------------------------------|----------------------------------|
|----------------------------------|----------------------------------|


|----------------------------------|
|------2-------3-------3-------4---|
|----3---3---2---2---2---2---2---2-|
|--5-------4-------3-------3-------|
|----------------------------------|
|----------------------------------|
           4 1 3


|--------0-------12-16-------10----------11----|
|------0------12----------10----10----10----10-|
|----1-----13----------10----------10----------|
|--2-------------------------------------------|
|----------------------------------------------|
|----------------------------------------------|


                            p i  a  m  p  i  a  m
|-----------12-16----12-16-------12----------12----|
|--------12-------12----------13----13----15----15-|
|-----13-------------------14----------16----------|
|--14----------------------------------------------|
|--------------------------------------------------|
|--------------------------------------------------|
    3 2                    3  2  1     4  3  1


      a  m  i  a  i  m  i  p  i  a  m
|-----17-15-13-12----------------12----------12----|
|--13-------------15-13-12----13----13----15----15-|
|--------------------------14----------16----------|
|--------------------------------------------------|
|--------------------------------------------------|
|--------------------------------------------------|
   1  4  3  1                          4  3  1


      a  m  i  a  m  i  p  p
|-----17-15-13-12-------------15-13-12-------------|
|--13-------------15-14----15----------15-13-12----|
|-----------------------14----------------------12-|
|--------------------------------------------------|
|--------------------------------------------------|
|--------------------------------------------------|


|-----13-12-10----------------12-10-8-----------|
|--13----------13-12-10----12---------12-10-9---|
|-----------------------10--------------------9-|
|-----------------------------------------------|
|-----------------------------------------------|
|-----------------------------------------------|


             m  i m  i p                  m   a\\\\\\\\         a\\\\\\\\
|-----10-8-7-------------8p5-----------|--8p5-0-----------7p4-------------|
|--10--------10-8------------7---------|--------1---------------0---------|
|-----------------10-9-8-------7p5-----|----------2-----------7---1-------|
|----------------------------------7---|------------2---------------0-----|
|------------------------------------6-|--------------3p0-------------2---|
|--------------------------------------|--------------------------------4-|
                         4 1 2


|----5-4-3-2-----------------------|----------------------------------|
|------------6-5-4-3---------------|----------------------------------|
|--------------------6-5-4-3-------|----------------------------------|
|----------------------------7-6-5-|--4-------------------3-2---2p0---|
|--0-------------------------------|----8-7-6-5-------0-3-----------2-|
|----------------------------------|------------9-8-7---------4-------|


   p   p   p   p   p   p   p   p      p   p   p   p   p   p   p   p
|----------------------------------|----------------------------------|
|----------------------------------|----------------------------------|
|----------------------------------|----------------------------------|
|--------0---2-----------0---2-----|--------0---2-----------0---2-----|
|----3-2---3-----2---3-2---3-----2-|----3-2---3-----2---3-2---3-----2-|
|--5-----------4---5-----------4---|--5-----------4---5-----------4---|


                                            a     m     i   m     i
|---------------0-------------------0-5--|--4p2p0------------------------|
|-------------2---2---------------2------|--------3p2p0------------------|
|-----------2-------2-----------2--------|--------------2p1--------------|
|---------2-----------2-------2----------|------------------4p2p0--------|
|--0h---4---------------4p0h4---------0--|------------------------4p2p0--|
|----------------------------------------|-------------------------------|


|----------0-------------------0-5-9--|--7p5p4---0------------------------|
|--------2---2---------------2--------|--------7---3p2p0------------------|
|------2-------2-----------2----------|------------------2p1--------------|
|----2-----------2-------2------------|----------------------4p2p0--------|
|--4---------------4p0h4-----------0--|----------------------------4p2p0--|
|-------------------------------------|-----------------------------------|


|----------0-------------------0----9-12----|
|--------2---2---------------2---10---------|
|------2-------2-----------2----------------|
|----2-----------2-------2------------------|
|--4---------------4p0h4--------------0-----|
|-------------------------------------------|


|--10p9p7--------0------------------------|
|---------10p9p7---3p2p0------------------|
|------------------------2p1--------------|
|----------------------------4p2p0--------|
|----------------------------------4p2p0--|
|-----------------------------------------|


|----------0-------------------0----9-12-17-|
|--------2---2---------------2---10---------|
|------2-------2-----------2----------------|
|----2-----------2-------2------------------|
|--4---------------4p0h4-----------------0--|
|-------------------------------------------|


|---16-14-12-10p9p7--------0-------------------------|
|-------------------10p9p7---3p2p0-------------------|
|----------------------------------2p1---------------|
|--------------------------------------4p2p0---------|
|--------------------------------------------4p2p0---|
|----------------------------------------------------|


|----------------------------------------0/1/2/3/4/5/4/3/2/1p0-|
|------------------------------0/1/2/3/4-----------------------|
|----------------------0/1/2/3---------------------------------|
|------------0/1/2/3/4-----------------------------------------|
|--0/1/2/3/4---------------------------------------------------|
|--------------------------------------------------------------|
   3.........2........ 1...... 1........ 1.........2.........


                                          <
|------------------------------------------5--|---||
|-4p3p2p1p0--------------------------------5--|---||
|-----------3p2p1p0------------------------6--|---||
|-------------------4p3p2p1p0--------------7--|---||
|-----------------------------4p3p2p1p0----7--|---||
|------------------------------------------5--|---||

Вверх

Каприз №7

Posato
  
     forte
E||--------|--8----7-5--4----7--|--5--0----------5--7--|
B||--5--5--|--------------------|----------------------|
G||--------|--------------------|-------7-5-4-2--2--4--|
D||--------|--10---9-7--6----9--|--7-------------------|
A||--7--7--|--------------------|-----7-5-3-2-0--------|
E||--------|--------------------|----------------------|
     1  1     1    1 1  1    1     1  2 4 4 4 1  4  4
     3  3     3    3 3  3    3     3    1 1 1    1  1

                            
                                  piano
--8---10-12--13---15-17--|-----------------|-----------------10--|
-------------------------|--------------3--|--------------9------|
--5---7--9---10---12-14--|-----------------|--5---4-2--------7---|
-------------------------|--5--------6-----|-----------6--6------|
-------------------------|--------------5--|--3---2-0------------|
-------------------------|--3--------4-----|-----------4---------|
  4   4  4   4    4  4      4        4  1     4   3 2  3  4  4
  1   1  1   1    1  1      1        2  3     2   1    1  1  1

                           
          Pianissimo                              forte
--8---7-5--4--3--1--|--0---7----0--------|--0--------------|
--------------------|------0-8------7----|-----------5--5--|
--5---4-2--1--0-----|--------0--------8--|-----------------|
-----------------3--|--2-----------------|-----------------|
--------------------|-----------7---9-6--|--7--------7--7--|
--------------------|--------------------|-----------------|
  4   4 4  4  4  1     2   2 3  2   2 3     2        1  1
  1   1 1  1     3                  4 1              3  3                                              



--8----7-5--4----7--|--5--0----------5--7--|--8---10-12--12---13-15--|
--------------------|----------------------|-------------------------|
--------------------|-------7-5-4-2--2--4--|--5---7--9---9----10-12--|
--10---9-7--6----9--|--7-------------------|-------------------------|
--------------------|-----7-5-3-2-0--------|-------------------------|
--------------------|----------------------|-------------------------|
  1    1 1  1    1     1  2 3 3 3 1  4  4     4   4  4   4    4  4
  3    3 3  3    3     3    1 1 1    1  1     1   1  1   1    1  1



------------18--17--|--13------------16--15--|--12--------------10--|
--------------------|------------------------|------------------7---|
------------15--14--|--10--10--9--7--13--12--|--9---9--7--5---------|
--11----------------|------------------------|----------------------|
--------------------|------------------------|---------------9------|
--9-----------------|------10--8--7----------|------8--7--5--5------|
  3         3   3      3   3   3  2  3   3      3   4  3  1  3  4
  1         1   1      1   2   1  1  1   1      1   2  2  1  1  2


                                 a   m i
--3-----10--3-----10--|--3-------1p0-----------------|
--0-----7---0-----7---|--3-----------3-1-------------|
----------------------|--4---------------4-2-0-------|
--0---------0---------|--5---------------------3-2-0-|
-----9---------9------|--5---------------------------|
--3--5------3--5------|--3---------------------------|
  2  3  4   2  3  4      1       1   3 1 4 2   3 2
  1  1  2   1  1  2      1
                         2
                         4
                         3
                         1


                        VIII
----------------0---3p0-8-------------8---12p8-15p12-|
------------1-----1---------------8-----8------------|
--------0-----0--------------9------9----------------|
----2-----2--------------------10--------------------|
--3---3-------------------10-------------------------|
-----------------------------------------------------|
  3 2 3   2 1     1 1   1 3  2 4  1 2 1 1 4  1  3 1



(искус.)
 флаж.)
                     a m i
-({20}8)-8-7-6-5-4-3-0-------------------|
-----------------------3-1p0-------------|
---------5-4-3-2-1-0---------2-0---------|
---------------------------------3-2-0---|
---------------------------------------3-|
---------8-7-6-5-4-3---------------------|
      1  4 4 4 4 4 4   3 1   2   3 2   3
         1 1 1 1 1 3
         3 3 3 3 3


                      VII
------------------------7------------7---10p7-15p10-|
------------0---3p0-8------------8-----8------------|
--------0-----0-------7------7-----7----------------|
----0-----0--------------------9--------------------|
--2---2-------------------10------------------------|
----------------------------------------------------|
  1   1         2   2 1 1 4  1 3 2 1 1 2 4  1  4  1



(искус.)
 флаж.)
                      a   m i
-({19}7)-10-7-6-5-4-3-1p0-----------------|
--------------------------3-1-0-----------|
---------7--4-3-2-1-0-----------2-0-------|
------------------------------------3-2-0-|
------------------------------------------|
---------10-7-6-5-4-3---------------------|
      1  4  4 4 4 4 4 1   3 1   2   3 2
         1  1 1 1 1 3
         3  3 3 3 3



---------------------------------------------10-12-13-15-17-|
----12p10-8-------------------------10-11-13----------------|
------------10-9-7--------0---10/12-------------------------|
-------------------10-8-7-----------------------------------|
----------------------------8-------------------------------|
--8---------------------------------------------------------|
  1 4  2  1 4  3 1 4  2 1   1  3 3  1  2  4  1  3  1  3  4




--------------------------------------7-9-10-12-13-|
----8p6-5------------------------8-10--------------|
----------7-6-------------7/9-10-------------------|
--------------8-7-5--------------------------------|
--0-----------------8-7-5--------------------------|
---------------------------------------------------|
    4 2 1 3 2 4 3 1 4 3 1 3 3 4  2 4  1  3 4 3  4




------------------------------------5-7-8-10-11-|
----6p5-3-----------------------6-8-------------|
----------5-4-2-----------5/7-8-----------------|
----------------5-3-2---------------------------|
----------------------5-3-----------------------|
--3---------------------------------------------|
  1 4 3 1 4 3 1 4 2 1 4 1 3 3 4 2 4 1 3 1 3  4




             p    a m i  m  a m i  m
----------------------------8-9-10-11-|
--1---3-4--2------8-9-11-12-----------|
--1---1-1--3-8/10---------------------|
--1---1-1--1--------------------------|
--------------------------------------|
--4---4-4--3--------------------------|
  1   2 4  2 3 3  1 2 4  4  1 2 3  4
  1   1 1  4
  1   1 1  1
  3   3 3  3


             p    a m i  m  a m i  m
----------------------------8-9-10-11-|--------------------|
--1---3-4--2------8-9-11-12-----------|--1---3-4--1---3-4--|
--1---1-1--3-8/10---------------------|--1---1-1-----------|
--1---1-1--1--------------------------|--1---1-1--4---4-4--|
--------------------------------------|--------------------|
--4---4-4--3--------------------------|--4---4-4--4---4-4--|
  1   2 4  2 3 3  1 2 4  4  1 2 3  4     1   2 4  1   2 2
  1   1 1  4                             1   1 1  4   4 4
  1   1 1  1                             1   1 1  3   3 3
  3   3 3  3                             3   3 3



III                    V
----7p5-3-----------------8p7-5---------------|------1-------------|
--3-------6-5-3-----------------8-6-5---------|--------3--1---3-0--|
--4-------------5-4-2-0-5-------------7-5-4---|--2--------0---0-0--|
--3-----------------------------------------7-|--3---3-3--2---3-0--|
------------------------7---------------------|--3---0-------------|
--3---------------------5---------------------|--------4--3---3-3--|
  1 4 2 1 4 3 1 4 3 1   1 4 3 1 4 2 1 4 2 1 4    2   1 1  1   4 2
  2                     3                        4   4 1  2   3
  1                     1                        3     2  3   2
  1



                                         a m i m i         p      m
-----8--10--12---13-15--|----------7p5-3-----------------------|----|
--1---------------------|----------------6-5-3-----------------|----|
--0--5--7---9----10-12--|--4---4---------------5-4-2-----------|----|
--2---------------------|--3---3---------------------5-3-2-5p3-|--0-|
--3---------------------|------5-------------------------------|----|
------------------------|--4-----3-----------------------------|----|
  1  4  4   4    4  4      3   3 1 4 2 1 4 3 1 4 3 1 4 2 1 4 2
  2  1  1   1    1  1      1   1
  3                        2   4



                      a m  i  m                p    m a i
-----------|----------9-------------|---------------------|
--1--------|------------11-10-8-6---|---------------------|
--0--------|--6---6---------------9-|--7-6------------0---|
--2--------|--5---5-----------------|------8-7------7-----|
--3--------|--7---7-0---------------|----------10p8-----7-|
-----------|--6---0-----------------|---------------------|
  1           3   3   2 4  3  1 1 4    2 1 3 2 4  2 1   1
  2           1   1
  3           4   4
              2



--------------------|--0---0-0--0----0--|--1---1------------|
--------------------|-------------------|--------6--6----6--|
--7---7-7--7-----8--|--1---2-4--5----3--|--2---3-5--6----4--|
--0---5-7--8-----7--|--2----------------|-------------------|
--8---7-8--10----8--|-------------------|-------------------|
--------------------|--0---2-4--5----3--|--1---3-5--6----4--|
  1   4 1  1     3     1   3 3  3    3     1   1 4  4    4
  2   1 1  2     1     2   2 2  2    2     2   4 3  3    1
      3 2  4     2                         1   3 2  2    1




--2---2------------|--3---3-3--3----3--|--4---6-4--4----5--|
--------7--7----7--|--------3--4----2--|--4---4-4--4----4--|
--3---4-6--7----5--|--4---5------------|--5---5-5--5----5--|
-------------------|-------------------|------6-6--4----4--|
-------------------|--------2--3----1--|-------------------|
--2---4-6--7----5--|--3---5------------|--4----------------|
  1   1 4  4    4     1   1 3  1    3     1   4 1  1    3
  2   4 3  3    1     2   4 2  2    2     1   1 1  1    1
  1   3 2  2    1     1   3 1  1    1     2   2 2  2    2
                                          1   3 3  1    1



--5---6-8---8----6--|--6----6--4----4--|--2----2--1----1--|
--6-----6-----------|---------------6--|--4----4--2----2--|
--5---6-----6----6--|--6----5--5----4--|--3----1--1----1--|
--3-----------------|----------3----0--|--1---------------|
------8-8---8----8--|--7----7----------|-------3--4----2--|
--------------------|------------------|------------------|
  3   1 4   4    1     2    2  2    1     2    2  1    1
  4   1 1   1    1     1    1  3    3     4    4  2    2
  2   3 3   3    3     3    3  1    1     3    1  1    1
  1                                       1    3  4    3



-------------------|-------------------|-------------------|
--7---6-4----------|--7---6-4----------|--4---5----0----7--|
--6---6-4--8----6--|--6---6-6--7----7--|--------6-------4--|
--4---4-4--6----6--|--4---4-4--5----5--|--4---4-4--4----4--|
-----------9----9--|-----------8----8--|-----------6----6--|
--6---6-6--7----7--|--6---6-6--7----6--|--6---6-6--7-------|
  4   4 1  3    1     4   4 1  3    3     1   2 4  1    4
  3   3 1  1    1     3   3 3  1    1     1   1 1  3    1
  1   1 1  4    4     1   1 1  4    4     3   3 3  4    1
  2   2 2  2    2     2   2 2  2    2                   2



                (Флаж)          a   m i m i
--4----4--2------|--------6-7---------------2---2-2--|
--0----2--2------|------7-----7-9p7---------2---0----|
--1----1--3------|----8-------------9-8-6---3-----3--|
--2----3--4------|------------------------9-----6-4--|
----------4------|-----------------------------------|
----------2------|-(7)-------------------------------|
  4    4  1         2 3 2 1 2 2 4 2 4 3 1 4 1   1 1
  1    2  1                                 1   4 2
  2    1  2                                 2     3
       3  4
          3
          1


              a   m i m i                         a   m i m i
----------4------------------------|-----------------------------------|
------4-8---4-5p4---------4---4-4--|------0-4-5---------------0---0-0--|
----4-------------6-4-3---3---1-0--|----1-------4-6p4------------------|
--6---------------------6-5---3-1--|--2---------------8-6-4---4---2-1--|
-----------------------------------|------------------------7-6---4-2--|
-----------------------------------|-----------------------------------|
  3 1 1 4 1 1 2 1 4 2 1 4 2   4 4     2 1   1 1 1 3 1 4 2 1 3 1   2 1
                          1   1 1                             2   4 2
                          3   3



                                                 IV
-----------------------------------|-------------------7p5-----0-------|
-------------------3p1-------------|--8---8-8--------4-----7-4---0-----|
--4---4-4--------2-----2---0-------|--7---5-4------4---------------0---|
--4---2-0------4---------4---0-----|--9---7-5----4-------------------2-|
--5---4-2--0h3-----------------2---|-----------6-----------------------|
---------------------------------3-|-----------------------------------|
  1   4 4    3 4 2 3 1 2 4     1 2    2   4 4  3 1 1 1 4 2 4 1       2
  1   1 1                             1   1 1
  2   3                               3   3 2

                   
            i m   a\\\\\\           i m   a\\\\\\
----------0-3-8p3-0---------------0-3-7p3-0-------|
--------1-----------1-----------0-----------0-----|
------0---------------0-------0---------------0---|
----2-------------------2---2-------------------2-|
--3-----------------------2-----------------------|
--------------------------------------------------|
  3 2   1   1  4 1  1   3 2 3       1  4 1      1




          p m a m i             p i m a   i m   i
--------------0-----------------------------------|
------------2---2-------------------1-4p1---------|
--------0-3-------3p0-------------2-------2-------|
------2---------------2-------1-4-----------4p1---|
----4-------------------4---3-------------------3-|
--6-----------------------5-----------------------|
  4 2 1   2 1   1 2   1 3 4 2 1 3 2 1 4 1 2 4 1 3




---------------------------------------0-5h8p5-0---|
------------0-3p0----------------------------------|
----------1-------1------------------------------5-|
------0-3-----------3p0-----------7-10-------------|
----2-------------------2---0---7------------------|
--4-----------------------4---8--------------------|
  4 2   3 1   3   1 3   1 3   2 1 1 4    1 4 1   1



                                  a   m i a    m  i
----8p5---------------------------7p4-----10p7------|
--------6-----------------------5-----6-5------10-9-|
----------5-------------------4---------------------|
--7---------7---7---7---7---6-----------------------|
--------------8---7---6---7-------------------------|
----------------------------------------------------|
  3 4 1 2 1 3 4 3 2 3 1 3 4 3 1 2 4 1 3 2 4  1 4  3



-------------------------------------|
-------------------------------------|
--10-9-7--------------------9---7-5--|
---------10-9-7-6-----0--------------|
------------------8-7-------7---7-7--|
------------------------8-7-8---7-5--|
  4  3 1 4  3 1 1 3 2   2 1 4   4 1
                            1   3 3
                            2   2 1



                   a   m i a    m  i
--5----------------7p4-----10p7------|
-----------------5-----6-5------10-9-|
--5------------4---------------------|
-------------6-----------------------|
--6---6-6--7-------------------------|
------8-5--4-------------------------|
  1   2 2  4 3 1 2 4 1 3 2 4  1  4 3
  1   4 1  1
  2


                                               
                                                piano
-------------------------------------|--5-----------------|
-------------------------------------|--------------------|
--10-9-7--------------------9---7-5--|--5-----------------|
---------10-9-7-6-----0--------------|--------------------|
------------------8-7-------7---7-7--|--6---6-6--7---8-6--|
------------------------8-7-8---7-5--|------8-5--4---5-5--|
  4  3 1 4  3 1 1 3 2   2 1 4   4 1     1   2 2  4   4 2
                            1   3 3     1   4 1  1   1 1
                            2   2 1     2



   pianissimo                               forte
----------------13-11--|--12---------------------|
----------------10-10--|-------------------------|
------10-8--9----------|--13---------------------|
------7--7--6----------|-------------6p4---------|
--7--------------------|-----------------7-5-4---|
--4--------------------|--0--------------------7-|
  4   4  2  4   4  2      2          3 1 4 2 1 4
  1   1  1  1   1  1      3



--------------------0---5-----------5---9p5-12p9-|
----------------2-----2---------5-----5----------|
------------2-----2---------6-----6--------------|
--------2-----2---------------7------------------|
----4-----4---------------7----------------------|
--5---5------------------------------------------|
  4 3 4 1 3 1 1 1 1   1 1 3 2 4 1 2 1 1 4 1 4  1



(искус.
 флаж.)
                      a   m i
--({17}5)-5-4-3-2-1-0---------------------|
----------------------2p0-----------------|
--------------------------2-1-------------|
----------7-6-5-4-3-2---------4-2-0-------|
------------------------------------4-2---|
----------5-4-3-2-1-0-------------------5-|
       1  1 1 1 1 1 3 2   2 1 4 2   3 1 4
          3 3 3 3 3
          1 1 1 1 1



--------------------0---4-----------4---7p4-12p7-|
----------------0-----0---------5-----5----------|
------------1-----1---------4-----4--------------|
--------2-----2---------------6------------------|
----2-----2---------------7----------------------|
--4---4------------------------------------------|
  4 1 4 2 1 1 2   1     1 4 1 3 2 1 1 2 4 1 4  1



(искус.
 флаж.)
-({16}4)-7-4-3-2-1-0---------------------|
---------------------3p2-----------------|
-------------------------4-2-1-----------|
---------9-6-5-4-3-2-----------4-2-0-----|
-------------------------------------4-2-|
---------7-4-3-2-1-0---------------------|
      1  1 1 1 1 1 3 3 2 4 2 1 4 2   4 2
         3 3 3 3 3
         1 1 1 1 1



----------------------------------------9-10-12-14-|
----8p7-5---------------------7-8-10-12------------|
----------7-6-4-----------7/9----------------------|
----------------7-5-4------------------------------|
--0-------------------7-5--------------------------|
---------------------------------------------------|
    4 3 1 4 3 1 4 2 1 4 2 3 3 1 2 3  4  1 1  3  4



    i   a i m i
------------------------------------4-6-7-9-10-|
----5p3-2-----------------------5-7------------|
----------4-3-------------4/6-7----------------|
--4-----------5-4-2----------------------------|
--------------------5-4-2----------------------|
-----------------------------------------------|
  3 4 2 1 3 2 4 3 1 4 3 1 3 3 4 2 4 1 3 1 3 4



    a   m i
--------------------------------------4-5-7-8-|
----3p2---------------------------5-7---------|
--------4-2-1-------------2/4-5-7-------------|
--2-----------4-2-0---------------------------|
--------------------4-2-0---------------------|
----------------------------------------------|
  2 3 2 4 2 1 4 2 0 4 2   1 1 2 4 2 4 1 1 3 4



             a     m  i
--------5--6-12p10------------------------|--------5--8---7-5--|
--6---8----8-------13-11-10---------------|--6---8-------------|
--5---5-5--5----------------12-10-9-------|--5---5-5--5---5-5--|
--7---5----5------------------------12-10-|--7---5-3-----------|
--------8--7------------------------------|-----------6---6-6--|
------------------------------------------|--------------------|
  2   4 1  2 3  1  4  2  1  4  2  1 4  2     2   4 4  4   3 1
  1   1 1  4                                 1   1 3  1   1 1
  3   1 3  1                                 3   1 1  2   2 2
           1
           3


-----------------9-10-12-14-16-------------------11-13-14-16-17-|
--9------9-10-12---------------10----------12-14----------------|
--9-9/11--------------------------11/13-14----------------------|
--9----------------------------11-------------------------------|
--7----------------------------9--------------------------------|
----------------------------------------------------------------|
  4 3 3  1 2  4  1 2   1 2  4  2  3  3  4  2  4  1  3  1  3  4
  3                            3
  2                            1
  1


                     (флаж)
--2---5-5--5---7----|------5--7--9----10-12--|
-----------------9--|------------------------|
--2---2-5--6---7----|------------------------|
--0---4----------9--|------7--9--11---12-14--|
--------6--7---7-7--|-(12)-------------------|
--------------------|------------------------|
  1   4 1  1   1 4      2  1  1  1    1  1
  1   1 1  2   1 3         3  3  3    3  3
      3 2  3   1 1



      (флаж)     a m i m i m
-----------7p5-4---0-------------------|----5------------||
--9---9----------7---3-2-0-------------|----2------------||
--7---7--------------------2-1---------|----2------------||
------9------------------------4-2-0---|----2------------||
--8----------------------------------4-|--2-0------------||
-------(12)----------------------------|-----------------||
  4   4  3 4 2 1 4   3 2   2 1 4 2   4    2 4
  1   1                                     1
  2   3                                     1
                                            1
Вверх

Соната в C

                           затакт                                                     
E-|---------------------3-------0-------|------------------------0---1--------|
B-|-------------------------------------|1---------------1---3----------------|
G-|-----------------------0---0---0---0-|--0---0---0---0---0---0---0---0------|
D-|-------------------------2-------2---|----2-------2-------2-------2--------|
A-|---------------------3-------3-------|3-------3-------3-------3------------|
E-|-------------------------------------|-------------------------------------|
                                                                               
                                                                               
E-|-----------------1-------------------|-----------------------------0-------|
B-|-3-----------------------3-----------|-0---------------0---1---3-----------|
G-|---0---0---0---0---0---0---0---0-----|---0---0---0---0---0---0---0---0-----|
D-|-----0-------0-------0-------0-------|-----0-------0-------0-------0-------|
A-|-2-------2-------2-------2-----------|-------------------------------------|
E-|-------------------------------------|-3-------3-------3-------3-----------|
                                                                               
                                                                               
E-|-----------------3-------0-----------|-1-------3-1-0---------------0-------|
B-|-1-----------------------------------|---------------3-1-------3-----------|
G-|---0---0---0---0---0---0---0---0-----|-------------------0---0---0---0-----|
D-|-----2-------2-------2-------2-------|---3---3-------------2-------0-------|
A-|-3-------3-------3-------3-----------|-----0-----------3-------2-----------|
E-|-------------------------------------|-1-------1---------------------------|
                                                                               
                                                                               
E-|-------------0-1-3-------0-----------|-1-------3-1-0---------------0-------|
B-|-1-------1-3-------------------------|---------------3-1-------3-----------|
G-|---0---0-----------0---0---0---0-----|-------------------0---0---0---0-----|
D-|-----2---------------2-------2-------|---3---3-------------2-------0-------|
A-|-3-------3-------3-------3-----------|-----0-----------3-------2-----------|
E-|-------------------------------------|-1-------1---------------------------|
                                                                               
                                                                               
E-|-----------3---0---1---0-------------|-----------3---2---0-----------0-----|
B-|-1-------------------------3---1-----|---0---3---------------2---3---------|
G-|-------------------------------------|-------------------------------------|
D-|---------2-------0-------------------|---------2---0-----------------------|
A-|-3-----------3-------3---2---0-------|-----2-----------4---0---2---4-------|
E-|-------------------------------------|-3-----------------------------------|
                                                                               
                            |триоли|                              |триоли|   
E-|-----2-------5-------7------8--7-----|-----5-------5-------7------8--7-----|
B-|---3---3---7---7---8---8--10--8------|---7---7---7---7---8---8--10--8------|
G-|-------------------------------------|-------------------------------------|
D-|-0-------0-------0-------0---0-------|-0-------0-------0-------0---0-------|
A-|-------------------------------------|-------------------------------------|
E-|-------------------------------------|-------------------------------------|
                                                                               
                                                                               
E-|-----5-----------3---3---2-3-5-3-----|-2---0---3-2-3-0-----------0---------|
B-|---7---7-----3-----------------------|-----------------3---3---3---3-1-----|
G-|-------------------------------------|-------------------------------------|
D-|-0-------0---------------------------|-----------------0-------0-----------|
A-|-----------------2-------------------|-3-----------------------------------|
E-|-------------------------------------|-------------------------------------|
                                                                               
                                                                               
E-|-----------------3---3---2-3-5-3-----|-2---0---3-2-3-0---0-----------------|
B-|-1---0---0---3-----------------------|-----------------3---1-0-------------|
G-|-------------------------------------|---------------------------2---------|
D-|-2-----------------------------------|-----------------0-----0-------------|
A-|-----------------2-------------------|-3-----------------------------------|
E-|-------------------------------------|-------------------------------------|
                                                                               
                                                                               
E-|-------3-----3-----------------------|---0---1---2---3-----7-----------7---|
B-|-----3-----0---0---1---2---3---4-----|-------------------------10-8-10-----|
G-|---4---------------------------------|-------------------------------------|
D-|-5-----------------------0---1-------|-2---3---4---5---0-------0-----------|
A-|---------2-------3---4---------------|-------------------------------------|
E-|-------------------------------------|-------------------------------------|
                                                                               
                                                                               
E-|-------3-----3-----------------------|---0---1---2---3-----7---5-7-5-7-----|
B-|-----3-----0---0---1---2---3---4-----|-------------------------------------|
G-|---4---------------------------------|-------------------------------------|
D-|-5-----------------------0---1-------|-2---3---4---5---0-------0-----------|
A-|---------2-------3---4---------------|-------------------------------------|
E-|-------------------------------------|-------------------------------------|
                                                                               
                      Затакт                                       
E-|-3--------------||-------------------|-------------------------------------|
B-|-3--------------||-3-------0---------|------------------3-------0----------|
G-|-4--------------||-------------------|-0-----------------------------------|
D-|-5--------------||---0---0---0---0---|---0---0---0---0----0---0---0---0----|
A-|----------------||-----2-------2-----|-----2-------2--------2-------2------|
E-|-----3---3------||-3-------3---------|-3-------3--------3-------3----------|
                                                                               
                                                                               
E-|-------------------------------------|-----------------0-------------------|
B-|-----------------3-------0-----------|-------------------------3-----------|
G-|-1-----------------------------------|-1-----------------------------------|
D-|---2---2---2---2---2---2---2---2-----|---2---2---2---2---2---2---2---2-----|
A-|-----2-------2-------2-------2-------|-----2-------2-------2-------2-------|
E-|-0-------0-------0-------0-----------|-0-------0-------0-------0-----------|
                                                                               
                                                                               
E-|-----------------0-------0-1-3-0-----|-3-1-0-1-3-1-------------------------|
B-|-1-----------------------------------|-------------3-1-------0-1-3-0-------|
G-|---2---2---2---2---2---2-------------|-----------------2---2---------------|
D-|-----2-------2-------2---------------|-0-----------------2-----------------|
A-|-0-------0-------0-------0-----------|---------------0---------------------|
E-|-------------------------------------|-----------------------0-------------|
                                                                               
                                                                               
E-|-----------------0-------0-1-3-0-----|-3-1-0-1-3-1-0-----------------------|
B-|-3-1-0-1---0-1-3---------------------|---------------3-1-------0-1-3-0-----|
G-|---------2---------2---2-------------|-------------------2---2-------------|
D-|---------------------2---------------|-0-------------------2---------------|
A-|-0---------------0-------0-----------|-----------------0-------------------|
E-|-------------------------------------|-------------------------0-----------|
                                                                               
                                                                               
E-|-------------5---6-----------6-------|-5-----------------------------------|
B-|-------------------5---5-------------|-----6---------------3-------5-------|
G-|-2-------------------5---------------|---------5---------------------------|
D-|-----------------5-------5-----------|-------------7-----------------------|
A-|-0-----------------------------------|-8---------------1-------3-----------|
E-|-------------------------------------|-------------------------------------|
                                                                               
                                                                               
E-|-------1-----1---3-----------3-------|-1-----------------------------------|
B-|-----1-------------2---2-------------|-----3-------------------------------|
G-|---2-----------------2---------------|---------2-----------3-------6-------|
D-|-3---------------2-------2-----------|-0-----------------------------------|
A-|---------0---------------------------|-------------------------------------|
E-|-------------------------------------|-------------1---3-------5-----------|
                                                                               
                                                                               
E-|-------1-----------------3---1-------|-0-----------------------------------|
B-|-----3-------1---0-------------------|-------------0-----------3---1-------|
G-|---2---------------0---0-------------|---0---0---------2-------------------|
D-|-0-------0-----------0---------------|-----2-------------0---0-------------|
A-|-------------------------2-----------|-3-------3-----------0---------------|
E-|-----------------3-------------------|-----------------1-------1-----------|
                                                                               
                                                                               
E-|-------------3---0---3---1---0-------|-------------3---0---3---1---0-------|
B-|-0-----------------------------------|-3---1-------------------------------|
G-|---------------0---0---0---0---0-----|---0---0-------0---0---0---0---0-----|
D-|---0---0-------------2---0-----------|---------------------2---0-----------|
A-|-----2-------2---3-----------3-------|-2---0-------2---3-----------3-------|
E-|-3-------3---------------------------|---------3---------------------------|
                                                                               
                                                                               
E-|-------------3---4---5---3---1-------|-0-------0---1---2---3---1-----------|
B-|-3---1---0---------------------------|-----3-----------------------3-------|
G-|---0---0-----5---6---7---5---3-------|-------------------------------------|
D-|-------------------------------------|-2---0---2---3---4---5---3---0-------|
A-|-2---0-------------------------------|-------------------------------------|
E-|---------3---------------------------|-------------------------------------|
                                                                               
                                                                               
E-|---------1-0-1-------0---------------|-------0-------0---1---2---3---4-----|
B-|-1---0---------3-1-------3---0-------|-----1-------------------------------|
G-|-----------------0-------------------|---0---------------------------------|
D-|---------3---------------------------|-------------2---3---4---5---6-------|
A-|-3-----------------------------------|-3-------3---------------------------|
E-|-------------------------3-----------|-------------------------------------|
                                                                               
                                                                               
E-|---5---6---7----8-----3---1-0-1------|---------------0---1---2---3---4-----|
B-|--------------------------------3----|-1-----------------------------------|
G-|-------------------------------------|---0---0-----------------------------|
D-|-7---8---9---10---5------------------|-----2-------2---3---4---5---6-------|
A-|-------------------------------------|-3-------3---------------------------|
E-|--------------------------3----------|-------------------------------------|
                                                                               
                                                                               
E-|---5---6---7----8-----3---1-0-1------|-----------------||
B-|--------------------------------3----|-1---------------||
G-|-------------------------------------|-0---------------||
D-|-7---8---9---10---5------------------|-2---------------||
A-|-------------------------------------|-3---3---3-------||
E-|--------------------------3----------|-----------------||

Вверх
English songs 109

ABBA
AC-DC
Adams Bryan
Adriano Celentano
Aerosmith
A-Ha
Animals
Antonio Banderos
Apocalyptica
Armstrong Louis
Billy's Band
Bjork
Blink 182
Blondie
Blur
Bob Dylan
Boney M
Bon Jovi
Bowie David
Brainstorm
Braxton Toni
Butch
Celine Dion
Chris De Burgh
Chris Isaak
Chuck Berry
Clapton Eric
Cohen Leonard
Cranberries
Deep Purple
Depeche Mode
Dire Straits
Donovan Jason
Eagles
Electric Light Orchestra
Elton John
Elvis Presley
Era
Europe
Evanescence
Garbage
Gary Moore
Glen Wiston
Gorillaz
Green Day
Guano Apes
Guns N Roses
Hendrix Jimi
Iggy Pop
Iron Maiden
Joe Dassin
Kansas
King Crimson
Kiss
Led Zeppelin
Leonard Cohen
Limp Bizkit
Linkin Park
Louis Amstrong
Madonna
Marilyn Manson
Marley Bob
Metallica
Moby
Morricone Ennio
Muse
Nazareth
Nelly Furtado
Nick Cave
Nirvana
No Doubt
Oasis
Offspring
Ottawan
Outkast
Ozzy Osbourne
Pain
Para Bellum
Pink Floyd
Placebo
P.O.D.
Queen
RadioHead
Rainbow
Rammstein
Rea Chris
Red Hot Chili Peppers
Ritchie Blackmore
Rolling Stones
Roxette
Rufus Wainwright
Santana
Sarah Brightman
Scorpions
Sex Pistols
Simon & Garfunkel
Shocking Blue
Soul Asylumx
Status Quo
Sting
System of a down
Sum 41
The Beatles
The Doors
Tito & Tarantula
U2
UB 40
Uriah Heep
Van Halen

Українські пісні 109

Boom Box
Escape
Flit
Kapela Drewutnia
Lama
LЮK
Mad Heads (XL)
Motor' rolla
NEON
Ot Vinta
The Вйо
Абздольц
Аероплан
Акорд
Ані Лорак
Бандурна розмова
Білик Ірина
Борщ
Брати Гадюкіни
Вася Club
Вій
Воплі Відоплясова
Гайдамаки
Гончар Олесь
Гринжоли
Гроно
Гуляйгород
Дарка і Славко
Дивні
Друга Ріка
Другий подих
Дударик
Експампей
Євтушенко Андрій
Жарівка (Дяк Олесь)
Журбовіз
Зібров Павло
Зінкевич Василь
Злотник Олександр
Івасюк Володимир
Калєкція
Карна
Карпа Ірена
Клямка
Козловський Віталій
Кому вниз
Крихітка Цахес
Курінь
Лесик-Band
Лорд Юрія
Львівські музики
Мандри
Менестрелі
Мері
Мертвий Півень
Міпеніум
Монте Крісто
Морозов Віктор
Нахтіґаль
Не журись!
Неборак Віктор
НеДІля
НЕМО
Нічлава блюз
Океан Ельзи
ПереBANDя
Перкалаба
Петрович
Піккардійська Терція
Піпа Олександр
Плач Єремїі
Пономарьов Олександр
Пророк
Росава
Ротару Софія
Руслана
Рутенія
С.К.А.Й.
САД
Самі свої
Серцевий Напад
Скрябін
Смерічка
Сокира Перука
Соколи
Таліта Кум
Тартак
Тінь сонця
Ткач Михайло
ТНМК
Тостер
Тріо Мареничів
Фарбований лис
Фестиваль Снів
Хвилю тримай
Цісик Квітка
Черемош
Черемшина
Четвертий кут
Чорний вересень
Чорні черешні
Шевченко Тарас
Щастя
Юркеш
Юрченко Юрко
Юрчишин Ярослав
Явір
Яка існуЄ
Яремчук Назарій

   
 sait@i.ua



Рейтинг@Mail.ru