accordS-land.ru Аккорды и табулатуры к гитаре.
Главная | Песенник | Аккорды | Учебник
Руссике песни 180
5nizza
7Б
9-й Район
Animal ДжаZ
Billy's Band
Butch
Para Bellum
TequilaJazzz
Worms
Zdob Si Zdub
Автоматические удовлетворители
Агата Кристи
Агузарова Жанна
Агутин Леонид
Адо
Аквариум
Алиса
Алсу
Амирамов Е.
Антонов Ю.
Арефьева Ольга
Ария
АукцЫон
Барыкин
Башаков Михаил
Башлачев Александр
БекХан
Бернес М.
Би - 2
Бони неМ
Борзов Найк
Боярский Михаил
Браво
Братья Грим
Ва-Банкъ
Вертинский Александр
Визбор Юрий
Високосный год
Воскресенье
Восьмая Марта
Высоцкий В.С.
Високосный год
Газманов О.
Галич Александр
Герман А.
Городницкий Александр
Глызин А.
Градский Александр
Гражданская Оборона
Гребещенков
Данко
ДДТ
Дидюля
Диоды
Дискотека Авария
Дягилева Янка
Ёлка
Жуки
Заблудовский Андрей
Запрещенные Барабанщики
Звери
Земляне
Земфира
Зинчук Виктор
Зоопарк
Иван Кайф
Иванов А.
Иваси
ИЗ КИНО И МУЛЬТФИЛЬМОВ
Империя
Калинов мост
Кашин Павел
Кельми К.
КИНО
Кипелов
Конец Фильма
Контингент
Корни
Король и Шут
Коррозия металла
Крематорий
Крупнов Анатолий
Кузьмин Владимир
Куликов Е.
Кукрыниксы
Курехин Сергей
Лаэртский Александр
Ласковый май
Ленинград
Леонидов Максим
Лесоповал
Лещенко Л.
Линда
Лицей
Лоза Юрий
Любэ
Люмен
Ляпис Трубецкой
Мальчишник
Манго-манго
Мара
Маркин В.
Маршал Александр
Маша и медведи
Машина времени
Мечтать
Мистер Кредо
Митяев Олег
Многоточье
Монгол Шуудан
Моральный Кодекс
Мультfильмы
Мумий Тролль
Настя
Науменко Майк
Наутилус Помпилиус
Непара
Неприкасаемые
Несчастный случай
Никоваев И.
Никольский Константин
Ногу свело
Ноль
Носков Николай
Ночные Снайперы
Окуджава Булат
Оркрист
Осин Е.
Оскар
Отиева И.
Паперный Т.А.М.
Парк Горького (Gorky Park)
Пикник
Пилот
Пламя
Полковник и однополчане
Пугачева А.
ПЭХ
Приключения Электроников
Просто прикольные песни
Рада и Терновник
Римский-Корсаков
Розенбаум Александр
Рок-Острова
Рондо
Сансара
Саруханов
Сегодня Ночью
Секрет
Сектор газа
Сенчина Л.
СерьГа
Смысловые Галлюцинации
Сплин
Солодуха А.
Старые блатные песни
Сукачев Гарик
Сурганова и Оркестр
Сюткин Валерий
Тальков Игорь
Танцы минус
Тараканы
Тату
Технология
УмаТурман
Умка и Броневичок
Ундервудъ
Фабрика звезд
Х.З. (Хуй Забей)
Центр
ЧайФ
Черный кофе
Черный Лукич
Чиж и Ко
Чистяков Федор
Шанхай
Щербаков Михаил
Ю-Питер

Классика 22

Албениз Исаак
Албениз Матео
Бах Иоган Себостьян
Бетховен Людвиг ван
Бизе Жорж
Брамс Иоганнес
Вивальди Антонио
Гендель Георг Фридрих
Гершвин Джордж
Григ Эдвард
Дебюсси Клод
Камиль Сен-Санс
Мендельсон
Моцарт Вольфгант Амадей
Мусоргский Модест Пертрович
Норис Крис
Огинский Михал Клеофас
Паганини Никколо
Рахманинов Сергей Васильевич
Римский-Корсаков
Чайковский Пётр Ильич
Шуберт Франц
 

Би - 2

Варвара
Варвара (2 вариант)
Варвара (3 вариант)
Варвара (4 вариант)
Волки
Волки (2 вариант)
Волки (3 вариант)
Деньги на ветер
Достучаться до небес
Елочный сок
Елочный сок (2 вариант)
Еще не вечер
Зажигать
Зажигать (2 вариант)
И корабль плывет
И корабль плывет (2 вариант)
Иномарки
Как песок сквозь пальцы
Кукушка
Медленно схожу с ума
Мой друг
Мой друг (2 вариант)
Мой рок-н-ролл
Мой рок-н-ролл (2 вариант)
Мой рок-н-ролл (3 вариант)
Моя любовь
Моя любовь
Мяу Кисс Ми
Мяу Кисс Ми
Мяу Кисс Ми
Недотрога
Никто не придет
Песок
Полковнику никто не пишет
Полковнику никто не пишет
Полковнику никто не пишет (2 вариант)
Полковнику никто не пишет (3 вариант)
Последний герой
Последний герой
Прощай Берлин
Прощай, Берлин
Революция
Сердце
Серебро
Серебро
Серебро
Серебро (2 вариант)
Сокол
С тобой
Счастье
Феллини
Феллини (2 вариант)
Феллини (3 вариант)
Шер
Вверх

Варвара

Gm            D#            Cm           F
A|-------------|-6-6-------6-|-3-3-------3|-------------|
E|-3-3-------3-|-------------|------------|-1-1-------1-|

Gm     D#      Cm      F         Gm   D# Cm F
 Как грустно и очень обычно все вышло
Gm  D#      Cm      F         Gm       D# Cm F
 Ушла от меня и в ночь теперь слезно кричу
Gm     D#     Cm      F     Gm        D#    Cm F
 Мне просто обидно шаги одиночества слышать
Gm    D#      Cm        F        Gm        D# Cm F
 И страшно подумать и вряд ли я жизнь доживу

    Gm     D# Cm F
   Варвара         (4 раза)

Gm    D#      Cm        F             Gm   D# Cm F
 С тобой я готов был бежать на край света
Gm  Am(V)?  A#     Cm      D
 Но ты изменила сама ты туда удрала
Gm   D#         Cm     F        Gm       D# Cm F
 Порвалась струна и теперь моя песенка спета
Gm  D#        Cm F        Gm    D# Cm F
 И жизни мне нет   вот такие дела

    Gm     D# Cm F
   Варвара         (4 раза)

  проигрыш:
G|----7-8|----------|--------|-----7-8-|--5--5-------------|
D|-------|----------|--------|---------|-------------------|
A|-------|3--5-6-5-3|--------|---------|-3--3---30---------|
E|3-3----|----------|111--222|-3-3-----|-----------111-222-|

G|-----7-8-|--5--5------|--------7-8-|---------|
D|---------|------------|------------|---------|
A|---------|-3--3--30---|------------|-5-------|
E|-3-3-----|----------1-|-11-2-3-----|---------|

Когда-то был счастлив а счастье так и ушло
За счастьем несчастье так грустно вот так и пошло
И ждать на крылечке уже бесполезно тебя
Ох как далеко далеко далеко от меня ты

   Gm     D# Cm F
  Варвара       ё-о (4 раза)
   Gm     D#      Cm F
  Варвара ага угу     но где ты (10 раз)
Вверх

Варвара (2 вариант)

Em    C     Am     D    Em      C Am D
Как грустно и очень обычно все вышло
Ушла от меня и в ночь теперь слезно кричу
Мне просто обидно шаги одиночества слышать
И страшно подумать и вряд ли я жизнь доживу

   Em C Am D
   Варвара - 4 раза

С тобой я готов был бежать на край света
Em  F#m G Am  H
Но ты изменила сама ты туда удрала
Порвалась струна и теперь моя песенка спета
И жизни мне нет вот такие дела

   Em C Am D
   Варвара - 4 раза

Когда-то был счастлив а счастье так и ушло
За счастьем несчастье так грустно вот так и
пошло
И ждать на крылечке уже бесполезно тебя
Ох как далеко далеко далеко от меня ты

   Em C Am D
   Варвара e:-о - 4 раза

Em C Am D
Варвара ага угу но где ты - 10 раз
Вверх

Варвара (3 вариант)

Am F Dm G Am F          Dm      G
             Ну где ты Варвара? Ага угу
Am F Dm G Am F Dm G

Am   F        Dm      G         Am    F   Dm   G
Как грустно и очень обычно все вышло
Ушла от меня и в ночь теперь слезно кричу
Мне просто обидно шаги одиночества слышать
И страшно подумать и вряд ли я жизнь доживу

   Am     F  Dm G
   Варвара - 4 раза

С тобой я готов был бежать на край света
Но ты изменила сама ты туда удрала
Порвалась струна и теперь моя песенка спета
И жизни мне нет вот такие дела

   Варвара - 4 раза

Когда-то был счастлив а счастье так и ушло
За счастьем несчастье так грустно вот так и
пошло
И ждать на крылечке уже бесполезно тебя
Ох как далеко далеко далеко от меня ты

   Варвара ё-о - 4 раза

Варвара ага угу но где ты - 10 раз
Вверх

Варвара (4 вариант)

Вступление: F#m D Hm E F#m

D          Hm      E
ну где ты Варвара ага угу?

  F#m D Hm E - 2 раза

F#m     D       Hm      E         F#m D Hm  E
  Как грустно и очень обычно все вышло
F#m  D     Hm       E           F#m       D Hm E
  Ушла от меня и в ночь теперь слезно кричу
 F#m    D      Hm      E     F#m       D    Hm E

  Мне просто обидно шаги одиночества слышать
 F#m   D       Hm        E         F#m      D Hm E
  И страшно подумать и вряд ли я жизнь доживу

    F#m     D Hm E
   Варвара         4 раза

  F#m  D      Hm         E             F#m D Hm E
  С тобой я готов был бежать на край света
  F#m E      A     Hm      E/C#?  E
  Но ты изменила сама ты туда удрала
F#m    D       Hm      E         F#m      D  Hm E
  Порвалась струна и теперь моя песенка спета
    F#m        D  Hm E        F#m   D Hm  E
  И жизни мне нет      вот такие дела

    F#m     D Hm E
   Варвара         4 раза

Когда-то был счастлив а счастье так и ушло
За счастьем несчастье так грустно вот так и пошло
И ждать на крылечке уже бесполезно тебя
Ох как далеко далеко далеко от меня ты

    F#m     D Hm  E
   Варвара       ё-о  4 раза
    F#m     D     Hm E
   Варвара ага угу    но где ты?
Вверх

Волки mp3

Intro: Hm F# G

    Hm
G|------------------------|
D|------4-4--------4-4----|
A|----------5----------5--|
E|------------------------|
Волки уходят в небеса

        F#
G|------------------------|
D|-------4-4-------4-4----|
A|-----------4---------4--|
E|------------------------|
Горят холодные глаза

        G
D|------------------------|
A|---5-5--2-------5-5--2--|
E|------------------------|
Приказа верить в чудеса

         F#                   (F#7  по желанию)
B|---------------2--------|
G|------------------------|
D|------------------------|
A|-------4-4-------4-4----|
E|-----------2---------2--|
Не поступало

        Hm
ВолкИ уходят в небеса
         F#
Горят холодные глаза
         G
Приказа верить в чудеса
         F#
Не поступало

И каждый день другая цель
То стены гор, то горы стен
И ждёт отчаянных гостей
Чужая стая

    Hm             C#7
Спиной, к ветру и всё же
           Em             F#
Вырваться может чья-то душа
    Hm           C#7
Спасёт, но не поможет
          Em         F#
Чувствую кожей, пропащая....

Не помнят слов не видят снов
Переросли своих отцов
И кажется рука бойцов
Колоть устала

Позор и слава в их крови
Хватает смерти и любви
Носколько волка не корми
Ему всё мало

Спиной, к ветру и всё же
Вырваться может чья-то душа
Спасёт, но не поможет
Чувствую кожей, пропащая....

ВолкИ уходят
ВолкИ уходят
ВолкИ уходят
ВолкИ уходяяяяяяаааа
Вверх

Волки (2 вариант) mp3

H (баре на 7 - ом ладу)
Волки уходят в небеса
A#( баре на 6-ом ладу)
Горят холодные глаза
G (баре на 3-ем ладу)               F#
Приказа верить в чудеса не поступало
И каждый день другая цель
То стены гор, то горы стен
И ждет отчаянных гостей чужая стая

Припев:
   H
   Спиной
                A#
   К ветру и все же
                    G
   Выбраться может
                F#
   Чья-то душа
   Спасет,
   Но не поможет
   Чувствую кожей
   Пропащая

Не помнят слов, не видят снов
Переросли своих отцов
И, кажется, рука бойцов колоть устала.
Позор и слава в их крови,
Хватает смерти и любви
Но сколько волка не корми, ему все мало.

Припев.

H
Волки уходят
       A#
Волки уходят
         G
Волки уходят
         F#
Волки уходят...
Вверх

Волки (3 вариант) mp3

               Сm
Волки уходят в небеса
      D
Горят холодные глаза
        Fm                     G7
Приказа верить в чудеса не поступало
И каждый день другая цель
То стены гор, то горы стен
И ждет отчаянных гостей чужая стая

Припев:
       Cm
   Спиной
                D
   К ветру и все же
               Fm
   Выбраться может
           G7
   Чья-то душа
   Спасет,
   Но не поможет
   Чувствую кожей
   Пропащая

Не помнят слов, не видят снов
Переросли своих отцов
И, кажется, рука бойцов колоть устала.
Позор и слава в их крови,
Хватает смерти и любви
Но сколько волка не корми, ему все мало.

Припев.

Волки уходят
Волки уходят
Волки уходят
Волки уходят...
Вверх

Деньги на ветер

Figure:  Dm   F   C (2 раза)

Dm     Dm/F Dm
Деньги на ветер
    F           C
Среди святых и виноватых
Деньги на ветер
Есть берег истины иной
Деньги на ветер
Пусть он придет в лучах заката
    B   C  B     C      Dm (figure)

Придет не трогайся он мой

Деньги на ветер
Слоновой кости вижу башни
Деньги на ветер
Разинутых упреков рты
Деньги на ветер
Пусть он придет в лучах заката
Придет он из моей мечты

Припев:
     Gm               Gm/F#
   Идущий по самому краю
   Несущий несущий зарю
   B        Gm B     C  Dm
   Я тебя знаю я тебя жду

От жизни где все как есть
С годами приходит усталость
Но сколько бы мне не осталось
Я буду об этом петь

Припев.

Coda:  Gm  Gm/F#  B  C (to fade)
Вверх

Достучаться до небес mp3

E           H
От земли и до небес
A            F#
Нам с тобою не достучаться.
F#m              G#m
Как слова на песке,
A       G#m     F#m      H
Всем известная формула счастья.

Спето-выпито, люди разные
Закрывают глаза,
Вот осколки от горьких слёз,
Вот обломки горьких праздников.

	Припев:

	A     H    C#m
	Расстояния и пространства
	A    H      C#m
	Измеряя, пытаясь понять,
	F#m        G#m
	Ещё год, ещё одна станция,
	A     E      F#m H
	Там уже нет меня.

От потери и до любви -
Три звонка и одна телеграмма.
Между песней, этой и той -
Пол-комедии и целая драма.

Ночь, Верона, слова и взгляды,
В темноте голоса.
Светлая полоса незаметная,
Может, так нам и надо...

	Припев.

От привычки до высоты -
Половинка Останкинской башни.
Переправы, паромы, мосты,
Берег завтрашний, берег вчерашний.

От России и до Австралии -
Лишь куплет и припев.
Ничего взамен не просили,
Нарушая законы, правила.

	Припев.

Вверх

Елочный сок mp3

Hm
Умирать зимой холодно
Hm                   G Hm
От любви или от голода
Hm
А от смеха губы в трещинах
Hm                  G Hm
У тебя другая женщина

Припев:
   Em        F#
   Праздники корчатся
   G     A     Hm
   Давят елочный сок
   Em      F#  G
   Гонится белая конница
   A         F#
   Кружит снежок

За одним столом поместятся
Все друзья двенадцать месяцев
И зовут и делят поровну
Все мои четыре стороны

Умирать зимой холодно
От любви или от голода

Э-о, о-о-о!
Э-о, о-о-о!
Вверх

Елочный сок (2 вариант) mp3

Am
Умирать зимою холодно
                      F Am
От любви или от голода
Am
А от смеха губы в трещинах
                     F Am
У тебя другая женщина

  Dm       Em
Праздники корчатся
 F    G        Am Am7 Am Am7
Давят ёлочный сок
 Dm      Em    F
Гонится белая конница
  G        E
Кружит снежок

За одним столом поместятся
Все друзья двенадцать месяцев
И зовут, и делят поровну
Все мои четыре стороны

Праздники корчатся
Давят ёлочный сок
Гонится белая конница
Кружит снежок

Умирать зимою холодно
От любви или от голода

Праздники корчатся
Давят ёлочный сок
Гонится белая конница
Кружит снежок

Am7 - [002213]
Вверх

Еще не вечер

Figure:  Em  Em7   C   Csus (2 раза)

Em
У тебя война
               C  Csus  C9
Все горит в руках
Em
Линия ума
            C   Csus  C9
Лезвие в ладонях

Am
И вино срывает голос
Em
Как стекло перемололось
F#                        C   C9   C
И однажды превратилось в пыль

Припев:
   Em
   Еще не вечер
                     F# G F#
   Под самым сердцем
   Am Am/H Am/C Am/H
   Чужое тело
   Em
   Еще не поздно
                        F#  Am  Am/H Am/C Am/H
   Осколок солнце не догорело

Figure.

За тобою боль
Как слепая месть
Но покажет бой
Дом уже не крепость
И вода пойдет под камень
Сточит быстрыми ручьями
И однажды превратится в пыль

Припев.

Figure.

Coda: Em Em7 Em  Em dim
Вверх

Зажигать mp3

  Am                  G       F                C
1|-----0------0-------3----------------------------0-----|
2|-1------1-------1------0--------1-------1----3---------| - 4р.
3|----------------------------2-------2--------------0---|

     Am            Em
Жадно так глотает солнце
     Am          Em
Два серебряных крыла
     Am            Em
Милый друг твой не вернется
     F         C
В этот город никогда

И огни усталых улиц
Станут по тебе скучать
Только им печаль такую
В своем сердце не унять

Припев:
   Dm        Am G          F
    И зажигать пьяные звезды...
   Dm        Am   G          F
    Нет, без тебя так будет сложно...

Как легко плывут ресницы
Не узнает твой герой
Если что нибудь случится
Где-то за морем с тобой

С ним теперь другое небо
Облака над головой
И ступает ангел следом
Незнакомый и чужой

Припев.

Все коварная разлука
Обнимала как сестра
Превращая ее руки
В два серебряных крыла

Сколько дождь шептал, а толку
Ей казалось не в серьез
И разбилось на осколки
Всех невыплаканных слез
Вверх

Зажигать (2 вариант) mp3

Cm#                H
Жадно так глотает солнце
       Cm#         Gm#
Два серебряных крыла.
        Cm#             H
Милый друг твой не вернется
        A         E
В этот город никогда.
И огни усталых улиц
Станут по тебе скучать.
Только им печаль такую
В своем сердце не унять.

Припев:
 Cm#      E  H         A
   И зажигать пьяные звезды,
   Нет, без тебя так будет сложно.

Как легко плывут ресницы,
Не узнает твой герой.
Если что-нибудь случится,
Где-то за морем с тобой.
С ним теперь другое небо,
Облака над головой.
И ступает ангел следом,
Не знакомый и чужой.

Припев.

Все коварная разлука
Обнимала как сестра.
Превращала в ее руки
Два серебряных крыла.
Сколько дождь шептал, а толку?
Ей казалось не всерьез.
И разбилась на осколки,
Всех невыплакала слез.

Припев.
Вверх

И корабль плывет

Figure/coda: Hm    F#   (2 раза)
             Em    D    F#

          Hm         F#
Сколько звезд на погоны
    Hm     F#
Добыли в боях
     Em        D
На пустых полигонах
      F#
В неведомых снах

Дайте небо под крылья
Подстреленных птиц
Журавлиному клину
Скорую помощь

припев:
      G
Отпустите синицу
     A
На верную смерть
      F#               Hm
Пусть ее приласкает свобода
     G
И корабль плывет
           A
И сквозь колотый лед
      F#           G    F#
Я смотрю в эту черную воду

Figure

Никого не зову
Не жалею не плачу
У вас на яву
У меня на удачу
И луна как стекло
Не любила не грела
Никого не ждала
Ничего не хотела

Припев.
Вверх

И корабль плывет (2 вариант)

Аккорды:   Cm G  Cm G  Fm D# G
В припеве: G# A# G  Cm    G# A# G G# G

Вступление:
e|-------------------------------------------------------------|
b|-------------------------------------------------------------|
g|------8-10----------------------8-8-10-----------------------|
d|-8-10--------------8-8-8-10-10----------------8-8-8-10-10----|
a|-----------10-10----------------------10-10------------------|

e|-------------------------------------------------------------|
b|-------------------------------------------------------------|
g|-8-8-10-----------------7-7-10-10~---------------------------|
d|--------------8-8-8-9-9--------------------------------------|
a|--------10-10------------------------------------------------|

Соло:
e|-----11-13-15----------------------------------8----8-10-15--|
b|-13------------8-9-8---------------------9----9---9----------|
g|----------------------8--------------------10----------------|
d|------------------------10-10-10-10-9--9---------------------|
a|-------------------------------------10----------------------|

e|-----------------------------------------------6-8---8-11-10-|
b|-------------------9-8---------------------8-9-----9---------|
g|---------8-10-8-10---------------8-10---10-------------------|
d|----8-10-------------------8-10-------8----------------------|
a|-10-------------------8-10-----------------------------------|

e|-15-16-15-16-15-16-15-16----6-8------------------------------|

Вверх

Иномарки

 E                         C#m
Воздух искрит, и просто поверить -
 A                     H                       E
Лопнет, как мыльный пузырь, самый страшный кошмар.
   E                        C#m
Вспыхнет в груди, но не согреет,
 A                 H              E
Сердце оставит пустым янтарный пожар.

	Припев:
	  E                  C#m
	Скользкие улицы, иномарки целуются,
	   A          H               E
	Помятые крылья несчастной любви.
	   E                C#m
	Минуты отмечены случайными встречными,
	       A            H               E
	Но никто не ответит, что ждёт впереди.

Плавится лёд на бархатном теле.
Тает, как лёгкий дымок, короткая ночь.
Время пройдёт, и однажды развеет
Пёстрая лента дорог сомнения прочь.

	Припев.

Amaj7  G#m         C#m
 На стрелках перекрёстки
Amaj7 G#m        C#m
 До  горизонта плоски.
Amaj7 G#m         C#m
     Город словно остров
Amaj7  H
      На краю Земли...

	Припев. /на тон выше - F# Ebm H C# F#/


Вверх

Как песок сквозь пальцы

Эти табуляторы играются в самом начале песни.
E|----1-----|----2------|-----2-------|-----0-1---------|
B|------3---|------3----|-------3-----|---3-----3-------| 2раза
G|-4------4-|-2------2--|-0-------0---|-3---------3-----|

Мы  ждем  новостей  в условный день и час
Как ручей прольется кровь из
Глаз  не спускать не тушить огни их рана
Сердце раздавит на дне океана

Эти табуляторы играются во время припева.
E|---------------|---------------|---------------|-------------|
B|---------------|---------------|---------------|-------------|
G|---------------|---------------|---------------|-------------|
D|9-9-9-9-9-9-9-9|7-7-7-7-7-7-7-7|5-5-5-5-5-5-5-5|8-8-8-8-8-8-8|
A|9-9-9-9-9-9-9-9|7-7-7-7-7-7-7-7|5-5-5-5-5-5-5-5|8-8-8-8-8-8-8|
E|7-7-7-7-7-7-7-7|5-5-5-5-5-5-5-5|3-3-3-3-3-3-3-3|6-6-6-6-6-6-6|
    Уууууууууууууууууууууууууууу      Как   песок сквозь пальцы

E|---------------|---------------|---------------|-------------|
B|---------------|---------------|---------------|-------------|
G|---------------|---------------|---------------|-------------|
D|9-9-9-9-9-9-9-9|7-7-7-7-7-7-7-7|5-5-5-5-5-5-5-5|8-8-8-8-8-8-8|
A|9-9-9-9-9-9-9-9|7-7-7-7-7-7-7-7|5-5-5-5-5-5-5-5|8-8-8-8-8-8-8|
E|7-7-7-7-7-7-7-7|5-5-5-5-5-5-5-5|3-3-3-3-3-3-3-3|6-6-6-6-6-6-6|
   Уууууууууууууууууууууууууууууу      Что же     будет  дальше

E|---------------|---------------|---------------|-------------|
B|---------------|---------------|---------------|-------------|
G|---------------|---------------|---------------|-------------|
D|9-9-9-9-9-9-9-9|7-7-7-7-7-7-7-7|5-5-5-5-5-5-5-5|8-8-8-8-8-8-8|
A|9-9-9-9-9-9-9-9|7-7-7-7-7-7-7-7|5-5-5-5-5-5-5-5|8-8-8-8-8-8-8|
E|7-7-7-7-7-7-7-7|5-5-5-5-5-5-5-5|3-3-3-3-3-3-3-3|6-6-6-6-6-6-6|
   Ууууууууууууууууууууууууууууууу       Слов    немая    стая

E|---------------|---------------|---------------|-------------|
B|---------------|---------------|---------------|-------------|
G|---------------|---------------|---------------|-------------|
D|9-9-9-9-9-9-9-9|7-7-7-7-7-7-7-7|5-5-5-5-5-5-5-5|8-8-8-8-8-8-8|
A|9-9-9-9-9-9-9-9|7-7-7-7-7-7-7-7|5-5-5-5-5-5-5-5|8-8-8-8-8-8-8|
E|7-7-7-7-7-7-7-7|5-5-5-5-5-5-5-5|3-3-3-3-3-3-3-3|6-6-6-6-6-6-6|
   Ууууууууууууууууууууууууууууууу       Просто     исчезает

Ждать перемен в удобный случай нам
Выбор Бок Мэн иди и слушай
Как тонет сердце на дне чужих историй
Падает с неба  звезда и гаснет море

Уууууууууууууу  Как песок сквозь пальцы
Уууууууууууууу  Что же будет дальше
Уууууууууууууу   Слов немая стая
Уууууууууууууу   Просто исчезает

Гитара 1
E|---------------|---------------|---------------|-------------|
B|---------------|---------------|---------------|-------------|
G|---------------|---------------|---------------|-------------|
D|9-9-9-9-9-9-9-9|7-7-7-7-7-7-7-7|5-5-5-5-5-5-5-5|8-8-8-8-8-8-8|
A|9-9-9-9-9-9-9-9|7-7-7-7-7-7-7-7|5-5-5-5-5-5-5-5|8-8-8-8-8-8-8|
E|7-7-7-7-7-7-7-7|5-5-5-5-5-5-5-5|3-3-3-3-3-3-3-3|6-6-6-6-6-6-6|

Гитара 2
E|----1----------|------2--------|-----2---------|-----0-1-----|
B|--------3------|---------3-----|--------3------|---3-----3---|
G|-4-----------4-|-2----------2--|-0---------0---|-3---------3-|

Уууууууууууууу  Как песок сквозь пальцы
Уууууууууууууу  Что же будет дальше
Уууууууууууууу   Слов немая стая
Уууууууууууууу   Просто исчезает

И в конце те же табуляторы что и в начале
E|----1-----|----2------|-----2-------|-----0-1---------|
B|------3---|------3----|-------3-----|---3-----3-------| 2раза
G|-4------4-|-2------2--|-0-------0---|-3---------3-----|
Вверх

Кукушка

Intro: (самый удобный imho)

e|---------------------------------------|
b|-0--3-7-5-7-5-7-10-5--3-2--2/3-2-0-3-0-|
g|---------------------------------------|
d|---------------------------------------|
a|---------------------------------------|
e|---------------------------------------|

Hm
Песен еще ненаписанных, сколько?
         A    Em    Hm       
Скажи, кукушка, пропой.
   Hm 
В городе мне жить или на выселках,
                             A   Em    Hm      
Камнем лежать или гореть звездой? Звездой.

 Chorus: (лучше квинтами)
  A         G                Hm
   Солнце мое - взгляни на меня,

       (ход)
      
e||---------------------------|
b||---------------------------|
g||---------------------------| басы
d||---------4-5-4-2-0---------|
a||---2-2-2-------------------|
e||---------------------------|
               ИЛИ 
e||---------3-2-0-------------|
b||---0-0-0-------3-(2)-------|
g||---------------------------| соляк 
d||---------------------------|
a||---------------------------|
e||---------------------------|

      A       G                    Hm
        Моя ладонь превратилась в кулак, 
      A             G            Hm 
        И если есть порох - дай огня.
      A   G       Hm   D  Em  F#m
               Вот так...
         
Кто пойдет по следу одинокому?
Сильные да смелые головы сложили в поле, в бою.
Мало кто остался в светлой памяти,
В трезвом уме да с твердой рукой в строю, в строю.
                                        

Где же ты теперь, воля вольная?
С кем же ты сейчас ласковый рассвет встречаешь? Ответь.
Хорошо с тобой, да плохо без тебя,
Голову да плечи терпеливые под плеть, под плеть.
Вверх

Медленно схожу с ума

ИНТРО: Eb*  Gm  Cm  B

ИНТРОшнный рифф:

          Eb*         Gm           Cm            B
G|-----------|-----------|------------|--------------|
D|-----8-----|-----8-----|-----8------|--------------|
A|-6-8---6-6-|-6-8---6-5-|-6-8---6-10-|-10-10-6-8-6--|
E|-----------|-----------|------------|--------------|

 Eb*
Этот город стал твоей тенью
 Gm
За которой я иду следом
 Cm
Опускаясь по течению
   B
Огней
 Eb*
И под действием ее взгляда
 Gm
Может мне еще пройти надо
 Cm
Сквозь горящие врата ада
 B
За ней

ПРИПЕВ:
 (N.C.)       B     Eb
Медленно схожу с ума...
 (Eb)        B     Eb
Медленно схожу с ума...

И за тонким краем небосвода
Все мерещится неясным светом
Мне короткая свобода
И в ней
Этот город стал твоей тенью
За которой я иду следом
Опускаясь по течению
Огней

ПРИПЕВ:

Eb* - X68866 (струны 654321)
Вверх

Мой друг

 Hm      G        D     A       Hm    G  D  A
После трудного дня приходит усталость
 Hm   G           D          A         Hm  G  D  A
И теперь только нужно чуть-чуть отдохнуть
Нам от прошлых побед ничего не осталось
И ушедших обратно уже не вернуть

ПРИПЕВ:
 Hm      G  D       A         Hm  G  D
Мой друг.....никогда не грустит
 A          Hm  G  D   A         Hm
И пьет эту ночь.....вместе со мной

Остывающий город в холодную вечность
Собирает и строит свои корабли
Все случится опять и новые песни
Как начало дорог в продолженье пути

ПРИПЕВ: (xN)
Вверх

Мой друг (2 вариант)

Em(E)      C        D       G     Em    C D G
    После трудного дня приходит усталость
Em(E)         C        D       G     Em     C D G
    И теперь только нужно чуть-чуть отдохнуть
    Нам от прошлых побед ничего не осталось
    И ушедших обратно уже не вернуть

Припев:
       Em(E)    C      D      G
       Мой друг.........никогда не грустит
       Em(E)      C        D       G
       И пьет эту ночь......вместе со мной

       Остывающий город в холодную вечность
       Собирает и строит свои корабли
       Все случится опять и новые песни
       Как начало дорог в продолженьи пути
Вверх

Мой рок-н-ролл mp3

Проигрыш: (как собственно и на протяжении всей песни:)
 F* G* Am*

   F*            G*             Am*
1|-------0-------------0---------------0--------------0--------|
2|-----1-----1-------3-----3---------0-----0--------0-----0----|
3|---2-----2---2---4-----4---4-----5-----5---5----5-----5---5--|
4|-3---------------------------5/7-----------------------------|
5|---------------5-----------------------------0---------------|
6|-------------------------------------------------------------|
  (это упрощенный вариант перебора)

еще такое соло:
    F*    G*         Am*
 1|-12~--12~12~12-10-----------
 2|------------------8/10-10~--

  F*           G*     Am*
И то что было намело, откроется потом
          F*             G*               Am* (e.t.c.)
Мой рок-н-ролл - это не цель и даже не средство
Не новое, а заново, один и об одном
Дорога в мой дом, и для любви - это не место

Прольются все слова как дождь, и там где ты меня не ждешь
Ночные ветры принесут тебе прохладу
На наших лицах без ответа, лишь только отблески рассвета
Того, где ты меня не ждешь

А дальше - это главное, похожий на тебя
В долгом пути, я заплету волосы лентой
И не способный на покой я знак подам тебе рукой,
Прощаясь с тобой как будто с легендой

Прольются все слова как дождь, и там где ты меня не ждешь
Ночные ветры принесут тебе прохладу
На наших лицах без ответа, лишь только отблески рассвета
Того, где ты меня не ждешь

И то что было намело, откроется потом
Мой рок-н-ролл - это не цель и даже не средство
Не новое, а заново, один и об одном
Дорога в мой дом, и для любви - это не место

аккорды выглядят так:

     F*   G*   Am*
 1|--0----0----0----
 2|--1----3----0----
 3|--2----4----5----
 4|--3----5----7----
 5|--3----5----0----
 6|--0----0----x----
Вверх

Мой рок-н-ролл (2 вариант) mp3

Asus4  [5 x x 5 0 0]
Dsus4  [x x 3 5 0 0]
Gsus4  [3 x x 5 0 0]

Вступление:

    Dsus4                    Gsus4           Asus4   ( 2 раза)
e|----------0---------|---------0----------|--------0----------|
b|--------0----0---0--|-------0---0---0----|------0---0---0----|
g|-----5---------5----|-----5-------5------|----5-------5------|
d|--3-----------------|--------------------|-------------------|
a|--------------------|--------------------|-------------------|
e|--------------------|--3-----------------|--5----------------|

  Dsus4         Gsus4
И то, что было набело
 Asus4
Откроется потом
  Dsus4
Мой рок-н-ролл
  Gsus4                Asus4
Это не цель и даже не средство

Не новое, а заново
Один и об одном
Дорога в мой дом
И для любви это не место

Припев:
     Dsus4                Gsus4
Прольются все слова, как дождь
      Asus4
И там, где ты меня не ждешь
   Dsus4              Gsus4  Asus4
Ночные ветры принесут тебе прохладу
    Dsus4              Gsus4
На наших лицах без ответа
             Asus4
Лишь только отблески рассвета
 Dsus4         Gsus4  Asus4
Того, где ты меня не ждешь

(те же аккорды)
А дальше- это главное
Похожий на тебя
В долгом пути
Я заплету волосы лентой

И не способный на покой
Я знак подам тебе рукой
Прощаясь с тобой
Как будто с легендой

Припев

(опять играется  первый куплет)

И то, что было набело
Откроется потом
Мой рок-н-ролл
Это не цель и даже не средство

Не новое, а заново
Один и об одном
Дорога в мой дом
И для любви это не место
Вверх

Мой рок-н-ролл (3 вариант) mp3

Ну вот рифф1 (он же и последний):

Играется аккорд С, потом он переносится на 3-й лад,
потом Am два раза, и все это с 
чередованием  указательного пальца.

E|---------0--------------------------0--------------------------0---------------------0---------|
B|----1-------0-----1----------3--------0-----3-----------1---------0-----1--------1-----0---1---|
G|------0--------0-----0---------0---------0-----0-----------2---------2-----2-------2-----2---2-|
D|-----------------------------------------------------------------------------------------------|
A|-3-------------------------5--------------------------0------------------------0---------------|
E|-----------------------------------------------------------------------------------------------|


Между припевом и куплетом можно вставить

E-----0----------
H--------0------
G------------0--
D---------------
A---------------
E---------------

И то, что было набело 
 Откроется потом 
 Мой рок-н-ролл 
 Это не цель и даже не средство 
Не новое ,а заново 
Один и об одном 
Дорога в мой дом
 И для любви это не место 

Припев: 
 Прольются все слова, как дождь
 И там, где ты меня не ждешь 
 Ночные ветры принесут тебе прохладу 
 На наших лицах без ответа 
 Лишь только отблески рассвета 
 Того, где ты меня не ждешь 

 А дальше- это главное
 Похожий на тебя 
В долгом пути 
Я заплету волосы лентой
 И не способный на покой 
Я знак подам тебе рукой
 Прощаясь с тобой 
Как будто с легендой 

Припев.

И то, что было набело
 Откроется потом 
Мой рок-н-ролл 
Это не цель и даже не средство
 Не новое, а заново 
Один и об одном
 Дорога в мой дом 
И для любви это не место
Вверх

Моя любовь mp3

 Cm
У героев стынет кровь
Разбиваются и вновь
                Fm
Идут ко дну
                   Cm
Идут ко дну

Успокоит океан
И расстелет по волнам
Свою вину
Свою вину

Припев:
   C#                 Cm
   Кончится пленка
    C#                G
   Ты ждешь ребенка
   От меня

Cm
М-мм-мм-м,  М-мм-мм-м
               Fm
Моя любовь
               Cm
Моя любовь

Уходили в плаванье
За чужие гавани
Вести войну
Вести войну

Но известно лишь волнам
Что оставит океан
Тебя одну
Тебя одну
Вверх

Моя любовь mp3

intro:
4|----0-------------|---0------/7-7-4-5--/5-5-7-4---2-0---
5|-/2---2-5-7-9---9-|-2---2-5-----------------------------


3|-----------------|---------------------7-6---7-6----------
4|----0------------|---0-----/7-7-4-5--5-----5------2-4--2-0
5|-/2---2-5-7-9--9-|-2---2-5--------------------------------

Hm
У героев стынет кровь
Разбиваются и вновь
          Em
Идут ко дну
          Hm
Идут ко дну

Успокоит океан
И расстелет по волнам
        Em
Свою вину 
        Hm
Свою вину

Припев:
C          Hm
Кончится пленка
C           F#(7)
Ты ждешь ребенка
От меня 

Hm                                  
М-мм-мм-м,  М-мм-мм-м 
        Em
Моя любовь
        Hm
Моя любовь


Уходили в плаванье
За чужие гавани
Вести войну
Вести войну

Но известно лишь волнам
Что оставит океан 
Тебя одну
Тебя одну
Вверх

Мяу Кисс Ми mp3

Hm             F#                G
Люби меня как я тебя и может полные края
                 F#
Я расплескаю все до капли
Hm             F#                   G
Вода чернеет у моста и за трубою два хвоста
                      F#
Берут за горло чьи-то лапы

    Hm                  F#
Мяу кисс ми ненавистная любовь
    G                  F#
Я зализывать твои не буду раны
    Hm                   F#
Мяу кисс ми свои мысли за кого
     G                      F#
Я гореть и плавить свое сердце стану

Навылет очередь, она так близко сядет от меня
И разорвет наверно в клочья
И все что дальше, только тень и невозможно каждый день
Для тех, кому не спится ночью
Вверх

Мяу Кисс Ми mp3

INTRO: 
-Am
-Am--E--F--E

Am                 E                   F  
Люби меня как я тебя и может полные края
                     Е
Я расплескаю все до капли
Вода чернеет у моста и за трубой два хвоста
Берут за горло чьи-то лапы

ПРИПЕВ:
     Am          Am        E     
Мяу кисс ми ненавистная любовь
     F          F          E  
Я зализывать твои не буду раны
Мяу кисс ми свои мысли за кого
Я гореть и плавить свое сердце стану


Навылет очередь она так близко сядет от меня
И разорвет наверно в клочья
И все что дальше только тень и невозможен каждый день
Для тех кому не спится ночью

Припев.

Проигрыш:
chords -Am--E--F--E

Припев.
Вверх

Мяу Кисс Ми mp3

Вступление: 
Am(4x) Am            E             F             G(баре)
      Уху-ху-ху-ху, Уху-ху-ху-ху, Уху-ху-ху-ху.(2х) =)     


Am                   E                   F  
  Люби меня как я тебя и может полные края
                    G(баре) 
Я расплескаю все до капли
Вода чернеет у моста и за трубой два хвоста
Берут за горло чьи-то лапы


(те же аккорды, ну лана напишу еще разок :) )
        Am                E     
Мяу кисс ми ненавистная любовь
       F                  G(баре)  
Я зализывать твои не буду раны
Мяу кисс ми свои мысли за кого
Я гореть и плавить свое сердце стану


Навылет очередь, она, так близко сядет от меня
И разорвет, наверное, в клочья
И все что дальше, только тень и невозможным каждый день
Для тех, кому не спится ночью

Припев.

(Опять тоже ухухуканье и с теми же аккордами) 
Уху-ху-ху-ху, Уху-ху-ху-ху, Уху-ху-ху-ху. (2х)

Припев.

Проигрыш:
Am    E    F    G(баре)(2х)
Вверх

Недотрога

Em                                  C
На такси не поеду, без денег маршруты мои
G                                        H
Ограниченный правдой в ногах - я аскет поневоле
Em                                 C
Мне не снятся соседи и бурное море любви
G                                     H
Одному по пути, только в поле я тоже не воин
C          Em(7)        G            H
А я - недотрога и немногим к сердцу дорогу покажу
C          Em(7)      G           H
Я не жадный, но однажды кто-то оставил метку свою

Мои кошки до боли скребут на обратный билет
Меня ждут мои тени, мои корабли атлантиды
Передай на губах, на ладонях горячий привет
И открытку из прошлого века, откуда я с видом
Вверх

Никто не придет mp3

 Am
Я забыл с чем рифмуется "жди"
 F
Но у времени много слов
 G
Я увидел как впереди
 E
Точит косу старуха-любовь
 Am
Снова краски меняет страх
 F
На плетень моих белых стен
 G
С темной ночи и до утра
 E
Черной женщины падает тень

ПРИПЕВ/Проигрыш:

 Н5 F#5(IX) G5(X) F#5(IX)  Н5 F#5(IX) G5(X) F#5(IX)

 C  Em  C    Am
       ...Никто не придет

Я накапливал звуки и сны
Называл это "белый джаз"
Все ушло с ее легкой руки
В черных клавиш собачий вальс
Я писал о тебе белый стих
И вмещал весь словарный запас
В танец дикий твоих чернил
То что делало слабыми нас

ПРИПЕВ:
Вверх

Песок mp3

 Am   G           Dm     E              Am 
Мы     ждём новостей в условный день и час.
G         Dm      E
   Как ручей прольётся кровь из
  Am         G         Dm     E
Глаз не спускать, не тушить   огни экранов.
 Am        G         Dm   E
Сердце раздавит на дне    океанов.

Припев:
Am G Dm        E 
        Как песок сквозь пальцы...
Am G Dm         E 
        Что же будет дальше?
     Слов немая стая...
     Просто исчезаем.

Ждать перемен удобный случай. На
Выбор lookman, иди и слушай,
Как тонет сердце на дне чужих историй
Падает с неба звезда и гаснет в море

Припев 2x.

В оригинале: [Dm C Gm A]
Вверх

Полковнику никто не пишет

Intro: 1>>--6--5------366--5-------
       2>>---33-333644---33-333643-

                Gm
1. Большие города, 
              Cm7
   Пустые поезда.
                  Cm
   Ни берега, ни дна,
                    D   D7
   Всё начинать сначала.

   Холодная война
   И время как вода.
   Он не сошел с ума,
   Ты ничего не знала.

  
Пр.               Gm         Cm7
   Полковнику никто не пишет,
   Полковника никто не ждёт.

2. На линии огня
   Пустые города,
   В которых никогда
   Ты раньше не бывала

   И рвутся поезда
   На тонкие слова,
   Он не сошёл с ума
   Ты ничего не знала.

 Пр.
Вверх

Полковнику никто не пишет

Hm
Большие города,
G(баррэ)
Пустые поезда,
Em
Ни берега, ни дна
F#m
Все начинать сначала
Холодная война,
И время как вода,
Он не сошел с ума,
Ты ничего не знала

Припев:
   Hm               G
   Полковнику никто не пишет
   Hm               А
   Полковника никто не ждет...
   На линии огня,
   Пустые города
   В которых никогда
   Ты раньше не бывала
   И рвутся поезда
   На тонкие слова
   Он не сошел с ума
   Ты ничего не знала

Припев.
Вверх

Полковнику никто не пишет (2 вариант)

1|--6------5-------------------6------5---------|
2|-------------------6-4--4-6-------------------|
3|----7-7---7-7--7---------------8-8--8-8--8-7--|
4|----------------------------------------------|
5|----------------------------------------------|
6|----------------------------------------------|

            G
Большие города
           D#
Пустые поезда
               C
Ни берега, ни дна
                   D
Всё начинать сначала
Холодная война
И время как вода
Он не сошел с ума
Ты ничего не знала

Припев:
                 G               D#
Полковнику никто не пишет
1|--------------------------------------|
2|--------------------------------------|
3|-----5-3------------------------------|
4|---5-----5------------------8-8--8-8--|
5|-5---------5--5-6-5--8-6--6-6--6-6----|
6|--------------------------------------|
                 G                       F
Полковника никто не ждет
1|-----------------------------6-6-5--6-6-5--|
2|-------------------------------------------|
3|-----5-3-----------------------------------|
4|---5-----5---------------------------------|
5|-5---------5--5-6-5--8-6-------------------|
6|-------------------------------------------|

На линии огня
Пустые города
В которых никогда
Ты раньше не бывала
И рвутся поезда
На тонкие слова
Он не сошел с ума
Ты ничего не знала

Solo (могут быть ошибки)
1|-----6----5--6-8-10-----6-----5--6-8-6------6----5--6-8-10---|
2|-4-6--4-6---4-6--8--4-6--4-6----4-6-6--4-6--4-6---4-6--8-10--|
3|-------------------------------------------------------------|
4|-------------------------------------------------------------|
5|-------------------------------------------------------------|
6|-------------------------------------------------------------|

1|--6------5-------------------6------5------------------------|
2|-------------------6-4--4-6----------------------------------|
3|----7-7---7-7--7---------------8-8--8-8--8-7(slide to 19)----|
4|-------------------------------------------------------------|
5|-------------------------------------------------------------|
6|-------------------------------------------------------------|

Припев.

Solo
1|--------------------------------------------|
2|--------------------------------------------|
3|--------------------------------------------|
4|-------------------10--------------10-------|
5|-----12-13-12-13------12-13-12-13-----------|
6|--10-----------------10---------------------|

1|--------------------------------------------|
2|--------------------------------------------|
3|--------------------------------------------| x4
4|-----------10----------15-13-12-10-12-------|
5|----12-13----13-12---------------------12---|
6|-10-----------------------------------------|
Вверх

Полковнику никто не пишет (3 вариант)

  Боль-ши-е  го-ро-да              Пус-тые по-ез-да
1|-------------------------------------------------------------|
2|-------------------------------------------------------------|
3|------------------------------------------------8------------|
4|------------------5-----------------------------8------------|
5|-----6--5--3------5-----------------------------6------------|
6|--------------6---3------------------------------------------|
  Ни бе-ре-га ни дна       Все на-чи-нать  сна-ча-ла
1|-------------------------------------------------------------|
2|-------------------------------------------------------------|
3|-----------------5------------------------------7------------|
4|-----------------5------------------------------7------------|
5|-----------------3------------------------------5------------|
6|-------------------------------------------------------------|

Второй куплет аналогично первому, но без вступления.

  Холодная война.  И время, как вода
  Он не сошел с ума.  Ты ничего не знала.

Припев:       Пол-ков-ни-ку ни-кто    не пи-шет
1|-------------------------------------------------------------|
2|-------------------------------------------------------------|
3|----------5--3-----------------------------------------------|
4|------5---------5--------------------------------8-8----8-8--|
5|--5-----------------5-----5--6--5------5--8--6---6-6----6-6--|
6|-------------------------------------------------------------|
    Пол-ков-ни-ка ни-кто                 не ждет
1|----------------------------------------6-6--5-5--6-6--5-5---|
2|-------------------------------------------------------------|
3|-----------5--3----------------------------------------------|
4|-------5---------5-------------------------------------------|
5|---5-----------------5-----5--6--5---------------------------|
6|-------------------------------------------------------------|

Третий куплет играется глушенным "арпеджио"

  На линии огня                   Пустые города
1|-------------------------------------------------------------|
2|-------------------------------------------------------------|
3|--------------6-7-6---6-7-6---6-7-6---6-7-6---6-7-6---6-7-6--|
4|------------5-------5-------5-------5-------5-------5--------|
5|-------------------------------------------------------------|
6|-------------------------------------------------------------|
 В которых никогда                   Ты раньше не бывал-а
1|-------------------------------------------------------------|
2|--------------------------11---------------------------------|
3|---6-7-6---6-7-6---8-10-8------------8-10-8--------------7---|
4|-5-------5-------8-------------8-8-8-------------------7-----|
5|-----------------------------------------------------5-------|
6|-------------------------------------------------------------|

Четвертый куплет

 И рвутся поезда           На тонкие слова         Он не сош-
1|-------------------------------------------------------------|
2|-------------------8------------8------------8------------8--|
3|---------------6-7----7-6---6-7----7-6---6-7----7-6---6-7----|
4|-------------5-------------------------5---------------------|
5|-------------------------------------------------------------|
6|-------------------------------------------------------------|
-ел с ума              Ты ничего не знала
1|-------------------------------------------------------------|
2|---------------11---------------11---------------------------|
3|--7-6---8-10-8-----------8-10-8------------------------------|
4|------8------------8-8-8-------------7-7---7-7---7-7---7-----|
5|-------------------------------------5-5---5-5---5-5---5-----|
6|-------------------------------------------------------------|

Припев.

Соло1 сразу после припева
1|-----6------5~~~11~13~15------6-----5~~~10~11~10-------------|
2|-4-6----4-6-----11~13~15--4-6---4-6-----10~11~10-------------|
3|-------------------------------------------------------------|
     ~ это скольжение
1|-----6------5~~~11~13~15~17[держать до следующей части]------|
2|-4-6----4-6-----11~13~15~17[держать до следующей части]------|
3|-------------------------------------------------------------|

Соло2 после долгой ноты соло1
1|-6-------5-----------------6--------6--------5---------------|
2|-----------------6-------6-----------------------------------|
3|---7-7-----7-7-7---8---8--------------7-8------8-8--8--7~19--|
Вверх

Последний герой

// Обзываем следующие риффы так:

riff01
e|-----5-5--------5-5----------5-5-------5-----------|
B|-3-3-------4-4--------5-5------------3----3--------|
G|---------------------------------------------------|
D|---------------------------------------------------|
A|---------------------------------------------------|
E|---------------------------------------------------|

riff02
e|--------13-13---------13-13---------13-13-----13----------|
B|-11-11---------12-12---------13-13---------14-----14------|
G|----------------------------------------------------------|
D|----------------------------------------------------------|
A|----------------------------------------------------------|
E|----------------------------------------------------------|

riff03
e|-----2-2-----2-2------2-2-----2----------|
B|-0-0-----1-1-----2-2--------0---0--------|
G|-----------------------------------------|
D|-----------------------------------------|
A|-----------------------------------------|
E|-----------------------------------------|

riff04
e|-----10-10------10-10--------10-10-----10----------|
B|-8-8-------9-9--------10-10----------8----0--------|
G|---------------------------------------------------|
D|---------------------------------------------------|
A|---------------------------------------------------|
E|---------------------------------------------------|

Intro: riff01

riff01
Я больше не играю со своей душой:
riff02
Какая есть, кому-нибудь сгодится.
riff03
Намедни, золото и твой герой -
riff04
Последний кем бы ты могла гордиться

Припев:
Gm(3)
Остаться в живых!
Отчайный псих?
Fm(1)
Ни свой, ни чужой -
Gm(3)
Последний герой. :)

Проигрыш: Gm(3)

riff01 + Am(5)
Всё то немногое - на чётное не ставь,
riff02 + Fm(8)
Когда любовь и слёзы не дороже хлеба.
riff03 + Gm(3)
И, кажется, что до земли добраться вплавь
riff04 + D#m(6)
Возможно тем кто по воде уходит в небо

Припев, 

Проигрыш: Gm(3)

Припев...

Проигрыш: Gm(3)
Вверх

Последний герой

  Intro:
e|-------0--0--------0--0--------0--0-------------|
B|------------------------------------------------|
G|------------------------------------------------|
D|------------------------------------------------|
A|------------------------------------------------|
E|-0--0--------2--2--------3--3-----------3--5--3-|

     Em          Em/F#  Em/G          Em  Em/F#  Em/G
  Я больше не играю    со    своей душой
     Am      Am/B    Am/C         Am   Am/B  Am/C
  Какая есть      кому-нибудь сгодится
      Em            Em/F#     Em/G    Em  Em/F#  Em/G
  Но медь - не золото     и твой   герой
      Am             Am/B     Am/C     Am    Am/B  Am/C
  Последний, кем бы ты    могла    гордиться

Chorus:
                  Em Emmaj7 Em7          Emmaj7 = [022040]
    Остаться в живых                     Em7    = [022030]
       Em6      Em Emmaj7 Em7            Em6    = [022020]
    Отчаянный псих
         Em6       Am Ammaj7 Am7         Ammaj7 = [x02204]
    Не свой, не чужой                    Am7    = [x02203]
        Am6      Am Ammaj7 Am7 Am6       Am6    = [x02202]
    Последний герой

  Bridge:
D|-2--2-----2-----2--3-----2--2-----2-----2--3--|
A|-2--2-----2-----2--3-----2--2-----2-----2--3--| x2
E|-0--0-----0-----0--1-----0--0-----0-----0--1--|

  Em            Em/F#    Em/G                Em  Em/F#  Em/G
     Все то немного   -  е    на четное не ставь
      Am           Am/B  Am/C          Am  Am/B  Am/C
  Когда любовь и слезы  не    дороже хлеба
     Em           Em/F#     Em/G              Em  Em/F#  Em/G
  И кажется, что до     земли    добраться вплавь
      Am             Am/B    Am/C           Am  Am/B  Am/C
  Возможно тем, кто по    воде    уходит в небо

[Chorus]
[Bridge] x4

|Am|Am/B|Am/C|Asus4| x2

[Chorus] x2
[Bridge] x2
Вверх

Прощай Берлин

     C      G       F        Fm
E|-----8------10-------5------4-3---|
B|---8------8--------6------6-------|
G|-9------7--------5------5---------|

C            Am
В двух шагах от земли
 F     G7
Догорали огни
В двух пустых городах
В небесах

 C       E(7)   Am         F
Море причин, зачем осколки берегут
 C      E(7)   Am              F           G7
Выход один, когда по звёздам бьётся лю....
           C   Am  F   G7          C  E Am F
Прощай Берлин           Прощай Берлин

В двух часах между строк
Километры дорог
В двух словах от любви
Замерли
Море причин, стена рассыпется на части
Выход один, когда весь мир оглох от счастья
Прощай Берлин
Вверх

Прощай, Берлин mp3

     C      G	    F	     Fm
E -----8------10-------5------4_3--
H ---8------8--------6------6-------
G -9------7--------5------5---------


    C	     G
В двух шагах от Земли 
 F      Fm
Догорали огни.
    C	       G
В двух пустых городах,
   F          Fm
В небесах.

  C	 G
Море причин
   F          Fm
Зачем осколки берегут?
  C	G
Выход один, -
    F                        Fm
Когда по звездам бьет салют.

	    C   G   F   Fm
Прощай, Берлин.
Прощай, Берлин.


В 2 часах 
Между строк
Киллометры дорог.
В 2 словах от любви
Замерли.

Море причин.
Стена рассыпется на части.
Выход один, -
Когда весь мир оглох от счастья.

Прощай, Берлин.
Прощай, Берлин.
Вверх

Революция

Am
Бросай кости рядом со мной,
Смотри - догорают одна за одной
  G              C    Em
Хрустальные капли на наших глазах.

Мир тесен, гриф как цевьё.
Вырез по телу, но режет плечо.
Такая свобода скрипит на зубах.

	Припев:

	 C       E
	Высекает искры,
	 Am          F
	Держит у виска,
	       C         E    Am
	На-на-на, на-на-на...

	Не оставит чистым,
	Мажет чёрная
	Революция.

Брат Че вышел в тираж,
Но кто-то хочет узнать ещё раз
Как рушится небо над головой.

Две тысячи лет ночь за бортом,
Самое время спросить - что потом?
Последнее слово теперь за тобой.

	Припев.

// Революция - она похожа на женщину, которая даст тебе
// самое большое счастье на свете, но на утро убьёт тебя.
// Именно поэтому не будет в мире больше революций, потому что
// не осталось у этой женщины женихов.

Трест лопнул, тронулся лёд,
Любая попытка - переворот.
И нас так легко теперь можно купить.

Дожить до свадьбы, дотянуть до земли,
Рвать когти или роз лепестки.
Я знаю - ты сможешь всё изменить.

	Припев.
Вверх

Сердце

Solo:
1|---------------------------------5-5-----7-7----------|
2|-6-6-5-5---------6-6-5-5------------------------------|
3|---------7-7-5-5---------7-7-5-5-----5-5-----5-5-7-9--|
4|------------------------------------------------------|
5|------------------------------------------------------|
6|------------------------------------------------------|

1|-5-8-----10-7-8-5-5-8------10-7-8-5-5-7-10-12---------|
2|-----6-5--------------6-5---------------------6-5-----|
3|------------------------------------------------------|
4|------------------------------------------------------|
5|------------------------------------------------------|
6|------------------------------------------------------|

Intro:    Am     F    C    C/H  Am

          Am   F
Из всех причин
          Am   F
Одна причина
          G
Что ты ушла
F             Am     F
С другим мужчиной
        Am      F
И где покой
        Am      F
Невозмутимо
       G      F
Чужой женой
           Am
Проходишь мимо

Bridge.

C    Dm     Am
И где же они
Dm       G
Чары любви
    F
Зачем

Припев:
         Am                Am/C    Am    Am/C    Am
   Ты разбиваешь мое сердце
         G               F
   Мы никогда не будем вместе

Figure/Coda:   Am  G  F - 2 раза

К чему стихи
Я погибаю
И ничего
Не понимаю
Хороших нет
Воспоминаний
Таков сюжет
Моих страданий

Bridge.

Припев.

Вверх

Серебро

     Am(V)          F(I)         Dm(V)              E(IV)
E|-------------\-------------/-------------\-------------------|
B|---------5---\---------1---/---------6---\---------5---------|
G|-------5-----\-------2-----/-------7-----\-------4-----------|
D|-----7-------\-----3-------/-----7-------\-----6-------------|
A|---7---------\---3---------/---5---------\---7---------------|
E|-------------\-------------/-------------\-------------------|


      Am(V)         F(I)          Dm(V)             E(IV)
E|-------------\-------------/-------------\-------------------|
B|-------5-----\-------1-----/-------6-----\-------5-----------|
G|-------5-----\-------2-----/-------7-----\-------4-----------|
D|-----7-------\-----3-------/-----7-------\-----6-------------|
A|---7---------\---3---------/---5---------\---7---------------|
E|-------------\-------------/-------------\-------------------|

1.    Я не вернусь                         так      говорил

     Am(V)           F(I)         Dm(V)             E(IV)
E|-------------\-------------/---------------\-----------------|
B|-------5-----\-------1-----/--------6------\-------5---------|
G|-------5-----\-------2-----/--------7------\-------4---------|
D|-----7-------\-----3-------/------7--------\-----6-----------|
A|---7---------\---3---------/----5----------\---7-------------|
E|-------------\-------------/---------------\-----------------|
                 Когда-то    и туман      глотал мои  слова

   Am(V)       F(I)        Dm(V)       E(IV)
E|-----------\-----------/-----------\-----------|
B|------5----\------1----/------6----\------5-5--|
G|------5----\------2----/------7----\------4-4--|
D|----7------\----3------/----7------\----6------|
A|--7--------\--3--------/--5--------\--7--------|
E|-----------\-----------/-----------\-----------|
                  И превращал     их    в    воду.

   Am(V)       F(I)        Dm(V)       E(IV)
E|-----------\-----------/-----------\-----------|
B|------5----\------1----/------6----\------5----|
G|------5----\------2----/------7----\------4----|
D|----7------\----3------/----7------\----6------|
A|--7--------\--3--------/--5--------\--7--------|
E|-----------\-----------/-----------\-----------|

       Я всё отдам    за    продолжение

   Am(V)       F(I)        Dm(V)       E(IV)
E|-----------\-----------/-----------\-----------|
B|------5----\------1----/------6----\------5----|
G|------5----\------2----/------7----\------4----|
D|----7------\----3------/----7------\----6------|
A|--7--------\--3--------/--5--------\--7--------|
E|-----------\-----------/-----------\-----------|

       Пути оставлю позади    свою   беспечную

   Am(V)       F(I)        Dm(V)       E(IV)
E|-----------\-----------/-----------\-----------|
B|------5----\------1----/------6----\------5----|
G|------5----\------2----/------7----\------4----|
D|----7------\----3------/----7------\----6------|
A|--7--------\--3--------/--5--------\--7--------|
E|-----------\-----------/-----------\-----------|
                 Свободу.
  Припев:
   Dm(V)      E(IV)     Am(V)      F(I)      Dm(V)     E(IV)
E|---------\---------/---------\----------/---------\----------|
B|-----6-6-\-----5-5-/-----5-5-\-----1-1--/-----6-6-\-----5-5--|
G|-----7-7-\-----4-4-/-----5-5-\-----2-2--/-----7-7-\-----4-4--|
D|---7-----\---6-----/---7-----\---3------/---7-----\---6------|
A|-5-------\-7-------/-7-------\-3--------/-5-------\-7--------|
E|---------\---------/---------\----------/---------\----------|
 Не потерять  бы в серебре   её    одну     за___ве____тн__у_ю.

(Второй куплет по анологии см. строчки)
2.Не по себе от этой тихой
И чужой зимы, с которой я на ты
Нам не стерпеть друг друга

И до войны
Мне не добраться никогда
Моя безумная звезда ведет меня
По кругу

Припев:

solo:

E|-5h7-8-7-5у7р5-------------------10\-12\--15-13-12h13р12-10--|
B|--------------6--5h6-8-6-5h6р5-------------------------------|
G|-------------------------------7-----------------------------|

E|-/10-10-10-12\--------/7-7-7-5\--/77\-15-13-12h13р12-10/-----|
B|-/10-10-10-12\--------/7-7-7-5\--/55\------------------------|
G|-/-----------\--------/-------\--/--\------------------------|

E|-/19-19-19-19-19--17-\12-12-12-12-13-12-10---/7-7-7-7-5\-----|
B|---------------------------------------------/7-7-7-7-5\-----|
G|---------------------------------------------/---------\-----|

E|--/10-10-10-10-12\--|
B|--/10-10-10-10-12\--|
G|--/--------------\--|

                 Am(V)       F(I)        Dm(V)       E(IV)
E|-----------\-----------/-----------\-----------|
B|------5----\------1----/------6----\------5----|
G|------5----\------2----/------7----\------4----|
D|----7------\----3------/----7------\----6------|
A|--7--------\--3--------/--5--------\--7--------|
E|-----------\-----------/-----------\-----------|

3.А в облаках        застыл луны неверный

                 Am(V)       F(I)        Dm(V)       E(IV)
E|-----------\-----------/-----------\-----------|
B|------5----\------1----/------6----\------5----|
G|------5----\------2----/------7----\------4----|
D|----7------\----3------/----7------\----6------|
A|--7--------\--3--------/--5--------\--7--------|
E|-----------\-----------/-----------\-----------|

 Свет и в нем         перемешались города

   Am(V)       F(I)        Dm(V)       E(IV)
E|-----------\-----------/-----------\-----------|
B|------5----\------1----/------6----\------5----|
G|------5----\------2----/------7----\------4----|
D|----7------\----3------/----7------\----6------|
A|--7--------\--3--------/--5--------\--7--------|
E|-----------\-----------/-----------\-----------|

 И      я                зову       её не_____

   Am(V)       F(I)        Dm(V)       E(IV)
E|-----------\-----------/-----------\-----------|
B|------5----\------1----/------6----\------5----|
G|------5----\------2----/------7----\------4----|
D|----7------\----3------/----7------\----6------|
A|--7--------\--3--------/--5--------\--7--------|
E|-----------\-----------/-----------\-----------|
               __смело.



Соло полностью

E|------------0------------------------0-------------------0---|
B|---3-0-1--1-----/6-6-6-5--------1--1------/6-6-6-5-1-3-1-----|
G|--------------2----------7-5-4---------2-------------------2-|
D|-2-----------------------------------------------------------|
A|-------------------------------------------------------------|
E|-------------------------------------------------------------|


E|------------|
B|--/6-6-6-5--|
G|------------|
D|------------|
A|------------|
E|------------|


E|--5h7-8-7-5h7р5--------------------10~-12~-15-13-12h13р12-10-|
B|---------------6--5h6-8-6-5h6р5------------------------------|
G|--------------------------------7----------------------------|
D|-------------------------------------------------------------|
A|-------------------------------------------------------------|
E|-------------------------------------------------------------|


E|--/10-10-10-12-------------------------15-13-12h13р12-10-----|
B|----------------/10-10-10-12~~~---10/------------------------|
G|-------------------------------------------------------------|
D|-------------------------------------------------------------|
A|-------------------------------------------------------------|
E|-------------------------------------------------------------|

E|-/19-19-19-19-19--17--/12-12-12-12-13-12-10--/10-10-10-10/12-|
B|-------------------------------------------------------------|
G|-------------------------------------------------------------|
D|-------------------------------------------------------------|
A|-------------------------------------------------------------|
E|-------------------------------------------------------------|

E|-------------------|
B|--/10-10-10-10/12--|
G|-------------------|
D|-------------------|
A|-------------------|
E|-------------------|
Вверх

Серебро

e-5-7-8-7-5^7^5---5^7^5---0-1-3-1-0^1^0---------------------3-1-0^1^0---------
h-------0-------6---------------3-------3--------b3---b5------0-------3---3-3-
g---------------5-----------------2------4^5^4--------------------------1-----
D---------7-------------------0---------2-----------5----6--0---------2-----2-
A-----0----------------------------------------2--5----7----------------------
E-----------------------------------------------------------------------------

e------------------------------------5-5--3-1-0^1^0---7-7-7-7-8-7-5------------
h-3-3----------------------------5-5--------0-------3---------------5-5-5-5-6-5
g-------------2-2-2-2/4-4--5-5-5-----------------------------------------------
D-0-0-1/2-2-2-----------------------------0---------2-------------7------------
A---------------2--------------0----------------------------0-------------0----
E-----------------------0------------------------------------------------------

e-----------------5-5-5-5/7---
h-3---3-3-3-3/5-5-------------
g---1-------------------------
D-2-------0---2-------0-------
A-------------------------0---
E-----------------------------

Вверх

Серебро

1 куплет:
            Am   F	
  "Я не вернусь" -
 Dm        Em	  Am  
  Так говорил когда-то,
       F  Dm       Em     Am
  И туман  глотал мои слова
           F          Dm  Em
  И превращал их в воду.
           Am   F             
  Я всё отдам  
 Dm         Em      Am
  За продолжение пути,
           F   Dm         Em        Am   F Dm Em 
  Оставлю позади свою беспечную свободу.


Припев:
 Dm      Em             Am   
  Не потерять бы в серебре
        F
  Её одну - 
     Dm  Em 
  Заветную.


Проигрыш 1:

  e--7-12-7-8--8-12-5---13-13-13-12-10-8-7-8--8-12-5-
 
  e--13-13-13-12-0-10-7-8--8-12-5---13-13-13-12-10-8-7-8--8-12-5-

  e--13-13-13-12-

            Не по себе  
 И далее: e--0-10-7-Am    (т.е. не - 0, по - 10, се - 7, бе-Am)



2 куплет:
           Am  F
  Не по себе
 Dm        Em        Am    F  
  От этой тихой и чужой зимы,
 Dm         Em     Am  
  С которой я на "ты" -
              F          Dm Em
  Нам не стерпеть друг друга.
           Am  F
  И до войны
 Dm          Em          Am  
  Мне не добраться никогда,
         F          Dm         Em     Am    F Dm Em
  Моя безумная звезда ведёт меня по кругу



Припев.

Проигрыш 2:

   e--5-7-8-7-5^7^5-----------------------
   h----------------6-----5-6-8-6-5^6^5---
   g------------------------------------7-

   e--10--12-----15-13--12^13^12--10----
   h--------------------------------------
   g--------------------------------------

   e--5~10-10---12---3~5-5--7-----8-8-8--
   h--------------------------------------
   g---------------------0----------------

   e--15-13--12^13^12--10------------------
   h---------------------------------------
   g---------------------------------------

   e--10~19-19-19-19-19-19-17---8~12-12-12-13-12-10-
   h------------------------------------------------
   g------------------------------------------------

   e--5~10-10-10--12--3~5-5-5--7-
   h-----------------------------
   g-----------------------------


3 куплет:
           Am    F
  А в облаках 
 Dm         Em           Am       F
  Застыл луны неверный свет, и в нём
 Dm      Em         Am   F 
  Перемешались города, и я
 Dm     Em    Am   F Dm Em 
  Зову её несмело.


Припев.

Окончание:

  e--7-12-7-8--8-12-5---13-13-13-12-10-8-7-8--8-12-5-

  e--13-13-13-12-0-10-7-8--8-12-5---13-13-13-12-10-8-7-8--8-12-5-

  e--13-13-13-12-0-10-7-8--8-12-5---13-13-13-12-10-8-7-8--8-12-5-

  e--13-13-13-12-0-10-7-8--8-12-5---13-13-13-12-10-8-7-8--8-12-5- 

  (и возможно ещё несколько раз)
Вверх

Серебро (2 вариант)

Solo:
H---------5-------6--6--6--5-----------------------5---------6--6--6--5---------
G--5--5-------------------------7--5--4-----4/5--5---------------------------7--
D-------------7-------------------------------------------7---------------------

Chords:
Am  F  Dm  E

E-----------------0-----------------1-------1---1---1-----0--------------------
H----1-------1--------------------------------------------------3----1----0----
G--------2-------------2-------3------------------------------------------------
D---------------------------3-----------0-------0---------2----------2----0----
A----0----------------------------------------------------------2---------------
E-----------------------1-------------------------------------------------------

E-----------------0-----------------1-------1---1---1-----0------
H----1-------1--------------------------------------------------3-
G--------2-------------2-------3----------------------------------
D---------------------------3-----------0-------0---------2-------
A----0----------------------------------------------------------2--
E-----------------------1-------------------------------------------

Перебор со "скрипом":
1ая(бас),2ая(бас),3я(бас),затем 4ую,5ую и 6ую-вместе
Аккорды:
Ам берется как Gm,но на 5ом ладу
Dm берется как Hm,но тоже на 5ом и со средним пальцем на 4ой струне 6ого лада
F и Em играются "в оригинале"

Am | F | Dm | E
Я не вернусь
Так говорил когда-то
И туман глотал мои слова
И превращал их в воду
Я всё отдам за продолжение пути
Оставлю позади
Свою беспечную свободу

Припев:
Dm | E | Am | F
Не потерять бы в серебре
Её одну
Заветную

Не по себе
От этой тихой и чужой зимы
С которой я на ты
Нам не стерпеть друг друга
И до войны
Мне не добраться никогда
Моя безумная звезда
Ведет меня по кругу

Припев.

А в облаках
Застыл луны неверный свет
И в нем перемешались города и я
Зову её несмело

Припев
Вверх

Сокол mp3

Вступление:
    Fm                  G#    Hm                   C#
1|-------------5------------------------------4--------|
2|---2---1-2----2---1-2-1-----0-2---0---0-0-2-3----2---| - 2 р.
3|-----------------------1--------------------------1--|

Fm                          G#
Все  объяснит в последний момент,
Hm                       C#
Брызги страстей прежние роли
Fm                        G#
Сердце в петле шифрованных лент
Hm                   C#
Тайной любви выдаст пароли

Hm                             Fm
Завтра не будет а ночь только повод
Hm                         Fm   C#
Скрыть позади этих глаз холод

Fm                     G#
Сокол не вышел на связь, что-то с тобой приключилось
Hm                        C#
Может ты просто меня разлюбила
Fm
Сокол не вышел на связь,
G#
Смелым - секретное средство,
Hm                        C#
Способ остаться в живых - бегство

Воздух молчит, немая вода
Бьются о пристань радиоволны
Память в узлах, ведут провода
Следом на верную гибель шпиона

Завтра не будет, а ночь только повод
Скрыть позади этих глаз холод
Вверх

С тобой

Em
Мы вышли из дома
Когда рассвело
И ты рассказала
Как мне повезло
     Am
С тобой
Em
С тобой

   Em
На улице стоит
Прекрасная погода
И было все равно
Какое время года
     Am
С тобой
Em
С тобой


Припев:
   H   A              Em
   Я и ты просто прекраснo
   H   A          Em
   Ты и я тоже ничего

Ты просто находка
Таких поискать
И каждый четвертый
Захочет гулять
С тобой
С тобой

И это не важно
Куда нам идти
Побродим походим
Часов до шести
С тобой
С тобой

Припев.

Пусть пусто в карманах
И что-то не так
Пусть утро туманно
Но это пустяк
С тобой
С тобой

Мы вышли из дома
Когда рассвело
И ты рассказала
Как мне повезло
С тобой
С тобой

Припев.

Проигрыш на скрипке (в ранней версии):
   Em                                 Am            Em
1 --7-5-3--3-3-2-0-2-3--3---3-5-3-2-0-3---------------
2 ------------------0---------------1----1-3-1-0--0---
3 -----------------------------------------------2----
4 --------------------------------------------------2-

Бас:
   Em                          Am
3 -------0-0-----0-0-       2 ------1-1----1-1-
4 ---2-2------------- - 4р. 3 --2-2------------ 2р.
5 ----------2-2------       4 --------2-2------
Вверх

Счастье

Intro: Gm   Gm/G#  Gm/D#  D - 2 раза

Gm
Если огонь пепел
Gm7
Тень это часть света
Cm        Cm6  Cm7  Gm9  Gm
Счастье мое где ты
Только в руках ветер
Был а теперь нету
Счастье мое где ты

Bridge:  D#  F  Gm7 (3 раза)
         Cm  D# D

И как хрусталь слезы
Если не ты кто же
Песню допеть сможет
Бьется в окно ветер
Ночь как конец света
Счастье мое где ты

И за тобой следом
Где никогда не был
Между землей и небом
Бьется в окно ветер
Ночь как конец света
Счастье мое где ты

Coda (ad finitum):         Gm9 Gm
                     Моё счастье - 2 раза
                           Cm  F#/D
Вверх

Феллини

Рифф1(Гитара1):
1-й вариант - оригинальный:
 5|-5-5-5/-5-|-5-5-5/-5-|-5-5-5/---|----------|
 6|----------|----------|--------5-|-5-5-5/-0-|
2-й вариант - концертный:
 5|-0-5-5-5/-|-0-5-5-5/-|-0-5-5-5/-|----------|
 6|----------|----------|----------|-0-5-5-5/-|


Рифф1
В одном из не снятых фильмов Фредерика Феллини
На тоненькой льдине в бокале мартини
Соло1(Гитара2):
         x3
 1|---------|-5-5-5---|
 2|-6---6-5-|-------5-|
 3|---7-----|---------|

Герой на героине, Героиня на героине,
И двойная сплошная пролегла между ними.

Рифф1
Между ними, секунду назад было жарко,
А теперь между ними лежат снега Килиманджаро.
Патроны в магазине, глазами на визине,
И отравленный воздух глотают так жадно.

Припев:
 4|-7-|
 5|-5-|
  Зря...
Рифф2(Гитара1):
 4|-7-7-7-7-7-7-7-7-7-7-7-7---------|
 5|-5-5-5-5-5-5-5-5-5-5-5-5-7-7-7-7-|
 6|-------------------------5-5-5-5-|
  Рифф2
  Зря ты думаешь о смерти,
  Я хочу найти письмо в пустом конверте
  Соло2(Гитара2)
  1|---------------------------------------|
  2|---------------------------------------|
  3|----7-7-7-77/9-9-9-99/10-10-10-1010/14-|
  И прочесть                            тебе
        -=(Припев играется 2 раза)=-

Соло3(Гитара2):
 1|-5-------|-5-5h6-5-|
 2|-----5---|---------| x4
 3|---7-----|---------|
Рифф3(Гитара1):
 5|-5-5-5/-5-|-5-5-5/---|----------|--------5-| x4
 6|----------|--------5-|-5-5-5/-5-|-5-5-5/---|
/*Соло3 играется под Рифф3*/


...

Гитара3:
Зажимаем на 5-м ладу баре и играем по всей песне:

  Dm      Dm/C    D9/5+   A
1|-5-------5-------8-------5-------|
2|-6-------6-------5-------5-------|
3|-7-------7-------7-------6-------|
4|-7-------7-------7-------7-------|
5|-5-------5-------5-------7-------|
6|-5-------8-------6-------5-------|
Вверх

Феллини (2 вариант)

   D5   F5   D5   F5   D5   F5   A5   C5
G|-7-7-/10-7-7-7-/10-7-7-7-/10-------------|
D|-7-7-/10-7-7-7-/10-7-7-7-/10-7-7-7-/10---|
A|-5-5-/8- 5-5-5-/8- 5-5-5-/8--7-7-7-/10---|
E|-----------------------------5-5-5-/8- 0-|

     D5        D5    D5        A5        D5    D5 D5 D5 A5
В одном из неснятых фильмов Федерико Феллини,
    D5          D5    D5       A5         D5    D5 D5 D5 A5
На тоненькой льдине,        в бокале "Мартини".
  D5     D5  D5 A5     D5       D5  D5 A5
Герой на героине,     героиня на героине,
   D5       D5   D5  A5            D5  D5 D5 D5 A5
И двойная сплошная пролегла между ними.

Между ними секунду назад было жарко,
А теперь между ними лежат снега Килиманджаро.
Патроны в магазине, глазами на резине,
И отравленный воздух глотают так жадно.
                                    Зря...
Припев: (x2)
    D5                A5
   Зря ты думаешь о смерти.
    D5                              A5
   Я хочу найти письмо в пустом конверте
          D5 E5 F5  G5
       G|-7-/9-/10-/12-|
       D|-7-/9-/10-/12-|       или       G|-7-/9-/10-/12-|
       A|-5-/7-/8--/10-|   то же самое
       E|--------------| на одной струне
   И прочесть        тебе.

Rhythm Melody/Solo: D5 D5 A5 A5

E|-5-5-6-5----------|
B|---------3-/5-/6--|

В одном из неснятых фильмов Федерико Феллини
Лежат снега Килиманджаро.
Герой на героине, героиня на героине,
И отравленный воздух глотают так жадно.

Припев. (х2)
Вверх

Феллини (3 вариант)

Проигрыш:
1|-------------------------------------------------|
2|-3-------------3--------------3----1----------3--|
3|---------------------------------------3---2-----|
4|-0--------------0--------------0--------------0--|
5|-----3---1---0------3---1---0------3---1---0-----|
6|-------------------------------------------------|

    Dm      C      Bb       A      A*
1|------------------------------------|
2|--3-------1----------------------2--|
3|------------------3-------2---------|
4|--0------------------------------2--|
5|----------3-------1-------0---------|
6|------------------------------------|

 А вот второй куплет играется немного по другому:
 Первые две строки:

    Dm      C      Bb       A      A*
1|----1-------0-----------------------|
2|--3-------1---------3------------2--|
3|------------------3-------2---------|
4|--0------------------------------2--|
5|----------3-------1-------0---------|
6|------------------------------------|

Вторые две строки так:

    Dm      C      Bb       A      A*
1|--1-------0----------------------0--|
2|--3-------1-------1-------2------2--|
3|------------------3-------2---------|
4|--0------------------------------2--|
5|----------3-------1-------0---------|
6|------------------------------------|

Припев играется так (каждый аккорд только 1 раз):

    Dm       C       Bb     A     A*
1|--1-1-----0-0-------------------0---|
2|--3-3-----1-1-----3-3-----2-----2---|
3|------------------3-3-----2---------|
4|--0-----------------------------2---|
5|----------3-------1-------0---------|
6|------------------------------------|

Dm         C        Bb      A     A* Dm     C Bb A A*
В одном из неснятых фильмов Федерико Феллини
 Dm           C    Bb A A* Dm    C     Bb A A*
На тоненькой льдине    в бокале мартини
 Dm    C   Bb  A A*  Dm      C   Bb  A A* Dm
Герой на героине,   Героиня на героине
  C       Bb       A    A*   Dm     C  Bb A A*
И двойная сплошная пролегла между ними

Между ними секунду назад было жарко
А теперь между ними лежат снега Килиманджаро
Патроны в магазине, глазами на визине
И отравленный воздух глотают так жадно

Припев(x3):

Dm      C  B    A    A*
Зря ты думаешь о смерти
Dm      C     B               A   A*
Я хочу найти письмо в пустом конверте
Dm        C Bb A  A*
И прочесть    тебе

потом играется как в первом куплете
Вверх

Шер mp3

Am
Я все забыл, я пил расплавленный винил,
Am
И видел сам, как звезды падали к ногам.
Am                     H
И опускалось небо, и скалилось когда,
C                  D
Рубашками блестели злые племена
Am                      H
Вокзальные сцепились и прятали глаза,
C                      D
И выпускали когти за крошки со стола.

G
О-о драма, кошки драной,
E
От меня так близко, умирает диско,
Am
Кто против шер - 2 р.

Ни он, ни я,
Не мог бы выдержать и дня, и за тебя,
Мне не спокойно до конца.
Движения простые, рваные хвосты,
Свирепой дискотеки правила одни
Теперь, когда их много, решиться нелегко,
И собирались тени все на одного.

О-о драма, кошки драной,
От меня так близко, умирает диско,
Кто против шер... сти!
Вверх
English songs 109

ABBA
AC-DC
Adams Bryan
Adriano Celentano
Aerosmith
A-Ha
Animals
Antonio Banderos
Apocalyptica
Armstrong Louis
Billy's Band
Bjork
Blink 182
Blondie
Blur
Bob Dylan
Boney M
Bon Jovi
Bowie David
Brainstorm
Braxton Toni
Butch
Celine Dion
Chris De Burgh
Chris Isaak
Chuck Berry
Clapton Eric
Cohen Leonard
Cranberries
Deep Purple
Depeche Mode
Dire Straits
Donovan Jason
Eagles
Electric Light Orchestra
Elton John
Elvis Presley
Era
Europe
Evanescence
Garbage
Gary Moore
Glen Wiston
Gorillaz
Green Day
Guano Apes
Guns N Roses
Hendrix Jimi
Iggy Pop
Iron Maiden
Joe Dassin
Kansas
King Crimson
Kiss
Led Zeppelin
Leonard Cohen
Limp Bizkit
Linkin Park
Louis Amstrong
Madonna
Marilyn Manson
Marley Bob
Metallica
Moby
Morricone Ennio
Muse
Nazareth
Nelly Furtado
Nick Cave
Nirvana
No Doubt
Oasis
Offspring
Ottawan
Outkast
Ozzy Osbourne
Pain
Para Bellum
Pink Floyd
Placebo
P.O.D.
Queen
RadioHead
Rainbow
Rammstein
Rea Chris
Red Hot Chili Peppers
Ritchie Blackmore
Rolling Stones
Roxette
Rufus Wainwright
Santana
Sarah Brightman
Scorpions
Sex Pistols
Simon & Garfunkel
Shocking Blue
Soul Asylumx
Status Quo
Sting
System of a down
Sum 41
The Beatles
The Doors
Tito & Tarantula
U2
UB 40
Uriah Heep
Van Halen

Українські пісні 109

Boom Box
Escape
Flit
Kapela Drewutnia
Lama
LЮK
Mad Heads (XL)
Motor' rolla
NEON
Ot Vinta
The Вйо
Абздольц
Аероплан
Акорд
Ані Лорак
Бандурна розмова
Білик Ірина
Борщ
Брати Гадюкіни
Вася Club
Вій
Воплі Відоплясова
Гайдамаки
Гончар Олесь
Гринжоли
Гроно
Гуляйгород
Дарка і Славко
Дивні
Друга Ріка
Другий подих
Дударик
Експампей
Євтушенко Андрій
Жарівка (Дяк Олесь)
Журбовіз
Зібров Павло
Зінкевич Василь
Злотник Олександр
Івасюк Володимир
Калєкція
Карна
Карпа Ірена
Клямка
Козловський Віталій
Кому вниз
Крихітка Цахес
Курінь
Лесик-Band
Лорд Юрія
Львівські музики
Мандри
Менестрелі
Мері
Мертвий Півень
Міпеніум
Монте Крісто
Морозов Віктор
Нахтіґаль
Не журись!
Неборак Віктор
НеДІля
НЕМО
Нічлава блюз
Океан Ельзи
ПереBANDя
Перкалаба
Петрович
Піккардійська Терція
Піпа Олександр
Плач Єремїі
Пономарьов Олександр
Пророк
Росава
Ротару Софія
Руслана
Рутенія
С.К.А.Й.
САД
Самі свої
Серцевий Напад
Скрябін
Смерічка
Сокира Перука
Соколи
Таліта Кум
Тартак
Тінь сонця
Ткач Михайло
ТНМК
Тостер
Тріо Мареничів
Фарбований лис
Фестиваль Снів
Хвилю тримай
Цісик Квітка
Черемош
Черемшина
Четвертий кут
Чорний вересень
Чорні черешні
Шевченко Тарас
Щастя
Юркеш
Юрченко Юрко
Юрчишин Ярослав
Явір
Яка існуЄ
Яремчук Назарій

   
 sait@i.ua



Рейтинг@Mail.ru