accordS-land.ru Аккорды и табулатуры к гитаре.
Главная | Песенник | Аккорды | Учебник
Руссике песни 180
5nizza
7Б
9-й Район
Animal ДжаZ
Billy's Band
Butch
Para Bellum
TequilaJazzz
Worms
Zdob Si Zdub
Автоматические удовлетворители
Агата Кристи
Агузарова Жанна
Агутин Леонид
Адо
Аквариум
Алиса
Алсу
Амирамов Е.
Антонов Ю.
Арефьева Ольга
Ария
АукцЫон
Барыкин
Башаков Михаил
Башлачев Александр
БекХан
Бернес М.
Би - 2
Бони неМ
Борзов Найк
Боярский Михаил
Браво
Братья Грим
Ва-Банкъ
Вертинский Александр
Визбор Юрий
Високосный год
Воскресенье
Восьмая Марта
Высоцкий В.С.
Високосный год
Газманов О.
Галич Александр
Герман А.
Городницкий Александр
Глызин А.
Градский Александр
Гражданская Оборона
Гребещенков
Данко
ДДТ
Дидюля
Диоды
Дискотека Авария
Дягилева Янка
Ёлка
Жуки
Заблудовский Андрей
Запрещенные Барабанщики
Звери
Земляне
Земфира
Зинчук Виктор
Зоопарк
Иван Кайф
Иванов А.
Иваси
ИЗ КИНО И МУЛЬТФИЛЬМОВ
Империя
Калинов мост
Кашин Павел
Кельми К.
КИНО
Кипелов
Конец Фильма
Контингент
Корни
Король и Шут
Коррозия металла
Крематорий
Крупнов Анатолий
Кузьмин Владимир
Куликов Е.
Кукрыниксы
Курехин Сергей
Лаэртский Александр
Ласковый май
Ленинград
Леонидов Максим
Лесоповал
Лещенко Л.
Линда
Лицей
Лоза Юрий
Любэ
Люмен
Ляпис Трубецкой
Мальчишник
Манго-манго
Мара
Маркин В.
Маршал Александр
Маша и медведи
Машина времени
Мечтать
Мистер Кредо
Митяев Олег
Многоточье
Монгол Шуудан
Моральный Кодекс
Мультfильмы
Мумий Тролль
Настя
Науменко Майк
Наутилус Помпилиус
Непара
Неприкасаемые
Несчастный случай
Никоваев И.
Никольский Константин
Ногу свело
Ноль
Носков Николай
Ночные Снайперы
Окуджава Булат
Оркрист
Осин Е.
Оскар
Отиева И.
Паперный Т.А.М.
Парк Горького (Gorky Park)
Пикник
Пилот
Пламя
Полковник и однополчане
Пугачева А.
ПЭХ
Приключения Электроников
Просто прикольные песни
Рада и Терновник
Римский-Корсаков
Розенбаум Александр
Рок-Острова
Рондо
Сансара
Саруханов
Сегодня Ночью
Секрет
Сектор газа
Сенчина Л.
СерьГа
Смысловые Галлюцинации
Сплин
Солодуха А.
Старые блатные песни
Сукачев Гарик
Сурганова и Оркестр
Сюткин Валерий
Тальков Игорь
Танцы минус
Тараканы
Тату
Технология
УмаТурман
Умка и Броневичок
Ундервудъ
Фабрика звезд
Х.З. (Хуй Забей)
Центр
ЧайФ
Черный кофе
Черный Лукич
Чиж и Ко
Чистяков Федор
Шанхай
Щербаков Михаил
Ю-Питер

Классика 22

Албениз Исаак
Албениз Матео
Бах Иоган Себостьян
Бетховен Людвиг ван
Бизе Жорж
Брамс Иоганнес
Вивальди Антонио
Гендель Георг Фридрих
Гершвин Джордж
Григ Эдвард
Дебюсси Клод
Камиль Сен-Санс
Мендельсон
Моцарт Вольфгант Амадей
Мусоргский Модест Пертрович
Норис Крис
Огинский Михал Клеофас
Паганини Никколо
Рахманинов Сергей Васильевич
Римский-Корсаков
Чайковский Пётр Ильич
Шуберт Франц
 

Ленинград

007
Money
Super Good
Super Good (2 вариант)
WWW
WWW (2 вариант)
XXX
Айседора
Алкоголик
Амстердам
Бабу буду!
Батарея
Без тебя
Блюз
Бляди
Будем веселиться
Витебский вокзал
В клубе модном
В клубе модном (2 вариант)
Всё это рэйв
Всё это рэйв (2 вариант)
Геленджик
Группа крови
Давай-давай
Давай джазу
Дайте бананов!
Дачники
Девушка с понятием
Деньги (Money)
День рожденья
Дикий мужчина
Дорога на Москву
Дороги
Ду ю лав ми
Ду ю лав ми (2 вариант)
Звезда рок-н-ролла
Звезда рок-н-ролла (2 вариант)
Звёзды и луна
Звуковое письмо
Звуковое письмо (2 вариант)
Зенит
Зенит (2 вариант)
Злые пули
Инструментал
Когда NET денег
Когда NET денег (2 вариант)
Колбаса-любовь
Колбаса-любовь (2 вариант)
Колокола
Комон эврибади
Контакт
Космос
Ласточка
Лёля
Люба
Любовь
Люди не летают
Маленький мальчик
Мама, наливай!
Мама, наливай! (2 вариант)
Матросы
Менеджер
Миллион алых роз
Мне бы в небо
Мне бы в небо (2 вариант)
Мне бы в небо (3 вариант)
Мобильник
Мои хуевые сны
Молодость
Не слышны в саду
Не со мной
Не со мной (2 вариант)
Никого не жалко
Новый год
Новый Год 2000
Ну, погоди
Однажды
Отмычка
Папа Был Прав
Парнишка
Пидарасы
Письма
Привет, Джимми Хендрикс!
Прогноз погоды
Прогноз погоды (2 вариант)
Пуля
Разбитое сердце
Разбитое сердце (2 вариант)
Резиновый мужик
Руки из карманов
Руки из карманов (2 вариант)
Света
Свобода
Свободная
Свободная (2 вариант)
СКА
Собака Баскервилей
Столько не поют
Стоп-машина
Страдаю
Страдаю (2 вариант)
Таблетка
Танго (Я так люблю тебя)
Танцы
Таня
Терминатор
Только с тобой
У меня есть всё
Французская помада
Хип-Хоп
Хуй в пальто
Хуямба
Хуячь
Шоу-бизнес
Шоу-бизнес (2 вариант)
Эх раз, еще раз
Эх раз, еще раз (2 вариант)
Я и.о. Б.Г.
Я - твой ковбой
Вверх

007

Intro:

1||-----0-----------0----||
2||---1----4-----4--1----||
3||-2---------------2----||
4||-----------------2----||
5||-----------------0----||
6||----------------------||

Это всё обыгровки мизинцем Am

1||--5--7-7-7--7--5-5-5--5---8-8-8--8---7--7--7--||
2||--5--5-5-5--5--5-5-5--5---5-5-5--5---5--5--5--||
3||--5--5-5-5--5--5-5-5--5---5-5-5--5---5--5--5--||    2 раза
4||--7--7-7-7--7--7-7-7--7---7-7-7--7---7--7--7--||
5||----------------------------------------------||
6||----------------------------------------------||

                            *
1||--5-/--8----/---12--11---11-11-11-11----11-/-12---||
2||--5-/--10---/---13--12---12-12-12-12----12-/-13---||
3||--5-/--9----/---14--13---13-13-13-13----13-/-14---||
4||--7-/--10---/---14--13---13-13-13-13----13-/-14---||
5||--------------------------------------------------||
6||--------------------------------------------------||

Можно ещё играть другой вариант на квинтах,звучащий более
ритмично, но менее выразительно:

    A5 H5       A5          C5         H5
1||----------------------------------------------||
2||----------------------------------------------||
3||----------------------------------------------||    2 раза
4||--7--9-9-9--9--7-7-7--7---101010-10--9--9--9--||
5||--7--9-9-9--9--7-7-7--7---101010-10--9--9--9--||
6||--5--7-7-7--7--5-5-5--5---8-8-8--8---7--7--7--||

    A5   C5       E5  D#5  *                   E5
1||--------------------------------------------------||
2||--------------------------------------------------||
3||--------------------------------------------------||
4||--7-/--10---/---14--13---13-13-13-13----13-/-14---||
5||--7-/--10---/---14--13---13-13-13-13----13-/-14---||
6||--5-/--8----/---12--11---11-11-11-11----11-/-12---||

Am   Am6-  Am6            Am6-
Я пришел сегодня пьяный в жопу
Am    Am6-        Am6         Am6-
Ты сказала - твои нервы скоро лопнут
Dm    Dm6-         Dm6        Dm6-
Ты сказала, что не можешь со мной,
Am    Am6-        Am6       Am6-
Ты сказала: - Алкоголик больной.
Dm    Dm6-       Dm6     Dm6-
Ты сказала: - Ухожу насовсем!
         E7
А мне плевать - Уходи, я агент "007"

Я сегодня пьяный в жопу
Ты сказала - твои нервы лопнут
Ты сказала, что не любишь меня
Ты сказала - я похож на свинья
Ты сказала, что уходишь опять
А мне плевать -  уходи, у меня есть "0,5"

  Am6-
E|-0-|---|---|---|
B|-0-|---|---|---|
G|---|-0-|---|---|
D|---|-0-|---|---|
A|---|---|---|---|
E|---|---|---|---|
   I  II  III IV

  Am6
E|---|-0-|---|---|
B|-0-|---|---|---|
G|---|-0-|---|---|
D|---|-0-|---|---|
A|---|---|---|---|
E|---|---|---|---|
   I  II  III IV

  Dm6-
E|-0-|---|---|---|
B|---|---|-0-|---|
G|---|---|-0-|---|
D|---|---|---|---|
A|---|---|---|---|
E|---|---|---|---|
   I  II  III IV

  Dm6
E|-0-|---|---|---|
B|---|---|---|---|
G|---|-0-|---|---|
D|---|---|---|---|
A|---|---|---|---|
E|---|---|---|---|
   I  II  III IV
Вверх

Money mp3

  C#m             F#m    G#
Деньги бывают - такое бывает,
Такое бывает, но только не долго
Не храните деньги в сберегательных кассах
Там от них никакого толку

Припев:
     C#m                      F#m          G#
   О, money, money, money, money, money, money, money
     C#m               F#m       G#
   О, money, money, money на кармане
   И т. д., пока не надоест орать

Хорошо когда есть на кармане
Эти самые money - money
Когда бабки есть - тогда все путем,
Значит снова пьем, значит снова пьем

Припев.

Я скажу по секрету между нами
Самое главное – money - money
За них сегодня можно все купить
Их нужно тратить, а не копить

Припев.
Вверх

Super Good

  Am                  E
Друзья все валят за границу
             Am
А я наверно остаюсь
Смеюсь напьюсь если хуево
Жрать будет нечего женюсь
  Dm                  Am
Друзья все пишут как ты тут
  E                  Am
А я нормально, супер гуд

Припев:
     Am            E
   Супер супер супер гуд
   Я нормально супер гуд
   Супер супер супер гуд
   Все отлично супер гуд

И не куда я не поеду
Мне и в союзе хорошо
Везде мне стопочку нальют
В какой кабак я не зайду
Друзья все пишут ну как ты тут
А я нормально, супер гуд

Припев.
Вверх

Super Good (2 вариант)

Dm                    A(либо А7)
Друзья все валят за границу
            Dm
я наверное остаюсь
                    A
Смеюсь напьюсь если хуево
                   Dm
Жрать будет нечего женюсь
                     A
Друзья мне пишут как ты тут
                 Dm
я нормально супер гуд
Dm               A
Супер супер супер гуд
                 Dm
Я нормально супер гуд...

И никуда я не поеду
Мне и в Союзе хорошо
Везде мне стопочку нальют
в какой кабак Я б не зашел
Ведь все равно же все умрут
Без разници там или тут...
Вверх

WWW

Intro: Cm G

Cm Fm
Когда переехал - не помню,
G Cm
Наверное, был я бухой.
Мой адрес не дом и не улица,
Мой адрес сегодня такой:

Cm G
ВЭ-ВЭ-ВЭ ЛЕНИНГРАД ЭС-ПЭ-БЭ ТОЧКАРУ

Когда тормозит меня мусор,
Прописки, мол, нет никакой,
То я отвечаю спокойно:
Мой адрес сегодня такой:

ВЭ-ВЭ-ВЭ ЛЕНИНГРАД ЭС-ПЭ-БЭ ТОЧКАРУ

Когда напиваюсь я пьяный,
Тогда я мотор торможу:
"Давай, шеф, поехали к дому,
Дорогу сейчас покажу".

ВЭ-ВЭ-ВЭ ЛЕНИНГРАД ЭС-ПЭ-БЭ ТОЧКАРУ

Даёшь Интернет, блядь.

solo:
Cm G
4|---------3-3--1--------------------
5|--3-3-3------------------6-6--5----
6|------------------3-3-3------------
Вверх

WWW (2 вариант) mp3

Hm                   Em
Когда переехал - не помню,
F#                Hm
Наверное, был я бухой.
Мой адрес не дом и не улица,
Мой адрес сегодня такой:

Hm       Em        A        F#
ВЭ-ВЭ-ВЭ ЛЕНИНГРАД ЭС-ПЭ-БЭ ТОЧКАРУ

Когда тормозит меня мусор,
Прописки, мол, нет никакой,
То я отвечаю спокойно:
"Мой адрес сегодня такой:

ВЭ-ВЭ-ВЭ ЛЕНИНГРАД ЭС-ПЭ-БЭ ТОЧКАРУ

Когда напиваюсь я пьяный,
Тогда я мотор торможу:
"Давай, шеф, поехали к дому,
Дорогу сейчас покажу".

ВЭ-ВЭ-ВЭ ЛЕНИНГРАД ЭС-ПЭ-БЭ ТОЧКАРУ
Вверх

XXX

Сначала - Вступление
    /   + - /  /   + - /
E|--0---0-0-0--1---1-1-1---
B|--1---1-1-1--3---3-3-3---
G|--2---2-2-2--2---2-2-2---		4 раза
D|--2---2-2-2--0---0-0-0---
A|--0---0-0-0--0---0-0-0---
E|--0---0-0-0--------------
    Am         Dm

/ - аккорд надо глушить
+ - аккорд играется движением руки сверху вниз
- - аккорд играется движением руки снизу вверх

Вся песня поётся под этот рифф:
   Am          Dm
E|-1-1-0-1-0-1-3--1-5-3-1-0-

Хорошо, если будет 2 гитары, и одна играет рифф, а вторая -
аккорды. Аккорды я играю боем (обозначения сверху) : +/+-/-

Am			       Dm		       Am
Она мне постоянно говорит - помой ноги, у тебя воняют ноги
             Dm					  Am
Я обмыл уже ноги, блядь, у меня уже не ноги, а обмылки
Я хожу, а у меня стоп уже нет, потому что я постоянно их мою
А она, она мне говорит - у тебя они воняют
Ха, они воняют, конечно, да
Но воняет и твоя пизда, я иногда
Захожу в её спальню, а она сидит и срёт в горшок
А у неё, из-под ... из-под этой ёбаной её ночной рубашки
Торчит её ёбаная небритая пизда
Побрей пизду, сука!

Побрей пизду!!!	5 раз

Вступление 4 раза

А вчера я пришёл с работы, а она сидела на кухне и жралА
Она постоянно жрёт, она жрёт и срёт, больше ничего не делает
И я говорю - ну давай, надоело, понимаешь, я с работы
Снимаю штаны, пойдём поебёмся
Заходим в спальню, она снимает...
Мало того что у неё небритая пизда, у неё ещё небритые ноги!
Сука, я тебя ненавижу!
Побрей пизду, пизда!
Побрей пизду, пизда ёбаная на хуй,
Пиздец, блядь!!!	А-а-а-а-а!..
Вверх

Айседора mp3

Интро:
G|--------------------------------------------|
D|---------------------0----------------------|
A|-0-2-3--0-2-3-3-2-3----3-3-2--2-------------|
E|--------------------------------------------|

G|--------------------------------------------|
D|-----0------0-0---0--2-0-0------------------|
A|-2-3----2-3-----3----------3--3-------------|
E|--------------------------------------------| - 2 раза
Рифф играется также как интро :)

Am Dm [Филл]
О, Айседора кричите шоферу, чтоб ехал назад,
О, Айседора оставьте дома свой белый шарф,
О, Айседора куда вы спешите, куда не боитесь успеть,
О, Айседора сегодня вам лучше дома побыть посидеть.


[рифф]
О, Айседора.

О, Айседора кричите шоферу, что жал тормоза,
О, Айседора скорее, скорее быстрее назад,
О, Айседора побудьте дома, примите гостей,
О, Айседора трудно уйти от судьбы своей.

[рифф]
О, Айседора.

Филл:
   Am
G|--------------------|
D|-2-2--0-0-----------|
A|-----------3-3--2-2-|
E|--------------------|
Вверх

Алкоголик

Cm
Я люблю пиво, я люблю водку
Я люблю баб и жирную селедку
Fm
Я не люблю твоих печёных булок
Cm
Я алкоголик - ёбаный придурок

Cm
Алкоголик и придурок

2|-----------------4~|
3|--5-3-4-3-5-3-5----|

Алкоголик и придурок
Алкоголик и придурок
Алкоголик и придурок

Я не люблю ни молоко не мёд
Я не люблю когда приемник так орет
Я не люблю твоих печёных булок
Я алкоголик - ёбаный придурок
Вверх

Амстердам

Intro:

   G
E|-----------------------------3-----------------------|
B|---------------3---------------------------3---------|
G|----------4-------------4--------------4-------4-----|
D|-----5-------------5--------------5---------------5--|  2 раза
A|-5---------------------------------------------------|
E|-----------------------------------------------------|

  G                                     C
Здесь, на земле ярки краски и звучны аккорды
  D                                 G
Прямо на площади высится башенный кран
   C                                   G
В башне сидит крановщица с улыбкой Джоконды
   D                                  G
В небе летит самолет Ленинград-Амстердам

 G                               C
Бабушка вяжет носки непутевому внуку
 D                                 G
Папа с работы картошки несет килограмм
  C                                G
Внук догрызает гранит, проклиная науку
   D                                  G
В небе летит самолет Ленинград-Амстердам

 C                                G
На глубине в 10 000 сомнительных метров
     C                                      G
Над тем, кто забыл пристегнутся колдуют врачи
          D               Em    D#
Если ты знаешь чьи-то секреты
    G
Молчи

 G                                C
Люди смеются, приветливо машут руками
 D                                    G
Быстро танцуют, потом поднимают сто грамм
 C                                    G
Там, возле яркого солнца, сверкая крылами
   D                                  G
В небе летит самолет Ленинград-Амстердам

 G                                     C
Жизнь представляется мне заводной каруселью
   D                                       G
Что будет крутится пока кто-то дернет стоп-кран
 C                                        G
Там за июльским дождем, за февральской метелью
   D                                  G
В небе летит самолет Ленинград-Амстердам
Вверх

Бабу буду!

Intro:
   Gm
e|----3-----3-----3-3-3-3-3-3----3-----3-----3-3-3-3-3-3---|
B|----3-----3-----3-3-3-3-3-3----3-----3-----3-3-3-3-3-3---|
G|----3-----3-----3-3-3-3-3-3----3-----3-----3-3-3-3-3-3---|
D|---------------------------------------------------------|
A|-------5--------------------------5----------------------|
E|-3-----------3---------------3----------3----------------|

                               Cm         D
e|----3-----3-----3-3-3-3-3-3----3-----3-----5-5-5-5-5-5---|
B|----3-----3-----3-3-3-3-3-3----4-----3-----7-7-7-7-7-7---|
G|----3-----3-----3-3-3-3-3-3----5-----3-----7-7-7-7-7-7---|
D|----------------------------------4----------------------|
A|-------5---------------------3----------5----------------|
E|-3-----------3-------------------------------------------|

Gm                                  Cm    D
У! А! У! А! У! А! У! А! У! А! У! А! У! А! У! А! (х3)

Gm                                 Cm D
Я мужчина, секс машина, на ходу стираю шины.
Gm                                    Cm      D
Мы же пипл, super-voodoo. Баба есть - я бабу буду!

Припев (вторым голосом звучит интро):
    Gm                                Cm       D
    Бабу вы-ба-буду, бабу вы-ба-буду, бабу вы-ба-буду,
    (У! А! У! А! У! А! У! А! У! А! У! А! У! А! У! А!)
    Gm                                Cm       D
    Бабу вы-ба-буду, бабу вы-ба-буду, бабу вы-ба-буду.
    (У! А! У! А! У! А! У! А! У! А! У! А! У! А! У! А!)

    Gm                                  Cm    D
    У! А! У! А! У! А! У! А! У! А! У! А! У! А! У! А!
    Gm                                  Cm    D
    У! А! У! А! У! А! У! А! У! А! У! А! У! А! У! А!

Если есть в кармане сотка - буду я и бабы водку!
Я по жизни не зануда - и бухло, и бабу буду!

Припев.

Бабы - это как конфеты, разверните-ка вот эту!
Бабы есть везде, повсюду. Бабы есть, я бабу буду!

Припев.

Бабу будешь? Бабу буду!

Припев.
                                               G
Бабу-буду-бабу-буду-бабу-буду-буду, баа-буууу.


Вверх

Батарея

Am [Филл 1]
Я обнимаю батарею,
Хочу тепла, хочу тепла,
Dm [Филл 2]
Хочу, чтоб эта батарея,
E7
Меня как баба обняла.

Am Dm E7 Am Dm E7
Батарея, батарея,
Am Dm E7 E7
Батарея полюби меня скорее!

Я так устал, я так измучен,
В моей душе десяток ран,
Я плачу как мудак последний,
Целуя батареи кран

Батарея, батарея,
Батарея полюби меня скорее!

Батарея, батарея,
Батарея полюби меня скорее!
Батарея, батарея,
Батарея полюби меня скорее!


Филл 1:

Am
e|---------------|
B|---------------|
G|---------------|
D|-2---0-2-0-----|
A|-----------3-2-|
E|---------------|

Филл 2:

Dm
e|---------------|
B|---------------|
G|-2---0-2-0-----|
D|-----------3-2-|
A|---------------|
E|---------------|
Вверх

Без тебя

Вступление: (2 раза)
  Cm    B        G#      B         Cm     B       G#    B
E|-------------------------------|-----------------------------|
B|---------6-4-6-4---4--8-6-4-0--|---------6-4-6-8--8-11-9-8-6-|
G|-5--0--3-----------------------|-5--0--3---------------------|
D|-------------------------------|-----------------------------|
A|-------------------------------|-----------------------------|
E|-------------------------------|-----------------------------|
        Cm             Cm               Cm
E|---------------|---------------|----------------|
B|---------------|---------------|----------------|
G|---------------|---------------|----------------|
D|--5-5-5-5-5-5--|---------------|-5-5-5-5-5-5----|
A|-------------3-|-------------3-|-------------3--|
E|---------------|-3-3-3-3-3-3---|----------------|

Cm                   B
У меня, как обычно - все отлично.
G#            B
Мои корабли уходят в запой.
Cm                    B
У тебя, как обычно - все очень цинично:
 G#               B
"Мол, за собой посуду помой!"
Cm             B
Ну и, конечно, все эти бабы,
G#              B
Которые садятся мне на конец.
Cm            B
О, я ебусь с ними со всеми,
G#              B
Но без тебя пиздец!!!

Припев:
   Cm     B      G#        B
   Без тебя пиздец!!!
                     2|--4--8-6-4-0--|
   Cm     B      G#        B
   Без тебя пиздец!!!
                     2|--8--11-9-8-6-|
   Cm     B      G#        B
   Без тебя пиздец!!!
                     2|--4--8-6-4-0--|
   Cm     B      G#        B
   Без тебя пиздец!!!
                     2|--8--11-9-8-6-|

Проигрыш: (как вступление - 2 раза)

Знаю, знаю ты - одна такая.
Знаю, знаю ты - одна такая,
Знаю, знаю ты - одна такая есть, оу ес!!!
Знаю, знаю ты - одна такая.
Знаю, знаю ты - одна такая,
Знаю, знаю ты - одна такая
Знаю, знаю без тебя пиздец!!!

Припев.

Концовка:
  Cm   B       G#      B       Cm     B       G#      B
E|----------------------------|--------------------------------|
B|-------6-4-6-4---4--8-6-4-0-|---------6-4-6-8---8--11-9-8-6--|
G|-5-0-3----------------------|-5--0--3------------------------|
D|----------------------------|--------------------------------|
A|----------------------------|--------------------------------|
E|----------------------------|--------------------------------|

E|------------|----------------|
B|--11-9-8-6--|--11-9-8-6--13--|
G|------------|----------------|
D|------------|----------------|
A|------------|----------------|
E|------------|----------------|
Вверх

Блюз

Рифф:
   Hm           Em F#         Hm
e|------------------------------|
B|------------------------------|
G|------------------------------|
D|-4---5--4-2---2--2-4-2--------|
A|------------5-----------5-4-2-|
E|------------------------------|

Hm           Em      F#
Метеоцентр сообщил в обед:
"Погоды не будет, погоды нет".
Позвонили из "09", сообщили свое время
Ни хуя я им е верю, ни хуя я им е верю.

Рифф.

А в новостях опять все врут,
Как маленькие дети
Газета мне нужна тогда,
Когда я в туалете.

Рифф.
Вверх

Бляди

C G
Мысли нет и денег нет,
Am F
Только хуй работает
Хочется ему тепла,
Хоть одна бы мне дала

Hyyyy, где же вы бляди
Выручайте дядю...

Я конечно не герой,
А урод любовник
О, я богат и знаменит,
Но, не подполковник

…
Hyyyy, где же вы бляди
Выручайте дядю...
Вверх

Будем веселиться

Am
Я включил свой микрофон: "Раз, два, три!"
Am Dm
Осветители зажгли фонари,
Dm Am
Все, пиздец, пора играть, хватит вам охуевать,
E7
Будем веселиться и будем танцевать.

[Соляк]
Танцуй, танцуй, танцуй, танцуй!


Соляк (классический джазовый рифф)

Am
e|-----------------------------|
B|-----------------------------|
G|-----------------------------|
D|-----2-----2-----2-----2---2-|
A|-0-3---0-3---0-3-----0---3---|
E|-----------------------------|

- 2 раза

Dm
e|-----------------------------|
B|-----------------------------|
G|-----2-----2-----2-----2---2-|
D|-0-3---0-3---0-3-----0---3---|
A|-----------------------------|
E|-----------------------------|

E7
e|-----------------------------|
B|-----------------------------|
G|-----4-----4-----4-----4---4-|
D|-2-5---2-5---2-5-----2---5---|
A|-----------------------------|
E|-----------------------------|

E7
e|-----------------------------|
B|-----------------------------|
G|-----------------------------|
D|-4-3-2-1-0-----------2-------|
A|-----------3-2-0--0----------|
E|-----------------------------|
Вверх

Витебский вокзал

Am               E                  Am
На витебском вокзале, где поезда гудят,
C              G                    C
Живет одна девчёнка который год подряд.
A7          Dm         E    E7     Am A7
Приехала издалека, чтобы артисткой стать,
Dm               Am          E        Am A7
Но не прошла по конкурсу и стала она блядь. |2 раза

Джинсовая юбчонка, китайский пуховик.
Не проходил бы мимо, товарищ большевик.
Всего за несколько рублей она полюбит вас,
Закружится пластиночка и заиграет джаз.    |2 раза

На витебском вокзале уже который год
Живёт одна девчёнка и принца она ждёт.
Приехала издалека, чтобы артисткой стать,
Но не прошла по конкурсу и стала она блядь. |2 раза
Вверх

В клубе модном

Am
Белые ботинки, брюки-клёш,
Am Dm
От папани по наследству - финский нож,
Dm Am
Кепка в клетку, галстук от кутюр.
E7 Am
Разрешите мне мадам закрутить амур.

E7 Am
А в клубе модном - все для народа:

E7 Am
Заливши фары, танцуют пары,
Dm Am
Винилы крутит здесь диск-жокей
E7 Am
И нет отбою от блядей.

А ты мадам – хоть–куда, классная герлица,
У меня в портмоне соточка гнездится.
Если хочешь лимонад, то я буду очень рад,
Хоть он здесь дороже во сто крат.

А в клубе модном - все для народа:
Заливши фары, танцуют пары,
Винилы крутит здесь диск-жокей
И нет отбою от блядей.

А в клубе модном - все для народа:
Заливши фары, танцуют пары,
Винилы крутит здесь диск-жокей
И нет отбою от блядей.

Белые ботинки, брюки-клеш,
От папани по наследству - финский нож,
Кепка в клетку, галстук от кутюр.
Разрешите мне мадам закрутить амур.

А в клубе модном - все для народа:
Заливши фары, танцуют пары,
Винилы крутит здесь диск-жокей
И нет отбою от блядей.
Вверх

В клубе модном (2 вариант)

Gm
Белые ботинки, брюки клеш,
Gm                              Cm
От папани по наследству финский нож,
Cm                 Gm
Кепка в клетку, галстук от кутюр,
Eb7                      D7
Разрешите мне, мадам, закрутить амур.

Припев:
   D7                         Gm
   А в клубе модном все для народа,
   Gm        D7            Gm
   Заливши фары, танцуют пары,
   Gm     D7                  Gm
   Винилы крутит здесь диск-жокей,
   Gm     Cm  D       Gm
   И нет отбою от блядей.

Ты, мадам, хоть куда, классная герлица,
У меня в портмоне соточка гнездится.
Если хочешь лимонад, то я буду очень рад,
Хоть он здесь дороже во сто крат.
Вверх

Всё это рэйв

Am H
Нас атомной бомбой напугаешь - едва ли,
Gp F#
Мы рейверы в жизни такого видали.
Шприцы мы ломали об вены и слёзы,
Когда подыхали от передозы.

Припев: -х2
Всё это рэйв,
Всё это рэйв,
Всё это рэйв,
Всё это рэйв,

Игла падла скачет, найти бы дорогу
Уходим, уходим, идём прямо к Богу.
Эх, дороги, пыль да туман,
А сердце колотит большой барабан.

Припев:

Скажите ди-джею, я просто хуею,
Реально хуею, скажите ди-джею.
Менты, суки, мутят, на входе подлянку,
Ди-джей, шли всех на хуй, крути бля шарманку.

Припев:
Am H
Ну а мы, ну а мы пидарасы, наркоманы, фашисты, шпана,
G F#
Как один социально опасны, и по каждому плачет тюрьма.
Но вот нас вот, рейверов, тюрьмой напугаешь едва ли,
Мы, бля, рейверы в жизни такого видали....

Припев:

Всё это рэйв мужики!
Вверх

Всё это рэйв (2 вариант)

Gm                      Cm
Нас атомной бомбой напугаешь, едва ли
       D               Gm
Мы рейверы в жизни такое видали
Шприцы мы ломали о вены и слезы,
Когда подыхали от передозы.

Все это рэйв,
Все это рэйв,
Все это рэйв.

Игла, падла, скачет - найти бы дорогу
Уходим, уходим, идем прямо к богу
Эх, дороги, пыль да туман
А сердце колотит в большой барабан.

Все это рэйв,
Все это рэйв,
Все это рэйв.

Скажите диджею: я просто хуею,
Реально хуею, скажите диджею
Менты, суки, мутят на входе подлянку
Диджей, шли всех на хуй, крути, бля шарманку!

Все это рэйв,
Все это рэйв,
Все это рэйв.

Ну а мы, ну а мы -пидарасы,
Наркоманы, фашисты, шпана
Как один социально опасны
И по каждому плачет тюрьма
Но вот нас вот, рейверов,
Тюрьмой напугаешь едва ли,
Мы, бля, рейверы в жизни такого видали!

Все это рэйв,
Все это рэйв,
Все это рэйв.
Вверх

Геленджик

    Am
Я всё посчитал - три рубля нужно в день.
Ну чтобы поесть, и на всю дребедень.
  F
Ещё один рубль, чтоб нам угол снять.
 E
Ну ничего, гулять так гулять!

(Алё, Вася? Слушай, она согласилась!)

	Припев:

	 Am
	Настоящий я мужик,
	Вывез бабу в Геленджик.
	 F        E    F
	Настоящий я мужик,
	 F        E    Am
	Настоящий я мужик.

(Ту-ту-у-у!)

Едем плацкарт, боковые места,
Зато экономим рублей мы полста!
Вот до места вот доедем - тогда их пропьём.
Бутылка вина, и мы только вдвоём!

	Припев.

(Покушай курочку!)

	Припев.

Не поскуплюсь на билет дорогой.
Да, я очень добрый, я добрый такой.
Вот приедем - купим тебе и ласты, и маску,
Я подарю тебе эту сказку!

	Припев.
Вверх

Группа крови

     Dm        A         A7         Dm
4|--------7------------------------------7-|
5|--5--8------------7---------7----5--8----|
6|------------5--8------5--8---------------|

Dm A7
В магнитофоне играет группа "Кино"
А7 Dm
Ты говоришь мне: выключи это говно
Dm A7
Тебя ломает от всякого старья
А7 Dm
Заткнись, это любимая песня моя

Dm A7
О, группа крови
А7 Dm
На рукаве
Dm A7
О, группа крови
А7 Dm
На рукаве

Ты можешь помолчать хотя бы пять минут
Или пожелай мне удачи в бою
"Группа крови" - любимая песня
И когда мне плохо, ее я пою

О, группа крови на рукаве
О, группа крови на рукаве

В магнитофоне играет группа "Кино"
Ты говоришь мне: выключи это говно
Тебя ломает от всякого старья
Заткнись, это любимая песня моя

О, группа крови на рукаве
О, группа крови на рукаве
Вверх

Давай-давай mp3

[интро]

Cm
Ты пришла на дискотеку в первый раз,
Cm Fm
Мини-юбка и штиблеты, попа - высший класс,
Fm
Я тебя до этого не видел никогда,
G
И на танец пригласил, а ты сказала: "Да!".

Cm G
Давай-давай, веселей,
Fm G
Давай танцуй, каблуков не жалей,
Давай-давай, веселей,
Давай танцуй, каблуков не жалей.

Модные мелодии, яркие огни,
В ритме сердца твоего звучат они,
Новую пластинку ставит диск жокей,
Он приглашает нас с тобой на танец,
хей, хей, хей.

Давай танцуй, веселей,
Давай танцуй, каблуков не жалей,
Давай танцуй, веселей,
Давай танцуй, каблуков не жалей.

[Филл 1]

[Филл 2]

Давай-давай, веселей,
А ну танцуй, каблуков не жалей,
Давай-давай, веселей,
А ну танцуй, каблуков не жалей.


Интро:

Cm G Fm G
e|------------|
B|------------|
G|------------|
D|------------|
A|-3-----1----|
E|----3-----3-|

Cm
e|---------------------------------|
B|---------------------------------|
G|---------------------------------|
D|---5-5-5-6-5-6-5---5-5-5-6-5-6-5-|
A|-3---------------3---------------|
E|---------------------------------|

Fm G
e|---------------------------------|
B|---------------------------------|
G|---------------------------------|
D|---3-3-3-5-3-5-3---6-6-6-5-3-----|
A|-1---------------3-----------6-5-|
E|---------------------------------|

Филл 1:

Fm
e|------------|
B|------------|
G|------------|
D|----------5-|
A|-1-3-5-6----|
E|------------|

Филл 2:

Fm G
e|-----------------------------------------|
B|-----------------------------------------|
G|-----------------------------------------|
D|----------5-4--3-3-2-1-0--5-4--3-3-2-1-0-|
A|-1-3-5-6---------------------------------|
E|-----------------------------------------|

Cm G
e|---------------------------------------|
B|---------------------------------------|
G|-------------------------------3-3-5-5-|
D|-3-3---6-6-3-3---6-6-3-3--6-3----------|
A|---------------------------------------|
E|---------------------------------------|
No-No NoNoNoNo NoNoNoNo NoNo There's
no limit :)

- 2 раза
Вверх

Давай джазу

Gm
Я так люблю бешенную скорость,
Водкой смочил ротовую полость,
Cm
Ключ зажигания, внимание, старт,
D7
Уступи дорогу, береги свой зад!

Gm A# A Gm A# A
Давай джазу, давай газу,
Gm A# A A A# A
Давай джазу, жми до отказу,
Давай джазу, давай газу,
Давай джазу, жми до отказу.

А вдоль дороги мелькают столбы,
Жму до отказу на крыльях судьбы,
Вот так вот по жизни, на крыльях лечу,
Дайте мне джазу, я джазу хочу!

Давай джазу, давай газу,
Давай джазу, жми до отказу,
Давай джазу, давай газу,
Давай джазу, жми до отказу.

Давай джазу, давай газу,
Давай джазу, жми до отказу,
Давай джазу, давай газу,
Давай джазу, жми до отказу.
Вверх

Дайте бананов!

   Solo:
       Am    Em*   Am    E
   5|--7-7----5----------------|
   6|-------8---7--8-8--5-7--4-|

   5|--7-7----5----------------|
   6|-------8---7-8---8-7-5-4--|

         Am     Em       Am  E
   Мы сидим на кухне и пьем,
   Нам сейчас принесут ганджубас,
   Мы его с нетерпением ждем
   И латинские ритмы пульсируют в нас...
   Пульсируют в нас (до хуя раз)...

   Дайте бананов, марихуаны, солнца дайте!!!
   Дайте бананов, марихуаны, солнца дайте!!!

   А на улице идет дождь,
   В магазинах до трех обед,
   И куда ты не зайдешь,
   Здесь бананов, бананов нет...
   Бананов нет (еще больше до хуя раз).

   Дайте бананов, марихуаны, солнца дайте!!!
   Дайте бананов, марихуаны, солнца дайте!!!

   Em* - может быть просто E, он даже где-то в середине
   песни орет: "Am.... E"
Вверх

Дачники

[Рифф]

Am [Fill 1]
Я подыхаю на работе
Am [Fill 1]
Потом бухаю, потом в блевоте
Am [Fill 1]
Домой приду, а дома - ты,
Am [Fill 2]
Яичница, телек, герани цветы.

Dm
Вот будет лето -
Am
Поедем на дачу
Dm
В руки лопату -
E
Хуячим, хуячим.


[Рифф]
ДА-ЧА!!!

Я подыхаю на работе,
Потом бухаю, потом в блевоте
И нету в жизни ни хуя
Этого, как его... о! счастья

Вот будет лето -
Поедем на дачу
В руки лопату -
Хуячим, хуячим.

ДА-ЧА!!!


Рифф:

Am
e |-----------------|
B |-----------------|
G |-----------------|
D |-----------------|
A |----7-6-5--------|
E |-5--------8-7-6--|

Fill 1:

Am
e |-------5---------|
B |-------5---------|
G |-------5---------|
D |-------7---------|
A |-------7---------|
E |-8-7-6-5---------|

Fill 2:

Am Dm
e |--------5--------|
B |--------6--------|
G |--------7--------|
D |--------7--------|
A |--------5--------|
E |-5-8-5-----------|
Вверх

Девушка с понятием

Am C G Am A
Занавески в клеточку на окне висят,
Dm Am
На подоконнике цветок-герань стоит,
E Am A

За окошком - сад.
Dm Am
На подоконнике цветок-герань стоит,
E Am
За окошком - сад.

Коврик с лебедями на стене имеется,
Кошечка-копилочка на подушке греется.
Кошечка-копилочка на подушке греется.

Здесь живет любимая девушка моя,
Никого нет у нее, остался один я.
Никого нет у нее, остался один я.

Девушка с понятием и с формами такими,
Что не буду никогда я гулять с другими.
Что не буду никогда я гулять с другими.
Вверх

Деньги (Money)

  C#m             F#m    G#
Деньги бывают - такое бывает,
Такое бывает, но только не долго.
Не храните деньги в сберегательных кассах
Там от них никакого толку.

Припев:
   C#m                      F#m          G#
 О, money, money, money, money, money, money, money
   C#m               F#m       G#
 О, money, money, money на кармане

Проигрыш после припева: C#m C#m F#m G#


Хорошо когда есть на кармане
Эти самые money - money
Когда бабки есть - тогда все путем,
Значит снова пьем, значит снова пьем

Припев

Я скажу по секрету между нами
Самое главное – money - money
За них сегодня можно все купить
Их нужно тратить, а не копить

Припев
Вверх

День рожденья

    Am        Dm           Am        E7
Все эти разговорчики: - Ну как там дела,
   Am          Dm     Am      E7
Вчера, мол, погода хорошая была,
   Am         Dm   Am       E7
А новый президент самбо обожает,
    Am        Dm      Am        E7
По телеку сказали - свет подорожает.

  Am             Dm       Am        E7
А я вот день рожденья не буду справлять!
E7
Все заебало! Пиздец на хуй блядь!

Все заебало!

Песней о том как повезло невесте
По ушам мне ездили раз этак двести
А еще какая-то Земфира
Трахает мне мозги с ночи до утра.

Я вот день рожденья не буду справлять!
Все заебало! Пиздец на хуй блядь!
Вверх

Дикий мужчина

E|-2----2----2---2----2----2----4----4----4---2-2-2-2-2-2-2|
B|--2-2--2-2--2---3-3--3-3--3----2-2--2-2--2---------------|
G|---2----2----2---4----4----4----4----4----4--------------|

Hm
Ты называешь меня говнюком
Em
Да, я все время бухой
F#
И твою жопу при людях хватаю
Hm
Своей волосатой рукой.

аналогично
Да, мои ноги вонючие палки
На которых все в дырках носки
А эти две кучи из пыли и грязи -
Это мои башмаки.

Могучий рифф

Em F#
Да, ты права, я - дикий мужчина,
Em F#
Ты права, я - дикий мужчина,
Em F#
Ты права, я - дикий мужчина:
Hm
Яйца, табак, перегар и щетина

Могучий рифф

Да, ты права, я - дикий мужчина,
Ты права, я - дикий мужчина,
Ты права, я - дикий мужчина:
Яйца, табак, перегар и щетина

Могучий рифф 2 раза

Могучий рифф:
Hm
e|---------------------------|
B|---------------------------|
G|-4---------4---------4-----|
D|---4----4----4----4----4---|
A|------5---------5--------5-|
E|---------------------------|
Em
e|---------------------------|
B|---------------------------|
G|-4---------4---------4-----|
D|---5--2-5----5--2-5----5-2-|
A|---------------------------|
E|---------------------------|
F#
e|---------------------------|
B|-2---------2---------2-----|
G|---3----3----3----3----3---|
D|------4---------4--------4-|
A|---------------------------|
E|---------------------------|

Hm
e|---------------------------|
B|---------------------------|
G|-4---------4----4----------|
D|---4----4----4-------------|
A|------5--------------------|
E|---------------------------|
Вверх

Дорога на Москву

A        E
По дороге на Москву
E             A        F#
Стоит ларёк с продуктами,
D              A
А в нем девчёночка сидит
E         A      A7
И торгует фруктами,
D              A
А в нем девчёночка сидит
E(глушим)     A           (Дальше играем то же самое
И торгует фруктами.                  в быстром темпе)

А глаза у той девчёнки просто неземные,
Тормозят свою машину парни козырные,
Тормозят свою машину парни козырные.

Но не верит она в их
Пустые обещания,
Иногда, лишь, улыбнется
Вслед им на прощание,
Иногда, лишь, улыбнется
Вслед им на прощание.

Ждет она любимого, ждет о нём печалится,
Ведь друг её из армии скоро возвращается,
Друг её из армии скоро возвращается.

А он моряк, а он на флоте
Парень очень правильный
Шлёт ей письма каждый ден
Из похода дальнего,
Шлёт ей письма каждый день
Из похода дальнего.

И завидуют ему все друзья солдаты,
Вот такая вот любовь где-то есть ребята,
Вот такая вот любовь где-то есть ребята.
Вверх

Дороги mp3

Всю песню - аккорды: Am Dm E Am

Я всегда уходил, чтоб не вернуться,
Я всегда уходил, чтоб навсегда.
Иногда так хотелось оглянуться,
Иногда - это только иногда.

	Припев:

	Дороги мои, дороги,
	Вы носили ноги, помогали боги.
	Дороги мои, дороги,
	Вы носили ноги, помогали боги.

Иногда я ходил вникуда,
Никогда не ходил по прямой.
А в пути мне светила звезда,
Выручал же всегда ангел мой.

	Припев.

И любили меня, и сдавали,
И старуха махала косой,
И взлётную мне не давали,
А в финале мой путь стал взлётной полосой.

	Припев.
Вверх

Ду ю лав ми

[рифф]

Hm
У тебя глаза такие,
Hm Em


Обалденные глаза,
Em Hm
Подыхаю от любви я,
G F#
Отказали тормоза,
Вот влюбился, все пиздец,
Так что сводит брюхо,
Думал ангел ты с небес,
Оказалась шлюха.

Em Hm
Дай мне, дай мне, дай мне, дай мне, дай любви,
Em F# G
Я кричу тебе, тебе, тебе, бе: дую ю лав ми!

[рифф]

Между бабой и деньгами
Для меня нет разницы,
Говоришь: "Люблю тебя!"
А в ответ - "Иди ты в задницу",
Нож по вене поперек,
Поперек любви моей,
Сердце бьется об висок,
Словно в клетке соловей.

[соло]

Дай мне, дай мне, дай мне, дай мне, дай любви,
Я кричу тебе, тебе, тебе, бе: дую ю лав ми!
Дай мне, дай мне, дай мне, дай мне, дай любви,
Я кричу тебе, тебе, тебе, бе: дую ю лав ми!

[аутро]

[соло]
Дай мне, дай мне, дай мне, дай мне, дай любви,
Я кричу тебе, тебе, тебе, тебе: дую ю лав ми!

Рифф играется следующим макаром:

Hm
e|-----------------------------------------|
B|-----------------------------------------|
G|-----------------------------------------|
D|------3-4-3-4-----3-4-3-4-----3-4-3-4----|
A|-2-6----------2-6---------2-6---------2--|
E|-----------------------------------------|

А соло вот так:

Hm Em
e|-----------------------------------------|
B|-----------------------------------------|
G|-----------------------------------------|
D|-----------------------------------------|
A|---2-2-2-4---2-2----2-2-2-4--------------|
E|-2---------5------2---------5-3----------|
Hm G F#
e|-----------------------------------------|
B|-----------------------------------------|
G|-----------------------------------------|
D|---2-2-2-4---2-2--5-5-5-7-5-4------------|
A|-2---------5-----------------------------|
E|-----------------------------------------|

Аутро:

Hm
e|-----1^2^1^2--|
B|---3----------|
G|--------------|
D|--------------| 4 раза
A|-2------------|
E|--------------|

Вверх

Ду ю лав ми (2 вариант)

Cm                               Fm
А у тебя глаза такие, обалденные глаза,
Fm      Cm         Ab         G7
Подыхаю от любви я, отказали тормоза.
Cm                                                 Fm
Вот влюбился, все - пиздец, да так, что сводит брюхо,
Fm            Cm        Ab              G
Думал - ангел ты с небес, а оказалась шлюха.

Припев:
   Fm                                             Cm
   Дай мне, дай мне, дай мне, дай мне, дай любви.
   Fm                                G
   Я кричу тебе, тебе, тебе, бе - ду ю лав ми.

 Cm Fm Cm Ab G7

Между бабой и деньгами для меня нет разницы,
Говоришь - люблю тебя, а в ответ - иди ты в задницу.
Нож победе поперек, поперек любви моей,
Сердце бьется об висок, словно в клетке соловей.
Вверх

Звезда рок-н-ролла

C5 G5
Клей "Момент" купил за рубль
G5 C5
И пакет к нему купил.
Надышавшись этой дури,
Музыку я полюбил.

F5 Eb5 D5 C5
Где же вы родители?
G5 C5
Куда же смотрит школа?
F5 Eb5 D5 C5
Так я стал звездою
G5 C5
Рок-н-ролла!
C5 G5
«Зиппо», триппер, пистолет,
G5 C5
Мы играем с семи лет!
«Зиппо», триппер, пистолет,
Мы играем с семи лет!

Одноклассницу-девчонку
К себе в гости пригласил.
Папа с мамой на работе,
А мы ебемся, что есть сил.

Где же вы родители?
Куда же смотрит школа?
Так я стал звездою
Рок-н-ролла!
«Зиппо», триппер, пистолет,
Мы играем с семи лет!
«Зиппо», триппер, пистолет,
Мы играем с семи лет!


Ахуенна, ахуенна,
Мы играем ахуенна!
Ахуенна, ахуенна,
Мы играем ахуенна!
«Зиппо», триппер, пистолет,
«Зиппо», триппер, пистолет,
«Зиппо», триппер, пистолет,
«Зиппо», триппер, пистолет!
«Зиппо», триппер, пистолет,
Мы играем с семи лет!
«Зиппо», триппер, пистолет,
Мы ебемся с семи лет!

Подробнее, как играть:
C5 G5
e|--------------------|
B|--------------------|
G|-5-5-5--------------|
D|-5-5-5-5--5-5-5-----|
A|-3-3-3-6--5-5-5-----|
E|----------3-3-3-----|
G5 C5
e|--------------------|
B|--------------------|
G|----------5-5-5-----|
D|-5-5-5-5--5-5-5-----|
A|-5-5-5-5--3-3-3-----|
E|-3-3-3-3------------|
F5 Eb5 D5 C5
e|--------------------|
B|--------------------|
G|-10-10-8--7--5-5-5--|
D|-10-10-8--7--5-5-5--|
A|-8--8--6--5--3-3-3--|
E|--------------------|
Вверх

Звезда рок-н-ролла (2 вариант)

 Dm          Am                E       Am
Клей момент купил за рубль и пакет к нему купил
 Dm          Am         E        Am
Надышавшись этой дури, музыку я полюбил
 Dm          Am         E        Am
Где же вы родители? Куда же смотрит школа?
 Dm           Am   E      Am
Так я стал звездою рок-н-ролла

 Am                E
Зиппо, триппер, пистолет
             Am
Мы играем с семи лет
Зиппо, триппер, пистолет
Мы играем с семи лет

Одноклассницу девчонку к себе в гости пригласил
Папа с мамой на работе, мы ебемся что есть сил
Где же вы родители? Куда же смотрит школа?
Так я стал звездою рок-н-ролла

Зиппо, триппер, пистолет
Мы играем с семи лет
Зиппо, триппер, пистолет
Мы играем с семи лет

Давай, Микшер, мочи!

Охуенно, охуенно
Мы играем охуенно
Охуенно, охуенно
Мы играем охуенно

Зиппо, триппер, пистолет
...
Зиппо, триппер, пистолет
...
Зиппо, триппер, пистолет
...
Зиппо, триппер, пистолет
Мы играем с семи лет
Зиппо, триппер, пистолет
Мы ебемся с семи лет
Вверх

Звёзды и луна

Hm F#
Я работаю на складе
F#7 Hm
Ты в буфете на раздаче
Познакомились с тобою
В доме отдыха на даче

Em
На небе звёзды и луна
Hm
Я знаю точно, что одна
F#
Из них сегодня светит
F#7 Hm
Лишь для нас с тобой двоих

Щас расскажу вам случай из моей жизни:

Погуляли по лесочку
Подарил тебе цветочки
А потом в траву упали
Целоваться в губы стали

Подошла к концу путевка

Вверх

Звуковое письмо

Main riff (distorted):
e|---------0-----1-----1Н3--1-0-1---|
B|---3---3-----3-----3--------------|
G|-----2-----2-----2----------------|

Dm C/G Am/F# Am/F E
Ты искала меня ночами темными,
Искала меня дворами темными,
Искала меня искала
Зачем? Вот он я!

Я такой как во сне,
Такой как ты в альбомах,
Рисовала меня ЕЁ.

Я такой как во сне,
Такой как ты в альбомах,
Рисовала меня гуашью.

Ты искала меня ночами-чами,
Ты искала меня ночами-чами,
Чами-чами-чами-чами-чами-чами-чами-чами,
Чами-чами-чами-чами-чами Е!

Я такой как во сне,
Такой как ты в альбомах,
Рисовала меня ЕЕ.

Я такой как во сне,
Такой как ты в альбомах,
Рисовала меня ЕЕ.

Ты искала меня искала меня,
Сама не знала меня искала,
Ты искала меня искала меня,
Сама не знала меня искала,

Я такой как во сне,
Такой как ты в альбомах,
Рисовала меня ЕЕ.

Я такой как во сне,
Такой как ты в альбомах,
Рисовала меня ЕЕ.
Вверх

Звуковое письмо (2 вариант)

Вступление:
Am(V) G(III) F(V) E(IV)


Am(V) G(III) F(V) E(IV) Am
Ты искала меня ночами тёмными,
G F E Am
Искала меня дворами темными,
G F E
Искала меня искала
G F E
Зачем? Вот он я!

Я такой как во сне,
Такой как ты в альбомах,
рисовала меня
Е! Е!

Импровизация на духовую тему: (2 раза)

e ------------------------------------
B ---------0------1--0-h-1--3--1-0-1--
G -2----2-------2---------------------
D ----2-------2-----------------------
A (0)---------------------------------
E ------------------------------------

e --------------------------0--0------
B ---------0------1--0-h-1--0--0------
G -2----2-------2-----------1--1------
D ----2-------2-------------2--2------
A (0)-----------------------2--2------
E --------------------------0--0------


Ты искала меня ночами-чами,
Ты искала меня ночами-чами,
Чами-чами-чами-чами-чами-чами-чами-чами,
Чами-чами-чами-чами-чами Е!

Я такой как во сне,
Такой как ты в альбомах,
рисовала меня
Е! Е!


Я такой как во сне,
Такой как ты в альбомах,
рисовала меня
Е! Е!


Ты искала меня искала меня,
Сама не знала меня искала,
Ты искала меня искала меня,
Сама не знала меня искала,

Я такой как во сне,
Такой как ты в альбомах,
рисовала меня ЕЕ
Е! Е!

Я такой как во сне,
Такой как ты в альбомах,
рисовала меня
Е! Е!
Вверх

Зенит mp3

Зенит! Футбол! Зенит! Футбол!
Зенит! Футбол! Хоккей! Налей!

H                          F#
Ты и я, ты и я любим мы футбол,
F#                                H
Ты кричишь и я кричу: "Надо, надо гол!"
H
Ты кричишь:
  - Надо гол!
Я кричу:
F#
  - Надо гол!
  - Сколько?
  - Много!
  - Как?
  - Не важно!
F#              H
  - Надо, надо, надо гол!

Зенит! Футбол! Зенит!

И на стадион вдвоем мы с тобой всегда идем,
Потому что ты и я - закадычные друзья.
Ты болеешь за Зенит, я болею за Зенит,
Мы болеем за Зенит, и Зенит всех победит!

Зенит! Футбол! Зенит!

Кто болеет за Зенит - у того всегда стоит!
Вверх

Зенит (2 вариант) mp3

бас-вступление

5|-3-----3-----3-----3--023-- 2 раза
6|----3-----3-----3----3-----

потом рифф(А) – 2 раза

C G
1|------------------------------------------------
2|---1-1--1-1---3-5-3-1------1-1--1-3--5-3-1-0----

G C
1|---------------------------------------------
2|---1-1--1-1---3-5-3-1-------3--3-5--3-1-1-1--

Зенит!
Футбол!
Зенит!
Футбол!

потом рифф(Б)

1|--------8---------------8---------------8---------------
2|-8-8--8------8-8-8-8--8----------8-8--8-----8-8-8-8-8-8-

можно, и даже лучше вместо 8-го лада на 2-й струне играть G на б
на 1-й - C на баррэ.

потом опять рифф(А) 2 раза.

Зенит!
Футбол!
Хоккей!
Налей!

C G
Ты и я, ты и я, любим мы футбол
(G) C
Ты кричишь, я кричу, надо-надо гол
(C) G
Ты кричишь - надо гол, я кричу - надо гол
(G) C
Стой! (стой) как его, надо-надо-надо гол!

Рифф(А)


Зенит!
Футбол!
Зенит!


И на стадион вдвоём мы с тобой всегда идём
Потому что ты и я - закадычные друзья
Ты болеешь за Зенит, я болею за Зенит
Мы болеем за Зенит и Зенит всех победит!

Рифф(А)

Кто болеет за Зенит у того всегда стоит!

Рифф(Б)

Вверх

Злые пули mp3

Интро.

Am
Над головами пули-пули,
Am E Am
Пули-пули все летят
Am
И о любви нам, о любви нам,
Am E Am
О любви нам говорят.

F
Вот полюбила пуля парня -
G
Аж до сердца проняла
G рифф
И он ушел с ней, не смотря,
Am E Am
Что дома барышня ждала.

Над головами пули-пули,
Пули-пули все летят
И о любви нам, о любви нам,
О любви нам говорят.

А пуля любит, пуля любит
С поцелуйчиком, взасос.
Будь ты хоть парень, хоть девчонка
Иль почти молокосос.

Аутро.


Интро:
Am
e|----------------|
B|----1-3-3b4-----|
G|-2--------------|
D|----------------|
A|----------------|
E|----------------|

G рифф (афигенный рифф :)
G Am
e|------------------|
B|---------5---5----|
G|---------5---5----|
D|---------7---7----|
A|---------7---7----|
E|-3-3-4-5---5------|

Аутро:
Am Dm
e|---------------------------------1------------|
B|----1b2-----1-3b4-1---1----------3------------|
G|-2--------2---------2---2-1-0----2------------|
D|---------------------------------0------------|
A|----------------------------------------------|
E|----------------------------------------------|
Вверх

Инструментал

Рифф главный:
E|---------------------------------|
B|---------------------------------|
G|---------------------------------|
D|---------------0-2-2-2-2-2-0-----|
A|-0-0-0-0-0-2-3---------------3-2-|
E|---------------------------------|

E|---------------0-|
B|---------------0-|
G|---------------1-|
D|---------------2-|
A|-0-0-0-0-0-2-3-2-|
E|---------------0-|

Другой Рифф:
E|------------------------------0-|
B|------------------------------0-|
G|------------------------------1-|
D|------2^0-2-[2-0----]---2^0-2-2-|
A|----0-------[----3-2]-0-------2-|
E|-0----------------------------0-|

в конце он играется иначе:
E|------------------------------0-|
B|------------------------------0-|
G|------------------------------1-|
D|------2^0-2-/7-7-7-5----2^0-2-2-|
A|----0-----------------0-------2-|
E|-0----------------------------0-|
Вверх

Когда NET денег

Am Dm G A
Вот опять уходит тёлка от меня от меня,
Потому, что нету денег ни рубля ни рубля,
Потому, что нет квартиры и машины нет,
Потому, что не умею я варить обед.

Припев:
Am Dm A G Am Dm A
Когда нет денег - нет любви,
Какая сука эта C'est la vie

Bridge: Am Dm A G Am Dm A

Вот опять уходит тёлка от меня от меня,
Потому, что нету денег ни рубля ни рубля,
И среди моих друзей людей приличных нет,
И ещё плюс ко всему я как мудак одет.

Когда нет денег - нет любви
Какая сука эта C'est la vie
Вверх

Когда NET денег (2 вариант)

  Cm              Fm        Cm       G
Вот опять уходит телка от меня, от меня,
Потому, что нету денег ни рубля, ни рубля,
Потому, что нет квартиры и машины нет,
Потому, что не умею я варить обед.

Припев:
     G        Cm   G       Cm
   Когда нет денег - нет любви,
   Такая сука эта C'ese la vie

Проигрыш: Cm Fm G Cm

Вот опять уходит телка от меня, от меня,
Потому, что нету денег ни рубля, ни рубля,
И среди моих друзей людей приличных нет,
И еще плюс ко всему я как мудак одет.

   Когда нет денег - нет любви
   Такая сука эта C'ese la vie
Вверх

Колбаса-любовь

Cm
Яйца пухнут по весне,
Словно почки у березы
Я ночами для тебя
В парке обрываю розы.

Fm
Солнце в четвертый раз
Небо в красный красит.
G
Но мы не спим -
Нас от любви колбасит.

Cm
Колбаса-любовь
Колбаса!
Колбаса-любовь
Просто колбаса!

Я звоню тебе звоню
И ору по проводам:
Я люблю тебя, люблю!
Все возьми, я все отдам!

Солнце в четвертый раз
Небо в красный красит.
Но мы не спим -
Нас от любви колбасит.

Колбаса-любовь
Колбаса!
Колбаса-любовь
Просто колбаса!
Вверх

Колбаса-любовь (2 вариант)

Hm
Яйца пухнут по весне,
  G
Словно почки у березы.
E
Я ночами для тебя
   Hm        G
В парке обрываю розы.

 Am
Солнце в четвертый раз
 G
Небо в красный красит,
 E
Но мы не спим,
Hm         G
Нас от любви колбасит.

 E               G
Колбаса-любовь, колбаса.
 Am               Hm       Gm
Колбаса-любовь, просто колбаса.

Я звоню тебе, звоню
И ору по проводам.
Я люблю тебя, люблю,
Всё возьми - я всё отдам!

Солнце в четвертый раз
Небо в красный красит,
Но мы не спим,

Нас от любви колбасит.

Колбаса-любовь, колбаса.
Колбаса-любовь, просто колбаса.

Колбаса-любовь, колбаса.
Колбаса-любовь, просто колбаса.
Вверх

Колокола

[интро]

Cm Fm
Стучат колеса под вагоном,
G Cm
Полжизни промотался я,
Мой поезд подошел к перрону,
На нем любимая моя.
Fm Cm
Стоит и плачет, и не верит,
Fm Cm
Что снова нас судьба свела,
Cm Fm Cm
Эй, проводник, открой все двери,
G Cm
Пускай звонят колокола,
Эй, проводник, открой все двери,
Пускай звонят колокола.

Ты так любила эту песню,
Я на гитаре тебе пел,
И вот тогда по малолетке,
Не в ту компашку залетел,
И вот ты плачешь на перроне,
Все это время ты ждала,
Эй, проводник, открой все двери,
Пускай звонят колокола,
Эй, проводник, открой все двери,
Пускай звонят колокола.

[Соло]

И вот ты плачешь и не веришь,
Все это время ты ждала,
Эй, проводник, открой все двери,
Пускай звонят колокола,
Эй, проводник, открой все двери,
Пускай звонят колокола.

Колокола, колокола, колокола, колокола,
Колокола, колокола, КОЛОКОЛА!


Интро:

Cm Csus2 Cm Gadd11
e|-3-3--3-3--3-3--3-3--3-3--3-3--3-3--3-3-|
B|-4-4--3-3--4-4--3-3--4-4--3-3--4-4--3-3-|
G|-5-5--5-5--5-5--4-4--5-5--5-5--5-5--4-4-|
D|-5-5--5-5--5-5--5-5--5-5--5-5--5-5--5-5-|
A|-3-3--3-3--3-3--3-3--3-3--3-3--3-3--3-3-|
E|-3-3--3-3--3-3--3-3--3-3--3-3--3-3--3-3-|


Соло (настоящий гитарный соляк):

e|----------|
B|-6/8-8-8--|
G|----------|
D|----------|
A|----------|
E|----------|

e|----------------------------------------|
B|----8-8----8-8----8-8----8-8-/6-5-4-3-4-|
G|-6/7----6/7----6/7----6/7---------------|
D|----------------------------------------|
A|----------------------------------------|
E|----------------------------------------|

e|------------------------------8-7-6-10-9-8-6-|
B|----7-7----7-7----7-7----7-7-----------------|
G|-6/7----6/7----6/7----6/7--------------------|
D|---------------------------------------------|
A|---------------------------------------------|
E|---------------------------------------------|

e|----------------------------------------------|
B|-8-8-8----8-8----8-8----8-8----8-8-/6-5-4-3-4-|
G|-------6/7----6/7----6/7----6/7---------------|
D|----------------------------------------------|
A|----------------------------------------------|
E|----------------------------------------------|

e|-------------------------------------------|
B|----4-4----5-5----6-6----7-7--7/8--8-8-7-8-|
G|-2/3----3/4----4/5----5/6-----6/7----------|
D|-------------------------------------------|
A|-------------------------------------------|
E|-------------------------------------------|
Вверх

Комон эврибади

Dm
Вы пришли сюда затем, чтоб веселиться
              C
И потанцевать, если повезет.
 A
А песня моя, она как птица.
 A7                 D5
В воздухе летает и бешено оре-ее-ееее-т!

Припев (2 раза)

D5               Ab5/A5 A5 A5  Ab5/A5 A5 A5

Ко-мон эврибади!!!
D5               Ab5/A5 A5 A5  Ab5/A5 A5 A5
Двигай жопой, суки-бляди!!!


Проигрыш после припева:

Ab5/A5 A5 A5  Ab5/A5 A5 A5   Db5/D5 D5 D5 D5 D5
D5 (2 раза)

Проигрыш 2 раза:


Dm
Пива надо выпить - в горле пересохло.
                  C
В горле пересохло, на душе тоска.
 A
Ну что же ты, приятель, еще не колбасишься?
 A7                 D5
Надо колбаситься и вот моя рука!!!


Ко-мон эврибади!!!

Двигай жопой, суки-бляди!!!
Вверх

Контакт

Интро:  Am  F Fm

 Am                       Dm
Крановщик 6-й бригады Волопасов Михаил
  C                   E
Уходя с утра от бабы матерился и курил

Припев:
  Am      Am6         F      Fm
Ой,бля, ва-па-па-па, Е,бля ва-па-па-па- 4 раза

2.Беломор в руке дрожащей
Перекошен черный рот
Вдруг навстречу Михаилу отвратительный урод

Припев:


Не по нраву Михаилу отвратительный урод

Как въебет ногой по роже,за работу-попадет

Припев:

Инопланетяне!

Припев:
Вверх

Космос

Riff1:
G|--------------------------------------|
D|--------------------------------------|
A|--------3-5--------3-5-6-5-3-6-5-3-5--|
E|-3--3-6-----3--3-6--------------------|

Riff2:
G|--------------------------------------|
D|--------------------------------------|
A|------------3-3---------3---5-5-5-----|
E|-3-3--3-6-3------6-6--6---6-----------|

G                 A#
Где-то внутри, в каждом из нас
C                D
Есть необъятный космос
Чтобы лететь нужна ракета
Нет папирос - забивай сигареты.

Riff1.
Космос...

Ты хочешь любви - на возьми, вот она
За окнами бабы, а с ними весна,
Но космонавты не ходят к врачу
Вы любите женщин, а я просто дрочу.

Riff1.
Космос...

Riff2.
Вверх

Ласточка

Hm                     Em
ангелы в небе больше не летят
 F#    F#7   Hm
не летят ой не летят
                       Em
а в небе только провода висят
F#     F#7   Hm
ой висят да ой висят

по ним бежит и пухнет интернет
интернет интернет
ты хочешь солнца так включите свет
в туалет лампочку
любви ты хочешь так давай ебаться
девочка моя ты ласточка...
Вверх

Лёля

[Интро]

Am E7
Я в метро стою и жду тебя,
E7 Am
Ты не пришла который раз подряд,
Am Dm
Наверно ты встречаешься с другим
Dm E7
И по киношкам ходишь вместе с ним.

E7 Am E7
Ты знаешь Леля - мне без тебя не жить,
E7 Am
Ты знаешь Леля - я за тебя могу убить,
Am Dm Am
Ты знаешь Леля Лелелеля - фотокарточку твою,
E7 Am
Я на груди, как партбилет храню. На-на-на.
Ты знаешь Леля Лелелеля - фотокарточку твою,
Я на груди, как партбилет храню.

Над столом тупой иголочкой,
Темно-синюю наколочку,
Твое имя на руке моей,
Сердце стонет, как входная дверь.

Ты знаешь Леля - мне без тебя не жить,
Ты знаешь Леля - я за тебя могу убить,
Ты знаешь Леля Лелелеля - фотокарточку твою,
Я на груди, как партбилет храню. На-на-на.
Ты знаешь Леля Лелелеля - фотокарточку твою,
Я на груди, как партбилет храню.

Ты знаешь Леля...


Интро:

Am E7 Am
e|------------------------------------------|
B|------------------------------------------|
G|------------------------------------------|
D|-----------------------------0------------|
A|-0-0-0--3-2-0-0---2---2-2-2----3-2-2-0-3--|
E|----------------4-------------------------|

Dm Am E7
e|------------------------------------------|
B|------------------------------------------|
G|------------------------2-4-2-------------|
D|-2--5-3-2-0-2-3--2-3-4--------5-3-2-0-----|
A|--------------------------------------3-2-|
E|------------------------------------------|
Вверх

Люба mp3

Cm
В мясо стертые коленки,
В кровь искусанные губы,
Бьюсь я головой об стенку,
Fm G
Не могу я жить без Любы.
Телефон звонит сегодня,
Люба трубку не берет,
Я напился, я танцую,
Как последний идиот.

Cm Fm G
Лю-лю-лю-люба, я тебя люблю и ненавижу,
Люба, я хочу бежать, но выхода не вижу,
Люба, я хочу бежать, но выхода не вижу,
Люба, я хочу бежать, но выхода нет!

Выпил все, что было в доме,
Водку, пиво и коньяк,
Все равно хочу ебаться,
Сексуальный я маньяк!
Никогда так не хотелось,
А теперь так хочется,
Скоро я разрежу себе вены
Здесь от одиночества.

Лю-лю-лю-люба, я тебя люблю и ненавижу,
Люба, я хочу бежать, но выхода не вижу,
Люба, я тебя люблю и ненавижу,
Люба, я хочу бежать, но выхода нет!

ЛЮБА!

Вверх

Любовь

[Интро, оно же главный рифф]

Cm
Дело было весной, попрощавшись с тобой,
Я один поздно ночью возвращался домой,
Fm
Сердце гоняет по венам кровь,
G Cm
Ба-ба-ба-ба-ба ба-ба-ба-бам Любовь!

А вокруг тишина, не видать ни хрена,
Только сзади я слышу, как кто-то
крикнул мне "Стой!",
И вообще сердце гоняет по венам кровь,
Ба-ба-ба-ба-ба ба-ба-ба-бам Любовь!

Ла-ла-ла...
И вообще сердце гоняет по венам кровь,
Ба-ба-ба-ба-ба ба-ба-ба-бам Любовь!
Ба-ба-ба-ба-ба ба-ба-ба-бам Любовь!

Интро:

Cm G
G|---------------------------------|
D|-------------------------5-x-3-x-|
A|-3-3-3-3-3-3-6---3-3-3-3---------|
E|---------------------------------|

Cm G
G|---------------------------------|
D|---------------------------------|
A|-3-3-3-3-3-3-6-----------2-3-4-5-|
E|-----------------3-4-5-6---------|

Fm G
G|-------------------------5-x-3-x-|
D|-3-3-3-3-3-3-6---3-3-3-3---------|
A|---------------------------------|
E|---------------------------------|

Fm G
G|-----------------6-5-4-3---------|
D|-3-3-3-3-3-3-6-----------6-5-4---|
A|---------------------------------|
E|---------------------------------|
Вверх

Люди не летают

Intro:
C G Am G

solo: - x раз
C G Am G
E|-------3-1-0----------0----------|
B|-1~--1-------3--1~--1---3-1-0-1--|

C
Один мой приятель с крыши летал
Am
Когда приземлился тогда он не встал
C
По улицам долго несли сапоги
Am
Его с кровью смешанные мозги

C G
Люди, люди, люди не летают
Am G
Люди, люди, люди не летают
Люди, люди, люди не летают
Люди, люди, люди не летают

А люди не летают, не летают как птицы
От того, что отрастили большие ягодицы
От того, что не лётная погода
От того, что ползать нынче модно

Люди, люди, люди не летают

Да иногда я бываю как ангел
И тогда начинаю летать о, о, о
Водки нажрусь и мордой в лужу
С криком: «Еб твою мать!!!»

Люди, люди, люди не летают
Вверх

Маленький мальчик

[интро]

Cm
Маленький мальчик нашел пулемет,
Cm G
Больше в деревне никто не живет,
G
И когда он людей убивал,

G Cm
Песенку эту он напивал:

Cm G
"Небо коптят поезда
G G7
И гудят провода
G Cm D7 C7
И с бензином вода"

[Соло]

Маленький мальчик лимонку нашел,
И на занятия в школу пришел,
И когда он чеку вырывал,
Песенку эту он напивал:

"Небо коптят поезда
И гудят провода
И с бензином вода"

Чи-ко-ко

[Соло]

"Небо коптят поезда
И гудят провода
И с бензином вода"

Интро:

e|-------------------------------------------------|
B|-------------------------------------------------|
G|-------------------------------------------------|
D|-----3-4-5-4-5-4-5-5---------3-4-5-4-5-4-5-5-4-3-|
A|-3-6-----------------6-3-3-6---------------------|
E|-------------------------------------------------|

- 4 раза!!! (или я чего-то не понимаю)

Соло:

e|-------------------------------------------------|
B|-------------------------------------------------|
G|-------------------------------------------------|
D|---5---6-5-3------3--6-5-3------5--6-5-3---------|
A|-3------------5-6-----------5-6-----------5-6-3--|
E|-------------------------------------------------|

e|----------|
B|----------|
G|----------|
D|-7-7--7-6-|
A|----------|
E|----------|
Вверх

Мама, наливай!

 Am              Dm
Любил я женщин разных
 E              Am A7
Красивых и заразных,
Но любви не отыскал
Алкоголиком я стал.
припев:
 Am   Dm      E          Am A7
Мама, наливай я уж не мальчик
 Am           Dm
У меня в штана-а-ах
 E       Am A7   H
Перчик, а не пальчик,
 E       Am       A7
Перчик, а не пальчик.

Были у меня женщины
Были у меня бабы
Я хотел быть сильным
Оказался слабым.

припев.

Нету счастья на земле
И любви ведь тоже нет
А в газетах и в кино
Только ебля и минет.

припев.
Вверх

Мама, наливай! (2 вариант)

Am              F
Любил я женщин разных
 C              E
Красивых и заразных,
Но любви не отыскал
Алкоголиком я стал.
припев:
 F     C      E          Am C
Мама, наливай я уж не мальчик
 F             C
У меня в штана-а-ах
 F       E       Am
Перчик, а не пальчик,
 F       E       Am
Перчик, а не пальчик.

Были у меня женщины
Были у меня бабы
Я хотел быть сильным
Оказался слабым.

припев.

Нету счастья на земле
И любви ведь тоже нет
А в газетах и в кино
Только ебля и минет.

припев.
Вверх

Матросы

[Интро]

Am Dm
Сидели два матроса курили папиросу,
Dm Am E7 Dm
А что за папиросу осталось под вопросом,
А что за папиросу осталось под вопросом.

рифф

"Герцеговина Флора" была тогда не в моде,
Курила вместе с ними труба на пароходе,
Курила вместе с ними труба на пароходе.

рифф

Стоял тогда над морем абсолютный штиль,
А мир висел на волоске, горел уже фитиль,
А мир висел на волоске, горел уже фитиль.

Интро:

Am G Am G Am
e|--------------------------------------------|
B|--------------------------------------------|
G|--------------------------------------------|
D|--------------------------------------------|
A|-7-7-6-5--5-5-4-3--7-7-6-5--5-3-2-3-2-3-5-7-|
E|--------------------------------------------|

Am G Am G Am
e|--------------------------------------------|
B|--------------------------------------------|
G|--------------------------------------------|
D|--------------------------------------------|
A|-7-7-6-5--5-5-4-3--7-7-6-5--5-3-2-3---------|
E|--------------------------------------------|

Am G Am G Am G# Am
e|--------------------------------------------|
B|--------------------------------------------|
G|--------------------------------------------|
D|--------------------------------------------|
A|-7-7-6-5--5-5-4-3--7-7-6-5--5-3-2-----------|
E|-----------------------------------5b-4-5---|

Рифф играется также как интро :)


Вверх

Менеджер mp3

Всю песню: Am F Am E

Для меня деньги - бумага, для тебя - свобода.
На американскую мечту сегодня мода.
К этой мечте стремишься ты,
Работать роботом ради бумажной мечты.

Ты - менеджер среднего звена,
Ты не работаешь под, ты работаешь на.
Твой этот век, твоя компьютерная эра,
Главное - не человек, а его карьера.

Тебе повезло,		|Вот так повезло!
Ты не такой как все -	|Да, не как все!
Ты работаешь в офисе.	|Давай, давай, давай!
Тебе повезло,		|
Ты не такой как все -	|Ты счастливчик, парень!
Ты работаешь в офисе.	|Работай...!
Oh, yeah, baby...

Твоя судьба не дура и не злодейка,
Твой рубль бережёт копейка.
Step by step,
Пока от монитора не ослеп.

Пускай у тебя уже не стоит,
3ато начальник тебя благодарит.
Я не спорю, бабки нужны всем и всегда,
Но зачем так въ**ывать? Это беда!

Тебе повезло,		|
Ты не такой как все -	|Ты - король мира, парень!
Ты работаешь в офисе.	|Он у твоих ног!
Тебе повезло,		|
Ты не такой как все -	|Все бабы - твои!
Ты работаешь в офисе.	|Давай, въ**ывай!
Oh, yeah, baby...

Step by step, пока от монитора не ослеп. (4 раза)

Главное в жизни - определиться,
Где твоё место, и что ты за птица.
Ты рвёшь зубами, цепляясь за money,
Для меня счастье – свобода, для тебя – Дисней-Лэнд.

Тебе повезло,		|
Ты не такой как все -	|Все бабы - твои!
Ты работаешь в офисе.	|Оу, йе, мэм!
Тебе повезло,		|
Ты не такой как все -	|Конечно, не такой!
Ты работаешь в офисе.	|Ты - счастливчик, парень!
Oh, yeah, baby...
Ты работаешь в офисе... Oh my God...
Вверх

Миллион алых роз

Cm Fm
Миллион алых роз я исполню для вас
Fm G7 Cm
Помнишь как Алла пела этот дивный романс
Миллион алых роз все в слезах твои фары
Рвутся струны души, рвутся струны гитары

Я художник, почти, ты почти, что актриса
Эта песня про нас, как про нас всё Лариса
Жил художник один, шёл по жизни он чётко
Пока в жизни его не случилась решётка.

А актриса ждала, передачи носила
Вот такая была у любви этой сила
А потом её поезд в ночь увез, бля, куда-то
С лейтенантом ВэВэ укатила в Карпаты

А художник, почти, скоро вышел из зоны
На базаре скупал, алых роз миллионы
Слал он ей бандероли, всё цветы да записки
Только похую всё, этой суке Лариске.
Вверх

Мне бы в небо mp3

Am               E7
Руки, ноги dance голова бум-бум-бамп
F                E
Мои мозги похожи на кусок bubblegam
Можно же так, но лучше укориться
Я лично бухаю, а кто-то колется
   Припев:
 Am               E7
Мне бы мне бы в небо
 F                        E
Здесь я был, а там я не был
    Мне бы мне бы в небо
    Здесь я был, а там я не был
Новые районы: дома как корабли
Хочешь жить – набивай кулаки
Кто-то жрёт таблетки,а кто-то колется
Я лично бухаю, но могу ускориться
   Припев:
     Мне бы мне бы в небо
    Здесь я был, а там я не был
    Мне бы мне бы в небо
    Здесь я был, а там я не был
Всё это похоже на какую-то разводку
Наркотики нельзя, но можно водку
Газеты и журналы печатают муру
Дельфин будет жить
А я умру
   Припев:
    Мне бы мне бы в небо
    Здесь я был, а там я не был
    Мне бы мне бы в небо
    Здесь я был, а там я не был
Путёвка в небо выдаётся очень быстро
Вышел на улицу – случайный выстрел
Можно ждать его, но лучше ускориться
Я лично бухаю, а кто-то колется
   Припев:
    Мне бы мне бы в небо                     |
    Здесь я был, а там я не был              |
    Мне бы мне бы в небо                     |  2    РАЗА
    Здесь я был, а там я не был              |
Вверх

Мне бы в небо (2 вариант) mp3

Бас:

1|-------------------------------------------------------------|
2|------5-5-5--------------------------------------------------|
3|-3-3--------------6-6-6-6-6-------3-3-3-3-------5-5-5-5------|
4|-------------4-4-------------1-1-----------3-3---------------|

Ритм:

1|--3--4--0--3--|
2|--4--4--0--3--|
3|--5--5--0--4--|
4|--5--6--3--5--|
5|--3--6--3--5--|
6|--3--4--1--3--|

Соло:

1|-------------------------------------------------------------|
2|-------------------------------------------------------------|
3|--5--7--8--5--5--7--8--5--5--7--8--5--5--7--8--4--8--7-------|

4|-------------------------------------------------------------|
5|-------------------------------------------------------------|
6|-------------------------------------------------------------|

Руки, ноги дэнс, голова бум-бум-бам
Мои мозги похожи на кусок баблгам
Можно жить так, но лучше ускориться
Я лично бухаю, а кто-то колется

  Припев:

      Мне бы, мне бы, мне бы, в небо
      Здесь я был,  а  там  я  не  был
      Мне бы, мне бы, мне бы, в небо
      Здесь я был, а там я не был

Новые районы, дома как коробки
Хочешь жить здесь - набивай кулаки
Кто-то жрет таблетки, а кто-то колется
Я лично бухаю, но могу ускориться

  Припев

Все это похоже на какую-то разводку
Наркотики нельзя, но можно водку
Газеты и журналы печатают муру
Дельфин будет жить, а я умру

  Припев

Путевка в небо выдается очень быстро
Вышел на улицу, случайный выстрел
Можно ждать его, но лучше ускориться
Я лично бухаю, а кто-то колется.

   Припев
Вверх

Мне бы в небо (3 вариант) mp3

Басовое интро:
   Cm            G#
e|----------------------------
B|----------------------------
G|----------------------------
D|------5-5-5-5---------------
A|-3--3---------------6-6-6-6-
E|---------------4--4---------

   Fm            G
e|----------------------------
B|----------------------------
G|----------------------------
D|----------------------------
A|------3-3-3-3-------5-5-5-5-
E|-1--1----------3--3---------

Рифф:
e|----------------------------
B|----------------------------
G|----------------------------
D|----------------------------
A|-3--3-3-5-6--3--3-3-5-6-----
E|----------------------------

e|----------------------------
B|----------------------------
G|----------------------------
D|----------------------------
A|-3--3-3-5-6-------8-6-5\3---
E|-------------4--------------

 Cm                  G#
Руки, ноги дэнс, голова бум-бум-бам
Fm                     G
Мои мозги похожи на кусок buble-gum
Можно же так, но лучше ускориться
Лично я бухаю, а кто-то колется.

Мне бы в небо, в небо, в небо.
Здесь я был, а там я не был.
Мне бы в небо, в небо, в небо.
Здесь я был, а там я не был.

Рифф

Новые районы - дома, как коробки,
Хочешь жить - набивай кулаки.
Кто-то жрет таблетки, а кто-то - колется.
Лично я бухаю, но могу ускориться.

Мне бы в небо, в небо, в небо.
Здесь я был, а там я не был.
Мне бы в небо, в небо, в небо.
Здесь я был, а там я не был.

Рифф

Все это похоже на какую-то разводку:
Наркотики - нельзя, но можно водку.
Газеты и журналы печатают муру,
Дельфин будет жить... А я - умру!

Мне бы в небо, в небо, в небо.
Здесь я был, а там я не был.
Мне бы в небо, в небо, в небо.
Здесь я был, а там я не был.

Рифф

Путевка в небо выдается очень быстро
Вышел на улицу - случайный выстрел.
Можно ждать его, но лучше ускориться,
Лично я бухаю, а кто-то - колется.

Мне бы в небо, в небо, в небо.
Здесь я был, а там я не был.
Мне бы в небо, в небо, в небо.
Здесь я был, а там я не был.
Мне бы в небо, в небо, в небо.
Здесь я был, а там я не был.
Мне бы в небо, в небо, в небо.
Здесь я был, а там я не был.
Вверх

Мобильник

e|-12-15--15-12--17-15-17-15-17-15-17-15--17-19-

Соло небольшое:
e|-3-5-3-0-

Бас:
E|-0-0--0-0-8-8--8-8-5-5--5-5-3-3--3-3-0-0-
Вверх

Мои хуевые сны

            Am
Небо в говне, снова небо в говне
    Dm                    E
И не видно не звезд, ни луны
       Am
Они приходят ко мне, опять приходят ко мне
  Dm       E
Мои хуевые сны

   Dm         E             F                 E
Они заставляют меня метаться в холодном поту по постели
  Dm                          E
Их нельзя прогнать, от них нельзя съебаться
   F                E
Ох как они твари мне надоели
  Dm               E
Все эти мои - хуевые сны.

    Dm            E
И в каждом сне я вижу тебя
      F                      E
Ты говоришь о любви, ты пьешь мою кровь
    Dm              E
Ты выжигаешь все изнутри меня
          F
И я кричу сквозь ночь
       E
В пизду такую любовь
    Dm              E
Убирайся прочь и забирай с собой
  Dm          E       Am
Все эти мои у хуевые сны.

Все это играется перебором:
бас-3-2-1-2-3
бас-3-2-1-2-3
Вверх

Молодость

Hm

Hm
Дело было осенью ненастной
Em
Я ещё парнишкой тогда был
A
Шёл я ночью по Сенному рынку
F#
Шёл и беломорину курил.

Hm
В подворотне вдруг мелькнули тени
Em
Я подумал:"Что-то здесь не так"
A
Подошли ко мне, спросили время
F#
А один чувак жевал кулак.

    Hm                   Em
Эх, молодость, моя ты молодость!
A                  F#
Бабы, карты, пистолет!
     Hm                  Em
Эх, молодость, моя ты молодость!
F#                     Riff
Где мои семнадцать лет?

Hm  Em   A   F#

Понял я в чём дело очень быстро
В темноте я свой наган достал
Прозвучал в ночи ответный выстрел
Нападавший замертво упал

Не суди меня ты мама строго
Я чужого никогда не брал
А любил гулять я по Сенному
И за это в камеру попал.

Эх, молодость, моя ты молодость!
Бабы, карты, пистолет!
Эх, молодость, моя ты молодость!
Где мои семнадцать лет?

Riff:

  |---------------------------|
  |---------------------------|
  |-11-11---9-9---7-7---6-6---|
  |-x--x----x-x---x-x---x-x---|
  |-9--9----7-7---5-5---4-4---|
  |-x--x----x-x---x-x---x-x---|
Вверх

Не слышны в саду

Am Am G  Am - Филл

Am
Не слышны в саду даже шорохи,
G                     Am
Все здесь замерло до утра.
Am
Шлюхи прячутся по парадным,
G                Am

А на улицах - мусора
Dm                Am
Ловят девочек, ловят девочек,
G                         Am
Тех, что ночью не любят спать,
Чтоб в дежурке их, отделением
На халяву отъебать.
Вверх

Не со мной

Hm           G
Каждый день хожу на танцы
A         Hm
Этой раннею весной.
Ты танцуешь с кем угодно,
Только не со мной.

Не со мной,
Только не со мной! \2р.

Ты спроси, тебе ответят,
Что я самый здесь крутой!
Но ты танцуешь с кем угодно,
Только не со мной.

Не со мной,
Только не со мной! \2р.

Ты приличная девчонка,
А я перец шебутной,
Но ты танцуешь с каждым лохом,
Только не со мной.

Не со мной,
Только не со мной! \2*несколько р.
(Am,F,G,Am)
Вверх

Не со мной (2 вариант)

Am          Dm
Каждый день хожу на танцы
Gm          Am
Этой раннею весной.
Ты танцуещь с кем угодно,
Только не со мной.

Припев:
Не со мной,
Только не со мной!   x2

Ты спроси, тебе ответят,
Что я самый здесь крутой!
Но ты танцуещь с кем угодно,
Только не со мной.

Ты приличная девчёнка,
А я перец шебутной,
Но ты танцуещь с каждым лохом,
Только не со мной.
Вверх

Никого не жалко

Басовая партия в переложении на гитару

Куплет/проигрыш
E|-------------------------------------------------------------|
H|-------------------------------------------------------------|
G|-------------------------------------------------------------|
D|-------------------------------------------------------------|
A|--------7-7-7-7--------7-7-7-7----5-----5-5-5-5------7-7-7-7-|
E|-5---5-----------5----5-----------------5---------5---5------|

Припев
E|-------------------------------------------------------------|
H|-------------------------------------------------------------|
G|-------------------------------------------------------------|
D|-------------------------------------------------------------|
A|-------5-5--4-4--3-3--2-2-----------7-7-7-7--------7-7-7-7---|
E|--------------------------------5---5-----------5----5-------|

Соло на гармошке
Проигрыш
E|-------12-12-12--------|
H|--10-12----------12-10-|
G|-----------------------| 4 раза
D|-----------------------|
A|-----------------------|
E|-----------------------|

Припев
E|-10---10---10---10---10---10---10---10----12----------12-----|
H|----12---12---12---12---12---12---12---12----10-10-10---10-10|
G|-------------------------------------------------------------|
D|-------------------------------------------------------------|
A|-------------------------------------------------------------|
E|-------------------------------------------------------------|

Am           Am
Все мы герои фильмов про войну
Dm             Am
Или про первый полет на луну
Или про жизнь одиноких сердец
У каждого фильма свой конец

Dm
Никого не жалко, никого
Am
Ни тебя, ни меня, ни его
Никого не жалко, никого
Ни тебя, ни меня, ни его

Нет друзей и нет приятелей
Нет врагов и нет предателей
Многим из нас уже жить не хочется
Все мы дрочим или дрочимся

Никого не жалко, никого
Ни тебя, ни меня, ни его
Никого не жалко, никого
Ни тебя, ни меня, ни его
Вверх

Новый год

Am
Это случилось холодной зимой
			Dm
Люди спешили на праздник домой
			Am
Вижу в толпе ту, что всю жизнь искал
F			E
В сердце амур мне стрелою попал.


Кто-то с подарками едет в метро,
Клубы работают и казино
Я на тебя стою и смотрю
А в голове одно слово – люблю
Слово  люблю, слово люблю …А…Е

припев:

Am		Dm
Этот новый год
F				E
Мы влюбленные с тобою встретились
Am		Dm
И кремлевские часы
F				E
Будут бить для нас одних на свете.

Вот подошел к тебе я и сказал,
Что женщин круче тебя не видал
И попросил дать мне ответ
Любишь меня или нет?

Ты промолчала, но лучше всех слов
Был поцелуй твой, и был он таков,
Что в темном небе зажглись две звезды,
Две суперновых звезды.

припев:

Этот новый год
Мы влюбленные с тобою встретились
И кремлевские часы
Будут бить для нас одних на свете.
Вверх

Новый Год 2000

Am                                      E
Компьютеры зависли, и связи больше нет,
Am                                      E
Справляем новый год мы, на лучшей из планет.
Am                                      E
На циферблате только есть двойка и нули.
Am                                      Am
Как жаль что не дожили Джон Ленон и Брюс Ли.

Припев.
        E               Am
Смеёмся ты и я, а снами вся Земля,
        E                Am
Танцует и поёт под новый год.
        E               Am
Смеёмся ты и я, а снами вся Земля,
        E               Am
Танцует и поёт под новый гооооооод.

Am                                  E
Шампанское разлито, бакалы на столе,
Am                                      E
Тебе я очень нравлюсь, ты тоже очень мне.
Am                                   E
По телику заставка и скоро бой часов.
Am                                      Am
С тобой мне так приятно, что просто нету слов.

Припев.
        E               Am
Смеёмся ты и я, а снами вся Земля,
        E                Am
Танцует и поёт под новый год.
        E               Am
Смеёмся ты и я, а снами вся Земля,
        E               Am
Танцует и поёт под новый гооооооод.

Припев.
        E               Am
Смеёмся ты и я, а снами вся Земля,
        E                Am
Танцует и поёт под новый год.
        E               Am
Смеёмся ты и я, а снами вся Земля,
        E               Am
Танцует и поёт под новый гооооооод.
Вверх

Ну, погоди

    Am
А я тебя прошу который год -
Am        Gm
Ну дай ты мне хотя бы, хотя бы в рот
Gm        Am
А ты все крутишь-крутишь-крутишь бигуди
Am    Gm
И говоришь мне: - С еблей погоди!

Gm      Am
Ну, погоди-ди-диди-дидиди-ди!
Am      Gm
Ну, погоди-ди-диди-дидиди-ди!
Gm      Am
Ну, погоди-ди-диди-дидиди-ди!
Am      Gm
Ну, погоди, а, е, у, а, о, ы!

Соло.

А я тебе цветов дарил миллион
И был почти, почти в тебя влюблен
А ты все крутишь-крутишь-крутишь бигуди
И говоришь мне: - С еблей погоди!

Ну, погоди-ди-диди-дидиди-ди!
Ну, погоди-ди-диди-дидиди-ди!
Ну, погоди-ди-диди-дидиди-ди!
Ну, погоди, а, е, у, а, о, ы!
Ну, погоди!

Соло.

А я гожу, гожу,
гожу, гожу, гожу
гожу, гожу, гожу!

Соло:
e|--------------------------------
B|--------------------------------
G|--------------------------------
D|-7------------------------------  2 раза
A|---7--9----7--------------------
E|--------9-----7-9-5-7-8----7----

потом

e|--------------------------------
B|--------------------------------
G|--------------------------------
D|--------------------------------
A|-5------------------------------
E|-3----3-4-5---------------------
Вверх

Однажды

Am               G
Однажды приятель спросил: "Ну ты как?"
Dm                  E
Да вроде нормально, нормально, чувак.
Am              G
Потом покурили, еще поболтали,
Dm               E
Еще раз слетали, литровую взяли.

  Am
  Ну как ты?
  Am
  Да как-то...
  G
  И я, вроде тоже...
  Dm
  Тоска, брат
  Dm
  Тоска, блядь
  E
  Мою душу гложет

Припев:
   Am  G               Am
   О-О-О КАК МНЕ ХУЁВО-ВО
   О-О-ВО КАК МНЕ ХУЁВО-ВО
   О-ВО-ВО КАК МНЕ ХУЁВО-ВО
   О-ВО-ВО КАК МНЕ ХУЁВО-ВО
   О-ВО-ВО КАК МНЕ ХУЁВО-ВО
   Am   G  E               Am
   О-ВО-ВО КАК МНЕ ХУ-Ё-ВО-ВО  -> E - Вроде играется только
                                      в 1-ом куплете
Am
Не жизнь, а работа
G
Не пьянки, а рвота
Dm
Мы просто пехота
E
А в небо охота-а-а А-А-А

Припев.

 Am               G
 Однажды знакомый спросил: "Ну ты как?"
Dm                  E          Am
 А я всё нормально, нормально, чувак
Вверх

Отмычка

Dm                                     Gm
Я любил тебя душой, душой своей израненной,
        A7                   Dm
А ты любила и ходила в краденом.
Dm                                Gm
Воровал я для тебя и цветы тебе дарил,
        A7                            Dm
Ну а ты ушла к другому, я тебе не подходил

Припев:
    Dm                           Gm
   Я кричу где найти мне отмычку эту,

   A7                                   Dm
   Что от сердца твоего, но ее наверно нету

Я застукал вас вдвоем на малине у Петра
Кувыркались вы в постели аж до самого утра,
Мужичка зарезал я, да и тебя хотел,
Только видно между нами ангел пролетел


Припев.
Вверх

Папа Был Прав

Бас:
6-я струна: |5-5-----7-7-----|8-8-----9-9-8-7-|

Проигрыш на втором стихе куплета:
3-я струна: |----2/5-----2/5-|----2/5-----2/5-|

Проигрыш на припеве:
3-я струна: |2-5-4-5-2-5-4-5-|2-5-4-5-6-6-5-4-|

Всю песню - аккорд Am.

	

Твой папаша твердил тебе с детских лет:
"В жизни, детка, не главное - звон монет.
В жизни, детка, есть вещи куда поважней,
В жизни деньги - последнее дело, ей-ей."

Ну вот что такое советы, и что тебе в них,
Если вдруг подвернулся престижный жених?
И пришёл тот час, когда встал вопрос:
Либо деньги всерьёз, либо счастье всерьёз.

	Припев:

	Папа был прав! Папа был прав! Дура! Come on!
	Папа был прав! Папа был прав! Дура! Come on!
	Папа был прав! Папа был прав! Дура! Come on!
	Папа был прав! Папа был прав! Дура! Come on!
	Папа был прав! Папа был прав! Дура! Yeah!
	Папа был прав! Папа был прав! Дура! Come on!
	Папа был прав! Папа был прав! Дура! Yeah!
	Папа был прав! Папа был прав! Дура!

Ты в порядке, не так ли, в твои двадцать семь?
Ты имеешь всё, пожалуй, кроме проблем.
Имеешь внешность, манеры и выгодный брак,
Ты взяла своё, но что-то всё не так.

Ты взяла своё, но ты всё время одна,
Тебе приходится пить эту чашу до дна.
Ты боишься, но, всё же, придётся признать,
Что друзей не купить, а любовь не продать.

	Припев.

Всей птичке пропасть, коль увяз коготок,
Ты всегда будешь с тем, у кого кошелёк.
И тебе всё труднее с каждым днём, это факт,
Но ты опять продлеваешь с собою контракт.

Вот бы всё повернуть, всё сначала начать, пройти,
Да только в те времена больше нету пути.
И лишь во сне за тобою идёт по пятам
Твой единственный парень, оставшийся там.

	Припев.
Вверх

Парнишка

Am Dm
Он был парнишкой малых лет,
E7 Am
Работал вором на вокзале,
В один прекрасный летний день
Его менты с поличным повязали.

Am Dm
Они ломают ему руки
E7 Am
И керзачами бьют бока,
Dm Am
А он кричит, харкая кровью:
E7 Am
- Не надо, дяденька!

Ботинки месят его тело,
Ох, тяжелы ботинки эти!
Его загубят, ох, не за дело,
А чтоб лучше жизнь была на этом свете.

Они ломают ему руки
И керзачами бьют бока,
А он кричит, харкая кровью:
- Не надо, дяденька!

Он был парнишкой малых лет,
Работал вором на вокзале,
В один прекрасный летний день
Его менты с поличным повязали.

Они ломают ему руки
И керзачами бьют бока,
А он кричит, харкая кровью:
- Не надо, дяденька!
А он кричит, харкая кровью:
- Не надо, дяденька!

Вверх

Пидарасы

C Am C Am
В черном-черном городе темными ночами
Неотложки черные с черными врачами
Едут и смеются и песенки поют,
Люди в черном городе словно мухи мрут.

C (один раз сыграть аккорд)
А мне - все по хуй:
Am (один раз сыграть аккорд)
Я сделан из мяса
F (один раз сыграть аккорд)
И Самое страшное, что может случиться:
Fm (долго и весело лупить по струнам)
СТАНУ ПИДАРАСОМ!!!!!
СТАНУ ПИДАРАСОМ!!!!!

Кто-то ищет выход, кто-то ищет клад,
Кто-то любит бабки, кто-то автомат.
Кто-то бежит, а кто-то стреляет,
Кто-то находит, а кто-то теряет.

А мне - все по хуй:
Я сделан из мяса
И Самое страшное, что может случиться:
СТАНУ ПИДАРАСОМ!!!!!
Вверх

Письма mp3

Dm           Gm
Яблони в цвету стояли,
C         F  A
На дворе весна,
Dm         Gm
В армию идти служить
C            F
Очередь пришла,
Gm                C
Ты говорила, что будешь ждать,
  F             Dm
Но ты тогда врала,
Gm              C
Не сберегла ты нашей любви,
A            Dm
Нашей любви не сберегла.

Dm             Gm
Письма каждый день тебе писал,
             Dm
На конверте сердце рисовал,
              A
Но ни строчки от тебя в ответ,
            Dm             D
Любишь или нет, любишь или нет.
               Gm
Письма каждый день тебе писал,
             Dm
На конверте сердце рисовал,
              A
Но ни строчки от тебя в ответ,
            Dm
Любишь или нет, любишь или нет.

В армии служить непросто,
Если никто не ждет,
Может быть с другой девчонкой
В жизни мне повезет.
Будет она мне письма писать,
Будет меня любить,
Но нашей с тобой первой любви
Мне никогда не забыть.

Ведь... Письма каждый день тебе писал,
На конверте сердце рисовал,
Но ни строчки от тебя в ответ,
Любишь или нет, любишь или нет.
Письма каждый день тебе писал,
На конверте сердце рисовал,
Но ни строчки от тебя в ответ,
Любишь или нет, любишь или нет.

Ла-ла-лай... ла-ла-ла-ла-ла-ла!

            Dm
любишь или нет!
Вверх

Привет, Джимми Хендрикс!

e|---------------------------1------1------------3-
Н|---1-----0*----------1-----3------1------1-0-1-3-
g|-0-0-0-2-0-----2*-0--0*----2------2---0*-2*----4-
d|---2-----2-2-2-3---3-2--------0-2-3*-3---3-----5-
a|---3-----2-----3-----3-3-3--------3------3-----5-
e|-----------------------------------------------3-
     C     Em    F     C     Dm     F      F     G


e|---0*--------------------0-----------------------------
Н|---1-3-1-0-1-3*---1*-0-0-0*----1-----1------1*-0-------
g|-0-0---------4-2--2---2--0-----2*-0--0-----------2-4---
d|---2---------5--3-2------2-2-2-3---3-2-------------5---
a|---3---------5----0------2-----3-----3*-3-3-3------5---
e|-------------------------------------------------------
     C         G    Am    Em     F     C    F        G


e|--0*------------------------------------------
Н|--1-3-1-01-3*----1*-0-----0*----1*-01*-01*-01-
g|--0--------0-0-0-2---2-02-0-----2-2-2-2-2-----
d|--2-----------------------2-2-2-3---3---3-----

a|--3--------2-----0--------------3---3---3-----
e|-(0)------------------------------------------
    C  Am   Em7   Am       Em     F

   ^
e|-1*-0-----0*----------------------------------------------
Н|-3---3-13-1-1-1-3*-1-0--0-1*----1*-0--1--------------0-1*-
g|-2--------2-----2------2--2-2-2-2---2-0*--------0*-2*--0--
d|-0--------------0---------------3-----2---------2--3---2--
a|----------0---------------0-----3-----3-3-3-----3--3---3--
e|----------------------------------------------------------
   Dm       Am    Dm        Am    F     C         F      C
Вверх

Прогноз погоды

E|--------------------------------------------------11---------|
B|--------------------------------------------9/8--------------|
G|-------------------------------------------------------------|
D|-------------------------------------------------------------|
A|-------------------------------------------------------------|
E|---7--5--3--7--5--3--7--5--3--7--5--3---8--------------------|

E|-------------------------------------------------------------|
B|-------------------------------------------------------------|
G|------------------------8v-----------------------------------|
D|-------------------------------------------------------------|
A|-------------8-----------------------------------------------|
E|-----8-8-8-8---8-9-------------------------------------------|

E|-------------------------------------------------------------|
B|----------------------------11-11-11-11-11-11/10-10-10-10-10-|
G|-------------------------------------------------------------|
D|-------------------------------------------------------------|
A|-------------------------------------------------------------|
E|-7-5-3-7-5-3-7--5--3--7--5--3---8----------------------------|

E|-------------------------------------------------------------|
B|-10-10-10-10-------------------------------------------------|
G|---------------8-И тут начинается аккомпанемент...-----------|
D|-------------------------------------------------------------|
A|-------------8-----------------------------------------------|
E|-----8-8-8-8-------------------------------------------------|

 Am
По телеку идет прогноз погоды
 Am
Диктор всех поздравил с новым годом
 Dm
А ты мне бухнуть не даешь ни фига
 E7                     E     Am
У нас в отношениях сплошная пурга

По телеку идет погоды прогноз
У нас в отношениях серьезный мороз
А если прикинуть по Цельсию бля
К тебе охладел я почти до нуля

Не надо истерик, вот этих бля слез
Это всего лишь погоды прогноз...
Вверх

Прогноз погоды (2 вариант)

Intro + solo: Fm Bm C7
    x3
A|--3-1---|-3-1---4------------3------|
E|------4-|-----4------3-3-3-3---4-1--|

     Fm
По телеку идёт прогноз погоды
Диктор всех поздравил с новым годом
   Bm
А ты мне бухнуть не даёшь ни фига
    C7              Fm
У нас в отношениях сплошная пурга
solo
Пурга

По телеку идёт погоды прогноз
У нас в отношениях серьезный мороз
А если прикинуть по Цельсию бля
К тебе охладел я почти до нуля

Не надо истерик, вот этих, бля, слёз
Это всего лишь погоды прогноз
Вверх

Пуля mp3

Gm
Я бегу, бегу на волю,
                     Cm
А за мной, за мной - погоня.
                Gm
А за мной бегут солдаты,
       D#7       D
Вместо неба - их автоматы.

Вставочка на басу там идет под D такая:
A|----------3-5-5-5-3-----|
E|-3----3-4-----------4-3-|

Я бегу, ноги вязнут,
Да в снегу по пояс грязном.
Все напрасно, а все напрасно,
Станет снег от крови красным.

Припев:
Gm         Cm
Злая пуля, дай мне волю,
      D               Gm
Чтобы в сердце и чтоб без боли.
Злая пуля, дай мне волю,
Чтобы сразу и чтоб без боли.

Проигрыш:

   Gm     Cm     D#7       Gm
3|--------3------5-3-------3---|
4|---5------5--------5-------5-|   2p.
5|-5-------------------5-------|

А погоня ближе-ближе,
Снайпера хуячут с крыши,
Но не дамся я им живым,
Лучше сдохну здесь молодым.

Припев
Проигрыш
Вверх

Разбитое сердце

Am
Ты все позабыла, шо меж нами было
                Dm
И как я тебя любил
               Am
Ты меня убила тем, что не любила,
E                  Am
Но тебя я не забыл

Припев: - 2х
   Am                   Dm
   Ты ж мое сердце разбила
   Am               E
   Как бутылку об стол
   Am              Dm
   Ты меня не любила
   F               E
   И я на хуй пошел

Ты мне говорила, шо меня любила
Но не нужно было врать,
Наплевала в душу и лапши на уши
Мне навешала опять

Припев. - 2х
Вверх

Разбитое сердце (2 вариант)

Gm                                               Cm
Ты все позабыла, что меж нами было и как я тебя любил
               Gm                 D(7)           Gm
Ты меня убила тем, что не любила, но тебя я не забыл

Припев:
    Gm             Cm
   Ты мое сердце разбила,
          Gm       D(7)
   Как бутылку об стол
   Ты меня не любила,
   И я на хуй пошел

Ты мне говорила, что меня любила, но не нужно было врать
Наплевала в душу и лапши на уши мне навешала опять

Припев. - 2x
Вверх

Резиновый мужик

Вступ:Am
F
Я - резиновый мужик
Ты - резиновая баба
Мы ебёмся без любви
            E
Нам её вообще не надо
Ой, не трогают меня
Твои сиськи, твои пальцы
Ну не сводит по утрам
Силиконовые яйца
Am     F
СУ-У-Й Х-У-У-Й
Вверх

Руки из карманов

Em
Руки из карманов,
Где твой документ?
Сказал мне на Московском
Один прохожий мент,
Am
А я с баяном:
А вот он Я!
H7
А это что?
Em
А это музыка моя!


Руки из карманов,
Где твой документ?
Сказал на Ленинградском
Один прохожий мент,
А я с баяном:
А вот он Я!
А это что?
А это музыка моя!

Это музыка моя!!

Вот так вот!!

Это музыка моя!!
Вверх

Руки из карманов (2 вариант)

Gm
- Руки из карманов,
Где твой документ?
Сказал мне на Московском
Один прохожий мент,
Cm
А я - с баяном:
- А вот он Я!
D
- А это что?
D                Gm
- А это музыка моя!

Соло - 2 раза.

- Руки из карманов,
Где твой документ?
Сказал на Ленинградском
Один прохожий мент,
А я - с баяном:
- А вот он я!
- А это что?
- А это музыка моя!

Соло - 2 раза.

Это музыка моя!!


Вот так вот!!

Это музыка моя!!

Соло - 2 раза.

Соло:
   Gm
e|--------------------------------------
B|--------------------------------------
G|--------------------------------------
D|--------------------------------------
A|-----5-3--------5-6-5------5-6-5-3-5--
E|-3-6-----6--3-6--------3-6------------

- 2 раза, а потом еще

   Cm
e|--------------------------------------
B|--------------------------------------
G|--------------------------------------
D|-----5-3--------5-6-5--5-5-5-3--------
A|-3-6-----6--3-6----------------6-5-3--
E|--------------------------------------
Вверх

Света

Hm        E         F#           Hm
На скамеечке вдвоем мы с тобой сидим,
Hm        E            F#   Hm
Разные слова друг-другу говорим,
Hm        E
Я купил тебе конфеты,
F#
Ты люби меня за это.

Hm     F#     E      E F# Hm
Света, Света, Света.
Hm     F#     E      E F# Hm
Света, Света, Света.

Летний сад закрыт давно и потушен свет,
Защитит нас от врага папин пистолет,
На последний рубль, Света,
Я купил тебе конфеты.

Света, Света, Света.
Света, Света, Света.
Света, Света, Света.
Света, Света, Света.

Не смотри, ты Света, так на мой наган,
Я обычный питерский дворовый хулиган,
На, последний рубль, Света,
И люби меня за это.

Света, Света, Света.

Интро:
   Hm              F#       Hm
e|------------------------------------------|
B|-----3-------3-------2----5-4-3-----------|
G|---4---4---4---4---3---3--------4---------|
D|-4-------6-------4------------------------|
A|------------------------------------------|
E|------------------------------------------|
Вверх

Свобода

Всю песню - Hm Hm D A

Проигрыш:
 Hm                               D               A
|----2---3-2---------2---3-2-----|----2---3-2---------------------|
|--3---3-----3-----3---3-----3---|--3---3-----3-------2---3-2-0---|
|4-------------4-4-------------0-|2-------------2---2-----------2-|
|--------------------------------|----------------2-----2---------|
|--------------------------------|--------------------------------|
|--------------------------------|--------------------------------|


Только когда плывёшь против теченья,
Понимаешь, чего стоит свободное мненье.
Звенья собираются в длинные цепочки,
Линия жизни становится точкой.

Строчки и дни, стишок за стишком,
Шьют твоё дело с душой и огоньком.
Здесь, за решёткой, начальник-полковник,
Моя свобода - это радиоприёмник.

	Я свободен словно птица в небесах,
	Я свободен, я забыл, что значит страх.

Быть другим - это значит быть всегда одному.
Выбирай, что тебе - суму или тюрьму.
Никому просто так не даётся свобода,
Из неё нет выхода, и в неё нет входа.

Сода для того, чтобы чай был черней,
Понятно? Тогда и себе налей.
Я участвую в каком-то сидячем марафоне,
Хорошо, есть приёмник в магнитофоне.

	Я свободен словно птица в небесах,
	Я свободен, я забыл, что значит страх.

Чай, папиросы, ответы на вопросы,
Допросы, опять допросы.
Мой приёмник - односторонняя связь,
Тире и точки, арабская вязь.

Я не могу сказать, но зато я слышу,
Я видел, как крыса становится мышью.
То, что не стереть, как сильно ни три,
Свобода - это то, что у меня внутри.

	Я свободен словно птица в небесах,
	Я свободен, я забыл, что значит страх.
Вверх

Свободная

F#                    Hm
В этот миг смотрим ты и я,
Только я - за решеткой темницы,
Ну а ты, слава богу - свободная.

Свободная ты, свободная,
Ты свободная, ты свободная,
Слава богу, ты свободная.
Слава богу, ты свободная.

Пишешь мне: "Все будет нормально,
  не грусти, мол, не скучай"
Не боюсь я, не верю, не плачу,
Только кончился черный чай.

Чачачай, че-че-черный, черный чай,
Чачачай, чер-че-черный, черный чай,
Чачача, че-че-черный, черный чай,
Чачачай, че-че-черный, черный чай.

Ты свободная, ты свободная,
Слава богу, ты свободная.
Слава богу, ты свободная.
Слава богу, ты свободная.

Может быть на одну и ту же птицу
В этот миг смотрим ты и я,
Только я - за решеткой темницы,
Ну а ты, слава богу - свободная.

Ты свободная, свободная,
Свободная, свободная...
Вверх

Свободная (2 вариант)

 Dm(V)                      A(V)
Может быть на одну и ту же птицу
                      Dm(V)
В этот миг смотрим ты и я,
                          A(V)
Только я за решеткой в темнице,
                         Dm(V)
Ну а ты, слава Богу, свободная

Припев:
       Dm(V)            A(V)
   Ты свободная, ты свободная
                       Dm(V)
   Ты свободная, ты свободная
                     A(V)
   Слава Богу, ты свободная
                     Dm(V)
   Слава Богу, ты свободная

Пишешь мне, мол, все будет нормально,
Не грусти, мол, не скучай,
Не боюсь я, не верю, не плачу,
Только кончился черный чай

Ча-ча-ча-чай че-черный, черный чай
Ча-ча-ча-чай че-черный, черный чай
Ча-ча-ча-чай че-черный, черный чай
Ча-ча-ча-чай че-черный, черный чай

Припев.
Вверх

СКА

Am Dm
Я знаю одно слово из трех букв,
Am E7
а в этом слове заложен ГРУВ
Am Dm
Хоккейная команда, с берегов НЕВЫ
Am E7
И музыка, которую играем мы

Am Dm Am
С(тугу-дугу)-К(тугу-дугу)-А(тугу-дугу)
E7
СКАААА..ДАВАЙЙ
Am Dm Am
С(тугу-дугу)-К(тугу-дугу)-А(тугу-дугу)
E7
СКАААА..ДАВАЙЙ

Слово СКА похоже на хуй, потому что
такое же количество букв
Но в слове хуй, гораздо меньше
Этот самый ГРРУУВВВ

С(тугу-дугу)-К(тугу-дугу)-А(тугу-дугу)
СКАААА..ДАВАЙЙ
С(тугу-дугу)-К(тугу-дугу)-А(тугу-дугу)
СКАААА..ДАВАЙЙ
Вверх

Собака Баскервилей

Am              G
Я не выключаю свет в квартире
E            Am
И не засиживаюсь в сортире
Я поймал реального глюка -
Ты - Баскервильская сука

Наш сосед как Бэрримор
Выходит на площадку, а в руках топор
Он тоже ловит реального глюка -
Ты - Баскервильская сука

Когда тебя ебут, ты орешь вот так
Что у всех соседей случается столбняк
Они тоже ловят реального глюка -
Ты - Баскервильская сука!
Вверх

Столько не поют

Dm A Dm
Я люблю сигареты, мне очень нравится это -
Сокращается жизнь на 15 минут.
Напиваюсь я так, чтоб не помнить я где
Gm Dm A Dm
И не помнить зачем, и как меня зовут.

Dm A (бой не такой, как в куплете)
Сколько я живу -
A Dm
Столько не живут.
Dm A
Сколько я пою -
A Dm
Столько не поют.
Сколько я живу - столько не живут.
Сколько я пою - столько не поют.

Сколько он живет - столько не живут,
Сколько он поет - столько не поют.
Сколько он живет - столько не живут,
Сколько он поет - столько не поют.
Вверх

Стоп-машина

Am
Жизнь моя, как электричка,
E
Чая нет и нету спичек,
G C
А соседи по вагону, как один, козлы!
Dm
Еду я на третьей полке,
Am
И сижу как на иголках,
E E7
Свои нервы завязав в узлы.

Dm Am
Припев: Кричу я стоп – машина, стоп – машина!
Dm Am
Сил у меня ведь больше, больше нет!
Dm Am
Кричу я стоп – машина, стоп – машина!
F# H7 E7
Я возвращаю билет!

Двадцать пятый годя еду.
Еду, еду, не доеду,
Еду, еду, не доеду до конца.
Кровь и пот, чужие лица,
Все мелькает и кружится,
И протухла чья-то колбаса!

Припев.

Хочется мне, хочется, уйти от одиночества!
Вот я у ларька соображаю на троих.
А собутыльники мои, тупые, блядь, как глухари!
Я их люблю и ненавижу их!

Припев.
Вверх

Страдаю

Н7       Em
 Стра-а-даю!
               Н7
Я по тебе страдаю!
      C
Бу-у-хаю!
                Н7
Десятый день бухаю!

    Em
Мечтаю!
             Н7
Я о тебе мечтаю!
     C
Страдаю!
               Н7
Я по тебе страдаю!

Проигрыш:

Em      Em+ Em
Н7      Н7+ Н7
C
Н7      Н7+ Н7


Em      Н7
Лью, ночами слезы лью
C    Н7
Я тебя люблю, люблю
Em      Н7
Лью, ночами слезы лью
C    Н7
Я тебя люблю, люблю

Проигрыш:

 Em                        Н7              C
                  Н7
0-0-3-5-3-2---------2-2-2-2-0-0-3-5-3-2---------2--2------------
0-0---------5-3-----0-0-0-0-1-1---------5-3-----0--0----tremolo-
0-0-------------5-4-2-2-2-2-0-0-------------5-4-2--2---2-/--14--
2-2-----------------1-1-1-1-2-2-----------------1--1---1-/--13--
2-2-----------------2-2-2-2-3-3-----------------2--2---2-/--14--
0-0-------------------------------------------------------------


Em      Н7
Лью, ночами слезы лью
C    Н7
Я тебя люблю, люблю
Em      Н7
Лью, ночами слезы лью
C    Н7
Я тебя люблю, люблю

etc...
Куплеты могут повторяться очень долго


Em+            Н7+

--0---        --2--
--1---        --1--
--0---        --2--
--2---        --0--
--2---        --2--
--0---        -----
Вверх

Страдаю (2 вариант)

    Fm                  Hbm6
Страдаю, я по тебе страдаю,
   C7                  Fm
бухаю, десятый день бухаю.
 Fm                Hbm6
Мечтаю, о тебе мечтаю,
    C7                  Fm
страдаю, я по тебе страдаю. Fm C7 Hbm6 C7

 Fm   C7
Лью ночами слезы, лью.
Hbm6  C7
Я   тебя люблю, люблю.
 Fm   C7
Лью ночами слезы, лью.
Hbm6  C7
Я   тебя люблю, люблю. Fm Hbm6 C7 Fm
Вверх

Таблетка

[Интро]

Am Dm
Недавно я в последней электричке,
E Am
С одной девчонкой познакомился,
И вот уже 4 дня,
Не жизнь, одна бессонница

Dm Am
Доктор, выпиши таблетку,
E Am
Дай таблетку от любви!
Не могу я жить без Светки,
Хоть мне сердце с корнем рви.
Не могу я жить без Светки,
Хоть мне сердце с корнем рви.

Пытался я ее забыть,
Но стал тогда я часто напиваться,
Но не залечишь в сердце рану,
Когда любовь - твое несчастье.

Доктор, выпиши таблетку,
Дай таблетку от любви!
Не могу я жить без Светки,
Хоть мне сердце с корнем рви.
Не могу я жить без Светки,
Хоть мне сердце с корнем рви.


Интро:

Am Dm
e|---------------------------------------------|
B|---------------------------------------------|
G|---------------------------------------------|
D|---------------------------------------------|
A|-0-0-2-3-0--3-2-1-0------0-0-2-3-0--3--------|
E|--------------------------------------3-2-1--|

Dm Am E7
e|---------------------------------------------|
B|---------------------------------------------|
G|---------------------------------------------|
D|---------0----------------0-------2--5-4-3-2-|
A|-0-0-2-3---3-2-0--0-0-2-3---3-2-0------------|
E|---------------------------------------------|
Вверх

Танго (Я так люблю тебя)

Интро: Hm Hm6 Hm Hm6 Hm F#7

Hm                  F#7
В городе холодном и фабричном,
Em                       F# F E   D
Где сломались все мои мечты,
Понял я давно, что в этой жизни,
Мне нужна одна лишь только ты.

Я так люблю тебя,
Я так люблю тебя, моя родная!
Что без любви твоей
Я просто пропада-да-да-да-даю!

Ты мне часто изменила,
С мужиками или без,
В моем сердце оставляла,
Кровоточащий надрез.

Я так люблю тебя,
Я так люблю тебя, моя родная!
Что без любви твоей
Я просто пропада-да-да-да-даю!

Ты меня не понимала
И сжигала все мосты,
А однажды ты сказала,
Что меня не любишь ты!

Я так люблю тебя,
Я так люблю тебя, моя родная!
Что без любви твоей
Я просто пропада-да-да-да-даю!
Вверх

Танцы mp3

Cm
Я пришел к тебе на день рожденья,
Не из любви, а чтоб салата пожрать,
Fm Cm
И водки хлобыстнул и стало настроенье,
G Cm
Музыку включай, я буду танцевать.

Cm
Музыку включи мне музыку,
Дайте мне музыку
G
Я буду танцы танцевать.
Cm
Музыку дайте мне музыку,
Включите музыку
G
Я буду танцы танцевать.
G
Танцы танцевать, танцы танцевать,
G
Танцы танцевать, танцы танцевать.

Гости твои не полюбили меня,
"А что это за тип? Ему пора к кровать!",
А я залез на стол, и ногами блядь давай по хуям,
Музыку включай, я буду танцевать!

Музыку дайте мне музыку,
Включите музыку
Я буду танцы танцевать.
Музыку включи мне музыку,
Дайте мне музыку
Я буду танцы танцевать.

Танцы танцевать, танцы танцевать, уйди,
Танцы танцевать, танцы танцевать!

Один твой знакомый, который самый толстый,
Сказал мне: "Какой-то некультурный ты, блядь!"
А я ему двинул ногой по роже,
Музыку включай я буду танцевать.

Музыку дайте мне музыку,
Включайте музыку
Я буду танцы танцевать.
Музыку включай мне музыку,
Дайте мне музыку
Я буду танцы танцевать.

Танцы танцевать, танцы танцевать,
G Cm
танцы танцы ...цевать!
Вверх

Таня mp3

Intro:

   Gm    Cm                      D
1||-6-------------------------------------||
2||-8----------------------------7--------||
3||-7---7--8--10--6h7h8--7-------7--------||
4||-8----------------------------7--------||
5||-------------------------10---5--------||
6||---------------------------------------||

Intro:

    Gm                          Cm                      (2 раза)
1||-3--3-3-3-3-3-3-3-3--3--3----3-3-3-3-3-3-3-3-3--3--3--||
2||-3--3-3-3-3-3-3-3-3--4--3----4-4-4-4-4-4-4-4-4--3--4--||
3||-3--3-3-3-3-3-3-3-3--3--3----5-5-5-5-5-5-5-5-5--5--5--||
4||-5--5-5-5-5-5-5-5-5--5--5----5-5-5-5-5-5-5-5-5--5--5--||
5||-5--5-5-5-5-5-5-5-5--5--5----3-3-3-3-3-3-3-3-3--3--3--||
6||-3--3-3-3-3-3-3-3-3--3--3----3-3-3-3-3-3-3-3-3--3--3--||

    Gm                          Cm            (2 раза)
1||-3--3-3-3-3-3--3--3----3-3-3-3-3--3-3-3----||
2||-3--3-3-3-3-6--4--3----4-4-4-4-6--4-4-4----||
3||-3--3-3-3-3-3--3--3----5-5-5-5-3--3-3-3----||
4||-5--5-5-5-5-3--3--5----5-5-5-5-5--5-5-5----||
5||-5--5-5-5-5-5--5--5----3-3-3-3-3--3-3-3----||
6||-3--3-3-3-3-3--3--3----3-3-3-3-3--3-3-3----||

(в проигрышах и припевах Gm и Cm
лучше играть с вариациями как в Intro)

Cm
Отцвели в саду тюльпаны,
Fm
От меня ушла Татьяна.
Cm
Буду с мужиками я ходить

Припев:
Fm Cm
На Фонтанку водку пить

проигрыш: Cm Fm

и снова как в начале припева:
Fm Cm
На Фонтанку водку пить!
С мужиками водку пить!

Куплет.
Вечером я сяду да у окошка,
Только во дворе ебутся кошки.
Это весна пришла,
Припев.
Таня от меня ушла.
проигрыш: Cm Fm

и т.д.
Заливал беду я пивом,
Но тоска не проходила.
Только печаль пришла,
Таня от меня ушла.

Таня от меня ушла!
Таня от меня ушла!
Вверх

Терминатор

Hm Em
Растворился я в тебе, как в океане-море
A7 F#7
Ты прощаешься со мной - чао бамбино сорри
Сбила ты меня с дороги не найду фарватер
Буду жить теперь один - я как терминатор!

Ты прощаешься со мной - чао бамбино сорри
Для меня теперь любовь - это только горе
Две кости и белый череп, вот моя эмблема
Называй меня теперь терминатор НЕМО!
Вверх

Только с тобой

Am Dm
Только с тобой одной сегодня буду танцевать,
E Am
Только тебя одну сегодня буду целовать,
Только с тобой одной сегодня буду танцевать,
Только тебя одну я буду в губы целовать.

Только тебе одной я буду лютики дарить,
Только тебя одну сегодня буду я любить,
Только с тобой одной сегодня буду танцевать,
Только тебя одну сегодня буду я ебать!
Вверх

У меня есть всё

Intro: Cm B

Cm B
Иду по улице с довольной рожей
Cm B
Мне удивляется каждый прохожий
Cm B
На ногах сандалии на улице лето
(О, лето: о, лето)
у меня есть всё (у него есть всё)
у меня есть всё (у него есть всё)
у меня есть всё... и ещё вот это:

4|-----1-5-3-1-5------|
5|--3-------------3---|

припев...

Cm B Cm B
Полные карманы (ла-ду-да-ри-ду-да)
Ма-рихуаны...(уапа-па-ра-ра)
Полные карманы (ла-ду-да-ри-ду-да)
Ма-рихуаны......(уапа-па-ра-ра)
Трррррр... еху...

Иду по улице с довольной рожей
Навстречу менты: "Попался Сережа!"
Ты что начальник не серчай
Какая трава? Какая трава?
Я вообще не знаю что такое трава
А это, а это, а это зелёный чай
Вверх

Французская помада

[интро]

[рифф]

Fm Cm
Ты сегодня французской помадой
G Cm
Напомадила губы свои,
А мне кажется будто измазан
Весь твой рот в моей алой крови.


[рифф]

Я тебя умолял будь моею,
Заебался пиздеть про любовь,
Но не хочешь мне хуй пососать ты,
Любишь ты лишь сосать мою кровь.


[рифф]

Ааааа....


Интро:

Cm G Fm G
e|----------------------------------------------|
B|----------------------------------------------|
G|----------------------------------------------|
D|------3-----------------------------5-3-------|
A|-3--6---6-----5-6-5-----3-5-3-----6-----6-5-3-|
E|-----------3---------1---------3--------------|


Рифф:

Cm G
e|----------------------------|
B|----------------------------|
G|----------------------------|
D|----------3-----------------|
A|-3-3-3--6---6---------5-6-5-|
E|---------------3-3-3--------|

Fm G
e|----------------------------------|

B|----------------------------------|
G|----------------------------------|
D|------------------------5-3-------|
A|--------3-5-3---------6-----6-5-3-|
E|-1-1-1---------3-3-3--------------|
Вверх

Хип-Хоп mp3

Am Dm E Am

Am
Ты не жди меня, мама, хорошего сына,
Am                            Dm
Твой сын не такой, как был вчера.
Dm
Вчера я был рокер, вчера я был рейвер.
  E7                         Am
Сегодня хип-хоп нам делать пора.

Припев:

Am
Оп, хоп, хип-хоп, оп, хоп, хип-хоп,

Dm                E          Am
Оп, хоп, хип-хоп, делаем хип-хоп.

Штаны и панаму купи ты мне, мама,
И ролики тоже купи.
Хип-хоп это, мама, хип-хоп это, мама
Вот то, что сейчас в нашей бродит крови.

Припев:

Меня засосала опасная трясина,
И жизнь моя - вечная игра.
Стритбол и девчонки - моя атмосфера,
Ну, в общем, хип-хоп нам делать пора.

Припев:
Вверх

Хуй в пальто

Fm
Я приполз домой
G#
И звоню в звонок,
Fm
Блюю, шатаюсь,
G#
Насквозь промок.

Fm
А ты мне из-за двери:
G#
- А это, бля, кто?
Fm
А я ответил:
G#
- Твой хуй в пальто!

Рифф Дыва (играется 4 раза)
(Че-Че-Че-Чекитаут-Йо!)

Рифф Адын (играется или весь куплет
или как вступление к нему - раза 4)

Ползу домой, Ползу домой,
Звоню в звонок,
Я весь промок!

А ты мне из-за двери:
- А это, бля, кто?
А я ответил:
- Твой хуй в пальто!

Рифф Дыва (играется 4 раза)
Бас Рифф (играется 1 раз)
Трубное соло (играется 3-4 раз)

Я хуй в пальто!
Рифф Дыва (играется 4 раза)

Рифф Адын играется таким образом:
Fm G#
e|----------------------------------------|
B|-----1-------1-------1------------------|
G|---1---1---1---1---1---1-3-1-4-1--------|
D|-3-------3-------1----------------------|
A|----------------------------------------|
E|----------------------------------------|
(после каждой сыгранной ноты надо приглушать
струну немного отпуская палец левой руки)

Рифф Дыва играется так (или с вариациями :) )
Fm G#
e|----------------------------------------|
B|----------------------------------------|
G|------------------------1-3-1-4-1-------|
D|-3-3-3--3-3-3-3--1-1--1-----------------|
A|----------------------------------------|
E|----------------------------------------|

Трубное соло на гитаре, кажется, выглядит так:
Fm G#
e|--------------------------------------------|
B|--------------------------------------------|
G|--------------------------------------------|
D|------------3---3---3-----------------------|
A|-------1--3---3---3----3-1-----1--3-1-----1-|
E|-1-3-4---------------------4-3--------4-3---|

Бас Рифф:
Fm G#
e|--------------------------------------------|
B|--------------------------------------------|
G|--------------------------------------------|
D|--------------------------------------------|
A|-----3--------3--------3----1---2-----------|
E|-1-4---4--1-4---4----4---4----4---4---------|
Вверх

Хуямба mp3

...Намба, Мамба, Хуямба...
   Уаааа!
Intro:
   G                         Cm
e|------------------------||------------------------|
B|------------------------||------------------------|
G|---7-4-4----------------||---8-5-5----------------|
D|-5-------5-5--5-6-5-6-5-||-5-------5-5--5-6-5-6-5-|
A|------------------------||------------------------|
E|------------------------||------------------------|
   G                        Cm Cm Cm
e|------------------------||------------------------|
B|---6--------------------||------------------------|
G|-----7-7----------------||-5-5-5------------------|
D|-5-------5-5--5-6-5-6-5-||------------------------|
A|------------------------||------------------------|
E|------------------------||------------------------|

    G
I. Вы хочите песен (Да!), их есть у меня! (Давай!)
   Cm
   Я переору любого соловья! (Давай!)
       G
   Я старый металлист (Оп!), тусовщик и стиляга...(Давай!)
      Cm
   А щас будет злая и матёрая соляга! Вау!

Guitar Solo(немного отличается от Intro!):

e|------------------------||------------------------|
B|------------------------||------------------------|

G|---7-4-4----------------||---7-4-4----------------|
D|-5-------5-5--5-6-5-6-5-||-5-------5-5--5-6-5-6-5-|
A|------------------------||------------------------|
E|------------------------||------------------------|

e|------------------------||------------------------|
B|---6--------------------||------------------------|
G|-----7-7----------------||-5-5-5------------------|
D|-5-------5-5--5-6-5-6-5-||------------------------|
A|------------------------||------------------------|
E|------------------------||------------------------|

...Magic people!...Voodoo people!

И заново Intro!


II. Вы хочите песен (Да!), их есть у меня! (Давай!)
    Пусть я пьяный в жопу как последняя свинья!
    И пусть уже давно не стоит моя "шняга"! (Е-е!)
    А щас будет злая и матёрая соляга! (Давай! Давай! Давай!)

Guitar Solo.

...Magic people!...Voodoo people!

Intro.

III. Я пою (Понятно!), а ребята играют (Понятно!).
     Не попадаем мы друг в друга - бывает! (Понятно!)
     Пускай в нашей музыке много изъян... (Давай! Давай! Давай!)
     Давай салягу! Давай, Костян! (Давай! Давай! Давай!)

Guitar Solo.

...Magic people!...Voodoo people!

Intro.

...Magic people!...Voodoo people!

Intro.

Bass End:

G|-6-5-3-------------|
D|---------6-5-3--2~-|
A|-------------------|
E|-------------------|

Magic people! Voodoo people! А!

Усё!

Схема аккордов:
    G    Cm
e|--3-----3--|
B|--3-----4--|
G|--4-----5--|
D|--5-----5--|

A|--5-----3--|
E|--3-----3--|
Вверх

Хуячь

E-----------------------------------------------------|
B----------0---0-0-0----------------------------------|
G------0-2------------2/0-0--2--2-2-1-1-0-0--0--------| 2x
D-2-2-2----------------------------------------4h3----|
A----------------------------0------------------------|
E-0---------------------------------------------------|

Altrnative:  Em A Em A

Нужен гол...

 Em
Наша жизнь как большая игра,
 A               A7
Почти как теннис или футбол
 Em
Ты живешь, а вокруг кричат -
 A         A7
Нужен гол, нужен гол

 C
Люди не любят чужих неудач,
Hm            Em
  Дали мяч - хуячь...

Нужен гол...

И вот я играю, и вот я играю,
Иду прямо в лоб, или по краю
Трибуны ревут, кончается матч
Кончается матч, кончается матч

А люди не любят чужих неудач,
Дали мяч - хуячь...

Нужен гол...

Ну вот-вот, я-я живу-живу
А-ору - гол-гол, дай гол-гол-гол
Гол-ГОЛ-гол-гол
Нужен-нужен-нужен-нужен ГОЛ

Люди не любят чужих неудач,
Дали мяч - хуячь...

Нужен гол...

Наша жизнь как большая игра,
Почти как теннис или футбол
Ты живешь, а вокруг кричат -
Нужен гол, нужен гол

Люди не любят чужих неудач,
Дали мяч - хуячь...

Нужен гол...
Дали мяч - хуячь...
Вверх

Шоу-бизнес

Intro:
4|-----1--5---------3---------|
5|--3--------5---------5------|
6|--------------3---------3---|

Cm G7 Cm
А я тут перед вами кривляюсь и танцую
Cm G7 Cm
Играю на гитаре пою, бля ну и хули
Cm Fm Cm
А денег ведь нам платят, как кот наплакал

Cm G7 Cm G7
Такой бля шоу-бизнес, ебаный мазафака

Cm G7
Где ваши руки, бейте в ладоши суки
Где ваши руки, бейте в ладоши суки
Где ваши руки, бейте в ладоши суки

А выпить музыканту, нужно литров пять
Чтобы, хотя бы в ноты немного попадать
А денег ведь нам платят, как кот наплакал
Такой бля шоу-бизнес, ебаный мазафака
Вверх

Шоу-бизнес (2 вариант)

                 Am  E               Am
А, я здесь перед вами, кривляюсь и танцую,
            Am  E               Am
Играю на гитаре, пою: "бля ну и хули".
                   Dm               Am
А денег ведь нам платят, как кот наплакал.
           E                        Am
Такой бля шоу бизнес, ебаный mother fucker.

  Am          E
Где ваши руки, бейте в ладоши суки - 4р

А музыканту выпить, надо литров пять,
Чтобы хотя бы в ноты немного попадать.
А денег ведь нам платят, как кот наплакал.
Такой бля шоу-бизнес, ебаный mother fucker.

Где ваши руки, бейте в ладоши суки - 4р
Вверх

Эх раз, еще раз

Cm Fm D7 G7 Cm

Cm Fm         Cm       Fm          Cm
А солнце уже встало, а я еще не лег,
  Hb           Cm       Fm       G7
А нет в душе пожара, а тлеет уголек.

Припев:
   Cm                          Fm
   Эх раз, еще раз, еще много, много раз,

   Fm      D7       G7         Cm
   Эх раз, еще раз, еще много, много раз.

Сколько не влюблялся -
Все один ответ.
Все вы бабы бляди,
Как сказал поэт.

Припев.

Никто не понимает
Большой любви моей.
А я пою и плачу,
Как птица соловей

Припев.
Вверх

Эх раз, еще раз (2 вариант)

Am Em
А солнце уже встало,
Am Em
А я ещё не лег.
Am Em
А нет в душе пожара,
H7 E7
А тлеет огонёк!

Am Em
Припев: Эх раз, ещё раз, ещё много, много раз!
F# H7(II) E E7
Эх раз, ещё раз, ещё много, много раз!


А сколько не влюблялся,
А все один ответ:
А все вы бабы – бляди!
Как сказал поэт.

Припев.

Никто не понимает
Большой любви моей.
А я пою и плачу,
Как птица соловей!

Припев.
Вверх

Я и.о. Б.Г.

Am Fm
Все потеряло смысл,
Am Fm
Бьюсь головой об пол
Am Fm
Сегодня Боря Ельцин
Am Fm
На пенсию ушел.

Am Fm
Боря, вернись!
Боря, вернись!
Боря, вернись!
Боря, вернись!

Все потеряло смысл,
Бьюсь головой об пол
Сегодня Майкл Джексон
На пенсию ушел

Майкл, вернись!
Майкл, вернись!
Майкл, вернись!
Джонсон, вернись!

Я и.о., я и.о. БГ!
Я и.о., я и.о. БГ!
Я и.о., я и.о. БГ!
Я и.о., я и.о. БГ!
Вверх

Я - твой ковбой

Cm
Татуировки и в кармане "Playboy"
Танцую я, танцую только с тобой,
Fm
Танцую я, танцую только с тобой.
G
Ты - моя лошадь,
Cm
а я твой - ковбой.


Очки от солнца даже ночью на мне,
С тобой готов я танцевать на луне,
Танцую я, танцую только с тобой.
Ты моя лошадь,
а я твой ковбой.

Fm
Знаю я - есть любовь,
Есть любовь под луной.
Знаю я ты моя,
G
Ты моя лошадь,
Cm
а я - твой ковбой.
Вверх
English songs 109

ABBA
AC-DC
Adams Bryan
Adriano Celentano
Aerosmith
A-Ha
Animals
Antonio Banderos
Apocalyptica
Armstrong Louis
Billy's Band
Bjork
Blink 182
Blondie
Blur
Bob Dylan
Boney M
Bon Jovi
Bowie David
Brainstorm
Braxton Toni
Butch
Celine Dion
Chris De Burgh
Chris Isaak
Chuck Berry
Clapton Eric
Cohen Leonard
Cranberries
Deep Purple
Depeche Mode
Dire Straits
Donovan Jason
Eagles
Electric Light Orchestra
Elton John
Elvis Presley
Era
Europe
Evanescence
Garbage
Gary Moore
Glen Wiston
Gorillaz
Green Day
Guano Apes
Guns N Roses
Hendrix Jimi
Iggy Pop
Iron Maiden
Joe Dassin
Kansas
King Crimson
Kiss
Led Zeppelin
Leonard Cohen
Limp Bizkit
Linkin Park
Louis Amstrong
Madonna
Marilyn Manson
Marley Bob
Metallica
Moby
Morricone Ennio
Muse
Nazareth
Nelly Furtado
Nick Cave
Nirvana
No Doubt
Oasis
Offspring
Ottawan
Outkast
Ozzy Osbourne
Pain
Para Bellum
Pink Floyd
Placebo
P.O.D.
Queen
RadioHead
Rainbow
Rammstein
Rea Chris
Red Hot Chili Peppers
Ritchie Blackmore
Rolling Stones
Roxette
Rufus Wainwright
Santana
Sarah Brightman
Scorpions
Sex Pistols
Simon & Garfunkel
Shocking Blue
Soul Asylumx
Status Quo
Sting
System of a down
Sum 41
The Beatles
The Doors
Tito & Tarantula
U2
UB 40
Uriah Heep
Van Halen

Українські пісні 109

Boom Box
Escape
Flit
Kapela Drewutnia
Lama
LЮK
Mad Heads (XL)
Motor' rolla
NEON
Ot Vinta
The Вйо
Абздольц
Аероплан
Акорд
Ані Лорак
Бандурна розмова
Білик Ірина
Борщ
Брати Гадюкіни
Вася Club
Вій
Воплі Відоплясова
Гайдамаки
Гончар Олесь
Гринжоли
Гроно
Гуляйгород
Дарка і Славко
Дивні
Друга Ріка
Другий подих
Дударик
Експампей
Євтушенко Андрій
Жарівка (Дяк Олесь)
Журбовіз
Зібров Павло
Зінкевич Василь
Злотник Олександр
Івасюк Володимир
Калєкція
Карна
Карпа Ірена
Клямка
Козловський Віталій
Кому вниз
Крихітка Цахес
Курінь
Лесик-Band
Лорд Юрія
Львівські музики
Мандри
Менестрелі
Мері
Мертвий Півень
Міпеніум
Монте Крісто
Морозов Віктор
Нахтіґаль
Не журись!
Неборак Віктор
НеДІля
НЕМО
Нічлава блюз
Океан Ельзи
ПереBANDя
Перкалаба
Петрович
Піккардійська Терція
Піпа Олександр
Плач Єремїі
Пономарьов Олександр
Пророк
Росава
Ротару Софія
Руслана
Рутенія
С.К.А.Й.
САД
Самі свої
Серцевий Напад
Скрябін
Смерічка
Сокира Перука
Соколи
Таліта Кум
Тартак
Тінь сонця
Ткач Михайло
ТНМК
Тостер
Тріо Мареничів
Фарбований лис
Фестиваль Снів
Хвилю тримай
Цісик Квітка
Черемош
Черемшина
Четвертий кут
Чорний вересень
Чорні черешні
Шевченко Тарас
Щастя
Юркеш
Юрченко Юрко
Юрчишин Ярослав
Явір
Яка існуЄ
Яремчук Назарій

   
 sait@i.ua



Рейтинг@Mail.ru