accordS-land.ru Аккорды и табулатуры к гитаре.
Главная | Песенник | Аккорды | Учебник
Руссике песни 180
5nizza
7Б
9-й Район
Animal ДжаZ
Billy's Band
Butch
Para Bellum
TequilaJazzz
Worms
Zdob Si Zdub
Автоматические удовлетворители
Агата Кристи
Агузарова Жанна
Агутин Леонид
Адо
Аквариум
Алиса
Алсу
Амирамов Е.
Антонов Ю.
Арефьева Ольга
Ария
АукцЫон
Барыкин
Башаков Михаил
Башлачев Александр
БекХан
Бернес М.
Би - 2
Бони неМ
Борзов Найк
Боярский Михаил
Браво
Братья Грим
Ва-Банкъ
Вертинский Александр
Визбор Юрий
Високосный год
Воскресенье
Восьмая Марта
Высоцкий В.С.
Високосный год
Газманов О.
Галич Александр
Герман А.
Городницкий Александр
Глызин А.
Градский Александр
Гражданская Оборона
Гребещенков
Данко
ДДТ
Дидюля
Диоды
Дискотека Авария
Дягилева Янка
Ёлка
Жуки
Заблудовский Андрей
Запрещенные Барабанщики
Звери
Земляне
Земфира
Зинчук Виктор
Зоопарк
Иван Кайф
Иванов А.
Иваси
ИЗ КИНО И МУЛЬТФИЛЬМОВ
Империя
Калинов мост
Кашин Павел
Кельми К.
КИНО
Кипелов
Конец Фильма
Контингент
Корни
Король и Шут
Коррозия металла
Крематорий
Крупнов Анатолий
Кузьмин Владимир
Куликов Е.
Кукрыниксы
Курехин Сергей
Лаэртский Александр
Ласковый май
Ленинград
Леонидов Максим
Лесоповал
Лещенко Л.
Линда
Лицей
Лоза Юрий
Любэ
Люмен
Ляпис Трубецкой
Мальчишник
Манго-манго
Мара
Маркин В.
Маршал Александр
Маша и медведи
Машина времени
Мечтать
Мистер Кредо
Митяев Олег
Многоточье
Монгол Шуудан
Моральный Кодекс
Мультfильмы
Мумий Тролль
Настя
Науменко Майк
Наутилус Помпилиус
Непара
Неприкасаемые
Несчастный случай
Никоваев И.
Никольский Константин
Ногу свело
Ноль
Носков Николай
Ночные Снайперы
Окуджава Булат
Оркрист
Осин Е.
Оскар
Отиева И.
Паперный Т.А.М.
Парк Горького (Gorky Park)
Пикник
Пилот
Пламя
Полковник и однополчане
Пугачева А.
ПЭХ
Приключения Электроников
Просто прикольные песни
Рада и Терновник
Римский-Корсаков
Розенбаум Александр
Рок-Острова
Рондо
Сансара
Саруханов
Сегодня Ночью
Секрет
Сектор газа
Сенчина Л.
СерьГа
Смысловые Галлюцинации
Сплин
Солодуха А.
Старые блатные песни
Сукачев Гарик
Сурганова и Оркестр
Сюткин Валерий
Тальков Игорь
Танцы минус
Тараканы
Тату
Технология
УмаТурман
Умка и Броневичок
Ундервудъ
Фабрика звезд
Х.З. (Хуй Забей)
Центр
ЧайФ
Черный кофе
Черный Лукич
Чиж и Ко
Чистяков Федор
Шанхай
Щербаков Михаил
Ю-Питер

Классика 22

Албениз Исаак
Албениз Матео
Бах Иоган Себостьян
Бетховен Людвиг ван
Бизе Жорж
Брамс Иоганнес
Вивальди Антонио
Гендель Георг Фридрих
Гершвин Джордж
Григ Эдвард
Дебюсси Клод
Камиль Сен-Санс
Мендельсон
Моцарт Вольфгант Амадей
Мусоргский Модест Пертрович
Норис Крис
Огинский Михал Клеофас
Паганини Никколо
Рахманинов Сергей Васильевич
Римский-Корсаков
Чайковский Пётр Ильич
Шуберт Франц
 

Ария

1100
1100 (2 вариант)
Castlevania
You'd Better Believe Me
Ангельская пыль
Ангельская пыль (2 вариант)
Ангельская пыль (3 вариант)
Ангельская пыль (4 вариант)
Антихрист
Баллада о Древнерусском воине
Баллада о древнерусском воине
Баллада о древнерусском воине
Баллада о древнерусском воине (2 вариант)
Баллада о древнерусском воине (2 вариант)
Бал у Князя Тьмы
Бал у Князя Тьмы (2 вариант)
Беги за солнцем
Без тебя
Без тебя (2 вариант)
Без тебя (3 вариант)
Белый флаг
Белый флаг (2 вариант)
Беспечный ангел
Беспечный ангел (2 вариант)
Беспечный Ангел (3 вариант)
Беспечный ангел (4 вариант)
Бесы
Бесы (2 вариант)
Бивни черных скал
Бивни чёрных скал
Битва
Бой продолжается
Будем жить, мать Россия
Будем жить, мать Россия (2 вариант)
Вавилон
Вампир
Вампир (2 вариант)
Вампир (3 вариант)
Возьми мое сердце
Возьми мое сердце (2 вариант)
Возьми мое сердце (3 вариант)
Возьми мое сердце (4 вариант)
Волонтер
Волонтёр
Воля и разум
Воля и разум
Воля и разум (2 вариант)
Ворон
Ворон (2 вариант)
Вот и все дела!
Все что было
Все, что было
Все, что было (2 вариант)
Встань, страх преодолей
Встань, страх преодолей (2 вариант)
Встань, страх преодолей (3 вариант)
Всё, что было
Выпьем ещё
Герой асфальта
Герой асфальта (2 вариант)
Герой асфальта (3 вариант)
Горящая стрела
Горящая стрела (2 вариант)
Грязь
Грязь (2 вариант)
Дай жару!
Дай жару! (2 вариант)
Дай руку мне
Дай руку мне (2 вариант)
Дезертир
Дезертир (2 вариант)
Дух войны
Дьявольский зной
Жизнь задаром
Закат
Закат (2 вариант)
Закат (3 вариант)
Замкнутый круг
Замкнутый круг (2 вариант)
Зверь
Зверь (2 вариант)
Здесь куют металл
Зомби
Зомби (2 вариант)
Игра с огнём
Игра с огнём (2 вариант)
Игры не для нас
Игры не для нас (2 вариант)
Икар
Искушение
Искушение (2 вариант)
Кода
Колизей
Колизей (2 вариант)
Король дороги
Король дороги (2 вариант)
Король дороги (3 вариант)
Крещение Огнем
Крещение огнём
Кровь за кровь
Кто ты?
Кто ты? (2 вариант)
Кто ты? (3 вариант)
Мания величия
Машина смерти
Машина смерти (2 вариант)
Мертвая зона
Мечты
Мечты (2 вариант)
Мёртвая зона
На службе силы зла
Небо тебя найдёт
Небо тебя найдёт (2 вариант)
Небо тебя найдёт (3 вариант)
Небо тебя найдёт (4 вариант)
Не хочешь - не верь мне
Ночь в июле
Ночь в июле
Ночь в июле (2 вариант)
Ночь короче дня
Ночь короче дня (2 вариант)
Ночь короче дня (3 вариант)
Обман
Осколок льда
Осколок льда (2 вариант)
Осколок льда (3 вариант)
Осколок льда (4 вариант)
Отшельник
Палач
Палач (2 вариант)
Память о...
Паранойя
Паранойя (2 вариант)
Патриот
Патриот (2 вариант)
Позади Америка
Позади Америка (2 вариант)
Потерянный рай
Потерянный рай (2 вариант)
Потерянный Рай (3 вариант)
Пробил час
Пробил час (2 вариант)
Прощай, Норфолк!
Прощай, Норфолк! (2 вариант)
Путь в никуда
Путь наверх
Пытка тишиной
Рабство иллюзий
Рабство иллюзий (2 вариант)
Раб страха
Раб страха (2 вариант)
Раскачаем этот мир
Раскачаем этот мир (2 вариант)
Свет дневной иссяк...
Свобода
Свобода (2 вариант)
С кем ты?
С кем ты? (2 вариант)
Следуй за мной
Смотри
Смотри (2 вариант)
Смутное время
Смутное время (2 вариант)
Смутное время (3 вариант)
Такая вот печаль
Такая вот печаль (2 вариант)
Там высоко
Там Высоко...
Там высоко (2 вариант)
Твой новый мир
Твой новый мир (2 вариант)
Тебе дадут знак
Тебе дадут знак (2 вариант)
Тебе дадут знак (3 вариант)
Тореро
Тореро (2 вариант)
Тореро (3 вариант)
Тореро (4 вариант)
Тореро (5 вариант)
Тореро (6 вариант)
Тореро (7 вариант)
Тысяча сто
Ужас и страх
Улица роз
Улица роз (2 вариант)
Улица роз (3 вариант)
Улица роз (4 вариант)
Уходи и не возвращайся
Уходи, и не возвращайся
Химера
Химера (2 вариант)
Что вы сделали с вашей мечтой?
Что вы сделали с нашей мечтой
Штиль
Штиль (2 вариант)
Штиль (3 вариант)
Штиль (4 вариант)
Штиль (5 вариант)
Это рок
Это Рок (2 вариант)
Я не сошел с ума
Я не сошел с ума (2 вариант)
Я свободен
Я свободен (2 вариант)
Я свободен (3 вариант)
Вверх

1100

 Cm               Ab
Не дотянем мы до полночи,
 Eb                   G7
Нас накрыл зенитный шквал.
 Cm                   Ab
Смысла нет взывать о помощи,
 Eb            G
Жжет руки штурвал!
 Cm                Ab
Режет небо луч прожектора,
 Eb                  G7
Рядом - "черные кресты".
 Cm              Ab
Обгораем в этом пекле мы,
   Eb                G
А штурман просит высоты...


Припев:
   Am7         F           Dm
   Тысяча сто, тысяча сто, тысяча сто,
     E7
   Смерть в лицо нам дышит.
   Am7         F           Dm
   Тысяча сто, тысяча сто, тысяча сто!


Наш стрелок был сущим дьяволом,
Он не думал умирать.
"Черный крест" заходит справа нам,
Но некому стрелять!
То ли пламя, то ли ненависть
Ослепляет тех, кто жив.
Нам в такой конец не верилось,
А штурман твердит как мотив...

Припев.

На земле - стальное крошево
Здесь вершится правый суд.
Чтобы все оставить прошлому,
Нам хватит двух минут.
Мы летим к земле как молния,
Поминая всех святых.

Жаль, что в будущем безмолвии
Нет этой высоты...

Припев.
Вверх

1100 (2 вариант)

A                   G
Hе дотянем мы до полночи
F#                     G
Hас накрыл зенитный шквал
Смысла нет взывать о помощи
Жжет руки штурвал

Режет небо луч прожектора
Рядом - "черные кресты"
Обгораем в этом пекле мы
А штурман просит высоты...

                A       A#   A      A#  A       A#
Пpипев:         Тысяча сто, тысяча сто, тысяча сто
                F#       G  F# G     F#
                Смерть в лицо нам дышит
                Тысяча сто, тысяча сто, тысяча сто!

Hаш стрелок был сущим дьяволом
Он не думал умирать
"черный крест" заходит справа нам
Hо некому стрелять!

То-ли пламя, то-ли ненависть
Ослепляет тех, кто жив
Hам в такой конец не верилось
А штурман твердит как мотив...

Пpипев

Hа земле - стальное крошево
Здесь вершится правый суд
Чтобы все оставить прошлому
Hам хватит двух минут

Мы летим к земле как молния
Поминая всех святых
Жаль, что в будущем безмолвии
Hет этой высоты...

Пpипев
Вверх

Castlevania

  Em
Древний храм на скале освещен луной,
                                H
Сотни лет он стоит, скован тишиной,
 H7
Там огонь священный жертву ждет!
 Em
Ветер бьет по лицу крыльями дождя,
                                H
Крик летит в пустоту, слышу эхо я,
  H7
Стиснув зубы, я иду вперед.

     Am
   Вверх магнитом тянет
                      H H7
   Жертвенное пламя храма,
     Am
   Стану морем света
                      H  H7
   Или горстью пепла там я!

       C                             Em
      Не проси - не возьму тебя с собой,
       C                              Em
      Не смотри - смысла жизни я не знаю,
       C                         Em
      Не желай тайны выведать чужой.
       C                             Em
      Помолчи - время есть, я продолжаю!

Вижу знак на стене - кто-то ждал меня,
Семь свечей, семь теней пляшут на камнях,
И блестит магический кинжал.
Проклят будь этот миг - я схватил клинок,
Грянул хор горькой тьмы, рассмеялся Бог!
Род людской последней жертвой стал.

   Жизни смерть итожит,
   Всех огонь священный гложет.
   Очищенье светом,
   Звонким серым пеплом, Боже!

      Не проси - не возьму с собой,
      Не смотри - смысла жизни я не знаю
      Не желай тайны выведать чужой,
      Вот и все! Я лишь дух, я исчезаю...
       H     H7
      Боже! Боже!
Вверх

You'd Better Believe Me

C#m                    H
They call me an iron snake
                 A
But in the city house
All my life in Prison
G#m                                C#m
Such a fucking feeling - known as well
                           H
But i drooped through the walls
                    A
I ran the wind and won
All of them are wrong
           G#m                 A
I feel so handsome and so proud
C#m                      A C#m
You'd better believe me!

Then I let them saw the snake
My death or my control
All the bikes collating
I had times to realize that's all
Dying now i fell so strange
I never felt astray
Eyes and wings
By the body get away
You'd better believe me!

   D#m                       H
   I never saw the blinding light
                          G#m
   I will be crusified tonight
                             F#
   I've got another wind to ride
                B7             D#m
   Forgive me bless I will be right
                             H
   I never saw the blinding light
                          G#m
   I will be crusified tonight
                             F# B7 H C# D#m
   I've got another wind to ride

I was calling for my friend
He didnt hear my voice
I had got it
Moving there to dawning day - I had no choice
Life isnt death and death isnt life
They are shining only twice
Dying is nothing Jesus
I was quite there
Where sun begins to rise
You'd better believe me!

   I never saw the blinding light
   I will be crusified tonight
   I've got another wind to ride
   Forgive me bless I will be right
   I never saw the blinding light
   I will be crusified tonight
   I've got another wind to ride
Вверх

Ангельская пыль mp3

  Em                        C
E||------------------------|-----------------------|
B||---0-----0-----0--------|---1-----1----1--------|
G||-----0-----0-----0------|-----0-----0----0------| => 4 times
D||-------2-----2----------|-------2-----2---------|
А||------------------------|-----------------------|
E||------------------------|-----------------------|

 Em                     C/E
На  краю обрыва, за которым вечность,
 Em                       Am6/E
Ты стоишь один во власти странных грез
 Em                              C/E
И, простившись с миром, хочешь стать беспечным,
 G                            D
Поиграть с огнем нездешних гроз.

 Em                        C/E
Наконец ты счастлив как никто на свете,
 Em                   Am6/E
Ангельская пыль тебя уносит вверх.
 Em                        C/E
Только ей подвластны и восторг, и ветер,
 G                             D
В жидких небесах звучит твой смех.

Припев.
   C      D    Em  Em/D
   Ангельская пыль.
   C    D     B7
   Это сон и быль!

   Em      C         G      D
   Безумец, беглец - дороги нет
   Em       C           D
   Ты видишь неверный свет.
   Am        F     C        G
   Твой ангел зажег мираж огня.
   Am      F        G
   Он хочет убить тебя...

На краю обрыва песня неземная,
Музыка богов и голоса богинь.
Ты паришь над миром, но торговец раем
Вынет душу из тебя за героин.

Ты устал быть птицей и сорвался камнем.
Рухнул с высоты, спасаясь от судьбы.
На краю обрыва вновь летят на пламя
Сотни мотыльков-самоубийц.

Припев.
Вверх

Ангельская пыль (2 вариант) mp3

Вступление:

эл. гитара :
1|------------------------------------------------------------------------|
2|------------------------------------------------------------------------|
3|-(0)--------------------------------------------------------------------|
4|--5------9~~----------------------------------------------------7----9~~|
5|--7-----10~~----10----9----7----9~----7----5--------7--9-10-------------|
6|-(0)----(0)-------------------------------------------------------------|


1|----------------------------------------------------|
2|----------------------------------------------------|
3|----------------------------------------------------|
4|----7---------------------------------------0-------|  Повторить 2р
5|-----------10-----9-----10-----9-----7------5~------|
6|----------------------------------------------------|



1|------------------------------------------------------------------------|
2|------------------------------------------------------------------------|
3|-(0)--------------------------------------------------------------------|
4|--5------9~~----9----7------7~-----------------------------------7----9~|
5|--7-----10~~------------10----------10-----9------7-----9-----10--------|
6|-(0)----(0)-------------------------------------------------------------|


1|-------------------------------------------------------------------|
2|-------------------------------------------------------------------|
3|-------------------------------------------------------------------|
4|----7---------------------------------------0----------------------| 
5|-----------10-----9-----10-----9-----7------5~---------------------|
6|-------------------------------------------------------------------|


1|-------------------------------------------------------------------------|
2|-------------------------------------------------------------------------|
3|-(0)---------------------------------------------------------------------|
4|--5------9~~----------------------------------------------------7----9~~-|
5|--7-----10~~-----10----9----7----9~----7----5--------7--9---10-----------|
6|-(0)----(0)--------------------------------------------------------------|


1|-------------------------------------------------------------------|
2|-------------------------------------------------------------------|
3|-------------------------------------------------------------------|
4|----7---------------------------------------0----------------------|  
5|-----------10-----9-----10-----9-----7------5~---------------------|
6|-------------------------------------------------------------------|



:




Основная часть Аккустичка 

1|---------------------------------------------------------------|
2|-0-----0-----0----1-----1----1---0-----0-----0----1----1-------|
3|---0-----0-----0----0-----0----0---0-----0-----0----0----0-----|
4|-----2-----2----------2-----2--------2------2--------------2---|
5|------------------3------------------------------------3-------|
6|-0-------------------------------------0-----------------------|


Несколько раз 
1|-------------------------------------------------------------------|
2|-0-----0-----0----1-----1----1---0-----0-----0----1----1-----------|
3|---0-----0-----0----0-----0----0---0-----0-----0----0----0---------| 
4|-----2-----2----------2-----2---------2-----2--------------2-------|
5|------------------3------------------------------------3-----------|
6|-0-------------------------------0---------------------------------|


   Em               C                  Em         С
1|-------------------------------------------------------------------|
2|-0-----0-----0----1-----1----1---0-----0-----0----1----1-----------|
3|---0-----0-----0----0-----0----0---0-----0-----0----0----0---------|
4|-----2-----2----------2-----2--------2-----2----------2------------|
5|-------------------------------------------------------------------|
6|-------------------------------------------------------------------|
Hа  краю обрыва, за которым вечность,
Ты стоишь один во власти странных грез

   Em               C                G                 D
1|-------------------------------------------------------------------|
2|-0-----0-----0----1-----1----1-----3-----3-----3----3----3---------|
3|---0-----0-----0----0-----0----0-----0-----0-----0----2----2-------|
4|-----2-----2----------2-----2----------0-----0----------0----------|
5|-------------------------------------------------------------------|
6|-----------------------------------3-------------------------------|
И, простившись с миром, хочешь стать беспечным,
Поиграть с огнем нездешних гроз.


Hаконец ты счастлив как никто на свете,
Ангельская пыль тебя уносит вверх.
Только ей подвластны и восторг, и ветер,
В жидких небесах звучит твой смех.

Припев.
  
    Ангельская  пыль     
    C       D   Em  |___________________Это соло быстро_______________________|
1|--0------2-2----------------------------------------------------------------|
2|--1-1----3-3----------------------------------------------------------------|
3|--0-0----2-2--0-------------------------------------------------------------|
4|--2-2----0-0--2-------------------------------------------------------------|
5|--3-3----0----2---/10----9-10----12-----------------------------------------|
6|--3------2----0---------------------------12-----12---10----12--10----8--7--|


     Это сон и быль
1|--0------2-2----------------------------------------------------------------|
2|--1-1----3-3----------------------------------------------------------------|
3|--0-0----2-2--0--------------------5----------------------------------------|
4|--2-2----0-0--2-----4--4--4-----5--5----------------------------------------|
5|--3-3----0----2-----2--2--2-----3--3----------------------------------------|
6|--3------2----0--------------------------------3~------2--------------------|

               Безумец,                        беглец
Em                                       C           
1|---------0-------3^2--0-----------------0------3^2--0-------------|
2|-----0------0--------------0---------1-----1--------------1-------|
3|------------------------------------------------------------------|
4|------------------------------------------------------------------|
5|-----------------------------------3------------------------------|
6|-0----------------------------------------------------------------|

           - дороги нет

     G                                          D
1|--------3--------/7^5--------------------------------------------------|
2|----3------3-------------8---7-------7---------------------------------|
3|-------------------------------------7---------------------------------|
4|-------------------------------------5----0---4--5--7--5---4^5^4---0---|
5|-----------------------------------------------------------------------|
6|-3---------------------------------------------------------------------|

 
Ты видишь неверный свет.
    
    Em                                        C
1|---------0-------3^2--0----------------0------3^2--0-------------|
2|-----0------0--------------0--------1-----1---------------1------|
3|-----------------------------------------------------------------|
4|-----------------------------------------------------------------|
5|----------------------------------3------------------------------|
6|-0---------------------------------------------------------------|


      D  (Решил упростить жизнь и забить соло аккордом, но звучит нормально)
1|----------------------------------------------------------------------------|
2|---7------------------------------------------------------------------------|
3|---7--7--7----7--7--7--7----7--7--7------7--7--7----7--7--7--7--7--7--7--7--|
4|---5--5--5----5--5--5--5----5--5--5------5--5--5----5--5--5--5--5--5--5--5--|
5|----------------------------------------------------------------------------|
6|----------------------------------------------------------------------------|



    Am                                             F           
1|-------------------------------------------------------------------------|
2|------------------1^0------------------------------------1^0-------------|
3|---------2---------------2---0-----------------2---------------2---0-----|
4|-----2------2-------------------------------3-------3--------------------|
5|-0-----------------------------------------------------------------------|
6|-----------------------------------------1-------------------------------|





    C                                         G
1|-----------------------------------------------------------------------|
2|------------------5^3--------------------------------------------------|
3|---------5---------------5---4-----------------------------------------|
4|-----5-------5--------------------5---0--4--5--7--5--4^5^4--0----------|
5|-3--------------------------------5------------------------------------|
6|----------------------------------3------------------------------------|


  Твой ангел зажег мираж огня.



    Am                                             F           
1|-------------------------------------------------------------------------|
2|------------------1^0------------------------------------1^0-------------|
3|---------2---------------2---0-----------------2---------------2---0-----|
4|-----2------2-------------------------------3-------3--------------------|
5|-0-----------------------------------------------------------------------|
6|-----------------------------------------1-------------------------------|


     G
1|-------------------------------------------------------------------|
2|-------------------------------------------------------------------|
3|-------------------------------------------------------------------|
4|-5-----------------------------------------------------------------|
5|-5---Та же штука что и с D-----------------------------------------|
6|-3--3--3-33-3-3-3-3-3-3-3-3----------------------------------------|

   Он хочет убить тебя...

После этого основную часть на акустике с маленькими басовыми вставками типа учащенной ноты 
ми (пустая шестая), а еще:

1|----------------------------------------------------------------------------|
2|-0-----0-----0----1-----1----1---0-----0-----0----1-------------------------|
3|---0-----0-----0----0-----0----0---0-----0-----0----0-----------------------| 
4|-----2-----2----------2-----2--------2------2-------------------------------|  
5|------------------3-------------------------------3--------/10~~---9--7-----|
6|-0-------------------------------------0--------------------------------10--|

Дальше сначала эту фигуру со словами и играть как куплет (без вставок)

Hа краю обрыва песня неземная, 
Музыка богов и голоса богинь.
Ты паришь над миром, но торговец раем
Вынет душу из тебя за героин.


Ты устал быть птицей и сорвался камнем.
Рухнул с высоты, спасаясь от судьбы.
Hа краю обрыва вновь летят на пламя
Сотни мотыльков-самоубийц.


После второго припева небольшой проигрыш (ногтем резко):


1|----------------------------------------------------------------------------|
2|----------------------------------------------------------------------------|
3|----------------------------------------------------------------------------|
4|------------------------------------5х-------------------7х-----------------|
5|------0--5--7х---------------7--------------------9-----------------7---5~~~|
6|--0-------------------0---7---------------0---7--------------0---7----------|

Пару раз 
1|----------------------------------------------------------------------------|
2|----------------------------------------------------------------------------|
3|----------------------------------------------------------------------------|
4|-------------------9x---------------10x---------------12x-------------------| 
5|---0---7---10-----------0---7---10-------0---10---12--------0--10-----------|
6|-------------------------------------------------------------------12---10~~|

Соло перед последним куплетом              

1|-------12~~--7^8^7~~--------------7--8--7--12--7-8-7--10--7-8-7--12--7-8-7--|
2|---8------------------10^118~~---------------------------------------------|
3|---9------------------------------------------------------------------------|
4|---10-----------------------------------------------------------------------|
5|----------------------------------------------------------------------------|
6|----------------------------------------------------------------------------|

 
1|----------------------------------------------------------------------------|
2|-10~~x-7^8^7---------7-5-4---8-7-5-10-8-7---12-10-8-------------------------|
3|---------------9~-7---------------------------------------------------------|
4|----------------------------------------------------------------------------| 
5|----------------------------------------------------------------------------|
6|----------------------------------------------------------------------------|


1|--8-7-5---10-8-7--12-10-8--14-12-10---19/~~--19/~~--19/~~-------------------|
2|----------------------------------------------------------------------------|
3|----------------------------------------------------------------------------|
4|----------------------------------------------------------------------------| 
5|----------------------------------------------------------------------------|
6|----------------------------------------------------------------------------|
Вверх

Ангельская пыль (3 вариант) mp3

Вступление:эл. гитара 1:
3|----------------------------4--5-4---------------------------------|
4|-4---9---7-5-4-5--4---4-5-7--------7-5-4---4-----------------------|
5|-2---7-------------7-7-------------------7-------------------------|
6|-------------------------------------------------------------------|
эл. гитара 2:
3|----------------------------4--5-4---------------------------------|
4|-4---9---7-5-4-5--4---4-5-7--------7-5-4---4-----------------------|
5|-2---7-------------7-7-------------------7-------------------------|
6|-------------------------------------------------------------------|
эл. гитара 1:
3|----------------------------4--5-4---------------------------------|
4|-4---9---7-5-4-5--4---4-5-7--------7-5-4---4-----------------------|
5|-2---7-------------7-7-------------------7-------------------------|
6|-------------------------------------------------------------------|
эл. Гитара 2:
3|----------------------------7--8-7---------------------------------|
4|-4---9---7-5-4-5--4---7-8-10-------10-8-7---7----------------------|
5|-2---7-------------7-10-------------------10-----------------------|
6|-------------------------------------------------------------------|
эл. гитара 1:
1|-------------------------------------------------------------------|
2|---------------------------5-6-5-----------------------------------|
3|-------7-5-4-5-4-----4-5-7-------7-5-4---4-------------------------|
4|-4--9------------7-7-------------------7---------------------------|
5|-2--7--------------------------------------------------------------|
6|-------------------------------------------------------------------|
эл. гитара 2:
1|-------------------------------------------------------------------|
2|---------------------------2-3-2-----------------------------------|
3|-------7-5-4-5-4-----1-2-4-------4-2-1---1-------------------------|
4|-4--9------------7-4-------------------4---------------------------|
5|-2--7--------------------------------------------------------------|
6|-------------------------------------------------------------------|
эл. гитара 1:
3|----------------------------4--5-4---------------------------------|
4|-4---9---7-5-4-5--4---4-5-7--------7-5-4---4-----------------------|
5|-2---7-------------7-7-------------------7-------------------------|
6|-------------------------------------------------------------------|
эл. гитара 2:
3|----------------------------4--5-4---------------------------------|
4|-4---9---7-5-4-5--4---4-5-7--------7-5-4---4-----------------------|
5|-2---7-------------7-7-------------------7-------------------------|
6|-------------------------------------------------------------------|
Основная часть:ак. гитара 1:
1|-------------------------------------------------------------------|
2|-0-----0-----0----1-----1----1---0-----0-----0----1----1-----------|
3|---0-----0-----0----0-----0----0---0-----0-----0----0----0---------|
4|-----2-----2----------2-----2--------2-----2----------2------------|
5|-------------------------------------------------------------------|
6|-------------------------------------------------------------------|
эл. гитара 2:
3|-2~------------2-3~-----------3-2~------------2-3~-----------------|
4|-------------------------------------------------------------------|
5|-------------------------------------------------------------------|
6|-------------------------------------------------------------------|
ак. гитара 1:
1|-------------------------------------------------------------------|
2|-0-----0-----0----1-----1----1---0-----0-----0----1----1-----------|
3|---0-----0-----0----0-----0----0---0-----0-----0----0----0---------|
4|-----2-----2----------2-----2--------2-----2----------2------------|
5|-------------------------------------------------------------------|
6|-------------------------------------------------------------------|
эл. гитара 2:
3|-2~------------2-3~-----------3-2~------------2-3~-----------------|
4|-------------------------------------------------------------------|
5|-------------------------------------------------------------------|
6|-------------------------------------------------------------------|
ак. гитара:   Em               C/E                  Em         Am6/E
1|-------------------------------------------------------------------|
2|-0-----0-----0----1-----1----1---0-----0-----0----1----1-----------|
3|---0-----0-----0----0-----0----0---0-----0-----0----0----0---------|
4|-----2-----2----------2-----2--------2-----2----------2------------|
5|-------------------------------------------------------------------|
6|-------------------------------------------------------------------|
Hа  краю обрыва, за которым вечность,Ты стоишь один во власти странных грез
ак. гитара:   Em               C/E           G                 D
1|-------------------------------------------------------------------|
2|-0-----0-----0----1-----1----1---0-----0-----0----3----3-----------|
3|---0-----0-----0----0-----0----0---0-----0-----0----2----2---------|
4|-----2-----2----------2-----2--------0-----0----------0------------|
5|-------------------------------------------------------------------|
6|-------------------------------------------------------------------|
И, простившись с миром, хочешь стать беспечным,Поиграть с огнем нездешних гроз. 
Hаконец ты счастлив как никто на свете,Ангельская пыль тебя уносит вверх.
Только ей подвластны и восторг, и ветер,В жидких небесах звучит твой смех.
Припев.эл гитара 1:    D   C   Em
3|--5-5-7-7-9-------5-4-----4----------------------------------------|
4|--5-5-7-7-9-4-5-7-----7-5---7-5-4-7-5-4----------------------------|
5|--3---5---7-----------------------------7--------------------------|
6|-------------------------------------------------------------------|
эл гитара 2:
3|--5-5-7-7-9-------8-7-----8----------------------------------------|
4|--5-5-7-7-9-7-8-10---10-8--10-8-7-10-8-7---------------------------|
5|--3---5---7------------------------------10------------------------|
6|-------------------------------------------------------------------|
   Ангельская пыль.эл гитара 1:    D   C   B7
3|--5-5-7-7-4-------4-------4----------------------------------------|
4|--5-5-7-7-4-------4-------4----------------------------------------|
5|--3---5---2-2-2-2-2-2-2-2-2----------------------------------------|
6|-----------------------------3-2-----------------------------------|
   Это сон и быль!эл. гитара 1:   Em          C           G        D
3|-------------------------------------------2-----------------------|
4|-----------------------------------0-2-4-5---5-4-2-----------------|
5|-------------------------------------------------------------------|
6|-------------------------------------------------------------------|
эл. гитара 2:
3|---------------------------------------2-4-5-4-2-------------------|
4|-2-4-5-4-2---2-4-5-4-2---4-5-7-5-4-4-5-----------4-----------------|
5|-----------5-----------5-------------------------------------------|
6|-------------------------------------------------------------------|
   Безумец, беглец - дороги нетЭл. гитара 1
    Em                   C             D
3|----------------------------------------------2---------------------|
4|--------------------------------------0-2-4-5-----------------------|
5|--------------------------------------------------------------------|
6|--------------------------------------------------------------------|
Эл. гитара 2:
3|-------------------------------------------------------------------|
4|--2-4-5-4-2---2-4-5-4-2---4-5-7-5-4-------4-5-7--------------------|
5|------------5-----------5-----------7-5-7--------------------------|
6|-------------------------------------------------------------------|
   Ты видишь неверный свет.Эл. гитара 1:    Am         F           C           G
3|-------------------------------------------------------------------|
4|--------------------------------------------2-3-2------------------|
5|--------------------------------------2-3-5-------5-3--------------|
6|-------------------------------------------------------------------|
Эл. гитара 2:
3|-------------------------------------------------------------------|
4|-------------------------------------------------------------------|
5|--0-2-3-2-0---0-2-3-2-0---2-3-5-3-2-0---0-2-3-2-0------------------|
6|------------3-----------3-------------3-----------3-1--------------|
  Твой ангел зажег мираж огня.
Эл. Гитара 1:     Am       F             G
3|-------------------------------------------------------------------|
4|--------------------------5-------5-------5------------------------|
5|--0-2-3-2-0---0-2-3-2-0---5-5-5-5-5-5-5-5-5------------------------|
6|------------3-----------3-3-3-3-3-3-3-3-3-3------------------------|
   Он хочет убить тебя...
Hа краю обрыва песня неземная,
Музыка богов и голоса богинь.
Ты паришь над миром, но торговец раем
Вынет душу из тебя за героин.
Ты устал быть птицей и сорвался камнем.
Рухнул с высоты, спасаясь от судьбы.
Hа краю обрыва вновь летят на пламя
Сотни мотыльков-самоубийц.
Припев.
Вверх

Ангельская пыль (4 вариант) mp3

  Am F Am G Am F C G Am

  Am                  F
  Hа кpаю обpыва за котоpым вечность
  Am                         G
  Ты стоишь один во власти стpанных гpез
  Am                            F
  И пpостившись с миpом хочешь стать беспечным
  C                           G
  Поигpать с огнем не здешних pоз
  Am                        F
  Hаконец ты счастлив как никто на свете
  Am                    G
  Ангельская пыль тебя yносит ввеpх
  Am                     F
  Только ей подвластны и востоpг и ветеp
  C                            G
  В жидких небесах звyчит твой смех

    Dm     Dm6 E     Dm  Dm6    E         (Dm6 - снизy 0320xx)
    Ангельская пыль, это все не быль
   Am       F        C       G
    Безyмец, беглец - доpоги нет
   Am        F        G
    Ты видишь невеpных свет
   Am         F     C        G
    Твой ангел зажег миpаж огня
   Am       F        G
    Он хочет yбить тебя

  Hа кpаю обpыва песня внеземная
  Мyзыка богов и гшолоса богинь
  Ты паpишь над миpом но тоpговец pаем
  Вынет дyшy из тебя за геpоин
  Ты yстал быть птицей и соpвался камнем
  Рyхнyл с высоты спасаясь от сyдьбы
  Hа кpаю обpыва вновь летят на пламя
  Сотни мотыльков самоyбийц

    Пpипев.
Вверх

Антихрист mp3

 1||------------------------|-------------------------|
 2||------------------------|-------------------------|
 3||-----0-----0-----0----0-|-----0-----0-----0----0--|2 раза
 4||---4-----4-----4----4---|---4-----4-----4----4----|
 5||-2-----2-----2----2-----|-3-----3-----3----3------|
 6||-0----------------------|-1-----------------------|

 Bm

Я рожден был ночью
В час молитвы волчьей
 C
В темном логове зверей.
 Bm
Черный Ангел Ада
Был со мною рядом
 C
На кругах людских страстей.
 Bm
Я прошел сквозь пламя
Был огнем и камнем,
 C
Червем был средь мертвых тел,
 Bm
Прозван был Нечистым,
Имя мне - Антихрист.
 C
Ты - Христос, ты - на кресте...
 G7   А Bm А Bm
Мм...

 1||-----------------------------|--------------------------|
 2||-----------------------------|--------------------------|
 3||-----------------------------|-----0-----0-----0-----0--|
 4||-----------------------------|---4-----4-----4-----4----|
 5||---2------4------5------7----|-2-----2-----2-----2------|
 6||-3---3--5---5--7---7--9---9--|--------------------------|

 1||-------------------------
 2||-------------------------
 3||-------------------------
 4||-------------------------
 5||---2------4------5-------
 6||-3---3--5---5--7---7--9--




Без тебя я - призрак,
Что из храма изгнан,
Без меня ты - скучный миф.
Мы с тобой как братья
В гимнах и проклятьях
С вечной властью над людьми.
Но ту прячешь тайну,
И в душе хрустальной,
Знаю я, грех смертный есть.
Я не тот, кто выдаст,
Имя мне - Антихрист.
Ты - Христос, тяжел твой крест...


Ты крещен был кровью,
Не речной водою,
В первый год судьбы земной.
Царь терзал младенцев,
И взрывалось сердце,
Слыша скорбный женский вой.
Царь искал Иисуса,
Чтоб убить искусно,
Но ты Богом был спасен.
По пескам кровавым
Начал путь свой к славе,
Ты - Христос, велик твой трон...


   Bm
   Для миллионов ты невиновен.
   C
   Мой же отец - Сатана.
   Bm
   Но Падший Ангел Богу был равен.
   C
   Мстить за него буду я.
   Bm
   Но мы сочтемся, в битве сойдемся
   C
   В год самой горькой звезды.
   Bm
   Знаю, наверно, рухну в первым,
   C
   Только погибнешь и ты.


 Bm       Dsus2 G
Имя мне - Антихрист!
 А6               Bm
Знак мой - цифра шесть... шесть... шесть...
         Dsus2 G
Имя мне - Антихрист!
 А6          F#7
Плачьте о душе...
Вверх

Баллада о Древнерусском воине

Riff 1 :
bend 1/4
G|---------------------------------------------------------------| This line-|
D|-------9----------7-------------------0-------------0----------|   play----|
A|----9-----9-----7------------------4-----4-------4-----4-------|  4 times--|
E|--7-----------5------3^--5--3---2-------------2----------------|-----------|

G|--------------------------------7---------7-------|
D|---4----2---x-x-x-x-x-x---2--2--7------7-----7----|
A|---4----2---x-x-x-x-x-x---2--2--5---5-----------5-|
E|---2----0---x-x-x-x-x-x---0--0--------------------|

G|---------7------------2---------------------------------|
D|------7-----7------2-----2----------5-----------5-------|
A|---5------------4----------------5-----5------5---5---5-|
E|------------------------------3-------------3-------3---|

G|---------7---------------------|
D|------7-----7------------0---4-|
A|---5-----------------4-------4-|
E|-----------------2-------------|

Lyrycs for riff 1 :

в дaль мчaлись стaи зимних птиц.
Дым гнaл их прочь быстрей лисиц.
Дым плыл, нaд всей землей.
чютый сброд зaкaтил пир горой.
Где тот воин, что крикнет им:

Riff 2 :

   Сто-о-о-о-й !!!

E<------------2 times------------>|<------------2 times------------>-|
B|---------------------------------|---------------------------------|
G|----------7--6--4h6p4-----------|--------4--7--6--4h6p4------------|
D|-------9---------------7--5--4--|-----5------------------7--5--4---|
A|-----9---------------------------|--7------------------------------|
E|--7------------------------------|---------------------------------|

E<------------2 times------------>|<------------2 times------------>-|
B|---------------------------------|---------------------------------|
G|--------4--7--6-7-9-7-6-7--------|-----------7--6--4h6p4-----------|
D|-----5---------------------------|--------9---------------7--5--4--|
A|--7------------------------------|-----9---------------------------|
E|---------------------------------|--7------------------------------|

  ________________________________  ______________________________

1.                                ||2.

G|--------------------------------*||-----------------------------|
D|------9------7------5------7----*||------9------7------5------7-|
A|------9------7------5------7-----||------9------7------5------7-|
E|--7-7-7--5-5-5--3-3-3--5-5-5-----||--7-7-7--5-5-5--3-3-3--5-5-5-|

G|----------------------------------------------------------|
D|---9--9-9-9--9-9-9--9-9-9--9-9-9--9-9-9--9-9-9--9-9-9-----|
A|---9--9-9-9--9-9-9--9-9-9--9-9-9--9-9-9--9-9-9--9-9-9-----|
E|---7--7-7-7--7-7-7--7-7-7--7-7-7--7-7-7--7-7-7--7-7-7-5-5-|

I verse :

   H5

   Зaпaд кaтился войной нa восток,

G|---4-|
D|---4-|
A|---2-|
E|-----|

        A5                 H5

   Ha спинaх и нa сердце крест.

G|-------2------------------4--4-4-4--4-4-4--4-4-4-2-2-|
D|-------2------------------4--4-4-4--4-4-4--4-4-4-2-2-|
A|-------0------------------2--2-2-2--2-2-2--2-2-2-0-0-|
E|-----------------------------------------------------|

    H5               C#5

   Kопья тевтонцев, целились в солнце.

G|---4----------------6-|
D|---4----------------6-|
A|---2----------------4-|
E|----------------------|

          C5              H5

   Зaпaд гaри нес черную весть.

G|---------5---------------4--4-4-4--4-4-4--4-4-4-2-2-|
D|---------5---------------4--4-4-4--4-4-4--4-4-4-2-2-|
A|---------3---------------2--2-2-2--2-2-2--2-2-2-0-0-|
E|----------------------------------------------------|

           H5
   Филин, волк и орел потешaлись игрой,
       A5               H5
   Чуя издaли русскую кровь.
          H5          C#5
   вся нечистaя силa помощь сулилa
      C5               H5
   Мaгистру и ордену псов.

G|-----5----------------4--4-4-4--4-4-4--4-4-4-4-4-|
D|-----5----------------4--4-4-4--4-4-4--4-4-4-4-4-|
A|-----3----------------2--2-2-2--2-2-2--2-2-2-2-2-|
E|-------------------------------------------------|

Chorus :
Теперь его судьбa, тенью бродить
И, слышa вой собaк, вновь мечь точить.
Ему не ведом стрaх, вечный покой,
все обрaтится в прaх, только не

    о-о-о-о-н !

E|----------------------------------------------------|
B|------------------------------5--7--------------7p5-|
G|---7-----------------------4--6--7----7----4----7p6-|
D|---7----7----4----4--5--7--5----------7----5--------|
A|-------10----5----5--5-10---------------------------|
E|----------------------------------------------------|

E|--------------------------------------------------|
B|------------------------------5--7----------------|
G|---7-----------------------4--6--7----7----4~~~~~-|
D|---7----7----4----4--5--7--5----------7----5~~~~~-|
A|-------10----5----5--5-10-------------------------|
E|--------------------------------------------------|

E|----------------------------------------------------|
B|------------------------------5--7--------------7p5-|
G|---7-----------------------4--6--7----7----4----7p6-|
D|---7----7----4----4--5--7--5----------7----5--------|
A|-------10----5----5--5-10---------------------------|
E|----------------------------------------------------|

E|-------------------------------------------3-----|
B|------------------------------5--7---------5---5-|
G|---7-----------------------4--6--7---7---------6-|
D|---7----7----4----4--5--7--5---------7-----------|
A|-------10----5----5--5-10------------------------|
E|-------------------------------------------------|
Вверх

Баллада о древнерусском воине

 4|------9--------7----------|------0---------0----||
 5|----9---9----7-------5----|----4---4-----4---4--|| 2 раза
 6|-7---------5------3----5--|-2---------2---------||


 Bm            А    G      F#
Вдаль мчались стаи зимних птиц,
     Bm       А       G     F#
Дым гнал их прочь быстрей лисиц.
 D   А       F#m      G
Дым плыл над всей землей.
       Em7      F#m           G
Лютый сброд закатил пир горой.
        Em7        F#m
Где тот воин, что крикнет им:
 Bm
"Стой!"


 Bm
Запад катился волной на Восток -
    А                   Bm
На спинах и на сердце крест,
           Bm7  C#
Копья тевтонцев целились в Солнце,
      C                Bm
Запах гари нес черную весть.
Филин, Волк и Орел потешались игрой,
    А                Bm
Чуя издали русскую кровь.
                  C#
Вся нечистая сила помощь сулила
   C               Bm
Магистру и Ордену Псов.


 Em7               Em7/G
В алтарях святые плачут,
        Bm C#m  Bm/D  B7/D#
Гудит наб _ ат.
 Em7              Em7/G
Битвы час уже назначен,

       F#7
Но это будет ад,
Трижды ад,
             Bm
Но ни шагу назад!


Звезды подскажут воину путь,
Он спешно седлает коня,
Сердце застыло, воля проснулась,
Он в битве три ночи, три дня.
И ошейник раба выбивает из рук
У Магистра - и льдины трещат,
За укрытое снегом золото воли.
Воин бьет не жалея меча.


В алтарях святые плачут
Хоть враг разбит и смят
Конь один обратно скачет
То был кромешный ад
Трижды ад
На копях воин распят...

 D         G/D
...теперь его судьба -
          D
Тенью бродить
         G/D
И, слыша вой собак,
             D
Вновь меч точить.
      G/D
Ему неведом страх,
          D
Вечный покой,
        G/D
Все обратится в прах...
          D
Только не он!


С тех пор так много воды утекло
Моря превратились в мираж
Тенью бесшумной воин проходит
На берег, как преданный страж
Бродит воин всю ночь, зажигает огни
Ищет Князя и братьев своих
Ищет золото воли, что добывали
В битве той, по колено в крови


Путь по звездам вновь означен

И вновь гудит набат
В алтарях святые плачут
И воин сходит в ад
Сущий ад
Но ни шагу назад!
Вверх

Баллада о древнерусском воине

Bm            A   G        F#
Вдаль мчались стаи зимних птиц.
Дым гнал их прочь быстрей лисиц.

 D    A         F#m    G
Дым плыл, над всей землей.
         Em7     F#m            G
Лютый сброд закатил пир горой.
         Em7        F#m          Bm
Где тот воин, что крикнет им: "Стой!!!"

 Bm
Запад катился войной на восток,
       A                       Bm
На спинах и на сердце крест.
           Bm7    C#
Копья тевтонцев, целились в солнце.
       C                     Bm
Запад гари нес черную весть.

Филин, волк и орел потешались игрой,
Чуя издали русскую кровь.
Вся нечистая сила помощь сулила
Магистру и ордену псов.

   Em7                            Bm  B7
В алтарях святые плачут, гудит набат.
 Em7                             F#7            
Битвы час уже назначен. но это будет ад, трижды ад!
                  Bm
Но ни шагу назад!

          G                    D
Теперь его судьба, тенью бродить
И, слыша вой собак, вновь мечь точить.
Ему не ведом страх, вечный покой,
Все обратится в прах, только не он!

Еще версия с простыми аккордами

  Am            G          Am
В даль мчались стаи зимних птиц.
     Am       G              C
Дым гнал их прочь быстрей лисиц.
  C    Dm       E     Am
Дым плыл, над всей землей.
        Dm       E        Am
Лютый сброд закатил пир горой.
         Dm         E           Am
Где тот воин, что крикнет им: "Стой!!!"

 Am
Запад катился войной на восток,
     G                  Am
На спинах и на сердце крест.
 Am               D
Копья тевтонцев, целились в солнце.
  Dm                  Am
Запах гари нес черную весть.

Филин, волк и орел потешались игрой,
Чуя издали русскую кровь.
Вся нечистая сила помощь сулила
Магистру и ордену псов.

  Am               Dm       E     Am
В алтарях святые плачут, гудит набат.
 Am               A7           Dm    E
Битвы час уже назначен. O, это будет ад, трижды ад!
 Am
Но ни шагу назад!

 Am             D            Am
Теперь его судьба, тенью бродить
          D                      Am
И, слыша вой собак, вновь мечь точить.
Ему не ведом страх, вечный покой,
Все обратится в прах, только не он!

Вверх

Баллада о древнерусском воине (2 вариант)

Riff 1 :
                     bend 1/4
E--------------------------------------------------------------|
Н--------------------------------------------------------------|
G--------------------------------------------------------------|
D-------9----------7-------------------0-------------0---------|
А----9-----9-----7------------------4-----4-------4-----4------|
E--7-----------5------3^--5--3---2-------------2---------------|

E--------------------------------------------------------------|
Н--------------------------------------------------------------|
G--------------------------------7---------7-------------------|
D---4----2---x-x-x-x-x-x---2--2--7------7-----7----------------|
А---4----2---x-x-x-x-x-x---2--2--5---5-----------5-------------|
E---2----0---x-x-x-x-x-x---0--0--------------------------------|

E--------------------------------------------------------------|
Н--------------------------------------------------------------|
G---------7------------2---------------------------------------|
D------7-----7------2-----2----------5-----------5-------------|
А---5------------4----------------5-----5------5---5---5-------|
E------------------------------3-------------3-------3---------|

E--------------------------------------------------------------|
Н--------------------------------------------------------------|
G---------7----------------------------------------------------|
D------7-----7------------0---4--------------------------------|
А---5-----------------4-------4--------------------------------|
E-----------------2--------------------------------------------|

Lyrycs for riff 1 :

Вдаль мчались стаи зимних птиц.
Дым гнал их прочь быстрей лисиц.
Дым плыл, над всей землей.
Лютый сброд закатил пир горой.
Где тот воин, что крикнет им:

Riff 2 :

   "Сто-о-о-о-й!!!"
E||
Н------------------------------|-------------------------------|
G*--------7--------------------|-------------------------------|
D*-----9----11-9Н11р9----------|-------9-12--11-9Н11р9---------|
А----9----------------12-10-9--|----10-----------------12-10-9-|
E-7----------------------------|-12----------------------------|

E||
Н-------------------------------|------------------------------|
G-------------------------------|------------------------------|
D------9-12--11-12-14-12-11-12--|-------9-12--11-9Н11р9--------|
А---10--------------------------|----10----------------12-10-9-|
E-12----------------------------|-12---------------------------|
  ________________________________  __________________________
1.                                ||2.
E------------------------------||------------------------------|
Н------------------------------||------------------------------|
G-----------------------------*||------------------------------|
D------9------7------5------7-*||------9------7-----5------7---|
А------9------7------5------7--||------9------7-----5------7---|
E--7-7-7--5-5-5--3-3-3--5-5-5--||--7-7-7--5-5-5-3-3-3--5-5-5---|

E--------------------------------------------------------------|
Н--------------------------------------------------------------|
G--------------------------------------------------------------|
D---9--9-9-9--9-9-9--9-9-9--9-9-9--9-9-9--9-9-9--9-9-9---------|
А---9--9-9-9--9-9-9--9-9-9--9-9-9--9-9-9--9-9-9--9-9-9---------|
E---7--7-7-7--7-7-7--7-7-7--7-7-7--7-7-7--7-7-7--7-7-7-5-5-----|

I Версия  :

   Н5
  Запад катился войной на восток,
E--------------------------------------------------------|
Н--------------------------------------------------------|
G---4----------------------------------------------------|
D---4----------------------------------------------------|
А---2----------------------------------------------------|
E--------------------------------------------------------|

        А5                 Н5
   На спинах и на сердце крест.
E--------------------------------------------------------|
Н--------------------------------------------------------|
G-------2------------------4--4-4-4--4-4-4--4-4-4-2-2----|
D-------2------------------4--4-4-4--4-4-4--4-4-4-2-2----|
А-------0------------------2--2-2-2--2-2-2--2-2-2-0-0----|
E--------------------------------------------------------|

    Н5               C#5
   Копья тевтонцев, целились в солнце.
E--------------------------------------------------------|
Н--------------------------------------------------------|
G---4----------------6-----------------------------------|
D---4----------------6-----------------------------------|
А---2----------------4-----------------------------------|
E--------------------------------------------------------|

          C5              Н5
   Запад гари нес черную весть.
E--------------------------------------------------------|
Н--------------------------------------------------------|
G---------5---------------4--4-4-4--4-4-4--4-4-4-2-2-----|
D---------5---------------4--4-4-4--4-4-4--4-4-4-2-2-----|
А---------3---------------2--2-2-2--2-2-2--2-2-2-0-0-----|
E--------------------------------------------------------|

           Н5
   Филин, волк и орел потешались игрой,
       А5               Н5
   Чуя издали русскую кровь.
          Н5          C#5
   Вся нечистая сила помощь сулила
      C5               Н5
   Магистру и ордену псов.
E--------------------------------------------------------|
Н--------------------------------------------------------|
G-----5----------------4--4-4-4--4-4-4--4-4-4-4-4--------|
D-----5----------------4--4-4-4--4-4-4--4-4-4-4-4--------|
А-----3----------------2--2-2-2--2-2-2--2-2-2-2-2--------|
E--------------------------------------------------------|

Chorus :

E--------------------------------------------------------------|
Н--------------------------------------------------------------|
G--------------------------------------------------------------|
D--------------------------------------------------------------|
А--------------------------------------------------------------|
E--------------------------------------------------------------|

Теперь его судьба, тенью бродить
И, слыша вой собак, вновь мечь точить.
Ему не ведом страх, вечный покой,
Все обратится в прах, только не

    о-о-о-о-н!
E--------------------------------------------------------------|
Н------------------------------5--7--------------7р5-----------|
G---7-----------------------4--6--7----7----4----7р6-----------|
D---7----7----4----4--5--7--5----------7----5------------------|
А-------10----5----5--5-10-------------------------------------|
E--------------------------------------------------------------|


E--------------------------------------------------------------|
Н------------------------------5--7----------------------------|
G---7-----------------------4--6--7----7----4~~~~~-------------|
D---7----7----4----4--5--7--5----------7----5~~~~~-------------|
А-------10----5----5--5-10-------------------------------------|
E--------------------------------------------------------------|

E--------------------------------------------------------------|
Н------------------------------5--7--------------7р5-----------|
G---7-----------------------4--6--7----7----4----7р6-----------|
D---7----7----4----4--5--7--5----------7----5------------------|
А-------10----5----5--5-10-------------------------------------|
E--------------------------------------------------------------|

E-------------------------------------------3------------------|
Н------------------------------5--7---------5---5--------------|
G---7-----------------------4--6--7---7---------6--------------|
D---7----7----4----4--5--7--5---------7------------------------|
А-------10----5----5--5-10-------------------------------------|
E--------------------------------------------------------------|
Вверх

Баллада о древнерусском воине (2 вариант)

   Am            G          Am
В даль мчались стаи зимних птиц.
      Am        G            C
Дым гнал их прочь быстрей лисиц.
  C    Dm      E     Am
Дым плыл, над всей землей.
       Dm        E        Am
Лютый сброд закатил пир горой.
          Dm       E           Am
Где тот воин, что крикнет им: "Стой!!!"

   Am
Запад катился войной на восток,
      G                  Am
Hа спинах и на сердце крест.
   Am              D
Копья тевтонцев, целились в солнце.
   Dm                  Am
Запад дарит нам черную месть.
Филин, волк и орел потешались игрой,
Чуя издали русскую кровь.
Вся нечистая сила помощь сулила
Магистру и ордену псов.

       Am              Dm        E    Am
   В алтарях святые плачут, гудит набат.
       Am                A7         Dm      E
   Битвы час уже назначен. O, это будет ад, трижды ад!
      Am
   Hо ни шагу назад!

Звезды подскажут воину путь.
Он спешно седлает коня.
Сердце застыло, воля проснулась.
Он в битве три ночи, три дня.
И ошейник раба выбивает из рук
У магистра, седины трещат.
За укрытое снегом золото воли
Воин бьет не жалея меча.
   В алтарях святые плачут, хоть враг разбит и смят.
   Конь один обратно скачет, то был кромешный ад, трижды ад!
   Hа копьях воин распят.

 Am         D                    Am
   Теперь его судьба, тенью бродить
             D                      Am
   И, слыша вой собак, вновь мечь точить.
   Ему не ведом страх, вечный покой,
   Все обратится в прах, только не он!
С тех пор так много воды утекло.
Моря превратились в мираж.
Тенью бесшумной воин проходит
Hа берег, как преданный страж.
Бродит воин всю ночь, зажигает огни,
Ищет князя и братьев своих,
Ищет золото воли, что добывали
В битве той поколено в крови.
   А по звездам вновь означен, и вновь гудит набат.
   В алтарях святыни плачут и воин сходит в ад, сущий ад!
   Hо ни шагу назад, но ни шагу назад, нет!
Вдаль мчались стаи зимних птиц...
Вверх

Бал у Князя Тьмы mp3

 Dm
Вечер умирал, наступала ночь,
 C              Dm
Необычный бал грянул во всю мощь...
Стольная Москва в толк не может взять
  C               Dm
Что сюда спешит дьявольская знать
 Gm                A
Воланд-господин, всетемнейший князь,
  Gm              A
Приказал играть свой безумный вальс,
               Dm
Свой безумный вальс!

Черной свиты хор подхватить готов
Громкую хвалу сумеркам богов
Кровь из черепов пьют здесь как вино
Каждый здесь нечист, каждый обнажен
Правит бал мессир - по делам воздаст
Всем, кто из могил прилетел на вальс
Прилетел на вальс!

    B      Am     Dm
   Бал у Князя Тьмы
    B       Am    Dm
   Полночь без пяти,
    B      Am
   Пять минут,
      G#   G      A Dm
   И душу не спасти...

Вальс гремит на бис, вальсу вторит гром
Шабашем ночным воздух заражен
И глядит мессир, молчалив и горд,
Как ползет огонь с Воробьевых гор...
Каждому воздаст по делам его,
Слишком много зла здесь на одного!
Здесь на одного!

   Бал у Князя Тьмы
   Полночь без пяти,
   Пять минут,
   И душу не спасти...

       Dm
      Тень... свет... темп убыстряется,
       B
      Жизнь, смерть... перекликаются,
       Gm                           B   A
      Жар, бред, пытка надеждой и злость.
       Dm
      Вот вам - казнь и прощение,
        B
      Все, все, все в восхищении!
       Gm                                 B   A
      Тень... свет... сердце вдруг оборвалось.

   Бал у Князя Тьмы
   Полночь без пяти,
   Пять минут,
   И душу не спасти...

 Dm
Битое стекло... Теплая зола...
  C               Dm
Здесь на одного слишком много зла...
Вверх

Бал у Князя Тьмы (2 вариант) mp3

Все струны на гитаре опускаются на полтона ниже. Все акорды 
для удобства указаны на полтона выше.

Intro.
Eb|------------|------------|------------|------------|
Bb|------------|------------|------------|------------|
Gb|------------|------------|------------|------------|
Db|----0-----0-|----0-----0-|----0-----0-|----0-----0-|
Ab|--2-----2---|--2-----2---|--2-----2---|--2-----2---|
Eb|0-----0-----|0-----0-----|0-----0-----|0-----0-----|
----------------------
Acoustic guitar
Eb|------------|------------|------------|------------|
Bb|------------|------------|------------|------------|
Gb|------------|------------|------------|------------|
Db|----0-----0-|----0-----0-|----0-----0-|----0-----0-|
Ab|--2-----2---|--2-----2---|--2-----2---|--2-----2---|
Eb|0-----0-----|0-----0-----|0-----0-----|0-----0-----|
Vocals
Eb|------------|------------|------------|------------|
Bb|------------|------------|------------|------------|
Gb|------------|------------|------------|------------|
Db|5-5-5-4-5---|------------|5-5-5-4-5---|------------|
Ab|------------|------------|------------|------------|
Eb|------------|------------|------------|------------|
  Вечер умирал,             Наступала ночь.

Acoustic guitar
Eb|------------|------------|------------|------------|
Bb|------------|------------|------------|------------|
Gb|------------|------------|------------|------------|
Db|----0-----0-|----0-----0-|----0-----0-|----0-----0-|
Ab|--0-----0---|--0-----0---|--2-----2---|--2-----2---|
Eb|2-----2-----|2-----2-----|0-----0-----|0-----0-----|
Vocals
Eb|------------|------------|------------|------------|
Bb|------------|------------|------------|------------|
Gb|------------|------------|------------|------------|
Db|4-4-4-2-4---|------------|5-4-2-0-2---|------------|
Ab|------------|------------|------------|------------|
Eb|------------|------------|------------|------------|
   Необычный бал            грянул во всю мощь 

Acoustic guitar
Eb|------------|------------|------------|------------|
Bb|------------|------------|------------|------------|
Gb|------------|------------|------------|------------|
Db|----0-----0-|----0-----0-|----0-----0-|----0-----0-|
Ab|--0-----0---|--0-----0---|--0-----0---|--0-----0---|
Eb|2-----2-----|2-----2-----|2-----2-----|2-----2-----|
Vocals
Eb|------------|------------|------------|------------|
Bb|------------|------------|------------|------------|
Gb|------------|------------|--------4---|------------|
Db|5-5-5-4-5---|------------|5-5-5-4-----|------------|
Ab|------------|------------|------------|------------|
Eb|------------|------------|------------|------------|
  Стольная Москва           в толк не может взять,

Acoustic guitar
Eb|------------|------------|------------|------------|
Bb|------------|------------|------------|------------|
Gb|------------|------------|------------|------------|
Db|----0-----0-|----0-----0-|----0-----0-|----0-----0-|
Ab|--0-----0---|--0-----0---|--2-----2---|--2-----2---|
Eb|2-----2-----|2-----2-----|0-----0-----|0-----0-----|
Vocals
Eb|------------|------------|------------|------------|
Bb|------------|------------|------------|------------|
Gb|--------2---|------------|------------|------------|
Db|4-4-4-2-----|------------|5-4-2-0-2---|------------|
Ab|------------|------------|------------|------------|
Eb|------------|------------|------------|------------|
  что сюда спешит           дьявольская знать.

Acoustic guitar
Eb|------------|------------|------------|------------|
Bb|------------|------------|------------|------------|
Gb|----5-----5-|----5-----5-|----7-----7-|----7-----7-|
Db|--5-----5---|--5-----5---|--7-----7---|--7-----7---|
Ab|3-----3-----|3-----3-----|5-----5-----|5-----5-----|
Eb|------------|------------|------------|------------|
Vocals
Eb|------------|------------|------------|------------|
Bb|------------|------------|------------|------------|
Gb|------------|------------|------------|------------|
Db|2-2-2-0-2---|------------|4-4-4-2-4---|------------|
Ab|------------|------------|------------|------------|
Eb|------------|------------|------------|------------|
  Воланд господин,          Всетемнейший Князь,           

Acoustic guitar
Eb|------------|------------|------------|------------|
Bb|------------|------------|------------|------------|
Gb|----5-----5-|----5-----5-|----7-----7-|----7-----7-|
Db|--5-----5---|--5-----5---|--7-----7---|--7-----7---|
Ab|3-----3-----|3-----3-----|5-----5-----|5-----5-----|
Eb|------------|------------|------------|------------|
Vocals
Eb|------------|------------|------------|------------|
Bb|------------|------------|------------|------------|
Gb|------------|------------|------------|------------|
Db|2-2-2-0-2---|------------|4-4-4-2-4---|----5-4-0-2-|
Ab|------------|------------|------------|------------|
Eb|------------|------------|------------|------------|
   приказал играть          свой безумный вальс,  
                                             свой безумный

Acoustic guitar
Eb|------------|------------|------------|------------|
Bb|------------|------------|------------|------------|
Gb|------------|------------|------------|------------|
Db|----0-----0-|----0-----0-|----0-----0-|----0-----0-|
Ab|--0-----0---|--0-----0---|--0-----0---|--0-----0---|
Eb|2-----2-----|2-----2-----|2-----2-----|2-----2-----|
Vocals
Eb|------------|------------|------------|------------|
Bb|------------|------------|------------|------------|
Gb|------------|------------|------------|------------|
Db|2-----------|------------|------------|------------|
Ab|------------|------------|------------|------------|
Eb|------------|------------|------------|------------|
  вальс.

//Далее акордами, вокал как прежде.
Em
Чёрный свиты хор
Em
Подхватить готов 
D
Громкую хвалу 
Em
Сумеркам Богов.

Кровь из черепов 
Пьют здесь, как вино,
Каждый здесь нечист,
Каждый обнажён.

C
Правит бал мессир,
D
По делам воздаст
C
Всем, кто из могил
D
Прилетел на вальс,
             Riff
Прилетел на вальс.
Riff(Distortion):  
       Eb||------------||
       Bb||------------||
       Gb|*------------*|
       Db|*0h2-2-2-2---*|
       Ab||0h2-2-2-2---||
       Eb||------------||

Chorus.
Guitar C   B   Em    
Vocals
   Eb||------------|------------||
   Bb||------------|------------||
   Gb|*--2---------|------------*|
   Db|*5---4-0-2---|------------*|
   Ab||------------|------------||
   Eb||------------|------------||
      Бал у Князя Тьмы,
      Полночь без пяти.

Guitar  C   B   Bb   D   B     Em
Vocals
     Eb|------------|------------|
     Bb|------------|------------|
     Gb|--2---------|------------|
     Db|5---4-0-3-2-|0-5-4-------|
     Ab|------------|------------|
     Eb|------------|------------|
       Пять минут и душу не спасти.

Solo.
Eb||------------|------------|------------|------------||
Bb||------------|------------|------------|------------||
Gb|*------------|------------|------------|------------*|
Db|*5-4-2-4-5-4-|2---5-4-2---|5-4-2-4-5-4-|2----5-4-0--*|
Ab||------------|------------|------------|------------||
Eb||------------|------------|------------|------------||
--------
Em
Вальс гремит на бис,
Em
Вальсу вторит гром,
D
Шабашем ночным
Em
Воздух заражён.
       
И глядит мессир,
Молчалив и горд,
Как ползёт огонь
С Воробьёвых гор. 
C
Каждому воздаст
D
По делам его,
C
Слишком много зла 
D
Здесь на одного,
             RIFF
Здесь на одного.

Chorus.
Bass solo. 
Solo2(disorted guitar).
Eb|---------|---------|---------|---------|
Bb|12-12-12-|12-10-12-|10-------|---10-12-|
Gb|---------|---------|---12-12-|12-------|
Db|---------|---------|---------|---------|
Ab|---------|---------|---------|---------|
Eb|---------|---------|---------|---------|

Eb|---------|---------|------------|------------|
Bb|10-10-10-|10----10-|------------|----------10|
Gb|---------|---12----|12-11-9-----|---9-11-12--|
Db|---------|---------|-------12-10|12----------|
Ab|---------|---------|------------|------------|
Eb|---------|---------|------------|------------|

Eb|---------|---------|10---------|---------|
Bb|12-12-12-|12-10-12-|--13-12-10-|---10-12-|
Gb|---------|---------|-----------|12-------|
Db|---------|---------|-----------|---------|
Ab|---------|---------|-----------|---------|
Eb|---------|---------|-----------|---------|

Eb|---------|---------|---------|
Bb|10-10-10-|10-------|10-12-13-|
Gb|---------|---12-11-|---------|
Db|---------|---------|---------|
Ab|---------|---------|---------|
Eb|---------|---------|---------|

Eb|---------|---------|---------|---------|
Bb|15-15-15-|15-13-15-|13-------|---13-15-|
Gb|---------|---------|---15-15-|15-------|
Db|---------|---------|---------|---------|
Ab|---------|---------|---------|---------|
Eb|---------|---------|---------|---------|

Eb|---------|---------|------------|----------13|
Bb|13-13-13-|13----13-|------------|-----14-15--|
Gb|---------|---15----|15-14-12----|--12--------|
Db|---------|---------|-------15-13|15----------|
Ab|---------|---------|------------|------------|
Eb|---------|---------|------------|------------|

Eb|---------|---------|13---------|---------|
Bb|15-15-15-|15-13-15-|--16-15-13-|---13-15-|
Gb|---------|---------|-----------|15-------|
Db|---------|---------|-----------|---------|
Ab|---------|---------|-----------|---------|
Eb|---------|---------|-----------|---------|

Eb|---------|---------|---------|
Bb|13-13-13-|13-------|13-------|
Gb|---------|---12-11-|---------|
Db|---------|---------|---------|
Ab|---------|---------|---------|
Eb|---------|---------|---------|
-------------
Solo3.

Vocals
Eb||-----|------------||
Bb|*-----|------------*|
Gb|*-----|------------*|
Db|*-2-4-|5-4-2-0-2-4-*|
Ab||-----|------------||
Eb||-----|------------||
   Em
   День, свет; темп убыстряется.
   C
   Жизнь, смерть перекликаются.
   Am
   Жар, бред, пытка надеждой и

Eb|-----|
Bb|-----|
Gb|-----|
Db|-2-4-|
Ab|-----|
Eb|-----|
  Em  B
  Зло_ость 
  Em
  Вот вам казни прощение.
  C
  Все, все, все в восхищении.
  Am                             Em B Em  RIFF
  День, свет, сердце вдруг оборвалось.

Chorus.
Solo1.
Теперь перебором (как в начале)
Em7
Битое стекло.
Em7
Тёплая зола.
D/F#
Здесь на одного
Em7
Слишком много зла.
Вверх

Беги за солнцем

E|------0-------2------0-------|------0-------2-------0--------|
B|----0---0-------0------0-----|----0---0-------0-------0------|
G|--0-------0-------0------0---|--0-------0-------0-------0----|
D|------------2-------2------2-|------------2-------2-------2--|
A|-----------------------------|-------------------------------|
E|-0------------0------0-------|-0------------0-------0--------|

  Em
В воздухе пахнет бедой
 C7
Целых две тысячи лет,
 Am
Жизнь так жестока
 B7                 Em
На этой проклятой земле...

Ветер в твоих волосах
 C7
Тот же, что вечность назад,
 Am
Время застыло,
 B7            Em
Луна и солнце стали в ряд...

Припев:
   D                           C7
   Улететь бы птицей, прочь от проклятой земли,
   C                              C7           B7
   С небом чистым слиться - вот о чем мечтаешь ты...

   Em
   Беги, беги за солнцем,
   C
   Сбивая ноги в кровь
   Am7
   Беги, беги, не бойся
   B7
   Играть судьбою вновь и вновь.
   Em
   Лети, лети за солнцем
   C
   K безумству высоты.
   Am
   Лети, лети, не бойся,
   B7                        Em/Bb  Em/А  Em/G
   Так можешь сделать только ты...


Мужество есть лишь у тех,
Кто ощутил сердцем страх
Кто смотрит в пропасть,
Но смотрит с гордостью в глазах


С белым пером в волосах,
Словно языческий бог,
Ты прыгнул в небо,
В гремящий грозами поток.

Припев.

 D                     C/А
Ты упал со стоном, опаленный высотой,
 D                         C7              B7
На земле рожденный, снова должен стать землей...

Припев.
Вверх

Без тебя

    Dm          Am/C           Gm/Bb       А7
E|--1-----------0-----------|--------------------0-------------|
B|-----3-----3-----3-----3--|--3-----------2--------2----------|
G|--------2-----------2-----|-----0----------------------------|
D|--0-----------------------|----------------------------------|
А|--------------3-----------|--1--------1--0--0----------------|
E|--------------------------|--------3-------------------------|

    Dm          Am/C           Gm/Bb C     Dm
E|--1-----------0-----------|--------0-------------------------|
B|-----3-----3-----3-----3--|--3-----------3----3--------------|
G|--------2-----------2-----|-----0-----0-----2----2-----------|
D|--0-----------------------|--------------0-------------------|
А|--------------3-----------|--1-----3-------------------------|
E|--------------------------|----------------------------------|

    Dm Am/C     Gm/Bb          А7
E|--1--0--------0-----------|-----------0-----------0----------|
B|--------3--------3-----3--|--3--2--------2-----2-------------|
G|-----------2--------0-----|--------2--------2----------------|
D|--0-----------------------|----------------------------------|
А|-----3--------3--1--------|--1--0----------------------------|
E|--------------------------|----------------------------------|

    Dm Am/C     Gm/Bb          А7
E|--1--0--------0-----------|-----------0------0---------------|
B|--------3--------3-----3--|--3--2--------2------2------------|
G|-----------2--------0-----|--------2--------2------2---------|
D|--0-----------------------|----------------------------------|
А|-----3--------3--1--------|--1--0----------------------------|
E|--------------------------|----------------------------------|


 Dm    Am/C   Gm/Bb  Gm     А7
Снова брошен в окна лунный свет,
 Dm      Am/C  Gm/Bb C   Dm
Дом мой сонный серебром одет.
 Dm Am/C    Gm/Bb  А7
Мм...    Мм...    Мм...
 Dm Am/C    Gm/Bb  А7
Мм...    Мм...    Мм...

Лунной кисти не достич глубин -
Эту бездну знаю я один.

Припев:
    D               Gm
   Все, все как вчера,
    D               Gm Bb C
   Все, все как вчера,
    D               Gm
   Все, все как вчера,
             А  А7
   Но без тебя...

Ревность, жалость, словно заодно,
Птицей скорби падаю на дно.

Припев.
Вверх

Без тебя (2 вариант)

1.-1-0-1-0-----------1-0-1-0-----------
2.---------3-3---------------3-3-5-5-6-
3.-------------3-3-2-------------------
4.-0-0-0-0-----------0-0-0-0-----------
5.-------------------------------------
6.-------------------------------------

Dm    C      A#     Gm      A7
Снова брошен в окна лунный свет,
Dm      C      Gm    C    Dm  DmCA#GmA7 DmCA#GmA7
Дом мой сонный серебром одет.


Лунной кисти не достичь глубин-
Эту бездну знаю я один.

Припев:
0-0-1-3-1-0-0-1-3-1-0-0-1-3-4-4-6-4-p3-
D               Gm
Всё, всё как вчера,
D               Gm
Всё, всё как вчера,
D               A#
Всё, всё как вчера,
   Fm    A    A7
Но без тебя...


Ревность, жалость словно заодно,
Птицей скорби падаю на дно.
 
 
Вверх

Без тебя (3 вариант)

Em    D      C             H7 
Снова брошен в окна лунный свет.
Em       D       C        Em 
Дом мой, сонный, серебром одет.
Проигрыш: Em D C H7
E-3-2-----2-0-----------2-------2- |
H-------3-------1-4---4-------4--- |
G-----2-------0-----4-------4----- |
D---0-----0----------------------- |2 раза
A-----------3-----2-------2------- |
E-0------------------------------- |

Em     D     C          H7
Лунной кисти не достичь глубин.
Em  D      C      Em  
Эту бездну знаю я один.
Проигрыш:
Припев:
E            Am
Всё, всё как вчера.
E            Am    C D
Всё, всё как вчера
E            Am
Всё, всё как вчера,
         H7
Но без тебя.

Em        D       C          H7
Ревность, жалость словно заодно.
Em     D      C         Em 
Птицей скорби падаю на дно.
Проигрыш
Припев

Вверх

Белый флаг mp3

 Bm         C     C#        C
Роскошь витрин, свет ярких фонарей.
 Bm        C   C#      B
Ты жил легко, жил не таясь.
 Bm       C    C#       C
Но в это рай кто-то пустил зверей,
 Bm         C   C#         B
Гордость твоя втоптана в грязь.

    D#m                  C#
   Белый флаг - кровь ушла из вен.
    D#m               Fm    F
   Липкий страх холоднее льда.
     D#m                  C#
   Сделай шаг - города сдаются в плен
    F#          G#              Bm
   Без борьбы, без огня, навсегда.

Звери везде лезут из темных нор,
Вот и сбылись страшные сны.
Нет никого, кто бы им дал отпор,
Все здесь давно против войны.

   Белый флаг - кровь ушла из вен.
   Липкий страх холоднее льда.
   Сделай шаг - города сдаются в плен
   Без борьбы, без огня, навсегда.
Вверх

Белый флаг (2 вариант) mp3

Tuning: half-step down (e to eb
                        H to Bb
                        G to Gb
                        D to Db
                        A to Ab
                        E to Eb)
Tempo: moderately fast (148 bpm)
INTRO:
(0:01 - 0:13)
RIFF 1: (*2 times)
Gtr.1Eb||---------------------------------|---------------------------------|
     Hb||---------------------------------|---------------------------------|
     Gb||---------------------------------|-------------------------5b5.5---|
     Db||---------------------------------|---------------------5---5b5.5---|
     Ab||---------8-----------7-----------|-8-----------7-------3-----------|
     Eb||-3-3-3-3-6---3-3-3-3-5---3-3-3-3-|-6---3-3-3-3-5---3---------------|
Gtr.1Eb|----------------------------------|---------------------------------||
     Hb|----------------------------------|---------------------------------||
     Gb|----------------------------------|---------------------------------||
     Db|----------------------------------|---------------------------------||
     Ab|----------8-----------7-----------|-6-------8---5-------------------||
     Eb|--3-3-3-3-6---3-3-3-3-5---3-3-3-3-|-4---3-3-6---3-------------------||
(0:13 - 0:26) Repeat RIFF 1 for 2 more times (on both Gtr.1 and Gtr.2)
(0:26 - 0:52)
VERSE 1:
VoiceEb|--------------------------------------------------------------------|
     Hb|------------------------------------3-------------------------------|
     Gb|--5-----------5-----------5-----------------------------------------|
     Db|--------------------------------------------------------------------|
     Ab|--------------------------------------------------------------------|
     Eb| Ros    -    kosh?       vit   -   rin,            -----------------|
       |                                  |                                 |
Gtr.1Eb|----------------------------------|---------------------------------|
  +  Hb|----------------------------------|---------------------------------|
Gtr.2Gb|--5-----------5-----------5-------|-5-----------5-----------5-------|
     Db|--5-----------5-----------5-------|-4-----------4-----------4-------|
     Ab|--3---3---3---3---3---3---3---3---|-5---5---5---5---5---5---5---5---|
     Eb|----------------------------------|---------------------------------|
 
VoiceEb|--------------------------------------------------------------------|
     Hb|--4-----------4-----------4---------3-------4---3-------------------|
     Gb|--------------------------------------------------------------------|
     Db|--------------------------------------------------------------------|
     Ab|--------------------------------------------------------------------|
     Eb| svet        yar    -    kih       fo   -  na -rey.      -----------|
       |                                  |                                 |
Gtr.1Eb|----------------------------------|---------------------------------|
  +  Hb|----------------------------------|---------------------------------|
Gtr.2Gb|--5-----------5-----------5-------|-5-----------5-------5-----------|
     Db|--5-----------5-----------5-------|-4-----------4-----------4-------|
     Ab|--6---6---6---6---6---6---6---6---|-5---5---5---5---------------5---|
     Eb|----------------------------------|---------------------------------|
 
VoiceEb|--------------------------------------------------------------------|
     Hb|------------------------------3-----3-------------------------------|
     Gb|--5-----------5-----------5-----------------------------------------|
     Db|--------------------------------------------------------------------|
     Ab|--------------------------------------------------------------------|
     Eb| Ty         zhil         le - eg - ko,             -----------------|
       |                                  |                                 |
Gtr.1Eb|----------------------------------|---------------------------------|
  +  Hb|----------------------------------|---------------------------------|
Gtr.2Gb|--5-----------5-----------5-------|-5-----------5-----------5-------|
     Db|--5-----------5-----------5-------|-4-----------4-----------4-------|
     Ab|--3---3---3---3---3---3---3---3---|-5---5---5---5---5---5---5---5---|
     Eb|----------------------------------|---------------------------------|
 
VoiceEb|--------------------------3---------3-------------------------------|
     Hb|--4-----------4-----------------------------------------------------|
     Gb|--------------------------------------------------------------------|
     Db|--------------------------------------------------------------------|
     Ab|--------------------------------------------------------------------|
     Eb| zhil        ne          ta   -    yas?.                 -----------|
       |                                  |                                 |
Gtr.1Eb|----------------------------------|---------------------------------|
  +  Hb|----------------------------------|---------------------------------|
Gtr.2Gb|--5-----------5-----------5-------|-5-----------5-----------5-------|
     Db|--5-----------5-----------5-------|-5-----------5-----------5-------|
     Ab|--6---6---6---6---6---6---6---6---|-3---3---3---3---3---3---3---3---|
     Eb|----------------------------------|---------------------------------|
...
(0:53 - 1:19)
CHORUS: (Gtr.3 - clean sound)
VoiceEb|--4--------3--------4-------------------4-----6-------3-------------------------------------------------|
     Hb|---------------------------------------------------------------4----------------------------------------|
     Gb|------------------------------------------------------------------------3-------------------------------|
     Db|--------------------------------------------------------------------------------------------------------|
     Ab|--------------------------------------------------------------------------------------------------------|
     Eb| Be   -   lyy     flag,               krov?   ush  - la        iz      ven.      -----------------------|
       |                          |                         |                         |                         |
Gtr.3Eb|--------------------------|-------------------------|-------------------------|-------------------------|
     Hb|--------------------------|-------------------------|-------------------------|-------------------------|
     Gb|--1--------0--------1-----|----0--------1--0--1--3--|-0--------0--------0-----|----0--------1--0--------|
     Db|-----3--------3--------3--|-------3-----------------|----1--------1--------1--|-------1-----------3--1--|
     Ab|--------3--------3--------|-3--------3--------------|-------1--------1--------|-1--------1--------------|
     Eb|--------------------------|-------------------------|-------------------------|-------------------------|
       |                          |                         |                         |                         |
Bass Gb|--------------------------|-------------------------|-------------------------|-------------------------|
     Db|--------------------------|-------------------------|-------------------------|-------------------------|
     Ab|--8-----------------8-----|(8)-8--------6-----8-----|-6-----------------6-----|(6)-6--------------6-----|
     Eb|-----------8--------------|-------8-----------------|----------6--------------|-------6-----8-----------|
 
VoiceEb|--4--------3--------4-------------------4-----5-------6--------5--------6-------------------------------|
     Hb|--------------------------------------------------------------------------------------------------------|
     Gb|--------------------------------------------------------------------------------------------------------|
     Db|--------------------------------------------------------------------------------------------------------|
     Ab|--------------------------------------------------------------------------------------------------------|
     Eb| Lip  -   kiy    strah                 ho  - lod  -  ne    -   e     l?da.          --------------------|
       |                          |                         |                         |                         |
Gtr.3Eb|--------------------------|-------------------------|-------------------------|-------------------------|
     Hb|--------------------------|-------------------------|-------------------------|-------------------------|
     Gb|--1--------0--------1-----|----0--------1-----2-----|-3--------2--------3-----|----4--------5-----4-----|
     Db|-----3--------3--------3--|-------3--------3-----4--|----5--------5--------5--|-------5--------0-----0--|
     Ab|--------3--------3--------|-3--------3--------------|-------5--------5--------|-5--------5--------------|
     Eb|--------------------------|-------------------------|-------------------------|-------------------------|
       |                          |                         |                         |                         |
Bass Gb|--------------------------|-------------------------|-------------------------|-------------------------|
     Db|--------------------------|-------------------------|-------------------------|-------------------------|
     Ab|--8-----------------8-----|(8)-8--------8-----9-----|-10----------------10----|---10--------------------|
     Eb|-----------8--------------|-------8-----------------|----------10-------------|-------10----8-----10----|
 
VoiceEb|--4--------3--------4-------------------4--4--4--6----3-------------------------------------------------|
     Hb|---------------------------------------------------------------4----------------------------------------|
     Gb|------------------------------------------------------------------------3-------------------------------|
     Db|--------------------------------------------------------------------------------------------------------|
     Ab|--------------------------------------------------------------------------------------------------------|
     Eb| Sde   -  lay     shag ,               go-ro-da sda -yu  -  tsya    v plen.       ----------------------|
       |                          |                         |                         |                         |
Gtr.3Eb|--------------------------|-------------------------|-------------------------|-------------------------|
     Hb|--------------------------|-------------------------|-------------------------|-------------------------|
     Gb|--1--------0--------1-----|----0--------1--0--1--3--|-0--------0--------0-----|----0--------1--0--------|
     Db|-----3--------3--------3--|-------3-----------------|----1--------1--------1--|-------1-----------3--1--|
     Ab|--------3--------3--------|-3--------3--------------|-------1--------1--------|-1--------1--------------|
     Eb|--------------------------|-------------------------|-------------------------|-------------------------|
       |                          |                         |                         |                         |
Bass Gb|--------------------------|-------------------------|-------------------------|-------------------------|
     Db|--------------------------|-------------------------|-------------------------|-------------------------|
     Ab|--8-----------------8-----|(8)-8--------6-----8-----|-6-----------------6-----|(6)-6--------------6-sl/-|
     Eb|-----------8--------------|-------8-----------------|----------6--------------|-------6-----8-----------|
 
VoiceEb|--8--------6--------4---------------------------------6--------4--------6-------------------6-----7-----|
     Hb|--------------------------------------------------------------------------------------------------------|
     Gb|--------------------------------------------------------------------------------------------------------|
     Db|--------------------------------------------------------------------------------------------------------|
     Ab|--------------------------------------------------------------------------------------------------------|
     Eb| Bez      bor?  -  by,                               bez       og  -  nya,                 nav - seg - -|
       |                          |                         |                         |                         |
Gtr.3Eb|--------------------------|-------------------------|-------------------------|-------------------------|
     Hb|--------------------------|-------------------------|-------------------------|-------------------------|
     Gb|--5--------3--------5-----|----3--------5-----6-----|-7--------5--------7-----|----5--------7-----8-----|
     Db|-----6--------6--------6--|-------6--------6-----7--|----8--------8--------8--|-------8--------8-----9--|
     Ab|--------6--------6--------|-6--------6--------------|-------8--------8--------|-8--------8--------------|
     Eb|--------------------------|-------------------------|-------------------------|-------------------------|
       |                          |                         |                         |                         |
Bass Gb|--------------------------|-------------------------|-------------------------|-------------------------|
     Db|--------------------------|-------------------------|-------------------------|-------------------------|
     Ab|-/11----------------11----|---11--------11----12----|-13----------------13----|---13--------13----14----|
     Eb|-----------11-------------|-------11----------------|----------13-------------|-------13----------------|
(1:19 - 1:45)
RIFF 2: (*2 times)
VoiceEb||--8---------(6)----------------------------------------------------|
     Hb||----------------(8)------------------------------------------------|
     Gb||----------- <----> ------------------------------------------------|
     Db||-------- 2nd time only --------------------------------------------|
     Ab||-------------------------------------------------------------------|
     Eb|| -da!                         -------------------------------------|
       ||                                 |                                 |
Gtr.1Eb||---------------------------------|---------------------------------|
  +  Hb||---------------------------------|---------------------------------|
Gtr.2Gb||---------------------------------|-7-----------7-----------7-------|
     Db||-10----------10----------10------|-7-----------7-----------7-------|
     Ab||-10----------10----------10------|-8-----------8-----------8-------|
     Eb||-8---8-8-8-8-8---8-8-8-8-8---8-8-|-----8-8-8-8-----8-8-8-8-----8-8-|
 
                                                           na  -  vseg  -     
Gtr.1Eb|----------------------------------|---------------------------------|
  +  Hb|----------------------------------|---------------------------------|
Gtr.2Gb|--8-----------8-----------8-------|-7-----------7-----------7-------|
     Db|--8-----------8-----------8-------|-7-----------7-----------7-------|
     Ab|--10----------10----------10------|-8-----------8-----------8-------|
     Eb|------8-8-8-8-----8-8-8-8-----8-8-|-----8-8-8-8-----8-8-8-8-----8-8-|
 
         -da!
Gtr.1Eb|----------------------------------|---------------------------------|
  +  Hb|----------------------------------|---------------------------------|
Gtr.2Gb|----------------------------------|-7-----------7-----------7-------|
     Db|--10----------10----------10------|-7-----------7-----------7-------|
     Ab|--10----------10----------10------|-8-----------8-----------8-------|
     Eb|--8---8-8-8-8-8---8-8-8-8-8---8-8-|-----8-8-8-8-----8-8-8-8-----8-8-|
 
                                                           na  -  vseg  -     
Gtr.1Eb|----------------------------------|---------------------------------||
  +  Hb|----------------------------------|---------------------------------||
Gtr.2Gb|--8-----------8-----------8-------|-9-----------9-----------9-------||
     Db|--8-----------8-----------8-------|-10----------10----------10------||
     Ab|--10----------10----------10------|-10----------10----------10------||
     Eb|------8-8-8-8-----8-8-8-8-----8-8-|-----8-8-8-8-----8-8-8-8-----8---||
(1:46 - 1:51)
RIFF 3:
Gtr.1Eb|----------------------------------|--------------------------------|-----------------------------|
 +   Hb|----------------------------------|--------------------------------|-----------------------------|
Gtr.2Gb|----------------------------------|--------------------------------|-----------------------------|
     Db|----------------------------------|--------------------------------|-----------------------------|
     Ab|----------8-----------7-----------|-6-------8---5------------------|-(5)-------------------------|
     Eb|--3-3-3-3-6---3-3-3-3-5---3-3-3-3-|-4---3-3-6---3------------------|-(3)-------------------------|
(1:52 - 2:18) VERSE 2
(2:18 - 2:44) CHORUS
(2:45 - 3:11)
SOLO:
LeadEb|------------------------------------------|-----------------------------------------|
    Hb|------------------------------------------|-----------------------------------------|
    Gb|--11--------------------------------------|-----------------------------------------|
    Db|-----------------13~~~~~~~~~~~~~~~~~~~~~~~~~~--------11---13---13b16-----13b16--13b|
    Ab|------------------------------------------|-----/13---------------------------------|
    Eb|------------------------------------------|-----------------------------------------|
      |                                          |                                         |
RthmEb|------------------------------------------|-----------------------------------------|
    Hb|------------------------------------------|-----------------------------------------|
    Gb|--8--------------8------------------------|-----------8---------6---------8---------|
    Db|--8--------------8------------------------|-----------8---------6---------8---------|
    Ab|--6----6----6----6----6----6----6----6----|-6----6----6-----------------------------|
    Eb|------------------------------------------|-----------------------------------------|
 
LeadEb|------------------------------------------|-----------------------------------------|
    Hb|------------------------------------------|-----------------------------------------|
    Gb|--------------------------------13b15~~~~rel13-p-11--------10--------11p10----------|
    Db|-b16.....rel13--------11---13-------------|-------------------------------13---13---|
    Ab|------------------------------------------|-----------------------------------------|
    Eb|------------------------------------------|-----------------------------------------|
      |                                          |                                         |
RthmEb|------------------------------------------|-----------------------------------------|
    Hb|------------------------------------------|-----------------------------------------|
    Gb|--4--------------4------------------------|-----------------------------------------|
    Db|--4--------------4------------------------|-----------------------------------------|
    Ab|--2----2----2----2----2----2----2----2----|-2----2----2----2----2----2----2----2----|
    Eb|------------------------------------------|-----------------------------------------|
 
LeadEb|-------------------------------------11---|-14p11-13p11------------------------------|
    Hb|--------------------------------11--------|-----------14p11-12p11--------------------|
    Gb|--11-------------11--------11-------------|---------------------14-11-13-11----------|
    Db|--11-------------11-----------------------|-------------------------------14-13-12-11|
    Ab|------------13----------------------------|-----------------------------------------|
    Eb|------------------------------------------|-----------------------------------------|
      |                                          |                                         |
RthmEb|------------------------------------------|-----------------------------------------|
    Hb|------------------------------------------|-----------------------------------------|
    Gb|--8--------------8------------------------|-----------8---------6---------8---------|
    Db|--8--------------8------------------------|-----------8---------6---------8---------|
    Ab|--6----6----6----6----6----6----6----6----|-6----6----6-----------------------------|
    Eb|------------------------------------------|-----------------------------------------|
 
LeadEb|------------------------------------------|------------------------------11-12-13-14-|
    Hb|------------------------------------------|--------------------11-12-13-14-----------|
    Gb|------------------------------------------|----------11-12-13-14---------------------|
    Db|-------------------------------------------11-12-13-14-------------------------------|
    Ab|-14-13-12-11---------------------11-12-13-14------------------------------------------|
    Eb|-----------15-14-13-12-11-12-13-14----------|-----------------------------------------|
      |                                          |                                         |
RthmEb|------------------------------------------|-----------------------------------------|
    Hb|------------------------------------------|-----------------------------------------|
    Gb|--4--------------4------------------------|-----------------------------------------|
    Db|--4--------------4------------------------|-----------------------------------------|
    Ab|--2----2----2----2----2----2----2----2----|-2----2----2----2----2----2----2----2----|
    Eb|------------------------------------------|-----------------------------------------|
 
LeadEb|-14p13p12p11-13-11-11-11-14p13p12p11-13-11-11-11-14p13p12p11-13-11-11-11-14p13p12p11-13-11-11-11-|
    Hb|------------------------------------------|-----------------------------------------|
    Gb|------------------------------------------|-----------------------------------------|
    Db|------------------------------------------|-----------------------------------------|
    Ab|------------------------------------------|-----------------------------------------|
    Eb|------------------------------------------|-----------------------------------------|
      |                                          |                                         |
RthmEb|------------------------------------------|-----------------------------------------|
    Hb|------------------------------------------|-----------------------------------------|
    Gb|------------------------------------------|-----------------------------------------|
    Db|--6--------------6------------------------|-----------6---------4-------------------|
    Ab|--6--------------6------------------------|-----------6---------4---------6---------|
    Eb|--4----4----4----4----4----4----4----4----|-4----4----4-------------------6---------|
 
LeadEb|----------------------11------------------|-------------------------------10-11-13-11|
    Hb|--14b16-----------------14-11-11-12-11---11---------------------------11-12----------|
    Gb|-------------------------------------13----13-11-------------11-11------------------|
    Db|------------------------------------------|-----13-12-11-12-13-----------------------|
    Ab|------------------------------------------|-----------------------------------------|
    Eb|------------------------------------------|-----------------------------------------|
      |                                          |                                         |
RthmEb|------------------------------------------|-----------------------------------------|
    Hb|------------------------------------------|-----------------------------------------|
    Gb|--8--------------8------------------------|-----------------------------------------|
    Db|--8--------------8------------------------|-----------------------------------------|
    Ab|--6----6----6----6----6----6----6----6----|-6----6----6----6----6----6----6----6----|
    Eb|------------------------------------------|-----------------------------------------|
 
LeadEb|--14b16----------14---11------------------|-----------------------------------------|
    Hb|---------------------------14---12---11---|-----------------------------------------|
    Gb|------------------------------------------|-13---11---10~~~~~~~~~~\---------------|
    Db|------------------------------------------|-----------------------------------------|
    Ab|------------------------------------------|-----------------------------------------|
    Eb|------------------------------------------|-----------------------------------------|
      |                                          |                                         |
RthmEb|------------------------------------------|-----------------------------------------|
    Hb|------------------------------------------|-----------------------------------------|
    Gb|------------------------------------------|-----------------------------------------|
    Db|--6--------------6------------------------|-----------6---------4-------------------|
    Ab|--6--------------6------------------------|-----------6---------4---------6---------|
    Eb|--4----4----4----4----4----4----4----4----|-4----4----4-------------------6---------|
 
LeadEb|-13p10-10-14p11-11-14p11-11-15p12-12-15p12-16p13-13-16p13-13-17p14-14-17p14-14-18p15-15-19p16-16-19-\------------------|
    Hb|------------------------------------------|-----------------------------------------|
    Gb|------------------------------------------|-----------------------------------------|
    Db|------------------------------------------|-----------------------------------------|
    Ab|------------------------------------------|-----------------------------------------|
    Eb|------------------------------------------|-----------------------------------------|
      |                                          |                                         |
RthmEb|------------------------------------------|-----------------------------------------|
    Hb|------------------------------------------|-----------------------------------------|
    Gb|--8--------------8------------------------|-----------------------------------------|
    Db|--8--------------8------------------------|-----------------------------------------|
    Ab|--6----6----6----6----6----6----6----6----|-6----6----6----6----6----6----6----6----|
    Eb|------------------------------------------|-----------------------------------------|
(3:11 - 3:37)
RIFF 4:
Gtr.1Eb||-----------------------------------------|-----------------------------------------|
     Hb||-10p7p0-0--0--10p7p0-0--0-14p10-0-0-14p10-0-0-|-12p9--0--0-12p9--0--0-15p12-0-0-15p12-0-0-|
     Gb||-----------------------------------------|-----------------------------------------|
     Db||-----------------------------------------|-----------------------------------------|
     Ab||-----------------------------------------|-----------------------------------------|
     Eb||-----------------------------------------|-----------------------------------------|
       ||                                         |                                         |
Gtr.2Eb||-----------------------------------------|-----------------------------------------|
     Hb||-7--0--0--4-h7--0--0--7h10--0--0--7h10--0--0--5-h-9--0--0--5-h9--0--0--9h12--0--0--9h12--0--0-7h|
     Gb||-----------------------------------------|-----------------------------------------|
     Db||-----------------------------------------|-----------------------------------------|
     Ab||-----------------------------------------|-----------------------------------------|
     Eb||-----------------------------------------|-----------------------------------------|
       ||                                         |                                         |
Bass Gb||-----------------------------------------|-----------------------------------------|
     Db||-----------------------------------------|-----------------------------------------|
     Ab||-2----2----2----2----2----2----2----2----|-4----4----4----4----4----4----4----4----|
     Eb||-----------------------------------------|-----------------------------------------|
 
Gtr.1Eb|-----------------------------------------|-----------------------------------------||
     Hb|-14p10-0-0-14p10-0-0-14p10-0-0-14p10-0-0-|-14p10-0-9h12p9--0--7h10p7--0--5-h9-p5--0--0-||
     Gb|-----------------------------------------|-----------------------------------------||
     Db|-----------------------------------------|-----------------------------------------||
     Ab|-----------------------------------------|-----------------------------------------||
     Eb|-----------------------------------------|-----------------------------------------||
       |                                         |                                         ||
Gtr.2Eb|-----------------------------------------|-----------------------------------------||
     Hb|h10--0--0--7h10--0--0--7h10--0--0--7h10--0--0--7h10-0-0--5-h9--0--0--4-h7--0--0--2-h5--0--0--4h-||
     Gb|-----------------------------------------|-----------------------------------------||
     Db|-----------------------------------------|-----------------------------------------||
     Ab|-----------------------------------------|-----------------------------------------||
     Eb|-----------------------------------------|-----------------------------------------||
       |                                         |                                         ||
Bass Gb|-----------------------------------------|-----------------------------------------||
     Db|-----------------------------------------|-----------------------------------------||
     Ab|-----------------------------------------|-----------------------------------------||
     Eb|-2----2----2----2----2----2----2----2----|-2----2----2----2----2----2----2----2----||
 
Gtr.1Eb|-----------------------------------------|-----------------------------------------|
     Hb|-10p7p0-0--0--10p7p0-0--0-14p10-0-0-14p10-0-0-|-12p9--0--0-12p9--0--0-15p12-0-0-15p12-0-0-|
     Gb|-----------------------------------------|-----------------------------------------|
     Db|-----------------------------------------|-----------------------------------------|
     Ab|-----------------------------------------|-----------------------------------------|
     Eb|-----------------------------------------|-----------------------------------------|
       |                                         |                                         |
Gtr.2Eb|-----------------------------------------|-----------------------------------------|
     Hb|h7--0--0--4-h7--0--0--7h10--0--0--7h10--0--0--5-h-9--0--0--5-h9--0--0--9h12--0--0--9h12--0--0-7h|
     Gb|-----------------------------------------|-----------------------------------------|
     Db|-----------------------------------------|-----------------------------------------|
     Ab|-----------------------------------------|-----------------------------------------|
     Eb|-----------------------------------------|-----------------------------------------|
       |                                         |                                         |
Bass Gb|-----------------------------------------|-----------------------------------------|
     Db|-----------------------------------------|-----------------------------------------|
     Ab|-2----2----2----2----2----2----2----2----|-4----4----4----4----4----4----4----4----|
     Eb|-----------------------------------------|-----------------------------------------|
 
Gtr.1Eb|-----------------------------------------|-----------------------------------------|
     Hb|-14p10-0-0-14p10-0-0-17p14-0-0-17p14-0-0-|-15p12-0-0-15p12-0-0-19p15-0-0-19p15-0-0-|
     Gb|-----------------------------------------|-----------------------------------------|
     Db|-----------------------------------------|-----------------------------------------|
     Ab|-----------------------------------------|-----------------------------------------|
     Eb|-----------------------------------------|-----------------------------------------|
       |                                         |                                         |
Gtr.2Eb|-----------------------------------------|-----------------------------------------|
     Hb|h10--0--0-7h10-0-0-10h14-0-0-10h14-0--0--9-|h12--0--0-9h12-0-0-12h15-0-0-12h15-0--0--9h|
     Gb|-----------------------------------------|-----------------------------------------|
     Db|-----------------------------------------|-----------------------------------------|
     Ab|-----------------------------------------|-----------------------------------------|
     Eb|-----------------------------------------|-----------------------------------------|
       |                                         |                                         |
Bass Gb|-----------------------------------------|-----------------------------------------|
     Db|-----------------------------------------|-----------------------------------------|
     Ab|-5----5----5----5----5----5----5----5----|-7----7----7----7----7----7----7----7----|
     Eb|-----------------------------------------|-----------------------------------------|
 
Gtr.1Eb|-----------------------------------------|-----------------------------------------|
     Hb|-15p12-0-0-15p12-0-0-19p15-0-0-19p15-0-0-|-17p14-0-0-17p14-0-0-21p17-0-0-21p17-0-0-|
     Gb|-----------------------------------------|-----------------------------------------|
     Db|-----------------------------------------|-----------------------------------------|
     Ab|-----------------------------------------|-----------------------------------------|
     Eb|-----------------------------------------|-----------------------------------------|
       |                                         |                                         |
Gtr.2Eb|-----------------------------------------|-----------------------------------------|
     Hb|h12--0--0-9h12-0-0-12h15-0-0-12h15-0-0-10-|h14-0-0-10h14-0-0-14h17-0-0-14h17-0-0----|
     Gb|-----------------------------------------|-----------------------------------------|
     Db|-----------------------------------------|-----------------------------------------|
     Ab|-----------------------------------------|-----------------------------------------|
     Eb|-----------------------------------------|-----------------------------------------|
       |                                         |                                         |
Bass Gb|-----------------------------------------|-----------------------------------------|
     Db|-----------------------------------------|-----------------------------------------|
     Ab|-5----5----5----5----5----5----5----5----|-7----7----7----7----7----7----7----7----|
     Eb|-----------------------------------------|-----------------------------------------|
 
Gtr.1Eb|-----------------------------------------|-18-------------17-------------16--------|
     Hb|-19--------------------------------------|--------17-------------16-----------15---|
     Gb|-----------------------------------------|-----------------------------------------|
     Db|-----------------------------------------|-----------------------------------------|
     Ab|-----------------------------------------|-----------------------------------------|
     Eb|-----------------------------------------|-----------------------------------------|
       |                                         |                                         |
Gtr.2Eb|-----------------------------------------|----------------20-----------------------|
     Hb|-20b22-----------------------------------|-20----------------------------19--------|
     Gb|-----------------------------------------|-----------------------------------------|
     Db|-----------------------------------------|-----------------------------------------|
     Ab|-----------------------------------------|-----------------------------------------|
     Eb|-----------------------------------------|-----------------------------------------|
       |                                         |                                         |
Bass Gb|-----------------------------------------|-----------------------------------------|
     Db|-----------------------------------------|-----------------------------------------|
     Ab|-9--------------8--------------7---------|-(7)--6--------------5---------4---------|
     Eb|-----------------------------------------|-----------------------------------------|
(3:38 - 3:41)
RIFF 5:
Gtr.1Eb|----------------------------------|---------------------------------|
  +  Hb|----------------------------------|---------------------------------|
Gtr.2Gb|----------8-----------8-----------|-8-------------------------------|
     Db|----------8-----------8-----------|-8-------------------------------|
     Ab|----------10----------10----------|-10------------------------------|
     Eb|--8-8-8-8-----8-8-8-8-----8-8-8-8-|---------------------------------|
(3:41 - 4:07) CHORUS
(4:08 - 4:34) Repeat Riff 2
(4:34 - 4:39) Repeat Riff 3
Вверх

Беспечный ангел

             Em
 Этот парень был из тех
     C            G
 Кто просто любит жизнь
                   Em
 Любит праздники и громкий смех
   C          D
 Пыль дорог и ветра свист.
          Am        G
 Он был везде и всегда своим
    D                Am
 Влюблял в себя целый свет
    D               Em
 И гнал свой Байк, а не лимузин
       C             D
 Таких друзей больше нет...

        *****
             Em
 И в гостинной при свечах
     C            G
 Он танцевал, как бог
                   Em
 Но зато менялся на глазах
   C          D
 Только вспомнит шум дорог
          Am        G
 Все что имел - тут же тратил
    D                Am
 И за порог сделав шаг
    D               Em
 Он вдруг давал команду братьям
       C             D
 Вверх поднимая кулак...

             Em    C     D
П:Ты летящий вдаль, вдаль Ангел,
             C     Н7    Em
  Ты летящий вдаль, вдаль Ангел...
      C                 D
  Ты один только друг - друг на все времена
     C                 D
  Не много таких среди нас...
             Am    C         G
  Ты летящий вдаль Беспечный Ангел.

             Em
 Под гитарный жесткий Рок
     C            G
 Который так любил
                   Em
 На "Харлее" он домчать нас мог
   C          D
 До небес и звезд любых.
          Am        G
 Но он исчез и никто не знал
    D                Am
 Куда теперь мчит его байк
    D               Em
 Один бродяга нам сказал
       C             D
 Что он отправился в рай!

              Em     C     G
   Ты летящий вдаль, вдаль Ангел
             C     Н7    Em
   Ты летящий вдаль, вдаль Ангел.
      C                 D
   Но он стал союзником рая в ту ночь
    C              D
   Бросив тебя одного...
              Am      C       G
   Ты летящий вдаль беспечный Ангел.
               Am     C    D
   И летящий в даль беспечный ангел
Вверх

Беспечный ангел (2 вариант)

Песня играется в тональности Gb, и гитару надо перестроить:
опустить строй на пол тона (один лад).
Проигрыш:

     G             Em                     C
eb|----------------|---------------------|---------------------|
Bb|----------------|-----------0---------|---------1-----------|
Gb|*---------------|---------0-----0-----|-------0-------0---0-|
Db|*-------------0-|-------2---------0---|-----2-------2-------|
Ab|--------0---2---|-----2-------------2-|-3-------------3-----|
Eb|----3-----------|-0-------------------|---------------------|

  G                           G

eb|--------------------------------||------------3------------||
Bb|----------3-----------------3---||---------3-----3---------||
Gb|-------0-------0----0-----0----*||-------0---------0------*||
Db|----0-------0-----------0------*||----0--------------0----*||
Ab|-----------------2--------------||-------------------------||
Eb|-3--------------------3---------||-3--------------------3--||

Куплет:

Этот парень был из тех...
    G         Em                C
eb|-----------|-------------------|----------------------------|
Bb|-----------|----------0--------|--------1-------------------|
Gb|-----------|--------0---0------|------0-----0---0-----------|
Db|--------0--|------2-------0----|----2-----2-----------------|
Ab|----0-2----|----2-----------2--|--3-----------3-------------|
Eb|--3--------|--0----------------|----------------------------|

 G
eb|------------------------------------------------------------|
Bb|------------3-----------------------3-----------------------|
Gb|--------0---------0-----0---------0-------------------------|
Db|----0----------0--------------0-----------------------------|
Ab|---------------------2--------------------------------------|
Eb|--3-----------------------3---------------------------------|

    G         Em                C
eb|-----------|-------------------|----------------------------|
Bb|-----------|----------0--------|--------1-------------------|
Gb|-----------|--------0---0------|------0-----0---0-----------|
Db|--------0--|------2-------0----|----2-----2-----------------|
Ab|----0-2----|----2-----------2--|--3-----------3-------------|
Eb|--3--------|--0----------------|----------------------------|

   D                        D
eb|--------2-3-2I3I2-------|--------2-0I2?0--------------------|
Bb|------3-----------3-----|------3---------3------------------|
Gb|----2---------------2---|----2-------------2----------------|
Db|--0---------------------|--0--------------------------------|
Ab|------------------------|-----------------------------------|
Eb|------------------------|-----------------------------------|

    Am                G                 D
eb|---------0-------|---------2-------|-------2-3-2Н3р2--------|
Bb|-------1---1-----|-------2---2-----|-----3-----------2------|
Gb|-----2-------2---|-----0-------0---|---2--------------------|
Db|---2-----------2-|---0-------------|-0----------------------|
Ab|-0---------------|-----------------|------------------------|
Eb|-----------------|-3-------------3-|------------------------|

 Am                D
eb|---------0-------|-------2-3-2Н3р2--------------------------|
Bb|-------1---1-----|-----3-----------3------------------------|
Gb|-----2-------2---|---2--------------------------------------|
Db|---2-----------2-|-0----------------------------------------|
Ab|-0---------------|------------------------------------------|
Eb|-----------------|------------------------------------------|

    Em
eb|-----------------|---------0-------|-2--3-3-3-2-------------|
Bb|---------0-------|-------1---1-----|-3--3-3-3-3-------------|
Gb|-------0---0-----|-----0-------0---|-2--2-2-2-2-------------|
Db|-----2-------2---|---2-----------2-|-0--------0-------------|
Ab|---2-----------2-|-3---------------|------------------------|
Eb|-0---------------|-----------------|------------------------|

Версия  2 :
 Повторение Версия  1. (Добавляются перкуссии.)

Chorus 1 :

 Врубаем дисторшен + продолжют звучать аккорды акустики--------\
    Em   C     D      C    Н    Em     C    D     C    D
eb|-----------------|----------------|---------|---------------|
Bb|-----------------|----------------|---------|---------------|
Gb|------5-----7----|-5----4---------|-5----7--|--5----7\------|
Db|-2----5-----7----|-5----4----2----|-5----7--|--5----7\------|
Ab|-2----3-----5----|-3----2----2----|-3----5--|--3----5\------|
Eb|-0---------------|-----------0----|---------|---------------|

Чистый звук---------------------------------------------------\
    Am                C                 G
eb|---------0-------|---------0-------|---------3--------------|
Bb|-------1---1-----|-------1---1-----|-------3---3------------|
Gb|-----2-------2---|-----0-------0---|-----0-------0----------|
Db|---2-------------|---2-------------|---0-----------0--------|
Ab|-0-------------0-|-3-------------3-|------------------------|
Eb|-----------------|-----------------|-3---------------3------|

Solo: ( Здесь играют две гитары одновременно )

G         Em                C                 G
eb|----------|-----------------|-------------------------------|
Bb|----------|---------0-------|-------1-----------------------|
Gb|*---------|-------0---0-----|-----0-----0---0---------------|
Db|*-------0-|-----2-------0---|---2-----2---------------------|
Ab|----0-2---|---2-----------2-|-3-----------3-----------------|
Eb|--3-------|-0---------------|-------------------------------|

  /--------------- 1 ---------|/------------- 2 ----|
                     G
eb|---------------------------||---------3--------------------||
Bb|-------3---------------3---||-------3---3------------------||
Gb|-----0-----0---------0----*||-----0-------0---------------*||
Db|---0-----0-----0---0------*||---0-----------0-------------*||
Ab|-------------2-------------||------------------------------||
Eb|-3---------------3---------||-3---------------3------------||

eb|--------------|---------------------|-----------------------|
Bb|--------------|--3/5---5---5--5\3---|--3/5---5---5\3--3/5---|
Gb|*--4\2--0--2--|---------------------|-----------------------|
Db|*-------------|---------------------|-----------------------|
Ab|--------------|---------------------|-----------------------|
Eb|--------------|---------------------|-----------------------|

   /------------------ 1 -----|/------------- 2 ----|
eb|---------------------------||-3~~~-------------------------||
Bb|-3-------------------------||------------------------------||
Gb|--------------------------*||-----------------------------*||
Db|--------------------------*||-----------------------------*||
Ab|---------------------------||------------------------------||
Eb|---------------------------||------------------------------||

Версия  3: (Как и в соло, здесь играют две гитары.
Вторая подыгрывает первой).

    G         Em                C
eb|---------|-----------------|--------------------------------|
Bb|---------|---------0-------|-------1------------------------|
Gb|---------|-------0---0-----|-----0-----0---0----------------|
Db|-------0-|-----2-------0---|---2-----2----------------------|
Ab|---0-2---|---2-----------2-|-3-----------3------------------|
Eb|-3-------|-0---------------|--------------------------------|

 G
eb|------------------------------------------------------------|
Bb|-----------3---------------------3--------------------------|
Gb|--------0-------0----0--------0-----------------------------|
Db|-----0-------0-------------0--------------------------------|
Ab|-------------------2----------------------------------------|
Eb|--3---------------------3-----------------------------------|

eb|------------------------------------------------------------|
Bb|-----------------------------------------------8\7----------|
Gb|---------------------------------------------------7~~~-----|
Db|------------------------------------------------------------|
Ab|------------------------------------------------------------|
Eb|------------------------------------------------------------|

    G         Em                C
eb|---------|-----------------|--------------------------------|
Bb|---------|---------0-------|-------1------------------------|
Gb|---------|-------0---0-----|-----0-----0---0----------------|
Db|-------0-|-----2-------0---|---2-----2----------------------|
Ab|---0-2---|---2-----------2-|-3-----------3------------------|
Eb|-3-------|-0---------------|--------------------------------|

 D                     D
eb|-------2-3-2Н3Н2-----|-------2-0Н2р0------------------------|
Bb|-----3-----------3---|-----3---------3----------------------|
Gb|---2---------------2-|---2-------------2--------------------|
Db|-0-------------------|-0------------------------------------|
Ab|---------------------|--------------------------------------|
Eb|---------------------|--------------------------------------|

eb|----------------------------------|-------------------------|
Bb|-------------------------5------7-|----------------------5~-|
Gb|---------------------4/5----5/7---|------------------8\7----|
Db|----------------------------------|-------------------------|
Ab|----------------------------------|-------------------------|
Eb|----------------------------------|-------------------------|

   Am                G                 D
eb|---------0-------|---------2-------|-------2-3-2Н3р2--------|
Bb|-------1---1-----|-------2---2-----|-----3-----------2------|
Gb|-----2-------2---|-----0-------0---|---2--------------------|
Db|---2-----------2-|---0-------------|-0----------------------|
Ab|-0---------------|-----------------|------------------------|
Eb|-----------------|-3-------------3-|------------------------|

eb|------------------------------------------------------------|
Bb|-------------------3/5--------------------------------------|
Gb|-----------------------5~~~---------------------------------|
Db|------------------------------------------------------------|
Ab|------------------------------------------------------------|
Eb|------------------------------------------------------------|

   Em
eb|-----------------|---------0-------|-2--3-3---3-3---2-------|
Bb|---------0-------|-------1---1-----|-3--3-3---3-3---3-------|
Gb|-------0---0-----|-----0-------0---|-2--2-2---2-2---2-------|
Db|-----2-------2---|---2-----------2-|-0--------------0-------|
Ab|---2-----------2-|-3---------------|------------------------|
Eb|-0---------------|-----------------|------------------------|

eb|------------------------------------------------------------|
Bb|---------------------------------------------5-----7-----8--|
Gb|-----------------------------------------4/5---5/7---7/9----|
Db|------------------------------------------------------------|
Ab|------------------------------------------------------------|
Eb|------------------------------------------------------------|

Chorus 2 :

  Врубаем дисторшен + продолжют звучать аккорды акустики------\
    Em   C     D      Em   Н    Em     C    D      C    D
eb|-----------------|----------------|-----------|-------------|
Bb|-----------------|----------------|-----------|-------------|
Gb|------5-----7----|-3----4---------|-5----7----|-5----7\-----|
Db|-2----5-----7----|-5----4----2----|-5----7----|-5----7\-----|
Ab|-2----3-----5----|-3----2----2----|-3----5----|-3----5\-----|
Eb|-0---------------|-----------0----|-----------|-------------|

 Чистый звук---------------------------------------------------\
    Am                C                 G
eb|---------0-------|---------0-------|---------3--------------|
Bb|-----1-----1-----|-----1-----1-----|-----3-----3------------|
Gb|-------2-----2---|-------0-----0---|-------0-----0----------|
Db|---2-------------|---2-------------|---0-----------0--------|
Ab|-0-------------0-|-3-------------3-|------------------------|
Eb|-----------------|-----------------|-3---------------3------|

  G
|---------3-------|
|-----3-----3-----|
|-------0-----0---|
|---0-----------0-|
|-----------------|
|-3---------------|

 Врубаем дисторшен + продолжют звучать аккорды акустики--------\
    Em   C     D      Em   Н    Em     C    D      C    D
eb|-----------------|----------------|-----------|-------------|
Bb|-----------------|----------------|-----------|-------------|
Gb|------5-----7----|-3----4---------|-5----7----|-5----7\-----|
Db|-2----5-----7----|-3----4----2----|-5----7----|-5----7\-----|
Ab|-2----3-----5----|-2----2----2----|-3----5----|-3----5\-----|
Eb|-0---------------|-----------0----|-----------|-------------|

 Чистый звук---------------------------------------------------\
    Am                C                 G
eb|---------0-------|---------0-------|---------3--------------|
Bb|-----1-----1-----|-----1-----1-----|-----3-----3------------|
Gb|-------2-----2---|-------0-----0---|-------0-----0----------|
Db|---2-------------|---2-------------|---0-----------0--------|
Ab|-0-------------0-|-3-------------3-|------------------------|
Eb|-----------------|-----------------|-3---------------3------|

 Am   C    G
eb|-0---------0-------------2---2--2--2...2--------------------|
Bb|-1---------1------------2----2--2--2...2--------------------|
Gb|-2---------0-----------0-----0--0--0...0--------------------|
Db|-2---------2----------0------0--0--0...0--------------------|
Ab|-0---------3---------2-------2--2--2...2--------------------|
Eb|--------------------3--------3--3--3...3--------------------|

Куплет 1:
G           Em
Этот парень был из тех,
    C            G
Кто просто любит жизнь.

 G                Em
Любит праздники и громкий смех,
C            D
Пыль дорог и ветра свист.
       Am        G
Он был везде и всегда своим,
           D          Am
Влюблял в себя целый свет,
D                            Em
И гнал всегда свой байк, а не лимузин.
C                     D
Таких друзей больше нет.

Версия  2 :
И в гостиной при свечах
Он танцевал, как бог.
Но зато менялся на глазах,
Только вспомнит шум дорог.
Все, что имел, тут же тратил
И, за порог сделав шаг,
Мой друг давал команду братьям,
Вверх поднимая кулак.

Chorus 1 :
               E5     C5    D5
  Ты - летящий вдаль, вдаль ангел.
               C5     Н5    E5
  Ты - летящий вдаль, вдаль ангел.
          C5                   D5
  Ты один только друг, друг на все времена,
  C5                  D5
  Немного таких среди нас.
               Am       C       G
  Ты - летящий вдаль беспечный ангел.

Версия  3 :
Под гитарный жесткий рок,
Который так любил,
На Харлее он домчать нас мог
До небес и звезд любых.
Но он исчез и никто не знал
Куда теперь мчит его байк.
Один бродяга нам сказал,
Что он отправился в рай.

Chorus 2 :
  Ты - летящий вдаль, вдаль ангел.
  Ты - летящий вдаль, вдаль ангел.
  Но стал союзником рая в ту ночь
  Против тебя одного.

  Ты - летящий вдаль, вдаль ангел.
  Ты - летящий вдаль беспечный ангел.

  Ты - летящий вдаль, вдаль ангел.
  Ты - летящий вдаль, вдаль ангел.
  Но стал союзником рая в ту ночь
  Против тебя одного.


  Ты - летящий вдаль, вдаль ангел.
  Ты - летящий вдаль беспечный ангел.
Вверх

Беспечный Ангел (3 вариант)

Оригинальная тональность D#m
Вступление:  
E------------------------------------- 
H-----------0-------1-------3-------3- 
G----------0-0-----0--0-0--0--0-0--0-- 
D-----0---2---2---2--2-2--0--0-0--0--- 
A--0-2---2-----2-3-------------------- 
E-3-----0----------------3-------3---- 

E----------------------------3-----|
H-----------0-------1---------3----|
G----------0-0-----0--0-0---0--0---|
D-----0---2---2---2--2-2---0----0--|
A--0-2---2-----2-3--------2--------|
E-3-----0----------------3-------3-|

Куплет играется аналогично вступлению. 
            Em
Этот паpень был из тех,
    C            G
Кто пpосто любит жизнь.
                  Em
Любит пpаздники и гpомкий смех,
C            D
Пыль доpог и ветpа свист.
       Am        G
Он был везде и всегда своим,
           D          Am
Влюблял в себя целый свет,
D                            Em
 И гнал всегда свой байк, а не лимузин -
C                     D
 Таких дpузей больше нет.

И в гостиной пpи свечах
Он танцевал, как бог.
Но зато менялся на глазах,
Только вспомнит шум доpог.
Все, что имел, тут же тpатил
И, за поpог сделав шаг,
Мой дpуг давал команду бpатьям,
Ввеpх поднимая кулак.
	               Em     C     D
Припев:	  Ты - летящий вдаль, вдаль ангел.
	               C      H7     Em
	  Ты - летящий вдаль, вдаль ангел.
	      C                        D
	  Ты один только дpуг, дpуг на все вpемена,
	      C               D
	  Немного таких сpеди нас.
	               Am       C       G
	  Ты - летящий вдаль беспечный ангел.

Под гитаpный жесткий pок,
Котоpый так любил,
На Хаpлее он домчать нас мог
До небес и звезд любых.
Но он исчез и никто не знал
Куда тепеpь мчит его байк.
Один бpодяга нам сказал,
Что он отпpавился в pай.

  Ты - летящий вдаль, вдаль ангел.
  Ты - летящий вдаль, вдаль ангел.
  Но стал союзником pая в ту ночь
  Пpотив тебя одного.
  Ты - летящий вдаль, вдаль ангел.
  Ты - летящий вдаль беспечный ангел.


  Ты - летящий вдаль, вдаль ангел.
  Ты - летящий вдаль, вдаль ангел.
  Но стал союзником pая в ту ночь
  Пpотив тебя одного.
  Ты - летящий вдаль, вдаль ангел.
  Ты - летящий вдаль беспечный ангел.
Вверх

Беспечный ангел (4 вариант)

Перебор: бас, 3, 2, 3, 1, 3, 2, 3

             Am
Этот парень был из тех,
      F         C
Кто просто любит жизнь.
                   Am
Любит праздники и громкий смех,
F             G 
Пыль дорог и ветра свист.
          Dm       C
Он был везде и всегда своим,
            G         Dm
Влюблял в себя целый свет,
G                          Am
И гнал всегда свой байк, а не лимузин -
F                    G
Таких друзей больше нет.

И в гостиной при свечах
Он танцевал, как бог.
Но зато менялся на глазах,
Только вспомнит шум дорог.
Все, что имел, тут же тратил
И, за порог сделав шаг,
Мой друг давал команду братьям,
Вверх поднимая кулак.

Припев:
              Am      F   G
Ты - летящий вдаль, вдаль ангел.
              F      E    Am
Ты - летящий вдаль, вдаль ангел.
     F                        G
Ты один только друг, друг на все времена,
    F                G 
Немного таких сpеди нас.
              Dm       F     C
Ты - летящий вдаль беспечный ангел.

Под гитарный жесткий рок, который так любил,
На Харлее он домчать нас мог до небес и звезд любых.
Но он исчез и никто не знал куда тепеpь мчит его байк.
Один бродяга нам сказал, что он отправился в рай.

Припев:
Ты - летящий вдаль, вдаль ангел.
Ты - летящий вдаль, вдаль ангел.
Но стал союзником рая в ту ночь
Против тебя одного.
Ты - летящий вдаль, вдаль ангел.
Ты - летящий вдаль беспечный ангел.
Вверх

Бесы

Em       F#     G
Дай мне сойти с ума
F#        Em        D#
Ведь с безумца и спроса нет
Em            F#     G
Дай мне хоть раз сломать
F#            Em         D#
Этот слишком нормальный свет
H        C       H
Здесь духотой гнетет
A              G     F#
Бесконечная страсть борьбы
H         C      H
Воздух тягуч как мед
A          G         F#
С каплей крови моей судьбы

 Em
Бесы
C        Am      H
Бесы все злей и злей
Бесы
Бесы в душе моей

Бесы к себе зовут
Дразнят в зеркале день и ночь
Тащат в заросший пруд
И не в силах никто помочь
Сон превращают в быль
Крутят адское колесо
С ангелов сдули пыль
Подновили Христу лицо

Господи! Я не твой
Ближних я не могу любить
Трудно мне жить слугой
А хозяином мне не быть
Дай мне сойти с ума
Ведь с безумца и спроса нет
Дай мне хоть раз сломать
Этот слишком нормальный свет.
Вверх

Бесы (2 вариант)

Проигрыш:

E----------------------------|---------------------------------|
Н----------------------------|---------------------------------|
G-9-999-9-9-9-9-9-9----------|-8-888-8-8-8-8-8-8-8-8-----------|
D-9-999-9-9-9-9-9-9----------|-8-888-8-8-8-8-8-8-8-8-----------|
А-7-777-7-7-7-7-7-7-10-9-7---|-6-666-6-6-6-6-6-6-6-6-----------|
E----------------------------|-------------------------7-------|

E----------------------------|---------------------------------|
Н----------------------------|---------------------------------|
G-9-999-9-9-9-9--------------|-8-888-8-8-8---------------------|
D-9-999-9-9-9-9--------------|-8-888-8-8-8-9-10-9Н10р9-7-------|
А-7-777-7-7-7-7-7--9--10-9-7-|-6-666-6-6-6---------------10-9--|
E----------------------------|---------------------------------|

E--------------------------------------------------------------|
Н--------------------------------------------------------------|
G--------------------------------------------------------------|
D-9-xxxx-9--7-xxxx-7-5-xxxx--5-----7----7----7----7------------|
А-9-xxxx-9--7-xxxx-7-5-xxxx--5-----7----7----7----7------------|
E-7-xxxx-7--5-xxxx-5-3-xxxx--3---5-5--5-5--5-5--5-5------------|

E--------------------------------------------------||
Н--------------------------------------------------||
G------------------------------------------------*-||
D--9--xxxx--9----7--xxxx--7----5--xxxx--5---7----*-||
А--9--xxxx--9----7--xxxx--7----5--xxxx--5---7------||
E--7--xxxx--7----5--xxxx--5----3--xxxx--3---5------||

E--------------------------------------------------------------|
Н--------------------------------------------------------------|
G-7-xxx-7-7-7-7-xxx-7-7-7---7--xxx--7-7-7----------------------|
D-7-xxx-7-7-7-7-xxx-7-7-7---7--xxx--7-7-7---7--7Н8р7--5--------|
А-5-xxx-5-5-5-5-xxx-5-5-5---5--xxx--5-5-5----------------8--7--|
E--------------------------------------------------------------|

I Версия  :

   Дай мне сойти с ума       Ведь с безумца и спроса нет
E--------------------------------------------------------------|
Н--------------------------------------------------------------|
G--7--xxx--7-7-9-10--xxx--10-10-10-----------------------------|
D--7--xxx--7-7-9-10--xxx--10-10-10--9--xxx--9-9-9-7--xxx-7-7-7-|
А--5--xxx--5-5-7-8---xxx--8--8--8---9--xxx--9-9-9-7--xxx-7-7-7-|
E-----------------------------------6--xxx--6-6-6-5--xxx-5-5-5-|

   Дай мне хоть раз сломать    Этот слишком нормальный свет
E--------------------------------------------------------------|
Н--------------------------------------------------------------|
G--7--xxx--7-7-9-10--xxx--10-10-10-------------------9----9----|
D--7--xxx--7-7-9-10--xxx--10-10-10--9--xxx--9-9-9----9----9----|
А--5--xxx--5-5-7-8---xxx--8--8--8---9--xxx--9-9-9----7----7----|
E-----------------------------------6--xxx--6-6-6--8----8------|


   Здесь духотой гнетет  Бесконечная страсть борьбы
E--------------------------------------------------------------|
Н--------------------------------------------------------------|
G--------------------------------------------5--xxx--5-5-5-----|
D--3--xxx--3-3-4-5--xxx--5-5-5-8--xxx--8-8-8-5--xxx--5-5-5-----|
А--3--xxx--3-3-4-5--xxx--5-5-5-8--xxx--8-8-8-3--xxx--3-3-3-----|
E--1--xxx--1-1-2-3--xxx--3-3-3-6--xxx--6-6-6-------------------|

   Воздух тягуч как мед   С каплей крови моей судьбы
E--------------------------------------------------------------|
Н--------------------------------------------------------------|
G----------------------------------------------5---3-----------|
D--3--xxx--3-3-4-5--xxx--5-5-5-8--xxx--8-8-8---5---3-----------|
А--3--xxx--3-3-4-5--xxx--5-5-5-8--xxx--8-8-8---3---1-----------|
E--1--xxx--1-1-2-3--xxx--3-3-3-6--xxx--6-6-6-------------------|


Chorus :

   Бесы                         Бесы все злей и зле - ей
   Бесы                         Бесы в  душе    мое - е -
E----------------------------|---------------------------------|
Н----------------------------|---------------------------------|
G----------------------------|--7----------5----------3--------|
D--8--5----------------------|--7----------5------8---3--------|
А--8--5---4--3--4--3--1------|--5----------3------8---5--------|
E--6--3------------------4---|--------------------6------------|

 - еееееееееееееееееееееееееееееееееееееееееей
E--------------------------------------------------------------|
Н--------------------------------------------------------------|
G-7-xxx-7-7-7---7--xxx--7-7-7---7--xxx--7-7-7------------------|
D-7-xxx-7-7-7---7--xxx--7-7-7---7--xxx--7-7-7-7--7Н8р7-5-------|
А-5-xxx-5-5-5---5--xxx--5-5-5---5--xxx--5-5-5-------------8--7-|
E--------------------------------------------------------------|

II Версия  .

         Бесы к себе зовут
         Дразнят в зеркале день и ночь

         Тащат в заросший пруд
         И не в силах никто помочь
         Сон превращают в быль
         Крутят адское колесо
         С ангелов сдули пыль
         Подновили Христу лицо

II Версия  .

Chorus :

   Бесы                         Бесы все злей и зле - ей
   Бесы                         Бесы в  душе    мое - е -
E--------------------------|-----------------------------------|
Н--------------------------|-----------------------------------|
G--------------------------|--7------5----------3--------------|
D--8--5--------------------|--7------5------8---3--------------|
А--8--5---4--3--4--3--1----|--5------3------8---5--------------|
E--6--3------------------4-|----------------6------------------|

        - ееееееееееееееееее....й
      E------------------------|-------------------------------|

gtr1. Н-10-----------10-8--10--|-10------------10-8--6-10---8--|
gtr2. G-10-10-----10-10-7--9---|-10--10-----10-10-7--7--9---7--|
      D----10--10-10-----------|-----10--10-10-----------------|
      А--------10--------------|---------10--------------------|
      E------------------------|-------------------------------|

      E-8------------8----8----|-------------------------------|
      Н-9--9---------9-11-8----|-------------------------------|
      G----10-----10---12------|-------------------------------|
      D--------10-10-----------|-------------------------------|
      А--------10--------------|-------------------------------|
      E------------------------|-------------------------------|

Версия  III.

         Господи! Я не твой
         Ближних я не могу любить
         Трудно мне жить слугой
         А хозяином мне не быть
         Дай мне сойти с ума
         Ведь с безумца и спроса нет
         Дай мне хоть раз сломать
         Этот слишком нормальный свет.
Вверх

Бивни черных скал

 Dm                    C
Бивни черных скал и пещер тупой оскал,
     G         А7           Dm   А7
Человек среди гор ничтожно мал.
 Dm                        C
Он ползет наверх, он цепляется за снег,
      G        А7           Dm
За туман и за воду быстрых рек.


Припев:
 Gm        Bb       Dm
   Он до цели доберется.
   По своей пройдет стезе,
   Он дотронется до солнца,
 Gm       B             А7
   Сокрушит преграды все.

Он кричит богам: "Я не должен больше вам,
Я могу все понять и сделать сам!".
Эхо этот крик подхватило в тот же миг,
Унесло и разбило о ледник.

Припев.

Бивни черных скал и пещер тупой оскал,
Человек среди гор ничтожно мал.
Треснула скала, и лавина вниз пошла
И его, как песчинку, унесла.

Припев.
Вверх

Бивни чёрных скал

 Dm                    C
Бивни чеpных скал и пещеp тyпой оскал,
     G         A7           Dm   A7
Человек сpеди гоp ничтожно мал.
Dm                        C
Он ползет на веpх, он цепляется за снег,
      G        A7           Dm
За тyман и за водy быстpых pек.


Пpипев:
Gm        Bb       Dm
   Он до цели добеpется.
   По своей пpойдет стезе,
   Он дотpонется до солнца,
Gm       B             A7
   Сокpyшит пpегpады все.

Он кpичит богам: Я не должен больше вам,
Я могy все понять и сделать сам!.
Эхо этот кpик подхватило в тот же миг,
Унесло и pазбило о ледник.

Пpипев.

Бивни чеpных скал и пещеp тyпой оскал,
Человек сpеди гоp ничтожно мал.
Тpеснyла скала и лавина вниз пошла
И его, как песчинкy, yнесла.

Пpипев.
Вверх

Битва mp3

Dm      B     C
И роса, и слеза
 Dm      B     C
Пеленою на глазах
   Dm         B    C
В черной заводи колодца
  F        C      G
Бродит яркая звезда...

   Dm              C
   Они летели сто тысяч лет,
   B                     Dm
   К чужой планете, к твоей Земле
    Dm     C       B               Dm
   Белокожие сыны Первой Звездной Расы.

   Они вселялись в тела людей
   И убивали сначала тень,
   А потом любовь и гнев, споры и согласье.

           B           C
      Без боли и без крови
           B         C
      Вторжение с небес
          B           C
      Никто не прекословит
       A
      Лишь юродивый кричит,
      Сложив из веток крест.

           Dm
         Грянет битва
         Воздух полнится грозой,
         Грянет Битва
         Для Земли последний бой!

   Все меньше жизни в глазах землян
   Они во власти чужих команд
   Рушат вечность пирамид, поджигают море.

   Ликует космос, развеян миф
   О том, что сладить нельзя с людьми
   Но идут в последний бой новые герои.

      Герои Пятой Расы
      Не звездной, а земной,
      Арийским род их назван,
      Ждет бессмертие их в бою
      С космической ордой!

         Грянет битва
         Воздух полнится грозой,
         Грянет Битва
         Для Земли последний бой!
Вверх

Бой продолжается

 Dm                Gm/D         Dm   Gm/D
Снова ночь, и в глаза вползает страх.
 Dm               Em7/D             Dm  Gm/D
Сон и смерть так похожи - брат и сестра.
 Dm              Gm/D       C/E  Dm
Страшно быть одному и ждать рассвет
       Gm7/D
Как спасенье.
 Dm                Gm/D      C/E      Dm
Страшно плыть по теченью - войны уже нет...


 Bb
Нет, а я молчу.
 C                 Dm
Нет, я жгу свечу, чтоб не спать...
 Bb
Нет, а я молюсь.
 C                   Dm
Нет, а я клянусь не отступать...


Проигрыш:  Em, C, D, B7, C, D, Em


 Em                  C    D
Я свято верил в истину одну:
 Em                          А               D
Лучше быть дважды мертвым, чем истлеть в плену.
 Gm                     Eb    F
Я убивал, чтоб жить и снова бить,
 Gm                    Eb          F
Игры мужчин с войною трудно запретить.
 Em                         C      D
Солнце в глаза, мы в марше на восход.
 Em                     C             D
Воздух плюется кровью, сушит черный рот.
 Gm                       Eb         F

Кровь это мой наркотик, долг - мой флаг.
 Gm                   Eb               F    D
Я как заложник долга расстрелял свой страх.

Припев:
   Cm
   Бой продолжается
   Мой бой продолжается
        Gm
   Мой бой!


Я стал свободным от чужих команд.
Война осталась в прошлом, сгинула в туман.
Здесь от холеных лиц меня тошнит.
Я вспоминаю мертвых, и душа кричит.
Солнце в глаза, как там, среди камней.
Я никому не нужен, тень среди людей.
Молча беру винтовку, каждый - враг.
Я не терял рассудка, ненависть - мой флаг!

Припев.
Вверх

Будем жить, мать Россия

C
Эй, гони-ка, парень, с ветерком,
  G#                C
Чтобы пела кровь и дым столбом.
 C
Пусть нам свистнет старый леший вслед,
 G#                    C
Ведьма спрячет в чаще белый свет.

    Dm
   По родным дорогам, темным и убогим,
      B                           C
   К черту в пасть, чтоб пропасть,
   Dm
   А потом воскреснуть и на том же месте
     B                 A
   Крест вознести золотой!

Справа - волнами то смех, то мат,
Кто-то бьет из пушки наугад,
Слева - тишь да божья благодать.
Нет, умом тебя мне не понять!

   Тут и там святые, странные, босые,
   А в глазах - небеса.
   Но выпьют и закусят, все до нитки спустят,
   Норов покажут крутой.

       Em                  Hm
      Будем жить, Мать Россия!
         G               D H
      С нами - крестная сила,
       F#m                   C#                F#
      Нет той беды, что пройдет мимо нас стороной!
       Em          Hm
      Были орды и ханы,
        G         D H
      Грозные атаманы,
       F#m           C#               F#m
      Но последнее слово всегда за тобой!

Эй, гони-ка, парень, с ветерком,
К чёрту думы о лихом былом,
Грянем песню да на весь окрест,
Бог не выдаст, а свинья не съест!

   По родным дорогам, темным и убогим,
   К черту в пасть, эх, не в масть!
   А потом воскреснем и на том же месте
   Крест вознесем золотой!

      Будем жить, Мать Россия!
      С нами - крестная сила,
      Не впервой рисковать нам своёй головой
      Были орды и ханы,
      Грозные атаманы,
      Но последнее слово всегда за тобой!

Эй, гони-ка, парень, на простор,
Нам не страшен ни один забор,
Вновь меняют пряники на кнут,
И веками люди чуда ждут.

   Мчатся по дорогам, темным и убогим,
   К черту в пасть, чтоб пропасть,
   А потом воскреснут и на том же месте
   Крест вознесут золотой!

      Будем жить, Мать Россия!
      С нами - крестная сила,
      Не впервой рисковать нам своёй головой
      Были орды и ханы,
      Грозные атаманы,
      Но последнее слово всегда за тобой!
Вверх

Будем жить, мать Россия (2 вариант)

Intro:
E----------------------------------------
B----------------------------------------
G----------------------------------------
D------------------------5-7-9-7-5-7-9---
A----7-9-10-9-7-5-2----------------------
E----------------------------------------

E----------------------------------------
B----------------------------------------
G----------------------------------------
D----4-4-6-7-6-4-6-6-7-6-4-3-4-----------
A--------------------------------7-6-----
E----------------------------------------

E----------------------------------------
B----------------------------------------
G----------------------------------------
D------------------------5-7-9-7-5-7-9---
A----7-9-10-9-7-5-2----------------------
E----------------------------------------

E----------------------------------------
B----------------------------------------
G----------------------------------------
D----4-4-6-7-6-4-6-6-7-6-4-3-4-----------
A----------------------------------------
E----------------------------------------





Жёстко  4х 
E----------------------------------------
B----------------------------------------
G----5-5-5-5-5-5-5-5-5-5-5-5-------------
D----5-5-5-5-5-5-5-5-5-5-5-5-------------
A----3-3-3-3-3-3-3-3-3-3-3-3-------------
E----------------------------------------

Verse 1
  С                   
E------------------------------
B------------------------------
G-5-5-5-5-5-5-5-5-5-5-5-5-5-5-5
D-5-5-5-5-5-5-5-5-5-5-5-5-5-5-5
A-3-3-3-3-3-3-3-3-3-3-3-3-3-3-3
E------------------------------
 Эй, гони-ка ,парень, с ветерком,
   
  G#                 C
E------------------------------------
B------------------------------------
G--------------------5-5-5-5-5-5-5-5-
D-6-6-6-6-6-6-6-6-6--5-5-5-5-5-5-5-5-
A-6-6-6-6-6-6-6-6-6--3-3-3-3-3-3-3-3-
E-4-4-4-4-4-4-4-4-4------------------
Чтобы пела кровь, и пыль столбом.

  С                   
E------------------------------------
B------------------------------------
G-5-5-5-5-5-5-5-5-5-5-5-5-5-5-5-5-5-5
D-5-5-5-5-5-5-5-5-5-5-5-5-5-5-5-5-5-5
A-3-3-3-3-3-3-3-3-3-3-3-3-3-3-3-3-3-3
E------------------------------------
 Пусть нам свистнет старый леший вслед,
   
  G#                   C
E-------------------------------------------
B-------------------------------------------
G----------------------5-5-5-5-5-5-5-5-5----
D-6-6-6-6-6-6-6-6-6-6--5-5-5-5-5-5-5-5-5----
A-6-6-6-6-6-6-6-6-6-6--3-3-3-3-3-3-3-3-5----
E-4-4-4-4-4-4-4-4-4-4-----------------------
 Ведьма спрячет в чаще белый свет.

  Dm    
E-----------------------------------------
B-----------------------------------------
G-7-7-7-7-7-7-7-7-7-7-7-7-7-7-7-7-7-7-7-7-
D-7-7-7-7-7-7-7-7-7-7-7-7-7-7-7-7-7-7-7-7-
A-5-5-5-5-5-5-5-5-5-5-5-5-5-5-5-5-5-5-5-5-
E-----------------------------------------
 По родным дорогам, тёмным и убогим,

  Bb
E-----------------------------------------
B-----------------------------------------
G-3-3-3-3-3-3-3-3-3-3-3-3-3-3-3-3-3-3-3-3-
D-3-3-3-3-3-3-3-3-3-3-3-3-3-3-3-3-3-3-3-3-
A-1-1-1-1-1-1-1-1-1-1-1-1-1-1-1-1-1-1-1-1-
E-----------------------------------------
К чёрту в пасть, чтоб пропасть.

  Dm
E-----------------------------------------
B-----------------------------------------
G-7-7-7-7-7-7-7-7-7-7-7-7-7-7-7-7-7-7-7-7-
D-7-7-7-7-7-7-7-7-7-7-7-7-7-7-7-7-7-7-7-7-
A-5-5-5-5-5-5-5-5-5-5-5-5-5-5-5-5-5-5-5-5-
E-----------------------------------------
  А потом воскреснуть и на том же месте 
   
  Bb                A
E-------------------------------
B-------------------------------
G-3-3-3-3-3-3-3-3-3-2-2-2-2-2-2-
D-3-3-3-3-3-3-3-3-3-2-2-2-2-2-2-
A-1-1-1-1-1-1-1-1-1-0-0-0-0-0-0-
E-------------------------------
Крест вознести золотой.

Verse 2
Справа волнами то смех, то мат,
Кто-то бьёт из пушки наугад.
Слева тишь да божья благодать,
Нет, умом тебя мне не понять.
Тут и там седые, странные босые,
А в глазах - небеса.
Выпьют и закусят, всё до нитки спустят,
Нрав свой покажут крутой.

Chorus 1:
  Em                  Hm
E---------------------------
B---------------------------
G-9-9-9-9-9-9-9-9-9-9-4-4-4-
D-9-9-9-9-9-9-9-9-9-9-4-4-4-
A-7-7-7-7-7-7-7-7-7-7-2-2-2-
E---------------------------
 Будем жить, Мать Россия!
 
   G             A
E-------------------------
B-------------------------
G-------------------------
D--5-5-5-5-5-5-5-7-7-7-7--
A--5-5-5-5-5-5-5-7-7-7-7--
E--3-3-3-3-3-3-3-5-5-5-5--
С нами крестная сила.

   F#                    Gm#               F#    Gm#
E------------------------------------------------------
B------------------------------------------------------
G------------------------------------------------------
D--4-4-4-4-4-4-4-4-4-4-4-6-6-6-6-6-6-6-6-6-4-4-4-6-6-6-
A--4-4-4-4-4-4-4-4-4-4-4-6-6-6-6-6-6-6-6-6-4-4-4-6-6-6-
E--2-2-2-2-2-2-2-2-2-2-2-4-4-4-4-4-4-4-4-4-2-2-2-4-4-4-
  Нет той беды, что пройдёт мимо нас стороной.


Em            Hm
E-------------------
B-------------------
G-9-9-9-9-9-9-4-4-4-
D-9-9-9-9-9-9-4-4-4-
A-7-7-7-7-7-7-2-2-2-
E-------------------
 Были Орды и ханы,
  
    G        A
E------------------------
B------------------------
G------------------------
D--5-5-5-5-5-7-7-7-7-----
A--5-5-5-5-5-7-7-7-7-----
E--3-3-3-3-3-5-5-5-5-----
 Грозные атаманы,

   F#            Gm#               F#    Gm#        
E----------------------------------------------
B----------------------------------------------
G----------------------------------------------
D--4-4-4-4-4-4-4-6-6-6-6-6-6-6-6-6-4-4-4-6-6-6-
A--4-4-4-4-4-4-4-6-6-6-6-6-6-6-6-6-4-4-4-6-6-6-
E--2-2-2-2-2-2-2-4-4-4-4-4-4-4-4-4-2-2-2-4-4-4-
  Но последнее слово всегда за тобой!

Verse 3
Эй, гони-ка ,парень, с ветерком,
К чёрту думы о лихом былом!
Грянем песню, да на весь окрест,
Бог не выдаст, свинья не съест.
По родным дорогам, тёмным и убогим,
К чёрту в пасть, эх, не в масть!
А потом воскреснуть и на том же месте 
Крест вознести золотой.

Chorus 1:
Будем жить, Мать Россия!
С нами крестная сила.
Нет той беды, что пройдёт мимо нас стороной.
Были Орды и ханы,
Грозные атаманы, 
Но последнее слово всегда за тобой!


Verse 4
Эй, гони-ка ,парень, на простор,
Нам не страшен ни один забор.
Вновь меняя пряники на кнут,
И веками люди чуда ждут.
Мчатся по дорогам, тёмным и убогим,
К чёрту в пасть, чтоб пропасть.
А потом воскреснут и на том же месте 
Крест вознесут золотой.

Chorus 2:
Будем жить, Мать Россия!
С нами крестная сила.
Не впервой рисковать нам своей головой.
Были Орды и ханы,
Грозные атаманы, 
Но последнее слово всегда за тобой!

Outro=Intro
Вверх

Вавилон

F#m             D-5       F#m6        D                D-5
Солнце чертит круг и снова за спиною как часовой,  +-+-+-+-+-+
G#           A                F#m                  | | | 0 | | I
Чуть короче жизнь и чуть длиннее тень.             +-+-+-+-+-+
F#m          D-5     F#m6        D                 | | | | | 0
Но ответить не готово небо над моей головой        +-+-+-+-+-+
G#           A           GF#                       | | | | 0 |
Для чего я здесь считаю каждый день.               +-+-+-+-+-+

   Hm                     F#m
   Ждёт, когда я крикну, выплесну боль,
   Hm         D              G# A   H G
   И станет моим проклятьем вечный город.

Здесь меня никто не слышит, деньги, кровь, гордыня и спесь,
Держит на себе величье этих стен.
Не поможет стать им выше слов и судеб адская смесь
И стремленье вверх во имя перемен.

   Властью и тщеславьем ты опьянён,
   В прошлом и грядущем непрощённый

       F#                 D                C#
      Вавилон, Вавилон, что ты построил, что разрушил,
       F#m                D             C#           F#m
      Вавилон, Вавилон, плавятся души дьявольским огнём.

След горел на каждом камне, ты желаньем был одержим,
Заглянуть за грань, презрев былую дрожь.
Ты не верил в покаянье, знав, что будешь сброшен с вершин,
Но тянулся ввысь, приняв за веру - ложь.

   Ты волной подхвачен и вознесён,
   Чтоб увидеть сразу смерть и солнце.

      Вавилон, Вавилон, что ты построил, что разрушил,
      Вавилон, Вавилон, плавятся души дьявольским огнём.
Вверх

Вампир

 D#m
Рухнул мир, сгорел дотла.
    H            B
Соблазны рвут тебя на части.
  D#m
Смертный страх и жажда зла
H         B
Держат пари.

В темноте рычит зверье,
Не видно глаз, но все в их власти.
Стань таким, возьми свое
Или умри.

   G#m       H           F
   Будь наготове, всюду рыщет стража.
   G#m     H           C#  B7
   Линия крови путь тебе укажет.
     D#m                   H
   Прочь, ты был одним из нас,
    D#m               H
   Но ангел тебя не спас.

Бьет струей кипящий сок.
Забудет смерть испивший зелье,
Шаг за грань - один глоток -
Словно пароль.

Танцы ведьм и крики сов,
Фальшивый праздник, где нет веселья.
Бой часов, один безумный зов,
Голод и боль.

   Будь наготове, всюду рыщет стража.
   Линия крови путь тебе укажет.
   Прочь...

      G#m       B             D#m
      Днем лихорадка - ночью пир.
      G#m        B            D#m
      Ты теперь демон, ты вампир.
      G#m        B               D#m
      В поисках новой жертвы в снег и зной,
      G#m       B
      Вечный изгой.

   Но ты был одним из нас,
   Жаль ангел тебя не спас...
Вверх

Вампир (2 вариант)

Am            C
Рухнул мир, сгорел дотла 
Dm               E 
Соблазны рвут тебя на части
Смертный страх и жажда зла 
Держат пари...
 
В темноте рычит зверье 
Не видно глаз, но все в их власти
Стань таким возьми свое 
Или умри...  
F     Dm             Gm      E7
Будь наготове, всюду рыщет стража 
Линия крови путь тебе укажет 

Am               Dm               E           
Прочь, ты был одним из нас 
Но ангел тебя не спас 

Бьет струей кипящий сок 
Забудет смерть испивший зелье 
Шаг за грань - один глоток – 
Словно пароль... 

Танцы ведьм и крики сов 
Фальшивый праздник, где нет веселья 
Бой часов, один безумный зов 
Голод и боль... 

 F        E            Am
Днем лихорадка - ночью пир 
Ты теперь демон, ты вампир 
F         E               C     Dm        
В поисках новой жертвы в снег и зной 
F           E
 Вечный изгой…

Но ты был одним из нас 
Жаль ангел тебя не спас...
Вверх

Вампир (3 вариант)

Em             G
Рухнул мир, сгорел дотла
Am              H
Соблазны рвут тебя на части
Смертный страх и жажда зла
Держат пари...
В темноте рычит зверье
Не видно глаз, но все в их власти
Стань таким возьми свое 
Или умри...
 C            Am           D      H   
     Будь наготове, всюду рыщет стража
     Линия крови путь тебе укажет
     Em              Am        (H)
  ...Прочь, ты был одним из нас
 Em             Am              (H)
  ...Но ангел тебя не спас

Бьет струей кипящий сок
Забудет смерть испивший зелье
Шаг за грань - один глоток -
Словно пароль...
Танцы ведьм и крики сов
Фальшивый праздник, где нет веселья
Бой часов, один безумный зов
Голод и боль...

 C          H             Em
   Днем лихорадка - ночью пир
   Ты теперь демон, ты вампир
 C           H              G      Am
   В поисках новой жертвы в снег и зной
 C          H
   Вечный изгой...

...Но ты был одним из нас
...Жаль ангел тебя не спас...
Вверх

Возьми мое сердце mp3

 E||------------10-|----------10-|----------5-|----------4-----|
 Н||--------10-----|-------9-----|-----5Н6----|-----5Н6--------|
 G||----10---------|----9--------|------------|----------------|
 D||-0-------------|-0-----------|-0----------|-0--------------|
 А||---------------|-------------|------------|----------------|
 E||---------------|-------------|------------|----------------|

 Dm             E7/D
Слепая ночь легла у ног
 Dm           E7/D
И не пускает за порог.
 Dm            E7/D
Брожу по дому, как во сне,
 Dm           E7/D
Но мне покоя нет нигде.


 E||----------3-----|--3---------|-------------|--4-----------|
 Н||-------3--------|-----5------|---------6---|-----6--------|
 G||----3-----------|--------3---|------7------|--------4-----|
 D||-5-----------5--|------------|---7-------6-|--------------|
 А||-5------------4-|------------|-5---------5-|--------------|
 E||----------------|------------|-------------|--------------|


 E||-----------3----|-3----------|-----------1-|--0-----------|
 Н||--------3-------|----5-------|--------3----|--2-----------|
 G||-----3----------|-------3----|-----3-------|--2-----------|
 D||--5----------5--|------------|--1----------|--2-----------|
 А||-5-----------4--|------------|-------------|--0-----------|
 E||----------------|------------|-------------|--------------|


 Gm            А7/C#
Тупая боль пробьет висок,
 Dm            G#dim7
И пальцы лягут на курок,
 Gm              C#dim
А в зеркалах качнется призрак,
 Bb        А
Призрак любви.

Припев:
               Dm                 F
   Возьми мое сердце, возьми мою душу,
             Gm                          C
   Я так одинок в этот час, что хочу умереть,
               Dm                    F
   Мне некуда деться, свой мир я разрушил,
                  Gm                          C
   По мне плачет только свеча, на холодной заре...


Ты умерла в дождливый день,
И тени плыли по воде.
Я смерть увидел в первый раз,
Ее величие и грязь.
В твоих глазах застыла боль.
Я разделю ее с тобой.
А в зеркалах качнется призрак,
Призрак любви.

Припев.

 F        Bb      C7     F           Bb   C7
Я слышу утренний колокол, он славит праздник,
 F        Bb      C7     Dm                    C6       C7
И сыпет медью и золотом, ты теперь в царстве вечного сна.
 F        Bb      C7     F           Bb  C7
Я слышу утренний колокол, он бесов дразнит,
 F         Bb      C7    Dm             C              Bb
И звоном небо расколото, на земле я любил лишь тебя...


Припев.

               Dm     E7/D  Em7/D   D
...Возьми мое сердце
Вверх

Возьми мое сердце (2 вариант) mp3

Проигрыш:
1|---------10--------10--------5-------4-|
2|------10---------9---------6-------5---|
3|---10----------9---------7-------7-----|      2 (раза)
4|-0-----------0---------0-------0-------|

Версия :
1|-------1-------0-------5-------4-|
2|-----3-------3-------6-------5---|
3|---2-------1-------7-------7-----|      2 (раза)
4|-0-------0-------0-------0-------|

1|-------3-3-3-----------1-------0-|
2|-----3---3---2-------3-------3---|
3|---3-----3-----1---2-------1-----|
4|---------2-------0-------0-------|
5|-5-------------------------------|

1|-------3-------3-1-1---2-|
2|-----3-------3---3---3-2-|
3|---3-------3-----3-----2-|
4|---------2---------------|
5|-5---------------1-----0-|

Слепая ночь легла у ног
И не пускает за порог
Брожу по дому как во сне
О мне покоя нет нигде
Тупая боль пробьет висок
И пальцы лягут на курок
А в зеркалах качнется призрак
Призрак любви

Припев:
            Dm
Возьми мое сердце
	    F

Возьми мою душу
          Gm
Я так одинок в этот час
             C7
Что хочу умереть
	    Dm
Мне некуда деться
               F
Свой мир я разрушил
               Gm
По мне плачет только свеча
            C7
а холодной заре

Ты умерла в дождливый день
И тени плыли по воде
Я смерть увидел в первый раз
Ее величие и грязь
В твоих глазах застыла боль
Я разделю ее с тобой
А в зеркалах качнется призрак
Призрак любви

F       B           C7
Я слышу утренний колокол
Он славит праздник

И сыпет медью и золотом
Dm     		     C
Ты теперь в царстве вечного сна

Я слышу утренний колокол
Он бесов дразнит
И звоном небо расколото
а земле я любил лишь тебя...

...Возьми мое сердце.


Outro:
1|---------10-------10-------5-----5-|
2|------10--------9--------8---8---7-|
3|---10---------9--------7-------7-7-|
4|0-----------0--------0-----------0-|
Вверх

Возьми мое сердце (3 вариант) mp3

Am            D
Слепая ночь легла у ног
     Gm      F
И не пускает за порог
Am            D
Брожу по дому как во сне
          Gm  F
о мне покоя нет нигде
Am             D
Тупая боль пробьет висок
          Gm   F
И пальцы лягут на курок
         Am     D
А в зеркалах качнется призрак
F           E
Призрак любви

Припев:
Возьми мое сердце
Возьми мою душу
Я так одинок в этот час
Что хочу умереть
Мне некуда деться
Свой мир я разрушил
По мне плачет только свеча
а холодной заре

Ты умерла в дождливый день
И тени плыли по воде
Я смерть увидел в первый раз
Ее величие и грязь
В твоих глазах застыла боль
Я разделю ее с тобой
А в зеркалах качнется призрак
Призрак любви

Я слышу утренний колокол
Он славит праздник
И сыпет медью и золотом
Ты теперь в царстве вечного сна

Я слышу утренний колокол
Он бесов дразднит
И звоном небо расколото
а земле я любил лишь тебя...

...Возьми мое сердце.
Возьми мое сердце
Вступление

   Dm                Dsus2             Dsus4             Dm
E|----------1--|------------0--|-----------3--|--------------1-|
B|-------3-----|---------3-----|--------3-----|----------3-----|
G|----2--------|-----2---------|-----2--------|------2---------|
D|-0-----------|--0------------|-0------------|--0-------------|
А|-------------|---------------|--------------|----------------|
E|-------------|---------------|--------------|----------------|

После

   Gm              Dm            Gm             F      А
E|---------------|-------------|--------------|--1------0------|
B|---------------|-------------|--------------|--1------2------|
G|---------------|-------------|--------------|--2------2------|
D|---------------|-------------|--------------|--3------2------|
А|---------------|-------------|--------------|--3------0------|
E|---------------|-------------|--------------|--1-------------|

Припев:

              Dm                 F
   Возьми мое сердце, возьми мою душу,
             Gm                          C
   Я так одинок в этот час, что хочу умереть,
               Dm                    F
   Мне некуда деться, свой мир я разрушил,
                  Gm                          C
   По мне плачет только свеча, на холодной заре...

II Куплет.

Припев.

     F         B       C       F           B    C
    Я слышу утрений колокол,  он славит праздник,
     F           B       C     F                      B       C
    И звоном небо расколото,  ты теперь в царстве вечного сна.
     F         B        C      F           B  C
    Я слышу утрений колокол,  он беса дразнит,
     F          B       C       Dm                     F       А
    И сыпет медью и золотом,   ты теперь в царстве вечного сна.

              Dm            Dsus2          Dsus4              D5
  Возьми мое сердцееееееееееееееееееееееее......
E|-------------1-|----------0-|-----------3---2------|---------|
B|----------3----|-------3----|--------3----------3--|----3----|
G|-------2-------|----2-------|-----2----------------|---2-----|
D|----0----------|-0----------|-0--------------------|--0------|
А|---------------|------------|----------------------|---------|
E|---------------|------------|----------------------|---------|
Вверх

Возьми мое сердце (4 вариант) mp3

intro:
 E-----------------|-----------------|-----------------|-----------------|
 H-------3---------|-------3---------|-----------------|-----------------|
 G-----2-----------|-----1-----------|-------2---------|-------1---------|
 D-0-3-------------|-0-2-------------|-0-2-3-----------|-0-2-3-----------|
 A-----------------|-----------------|-----------------|-----------------|
 E-----------------|-----------------|-----------------|-----------------|

(пеpебоp в скобках)

Dm(43231)       A(53231) F(63231)     A(53231)
 Слепая ночь легла у ног и не пускает за поpог
 Бpожу по дому как во сне, но мне покоя нет нигде

(как это ложится на слова pазбеpись сам)
   баppе III                   Dm
 E---------3-----------3---------------1-----------1------
 H-----3-----------------3---------3-----------------3----
 G---3---3-----------------3-----2---2----1------------2--
 D-----------------------------0--------------------------
 A------------4-------------------------------------------
 E-3------------------------------------------------------

 Тупая боль пpобьет висок, и пальцы лягут на куpок

   баppе III
 E---------3-----------3------
 H-----3-----------------3----
 G---3---3-----------------3--
 D----------------------------
 A------------4---------------
 E-3--------------------------
                                  B          A
 А в зеpкалах кочнется пpизpак,   пpизpак любви

Припев:

                   Dm                 F
        Возьми мое сердце, возьми мою душу,
                 Gm                          C
        Я тaк одинок в этот чaс, что хочу умереть,
                   Dm                    F
        Мне некудa деться, свой мир я рaзрушил,
                      Gm                          C
        По мне плaчет только свечa, нa холодной зaре...

[II Kуплет skip]

/Припев/

                 F        B       C        F          B     C
                  Я слышу утрений колокол,  он слaвит прaздник,
                 F         B       C       Dm                   A
                  И звоном небо рaсколото,  ты теперь в цaрстве вечного снa.
                  Я слышу утрений колокол,  он бесa дрaзнит,
                  И сыпет медью и золотом,   ты теперь в цaрстве вечного снa.

                         Dm
              Возьми мое сердцееееееееееееееееееееееее........
Вверх

Волонтер mp3

Em
Он рубил, поджигал и бил в упор

Волонтёр тёмных дел и чужих афёр
Em
Он копил собирал на старость лет

Он забыл, но его не забыли, нет

	C	    Am 	          Em	
	Каждый сам, каждый сам за всё,
	C          Am               Em
	Каждый сам отвечает там

Он просил, умолял, глядел на нас,
Говорил, что незнал, что был приказ
Он дрожал, он слезы сдержать не мог
Но был суд, приговор суров и строг
	
	Каждый сам, каждый сам за всё,
	Каждый сам отвечает там

F#m
Даже лёгкое движенье видел чей-то глаз,
Чьи-то уши самый тайный слышали рассказ
Em
И когда настанет время платы по счетам
F#m
Покоянье не поможет вам

Bm         G             F#
Нет покоя тем кто делал зло
Этим людям так не повезло
Нет покоя тем кто потакал,
Тем кто знал и всё таки молчал

	Каждый сам, каждый сам за всё,
	Каждый сам отвечает там
Вверх

Волонтёр

Em
Он рубил, поджигал и бил в упор,
Волонтер темных дел и чужих афер.
Он копил, собирал на старость лет,
Он забыл, но его не забыли, нет.

    C           Am     Am7     Em
   Каждый сам, каждый сам за все,
    C         Am           Em
   Каждый сам отвечает там.

Он просил, умолял, глядел на нас,
Говорил, что не знал, что был приказ.
Он дрожал, он слезы сдержать не мог,
Но был суд, приговор суров и строг.

   Каждый сам, каждый сам за все,
   Каждый сам отвечает там.

      F#m
      Даже легкое движенье видел чей-то глаз,
      Чьи-то уши самый тайный слышали рассказ.
      Em
      И когда настанет время платы по счетам,
      F#m
      Покаянье не поможет вам.

      Hm         G              F#
      Нет покоя тем кто делал зло,
      Hm          G           F#
      Этим людям так не повезло.
      Нет покоя тем кто потакал,
      Тем кто знал и все таки молчал.

   Каждый сам, каждый сам за все,
   Каждый сам, каждый сам за все,
   Каждый сам, каждый сам за все,
   Каждый сам отвечает там.
Вверх

Воля и разум

 Em
В глубокой шахте который год
Таится чудище-змей.
Стальные нервы, стальная плоть,
Стальная хватка когтей.

Он копит силы, лениво ждет,
Направив в небо радар.
Одна ошибка, случайный взлет -
И неизбежен удар.


Припев:
    C      Am        D            Em
   Все, во что ты на веки влюблен,
   C  Am     D
   Уничтожит разом
   C    Am       D           Em
   Тысчеглавый убийца-дракон.
   Am7                  B
   Должен быть повержен он,
          B7sus-2
   Сильнее всяких войн
   Em
   Воля и разум,
   Воля и разум,
   Воля и разум,

   Воля и разум.



Смертельной данью обложен мир,
Лишен покоя и сна.
Многоголосо гудит эфир -
Опять на старте война.

Припев.

Пока не поздно - спасайте мир,
Нельзя нам больше терпеть!
Пока мы вместе, то берегись -
Любому чудищу смерть.

Припев.
Вверх

Воля и разум

Em
В глyбокой шахте котоpый год
Таится чyдище-змей.
Стальные неpвы, стальная плоть,
Стальная хватка когтей.

Он копит силы, лениво ждет,
Hапpавив в небо pадаp.
Одна ошибка, слyчайный взлет -
И неизбежен yдаp.


Пpипев:
    C      Am        D            Em
   Все, во что ты на веки влюблен,
   C  Am     D
   Уничтожит pазом
   C    Am       D           Em
   Тысчеглавый yбийца-дpакон.
   Am7                  B
   Должен быть повеpжен он,
          B7sus-2
   Сильнее всяких войн
   Em
   Воля и pазyм,
   Воля и pазyм,
   Воля и pазyм,
   Воля и pазyм.



Смеpтельной данью обложен миp,
Лишен покоя и сна.
Многоголосо гyдит эфиp -
Опять на стаpте война.

Пpипев.

Пока не поздно - спасайте миp,
Hельзя нам больше теpпеть!
Пока мы вместе, то беpегись -
Любомy чyдищy смеpть.

Пpипев.
Вверх

Воля и разум (2 вариант)

Gtr1
                                                           
E||----------------------------|--------------------------|
B||----------------------------|--------------------------|
G||----------------------------|--------------------------|
D||-----9--------9-----11--12--|-----9--------9-----7--9--|
A||-----7--------7-----9---10--|-----7--------7-----5--7--|
E||--0-----0--0-----0----------|--0-----0--0-----0--------|

        в глубокой шахте                который год
                                                          
----------------------------|----------------------------|
----------------------------|----------------------------|
----------------------------|----------------------------|
-----9--------9-----11--12--|--9--------9----------------|
-----7--------7-----9---10--|--7--------7----------------|
--0-----0--0-----0----------|-----0--0-------------------|

   таится чудище змей
                                                        
----------------------------|--------------------------|
----------------------------|--------------------------|
----------------------------|--------------------------|
-----9--------9-----11--12--|-----9--------9-----7--9--|
-----7--------7-----9---10--|-----7--------7-----5--7--|
--0-----0--0-----0----------|--0-----0--0-----0--------|
стальные нервы                 стальная плоть

                                                          
----------------------------|----------------------------|
----------------------------|----------------------------|
----------------------------|----------------------------|
-----9--------9-----11--12--|--9--------9----------------|
-----7--------7-----9---10--|--7--------7----------------|
--0-----0--0-----0----------|-----0--0-------------------|

  стальная хватка когтей.............................т.д
                                                          
------------------------------|--------------------------|
------------------------------|--------------------------|
------------------------------|--7--7--7--7--9--9--9--9--|
--10--10--10--10--7--7--7--7--|--7--7--7--7--9--9--9--9--|
--10--10--10--10--7--7--7--7--|--5--5--5--5--7--7--7--7--|
--8---8---8---8---5--5--5--5--|--------------------------|
  все     во            что      ты на веки влюблен

                                                          
------------------------------|--------------------------|
------------------------------|--------------------------|
------------------------------|--7--7--7--7--7--7--7--7--|
--10--10--10--10--7--7--7--7--|--7--7--7--7--7--7--7--7--|
--10--10--10--10--7--7--7--7--|--5--5--5--5--5--5--5--5--|
--8---8---8---8---5--5--5--5--|--------------------------|
уничтожит                        разом

                                                          
------------------------------|--------------------------|
------------------------------|--------------------------|
------------------------------|--7--7--7--7--9--9--9--9--|
--10--10--10--10--7--7--7--7--|--7--7--7--7--9--9--9--9--|
--10--10--10--10--7--7--7--7--|--5--5--5--5--7--7--7--7--|
--8---8---8---8---5--5--5--5--|--------------------------|
тыщеглавый                      убийца      дракон

                                          
----------------------------------------||
----------------------------------------||
----------------------------------------||
--7--7--7--7--7--7--7--9----------------||
--7--7--7--7--7--7--7--9----------------||
--5--5--5--5--5--5--5--7----------------||

должен быть повержен он
Вверх

Ворон

E                         F#7
Ночью день разорван, затянула рану мгла.
Em              A          E
Смотрит черный ворон на меня рубином глаз.
Em                      F#
Я не суеверен - но мой гость пророчит смерть.
Em        A            E
Траур оперенья - это траур и по мне.

Из другого мира ворон вести мне принес.
Скоро с неба хлынет из камней тяжелый дождь,
На коне крылатом всадник спустится за мной,
Любоваться адом и агонией земной.

    C  D    E    C D    E
   Мир обречен, выбора нет,
    C  D   E  C# C     D       A  G E
   Вечная ночь, там, где был свет.

Трижды ворон крикнул, потемнели небеса,
Ангел мой Хранитель от меня отрекся сам...
С неба звезды пали, и в огне зашлась земля,
Всадник рассмеялся и в огонь швырнул меня.

   Мир обречен, выбора нет,
   Вечная ночь, там, где был свет.

        A7            C#m
      Все, что будет, я забуду,
      F#m    G#m   C#m
      Это - сон чужой.
       A7            C#m
      Только снова кружит ворон
      F#m        H
      Над землею, надо мною.

   Мир обречен, выбора нет,
   Вечная ночь, там, где был свет.
Вверх

Ворон (2 вариант)

Вступление: A   A5b   Dsus2   A   C   A   C   A


1.
A                    A5b
Ночью день разорван, затянула рану мгла,
A                    C        A          C A
Смотрит черный ворон на меня рубином глаз.
A                     A5b
Я не суеверен, но мой гость пророчит смерть.
A                   C  A              C A
Траур оперенья - это траур и по мне...

Из другого мира ворон вести мне принес - 
Скоро с неба хлынет из камней тяжелый дождь,
На коне крылатом всадник спустится за мной,
Любоваться адом и агонией земной.


Припев:
	F   G    A
	Мир обречен,
	F   G   A
	Выбора нет,
	F   G   A G
	Вечная ночь
	F5(VIII) E5  D#5  D5  C#5 C5 B5
	Там,     где был свет


2.
Трижды ворон крикнул - потемнели небеса.
Ангел мой хранитель от меня отрекся сам.
С небя звезды пали и в огне зашлась земля,
Всадник засмеялся и в огонь швырнул меня.

Припев.

3.
F                 A
Все, что будет - я забуду,
F   G#   A    B5 C5 C#5
Это сон чужой,
F             A
Только снова кружит ворон
F             F
Над землёю, надо мной!

Припев.

Транскрипции:

A		A5b			 Dsus2
|---|---|---|	|---|---|---|---|	 |---|---|---|
|---|-3-|---|	|---|---|---|-4-|	 |---|---|-3-|
|---|-2-|---|	|---|-3-|---|---|	 |---|-2-|---|
|---|-1-|---|	|-1-|---|---|---|	 |---|---|---|
|---|---|---|	|---|---|---|---|	x|---|---|---|
|---|---|---|	|---|---|---|---|	x|---|---|---|
Вверх

Вот и все дела!

F        C         G
Эй, полюби меня чумазым,
F         C          G
А чистым каждая возьмет,
F      C              G
Я убеждаюсь с каждым разом все сильней,
F              C              G
Что жизнь с тобой - не Новый год.

   Em          Am          G         C
   Нет, я не принц и я не белый мотылек,
   F         C          G  E7   Am  G7  C
   Но рад лететь на огонек, о - о - о - о!
   F        C              G
   Но я держался, сколько мог.

      D                                G
      Да, я мишень плохая для твоих побед,
      Все грехи тебе прощаю, ну, а ты мне - нет.
      Не буду тратить нервы и сходить с ума,
      Я - налево, ты - направо, вот и все дела!

Да, я держался сколько надо -
За воздух, дерево, металл,
Но вот пошел процесс распада там, в душе,
И я держаться перестал.

   И я рванул как ветер, зря не тратя слов,
   От злой любви себя храня, о-о-о-о,
   Привет, забытые друзья!

      Да, я мишень плохая для твоих побед,
      Все грехи тебе прощаю, ну, а ты мне - нет.
      Не буду тратить нервы и сходить с ума,
      Я - налево, ты - направо, вот и все дела!

Я не герой твоих романов -
Послушный, глупый мотылек,
Как говорил бандит с экрана, и был прав, -
"Ты прикрути-ка фитилек!".

   И я рванул как ветер, зря не тратя слов,
   От злой любви себя храня, о-о-о-о,
   Привет, забытые друзья!

      Да, я мишень плохая для твоих побед,
      Все грехи тебе прощаю, ну, а ты мне - нет.
      Не буду тратить нервы и сходить с ума,
      Я - налево, ты - направо, вот и все дела!
Вверх

Все что было

  Em                 C
Дверь на ключ и свинцом тоска
 D                   A7
Боль в душе словно смерть близка
  Em                  Cmaj7
Один лишь шаг может все решить
   D                  A9
Теперь ты враг я не знаю как мне жить
Am7         Em      C D
Как дальше жить ..мм..

Мне колдун предсказал печаль
Долгий путь в грозовую даль
Он словно зверь чуял дым беды
Закрыта дверь ливень смоет все следы
 Am7        Em
Так хочешь ты
                Am  B
 Все что было свет мой
              Em
 Чистый и святой
               С   D
 Все что было рок мой
              Em
 Жадный и слепой
                 Am   B
 Все что будет крест мой
                  C   D
 Семь кругов пройти мне
                С D
 В огненной пустыне

Голос твой заблудился здесь
День и ночь он звучит во мне
Я молю отпустить меня
Но за стеклом вижу вновь твои глаза
Твои глаза
 Все что было свет мой
 Чистый и святой
 Все что было рок мой
 Жадный и слепой
 Все что будет крест мой
 Семь кругов пройти мне
 В огненной пустыне
     Em
  Я видел сон
  Как в этот дом
      С
  Ты сердце принесла свое
     A7
  И боль прошла
                    A7
  И умер страх в душе
       Em
  Но дверь на ключ
  И страх живуч
        C
  Что проклят я и обречен
       A
  Свинцом тоска
                         A7
  Так словно смерть близка
     Am7               Em
  Как смерть близка

               Am   Bm7 Emaj
 Все что было рок твой
                 С     В
 Все что будет крест твой
               Am   Bm7 Emaj
 Все что было рок твой
                 С     В
 Все что будет крест твой
 Все что было свет мой
 Чистый и святой
 Все что было рок мой
 Жадный и слепой
 Все что будет крест мой
 Семь кругов пройти мне
 В огненной пустыне
 Словно проклят я
Вверх

Все, что было

 Em                    C
Дверь на ключ, и свинцом - тоска,
 D                     А7
Боль в душе, словно смерть близка.
 Em                  C7
Один лишь шаг может все решить.
 D                      А9
Теперь - ты враг, я не знаю как мне жить...
 Am7         Em
Как дальше жить.

Мне колдун предсказал печаль,
Долгий путь в грозовую даль.
Он, словно зверь, чуял дым беды.
Закрыта дверь, ливень смоет все следы...
Так хочешь ты.

 Em               Am   B
Все, что было - свет мой,
            Em
Чистый и святой.
 Em               C   D
Все, что было - рок мой,
            Em
Жадный и слепой.
 Em                Am    B
Все, что будет - крест мой:
                C   D                C D
Семь кругов пройти мне в огненной пустыне...

Голос твой заблудился здесь.
День и ночь он звучит во мне
И я молю отпустить меня,
Но за стеклом вижу вновь твои глаза...
Твои глаза.

 Em
Я видел сон, как в этот дом
    C
Ты сердце принесла свое,
   А7                           А7
И боль прошла, и умер страх в душе.
 Em
Но дверь на ключ, и страх живуч,
      C
Что проклят я и обречен,
     А                               А7
Свинцом тоска так, словно смерть близка...
 Am7            Em
Как смерть близка.

                Am  Bm7
Все, что было - рок твой.
                 C     D
Все, что будет - крест твой.
   C       Bm     Em
...Словно проклят я.
Вверх

Все, что было (2 вариант)

 Em                  C     Em
Дверь на ключ и свинцом тоска,
 Am             Em
Боль в душе словно смерть близка.
Один лишь шаг может все решить.
Теперь ты враг я не знаю как мне жить,
Как дальше жить.

Мне колдун предсказал печаль,
Долгий путь в грозовую даль.
Он словно зверь чуял дым беды.
Закрыта дверь ливень смоет все следы,
Как хочешь ты.
      Em           Am  Hm            Em
    Все что было свет мой чистый и святой,
    Все что было рок мой жадный и слепой,
    Все что будет крест мой семь кругов пройти мне
    В огненой пустыне.
Голос твой заблудился здесь
День и ночь он звучит во мне.
Я молю отпустить меня,
Hо за стеклом вижу вновь твои глаза,
Твои глаза.
    припев:
    Я видел сон как в этот дом
    Ты сердце принесла свое,
    И боль прошла и умер страх в душе,
    Hо дверь на ключ и страх живуч
    Что проклят я и обречен
    Свинцом тоска так словно смерть близка,
    Как смерть близка.
    припев:
    Словно проклят я.
Вверх

Встань, страх преодолей

Hm                              G
Кто сказал, что страсть опасна, доброта смешна,
       А                       Hm
Что в наш век отвага не нужна?
       Hm                           G
Там где старь от ветра часто рушится стена.
       А                         Hm
Крепче будь и буря не страшна.

Кто сказал один не воин, не величина,
Кто сказал другие времена?
Мир жесток и неспокоен, за волной волна.
Не робей и не собъет она.

припев:

       Em               Hm
  Встань, страх преодолей,
       Em               Hm
  Встань, в полный рост,
       Em            Hm
  Встань, на земле своей
       G                   А
  И достань рукой до звезд.



Кто сказал живи покорно не ищи руна,
Не летай и не ныряй до дна?
Сталь в руках всегда проворна; грош тому цена
Кто устал и дремлет у окна.

  припев.

Кто сказал борьба напрасна, зло сильней добра?
Кто сказал спасайся, вот нора?
Путь тяжел, но цель прекрасна, как огонь костра.
Человек, настал твой час, пора.

  припев.
Вверх

Встань, страх преодолей (2 вариант)

 Am             Am               F
Кто сказал, что страсть опасна, доброта смешна,
 G             E         Am
Что в наш век отвага не нужна?
 Am            Am               F
Там где старь от ветра часто рушится стена.
 G             E       Am
Крепче будь и буря не страшна.

Кто сказал один не воин, не величина,
Кто сказал другие времена?
Мир жесток и неспокоен, за волной волна.
Не робей и не собъет она.

   Gm              Am
   Встань, страх преодолей,
   Gm               Am
   Встань, в полный рост,
   Gm               Am
   Встань, на земле своей
   F           G   E    Am
   И достань рукой до звезд.

Кто сказал живи покорно не ищи руна,
Не летай и не ныряй до дна?
Сталь в руках всегда проворна; грошь тому цена
Кто устал и дремлет у окна.

   припев:

Кто сказал борьба напрасна, зло сильней добра?
Кто сказал спасайся, вот нора?
Путь тяжел, но цель прекрасна, как огонь костра.
Человек, настал твой час, пора.

   припев:
Вверх

Встань, страх преодолей (3 вариант)

        Dm                              B
        Кто сказал, что страсть опасна, доброта смешна,
	C                Am        Dm  
        Что в наш век отвага не нужна?
        Dm                          B
	Как и встарь от ветра часто рушится стена.
	C             Am           Dm  
        Крепче будь и буря не страшна.

        B Dm

	Dm                       B
        Кто сказал один не воин, не величина,
	C              Am      Dm  
        Кто сказал другие времена?
        Dm                      B    
	Мир жесток и неспокоен, за волной волна
	C           Am        Dm     
        Не робей и не собьет она

Припев:
        Gm               Dm  F         
	Встань, страх преодолей,
	Gm               Dm  
        Встань, в полный рост,
	Gm            Dm    F 
        Встань, на земле своей
	B                    Dm 
        И достань рукой до звезд

	Кто сказал живи покорно не ищи руна,
	Не летай и не ныряй до дна?
	Сталь легка, судьба проворна; грошь тому цена
	Кто устал и дремлет у окна

Припев:

	Кто сказал борьба напрасна, зло сильней добра?
	Кто сказал спасайся, вот нора?
	Путь тяжел, но цель прекрасна, как огонь костра
	Человек, настал твой час, пора!


Вверх

Всё, что было

  Em                 C
Дверь на ключ и свинцом тоска
 D                   A7
Боль в душе словно смерть близка
  Em                  Cmaj7
Один лишь шаг может все решить
   D                  A9
Теперь ты враг я не знаю как мне жить
Am7         Em      C D
Как дальше жить ..мм..

Мне колдун предсказал печаль
Долгий путь в грозовую даль
Он словно зверь чуял дым беды
Закрыта дверь ливень смоет все следы
 Am7        Em
Так хочешь ты
                Am  B
 Все что было свет мой
              Em
 Чистый и святой
               С   D
 Все что было рок мой
              Em
 Жадный и слепой
                 Am   B
 Все что будет крест мой
                  C   D
 Семь кругов пройти мне
                С D
 В огненной пустыне

Голос твой заблудился здесь
День и ночь он звучит во мне
Я молю отпустить меня
Но за стеклом вижу вновь твои глаза
Твои глаза
 Все что было свет мой
 Чистый и святой
 Все что было рок мой
 Жадный и слепой
 Все что будет крест мой
 Семь кругов пройти мне
 В огненной пустыне
     Em
  Я видел сон
  Как в этот дом
      С
  Ты сердце принесла свое
     A7
  И боль прошла
                    A7
  И умер страх в душе
       Em
  Но дверь на ключ
  И страх живуч
        C
  Что проклят я и обречен
       A
  Свинцом тоска
                         A7
  Так словно смерть близка
     Am7               Em
  Как смерть близка

               Am   Bm7 Emaj
 Все что было рок твой
                 С     В
 Все что будет крест твой
               Am   Bm7 Emaj
 Все что было рок твой
                 С     В
 Все что будет крест твой
 Все что было свет мой
 Чистый и святой
 Все что было рок мой
 Жадный и слепой
 Все что будет крест мой
 Семь кругов пройти мне
 В огненной пустыне
 Словно проклят я
Вверх

Выпьем ещё

E
Один глоток моей душе не даст огня,
Но искру может дать второй,
A
И вот опять с утра никак мне не понять,
E
Кто здесь, покойник, кто живой!

   A              G     A G
   Выпьем еще, приятель.
              A G
   Выпьем еще,
            B
   Выпьем еще чуть-чуть.
       A G E
   И все!

Пока еще в сознаньи - вспомним времена
Дешевой жизни и дешевого вина,
Когда любой из тех, кто классно джаз играл,
Страну родную продавал.

   Выпьем еще, приятель.
   Выпьем еще,
   Выпьем еще чуть-чуть.
   И все!

Ты рад свободе выбирать себе дурдом,
Хоть здесь, хоть где-то за бугром,
Но я стал стар, чтоб по-другому жить и петь,
Но молод я чтоб умереть!

   Выпьем еще, приятель.
   Выпьем еще,
   Выпьем еще чуть-чуть.
   И все!
Вверх

Герой асфальта

 Em
Твой дом стал для тебя тюрьмой,
 C
Для тех, кто в доме, ты чужой.
 D                         Em
Ты был наивен и ждал перемен.

Ты ждал, что друг тебя поймет.
 C
Поймет и скажет: "Жми вперед!"
 D                                   Em
Но друг блуждал среди собственных стен...

 Am          G
   Горел асфальт
 F            G
   От солнца и от звезд,
 Am          G
   Горел асфальт
 F      E7
   Под шум колес,
 Am          G
   Горел асфальт,
 F             G
   Ты чувствовал тепло,
 Am          G
   Горел асфальт
 F      E7       Am
   Снегам назло.

Ты сам решил пойти на риск
Никто не крикнул: "Берегись!"
И ты покрасил свой шлем в черный цвет.

Как зверь мотор в ночи ревет
Пустырь, разъезд и разворот...
Ты мстил за груз нелюбви прошлых лет

   Запел асфальт -
   Ты слышал каждый звук,
   Запел асфальт,
   Как сердца стук,
   Запел асфальт,
   Ты был его герой,
   Так пел асфальт,
   Пел за спиной!

Был миг - ты верил в знак удач.
Ведь ты был молод и горяч.
Но твой двойник мчал навстречу тебе.

Он был свободен как и ты.
Никто не крикнул: "Тормози!"
Такой приказ неизвестен судьбе.

   Горел асфальт
   От сбитых с неба звезд,
   Горел асфальт
   Под шум колес,
   Кричал асфальт,
   Ты был его герой.
   Кричал асфальт,
   Кричала боль...
Вверх

Герой асфальта (2 вариант)

Am
Твой дом стал для тебя тюрьмой
G  F
  Для тех, кто в доме, ты - чужой
G                        Am
Ты был наивен и ждал перемен

Am
Ты ждал, что друг тебя поймет
G  F
  Поймет и скажет: "Жми вперед!"
  G                                Am
Но друг блуждал среди собственных стен...

F        E
Горел асфальт
F         E
От солнца и от звезд
F        E
Горел асфальт
F    G     E F
Под шум колес
F        E
Горел асфальт
F              E
Ты чувствовал тепло
F        E
Горел асфальт
F   G      E F
Снегам назло

Ты сам решил пойти на риск
Никто не крикнул: "Берегись!"
И ты покрасил свой шлем в черный цвет

Как зверь мотор в ночи ревет
Пустырь, разъезд и разворот...
Ты мстил за груз нелюбви прошлых лет

Запел асфальт
Ты слышал каждый звук
Запел асфальт
Как сердца стук
Запел асфальт
Ты был его герой
Так пел асфальт
Пел за спиной!

Был миг - ты верил в знак удач
Ведь ты был молод и горяч
Но твой двойник мчал навстречу тебе

Он был свободен как и ты
Никто не крикнул: "Тормози!"
Такой приказ неизвестен судьбе

Горел асфальт
От сбитых с неба звезд
Горел асфальт
Под шум колес
Кричал асфальт
Ты был его герой
Кричал асфальт
Кричала боль...
Вверх

Герой асфальта (3 вариант)

Tempo: moderately fast (141 bpm)
INTRO:
(0:01 - 0:14)
RIFF 1 (play 2 times):
Gtr.E||---------------------------------|---------------------------------|
    H||---------------------------------|---------------------------------|
    G||---------------------------------|---------------------------------|
    D||-4-------5-------4-------7-------|-3-------------------------------|
    A||-2-------2-------2-------5-------|-1---1-1-1---1-1-1---1-1-1---1-1-|
    E||---------------------------------|-----.-.-.---.-.-.---.-.-.---.-.-|
Gtr.E|----------------------------------|---------------------------------||
    H|----------------------------------|---------------------------------||
    G|----------------------------------|---------------------------------||
    D|--4-------5-------4-------7-------|-5-------------------------------||
    A|--2-------2-------2-------5-------|-3-----------4-------------------||
    E|----------------------------------|-------------2-------------------||
(0:15 - 0:28)
RIFF 2 (play 2 times):
Gtr.E||---------------------------------|---------------------------------|
    H||---------------------------------|---------------------------------|
    G||---------------------------------|-----------------2-------3-------|
    D||-4-------5-------4-------3-------|-4-------2-------2-------3-------|
    A||-----2-------2-------2-------2---|-----0-------0---0-------1-------|
    E||-----.-------.-------.-------.---|-----.-------.--->------->-------|
     ||                                 |                                 |
BassG||---------------------------------|---------------------------------|
    D||---------------------------------|---------------------------------|
    A||---------------------------------|---------------------------------|
    E||-7---7---------------------------|-5---5-----------5-------6-------|
 
Gtr.E|----------------------------------|---------------------------------||
    H|----------------------------------|---------------------------------||
    G|----------------------------------|-----------------0-------2-------||
    D|--4-------5-------4-------3-------|-4-------2-------0-------2-------||
    A|------2-------2-------2-------2---|-----0-----------x-------0-------||
    E|------.-------.-------.-------.---|-----.-------3---3------->-------||
     |                                  |             .   >               ||
BassG|----------------------------------|---------------------------------||
    D|----------------------------------|---------------------------------||
    A|----------------------------------|---------------------------------||
    E|--7---7---------------------------|-5---5-----------3-------5-------||
(0:29 - 0:38)
RIFF 3:
Gtr.E|----------------------------------|---------------------------------|
    H|----------------------------------|---------------------------------|
    G|----------------------------------|---------------------------------|
    D|------------------2---------------|-----------------2---------------|
    A|--5-------4---------------5---4---|-5-------4---------------5-------|
    E|------2-------2-------2-----------|-----3-------3-------3-------3---|
            .       .       .                 .       .       .       .
Gtr.E|----------------------------------|---------------------------------|
    H|----------------------------------|---------------------------------|
    G|----------------------------------|---------------------------------|
    D|--2-------------------------------|---------------------------------|
    A|------------------4---------------|-2---------------1---------------|
    E|------2---2---2-------2---2---2---|-----2---2---2-------2---2---2---|
            .   .   .       .   .   .         .   .   .       .   .   .
Gtr.E|----------------------------------|---------------------------------|
    H|----------------------------------|---------------------------------|
    G|----------------------------------|---------------------------------|
    D|--2-------------------------------|---------------------------------|
    A|------------------4---------------|-1-----------5-------------------|
    E|------2---2---2-------2---2---2---|-----2---2---3-------------------|
            .   .   .       .   .   .         .   .   >
(0:39 - 0:42)
RIFF 4:
Gtr.1E|---------------------------------|---------------------------------|
Gtr.2H|---------------------------------|---------------------------------|
     G|-9-------------------------------|---------------------------------|
     D|-9-------------------------------|-----------------7---------------|
     A|-7---7-7-7---7-7-7---7-7-7---7-7-|-7---7---9---10-----10---9---10--|
     E|-.---.-.-.---.-.-.---.-.-.---.-.-|-.-------------------------------|
(0:42 - 1:09)
VERSE 1:
                Tvoy   dom       stal  dlya  tebya  tyur?moy      
Gtr.1E|---------------------------------|---------------------------------|
     H|---------------------------------|---------------------------------|
     G|---------------------------------|---------------------------------|
     D|---------------------------------|---------------------------------|
     A|-7---7-7-7---7-7-7---7-7-7---7-7-|-7---7-7-7---7-7-7---7-7-7---3-3-|
     E|---------------------------------|---------------------------------|
      |                                 |                                 |
Gtr.2E|---------------------------------|---------------------------------|
     H|---------------------------------|---------------------------------|
     G|---------------------------------|-----------------9-------7-------|
     D|---------------------------------|-----------------9-------7-------|
     A|---------------------------------|-----------------7-------5-------|
     E|---------------------------------|---------------------------------|
 
                Dlya   teh,     kto  v  dome,    ty  chuzhoy       
Gtr.1E|---------------------------------|---------------------------------|
     H|---------------------------------|---------------------------------|
     G|---------------------------------|---------------------------------|
     D|---------------------------------|---------------------------------|
     A|-3---3-3-3---3-3-3---3-3-3---3-3-|-3---3-3-3---3-3-3---3-3-3---5-5-|
     E|---------------------------------|---------------------------------|
      |                                 |                                 |
Gtr.2E|---------------------------------|---------------------------------|
     H|---------------------------------|---------------------------------|
     G|-5-------------------------------|-----------------5-------5-------|
     D|-5-------------------------------|-----------------5-------5-------|
     A|-3-------------------------------|-----------------3-------3-------|
     E|---------------------------------|---------------------------------|
 
                  Ty   byl          na - iven     i    zhdal   pe - re -
Gtr.1E|---------------------------------|---------------------------------|
     H|---------------------------------|---------------------------------|
     G|---------------------------------|---------------------------------|
     D|---------------------------------|---------------------------------|
     A|-5---5-5-5---5-5-5---5-5-5---5-5-|-5---5-5-5---5-5-5---5-5-5---5-5-|
     E|---------------------------------|---------------------------------|
      |                                 |                                 |
Gtr.2E|---------------------------------|---------------------------------|
     H|---------------------------------|-----------------8-------7-------|
     G|-7-------------------------------|---------7-------7-------7-------|
     D|-7-------------------------------|---------7-------7-------7-------|
     A|-5-------------------------------|---------5-----------------------|
     E|---------------------------------|---------------------------------|
 
      - men.     
Gtr.1E|---------------------------------|---------------------------------|
Gtr.2H|---------------------------------|---------------------------------|
     G|-9-------------------------------|---------------------------------|
     D|-9-------------------------------|-----------------7---------------|
     A|-7---7-7-7---7-7-7---7-7-7---7-7-|-7---7---9---10-----10---9---10--|
     E|---------------------------------|---------------------------------|
 
                Ty   zhdal,       chto  drug  tebya  poymyot,
Gtr.1E|---------------------------------|---------------------------------|
     H|---------------------------------|---------------------------------|
     G|---------------------------------|---------------------------------|
     D|---------------------------------|---------------------------------|
     A|-7---7-7-7---7-7-7---7-7-7---7-7-|-7---7-7-7---7-7-7---7-7-7---3-3-|
     E|---------------------------------|---------------------------------|
      |                                 |                                 |
Gtr.2E|---------------------------------|---------------------------------|
     H|---------------------------------|---------------------------------|
     G|---------------------------------|-----------------9-------7-------|
     D|---------------------------------|-----------------9-------7-------|
     A|---------------------------------|-----------------7-------5-------|
     E|---------------------------------|---------------------------------|
 
                poy - myot          i  skazhet:"Zhmi vperyod!",          
Gtr.1E|---------------------------------|---------------------------------|
     H|---------------------------------|---------------------------------|
     G|---------------------------------|---------------------------------|
     D|---------------------------------|---------------------------------|
     A|-3---3-3-3---3-3-3---3-3-3---3-3-|-3---3-3-3---3-3-3---3-3-3---5-5-|
     E|---------------------------------|---------------------------------|
      |                                 |                                 |
Gtr.2E|---------------------------------|---------------------------------|
     H|---------------------------------|---------------------------------|
     G|-5-------------------------------|-----------------5-------5-------|
     D|-5-------------------------------|-----------------5-------5-------|
     A|-3-------------------------------|-----------------3-------3-------|
     E|---------------------------------|---------------------------------|
 
                 no   drug      bluzh - dal     sredi   sobst - vennyh 
Gtr.1E|---------------------------------|---------------------------------|
     H|---------------------------------|---------------------------------|
     G|---------------------------------|---------------------------------|
     D|---------------------------------|---------------------------------|
     A|-5---5-5-5---5-5-5---5-5-5---5-5-|-5---5-5-5---5-5-5---5-5-5---5-5-|
     E|---------------------------------|---------------------------------|
      |                                 |                                 |
Gtr.2E|---------------------------------|---------------------------------|
     H|---------------------------------|---------------------------------|
     G|-7-------------------------------|---------7-------5-------7-------|
     D|-7-------------------------------|---------7-------5-------7-------|
     A|-5-------------------------------|---------5-------3-------5-------|
     E|---------------------------------|---------------------------------|
 
      sten.     
Gtr.1E|---------------------------------|---------------------------------|
     H|---------------------------------|---------------------------------|
     G|---------------------------------|---------------------------------|
     D|---------------------------------|---------------------------------|
     A|-7---7-7-7---7-7-7---7-7-7---7-7-|-7---7-7-7---7-7-7--------------|
     E|---------------------------------|---------------------------------|
      |                                 |                                 |
Gtr.2E|---------------------------------|---------------------------------|
     H|---------------------------------|---------------------------------|
     G|---------------------------------|-----------------9---------------|
     D|---------------------------------|-----------------9---------------|
     A|---------------------------------|-----------------7---------------|
     E|---------------------------------|---------------------------------|
(1:09 - 1:26)
CHORUS:
                Gorel    asfal?t              ot  solntza  i  ot zvyozd 
Gtr. E|---------------------------------|--------------------------------|
     H|---------------------------------|--------------------------------|
     G|--------------9---7h9p7-----------|-------------9---7h9p7-----------|
     D|------7---10-----------9---------|-7---9---10-----------9---------|
     A|--0-----------------------8--10--|-------------------------10--7--|
     E|---------------------------------|--------------------------------|
      |                                 |                                |
Bass G|---------------------------------|--------------------------------|
     D|---------------------------------|--------------------------------|
     A|---------------------------------|--------------------------------|
     E|--5---5-----------3--------------|-1---1-----------3--------------|
 
               Gorel    asfal?t            pod   shum   kolyos
Gtr. E|---------------------------------|--------------------------------|
     H|---------------------------------|--------------------------------|
     G|--------------9---7h9p7-----------|-------------9---9------10------|
     D|------7---10-----------9---------|-7---9---10---------9-------9---|
     A|--0-----------------------8--10--|--------------------------------|
     E|---------------------------------|--------------------------------|
      |                                 |                                |
Bass G|---------------------------------|--------------------------------|
     D|---------------------------------|--------------------------------|
     A|---------------------------------|--------------------------------|
     E|--5---5-----------3--------------|-1---1-----------3--------------|
 
             Gorel    asfal?t               ty   chuvstvoval   teplo  
Gtr. E|---------------------------------|--------------------------------|
     H|---------------------------------|--------------------------------|
     G|--------------9---7h9p7-----------|-------------9---7h9p7-----------|
     D|------7---10-----------9---------|-7---9---10-----------9---------|
     A|--0-----------------------8--10--|-------------------------10--7--|
     E|---------------------------------|--------------------------------|
      |                                 |                                |
Bass G|---------------------------------|--------------------------------|
     D|----------2---------------0------|-------------------------0------|
     A|------3-------3-------2-------2--|-----0---3---0-------2-------2--|
     E|--5---------------3--------------|-1---------------3--------------|
 
             Gorel    asfal?t              snegam       nazlo - oooooooo
Gtr. E|---------------------------------|--------------------------------|
     H|---------------------------------|--------------------------------|
     G|--------------9---7h9p7-----------|-------------9---9------10------|
     D|------7---10-----------9---------|-7---9---10---------9-------9---|
     A|--0-----------------------8--10--|--------------------------------|
     E|---------------------------------|--------------------------------|
      |                                 |                                |
Bass G|---------------------------------|--------------------------------|
     D|----------2---------------0------|-------------------------0------|
     A|------3-------3-------2-------2--|-----0---3---0-------2-------2--|
     E|--5---------------3--------------|-1---------------3--------------|
 
        ooooooooooooooooooooo! 1.,2. -->                          <-----
Gtr. E|---------------------------------|-------------------------------|
Bass H|---------------------------------|-------------------------------|
     G|---------------------------------|-(A5)--------------------------|
     D|-7-------------------------------|-------------------------------|
     A|-7-------------------------------|-------------------------------|
     E|-5---5---5---5---5---5---5---5---|-5---5---5---5-5-5---5-5-5-5-5-|
(1:26 - 1:29) Repeat RIFF 4
(1:29 - 1:57) VERSE 2
(1:57 - 2:14) CHORUS
(2:14 - 2:27) Repeat RIFF 1 (*2 times)
(2:28 - 2:42)
RIFF 2A (play 2 times):
Gtr.E||---------------------------------|---------------------------------|
    H||---------------------------------|---------------------------------|
    G||---------------------------------|-----------------7-------8-------|
    D||-9-------10------9-------8-------|-9-------7-------7-------8-------|
    A||-----7-------7-------7-------7---|-----5-------5---5-------6-------|
    E||-----.-------.-------.-------.---|-----.-------.--->------->-------|
     ||                                 |                                 |
BassG||---------------------------------|---------------------------------|
    D||---------------------------------|---------------------------------|
    A||-7---7---------------------------|-5---5-----------5-------6-------|
    E||---------------------------------|---------------------------------|
 
Gtr.E|----------------------------------|---------------------------------||
    H|----------------------------------|---------------------------------||
    G|----------------------------------|-----------------5-------7-------||
    D|--9-------10------9-------8-------|-9-------7-------5-------7-------||
    A|------7-------7-------7-------7---|-----5-------3---3-------5-------||
    E|------.-------.-------.-------.---|-----.-------.--->------->-------||
     |                                  |                                 ||
BassG|----------------------------------|---------------------------------||
    D|----------------------------------|---------------------------------||
    A|--7---7---------------------------|-5---5-----------3-------5-------||
    E|----------------------------------|---------------------------------||
(2:42 - 2:51)
RIFF 3A:
Gtr.E|----------------------------------|---------------------------------|
    H|----------------------------------|---------------------------------|
    G|------------------2---------------|-----------------2---------------|
    D|--5-------4---------------5---4---|-5-------4---------------5-------|
    A|------2-------2-------2-----------|-----3-------3-------3-------3---|
    E|------.-------.-------.-----------|-----.-------.-------.-------.---|
Gtr.E|----------------------------------|---------------------------------|
    H|----------------------------------|---------------------------------|
    G|--2-------------------------------|---------------------------------|
    D|------------------4---------------|-2---------------1---------------|
    A|------2---2---2-------2---2---2---|-----2---2---2-------2---2---2---|
    E|------.---.---.-------.---.---.---|-----.---.---.-------.---.---.---|
Gtr.E|----------------------------------|---------------------------------|
    H|----------------------------------|---------------------------------|
    G|--2-------------------------------|---------------------------------|
    D|------------------4---------------|-1-----------5-------------------|
    A|------2---2---2-------2---2---2---|-----2---2---3-------------------|
    E|------.---.---.-------.---.---.---|-----.---.--->-------------------|
SOLO:
(2:52 - 3:18)
PART A: (Mavrin?s lead)
Lead E|---/17~~~~~~~~~~~~~~~~~~~~~~~~~~~~---------------|-17----15----14----------------------------------|
     H|-sl----------------------------------------------|-------------------17----16~~~~~~~~~-------------|
     G|-------------------------------------------------|-------------------------------------------------|
     D|-------------------------------------------------|-------------------------------------------------|
     A|-------------------------------------------------|-------------------------------------------------|
     E|-------------------------------------------------|-------------------------------------------------|
      |                                                 |                                                 |
Gtr.2E|-------------------------------------------------|-------------------------------------------------|
     H|-------------------------------------------------|-------------------------------------------------|
     G|-------------------------------------------------|-------------------------------------------------|
     D|-------------------------------------10----------|-------------------------------------7-----------|
     A|-------------------------------------10----------|-------------------------------------7-----------|
     E|-0-----0--0--0-----0--0--0-----0--0--8-----------|-0-----0--0--0-----0--0--0-----0--0--5-----------|
 
Lead E|---/17-19----20p19p17----------------------------|-------------------------------------------------|
     H|----------------------20p16h19p16-----13p12p10----|-------10h12h13p12p10h12h13~~~~~~~~~~~~~~~~~~----|
     G|---------------------------------- sl --------12-|-------------------------------------------------|
     D|-------------------------------------------------|-13----------------------------------------------|
     A|-------------------------------------------------|-------------------------------------------------|
     E|-------------------------------------------------|-------------------------------------------------|
      |                                                 |                                                 |
Gtr.2E|-------------------------------------------------|-------------------------------------------------|
     H|-------------------------------------------------|-------------------------------------------------|
     G|-------------------------------------------------|-------------------------------------------------|
     D|-------------------------------------9-----------|-------------------------------------9-----------|
     A|-------------------------------------9-----------|-------------------------------------9-----------|
     E|-0-----0--0--0-----0--0--0-----0--0--7-----------|-0-----0--0--0-----0--0--0-----0--0--7-----------|
 
Lead E|-------------------------------------------------|-------------------------------------------------|
     H|-------------------------------------------------|-------------------------------------------------|
     G|-------------------------------------------------|-------------------------------------------------|
     D|----7-9-10-10p7----------------------------------|-------------------------------------------------|
     A|--9------------9p7p6---7---9---6-----------------|-------------------------------------------------|
     E|-------------------------------------8-----8p7p5-|-7-----------------------------------------------|
      |                                                 |                                                 |
Gtr.2E|-------------------------------------------------|-------------------------------------------------|
     H|-------------------------------------------------|-------------------------------------------------|
     G|-------------------------------------------------|-------------------------------------------------|
     D|-------------------------------------10----------|-------------------------------------7-----------|
     A|-------------------------------------10----------|-------------------------------------7-----------|
     E|-0-----0--0--0-----0--0--0-----0--0--8-----------|-0-----0--0--0-----0--0--0-----0--0--5-----------|
 
Lead E|-14----15----17p14---14----17----20----19--20--17--|-20------20------20------20----------------------|
     H|------------------16-------------------------------|-----20------19------17------16~~~~~~~~~~~~~~----|
     G|-------------------------------------------------|-------------------------------------------------|
     D|-------------------------------------------------|-------------------------------------------------|
     A|-------------------------------------------------|-------------------------------------------------|
     E|-------------------------------------------------|-------------------------------------------------|
      |                                                 |                                                 |
Gtr.2E|-------------------------------------------------|-------------------------------------------------|
     H|-------------------------------------------------|-------------------------------------------------|
     G|-------------------------------------------------|-------------------------------------------------|
     D|-------------------------------------9-----------|-------------------------------------9-----------|
     A|-------------------------------------9-----------|-------------------------------------9-----------|
     E|-0-----0--0--0-----0--0--0-----0--0--7-----------|-0-----0--0--0-----0--0--0-----0--0--7-----------|
 
Lead E|-------------------------------------------------|-------------------------------------------------|
     H|-16p13-------------------------------------------|-------------------------------------------------|
     G|------13-----13p10-------11p8--------------------|-------------------------------------8-h9-p8-h9-p|
     D|--------1312-----------------10-----10p7--10----|----------------------------9h10p9---------------|
     A|-------------------13-12----------9--------------|-------6--9--9b10--6----/9-----------------------|
     E|-------------------------------------------------|-7--8--------------------------------------------|
      |                                                 |                                                 |
Gtr.2E|-------------------------------------------------|-------------------------------------------------|
     H|-------------------------------------------------|-------------------------------------------------|
     G|-------------------------------------------------|-------------------------------------------------|
     D|-------------------------------------10----------|-------------------------------------7-----------|
     A|-------------------------------------10----------|-------------------------------------7-----------|
     E|-0-----0--0--0-----0--0--0-----0--0--8-----------|-0-----0--0--0-----0--0--0-----0--0--5-----------|
 
Lead E|-------------------------------------------------|-/11h12------14b15~~~~~~~~~~~~~~~~~~~~~~~~~~~~~~-|
     H|------------------------/12-13p12p10-------------|-------------------------------------------------|
     G|-p8~~~~~~~~~~~~~~~~~-----------------8----------|-------------------------------------------------|
     D|-------------------------------------------------|-------------------------------------------------|
     A|-------------------------------------------------|-------------------------------------------------|
     E|-------------------------------------------------|-------------------------------------------------|
      |                                                 |                                                 |
Gtr.2E|-------------------------------------------------|-------------------------------------------------|
     H|-------------------------------------------------|-------------------------------------------------|
     G|-------------------------------------------------|-------------------------------------------------|
     D|-------------------------------------9-----------|-------------------------------------9-----------|
     A|-------------------------------------9-----------|-------------------------------------9-----------|
     E|-0-----0--0--0-----0--0--0-----0--0--7-----------|-0-----0--0--0-----0--0--0-----0--0--7-----------|
 
                                                                                                 T      T
Lead E|-------------------------------------------14-17-|-17p14---14----17----20~~~~~~~~~~~~~~~---20p14h17-20p|
     H|-------------------------------------13-16-------|-------16------------------------------------------|
     G|-----------------------------14--16--------------|-------------------------------------------------|
     D|---------------------13--16----------------------|-------------------------------------------------|
     A|-------12----14--15------------------------------|-------------------------------------------------|
     E|-14----------------------------------------------|-------------------------------------------------|
      |                                                 |                                                 |
Gtr.2E|-------------------------------------------------|-------------------------------------------------|
     H|-------------------------------------------------|-------------------------------------------------|
     G|-------------------------------------------------|-------------------------------------------------|
     D|-------------------------------------10----------|-------------------------------------7-----------|
     A|-------------------------------------10----------|-------------------------------------7-----------|
     E|-0-----0--0--0-----0--0--0-----0--0--8-----------|-0-----0--0--0-----0--0--0-----0--0--5-----------|
 
          T       T
Lead E|p17-20p17--------17p14p11h14p11h14-T------T---T--------------|--------------------------------- Holstinin?s ---|
     H|-----------------------16p13p10h13-16p13-16p10p7h10p7h10p7h10p7-|----------------------------------- lead -> -----|
     G|-------------------------------------------------|-8h9p8h9p8h9-------------------------------2h3h4-|
     D|-------------------------------------------------|-------------7h8p7h8p7h8-------------------------|
     A|-------------------------------------------------|-------------------------6-----------------------|
     E|-------------------------------------------------|-------------------------------------------------|
      |                                                 |                                                 |
Gtr.2E|-------------------------------------------------|-------------------------------------------------|
     H|-------------------------------------------------|-------------------------------------------------|
     G|-------------------------------------------------|-------------------------------------------------|
     D|-------------------------------------9-----------|-------------------------------------9-----------|
     A|-------------------------------------9-----------|-------------------------------------9-----------|
     E|-0-----0--0--0-----0--0--0-----0--0--7-----------|-0-----0--0--0-----0--0--0-----0--0--7-----------|
(3:19 - 3:57)
PART B: (Holstinin?s lead)
Lead E|-------------------------------------------------|-------------------------------------------------|
     H|-5-----0-----7-----0-----8-----0-----10-----7-bend8-release-7----\\-{ press tremolo bar }----|
     G|-------------------------------------------------|-------------------------------------------------|
     D|-------------------------------------------------|-------------------------------------------------|
     A|-------------------------------------------------|-------------------------------------------------|
     E|-------------------------------------------------|-------------------------------------------------|
      |                                                 |                                                 |
Gtr.1E|-------------------------------------------------|-------------------------------------------------|
  +  H|-------------------------------------------------|-------------------------------------------------|
bass G|-9-----------------------------------------------|-7-----------------------------------------------|
     D|-9-----------------------------------------------|-7-----------------------------------------------|
     A|-7-----7--7--7-----7--7--7-----7--7--7-----7--7--|-5-----5--5--5-----5--5--5-----5--5--5-----5--5--|
     E|-------------------------------------------------|-------------------------------------------------|
 
Lead E|--- N.H. ----------------------------------------|-7--8--7-----------------------------------------|
     H|-<7>---------//\  articulate  --------------|---------10--8--10--8--7-------------------------|
     G|---------------------- w/tremolo bar ------------|-------------------------9--7--------------------|
     D|-------------------------------------------------|------------------------------10--9--7-----------|
     A|-------------------------------------------------|---------------------------------------10--9--10-|
     E|-------------------------------------------------|-------------------------------------------------|
      |                                                 |                                                 |
Gtr.1E|-------------------------------------------------|-------------------------------------------------|
 +   H|-------------------------------------------------|-------------------------------------------------|
bass G|-5-----------------------------------------------|-7-----------------------------------------------|
     D|-5-----------------------------------------------|-7-----------------------------------------------|
     A|-3-----3--3--3-----3--3--3-----3--3--3-----3--3--|-5-----5--5--5-----5--5--5-----5--5--5-----5--5--|
     E|-------------------------------------------------|-------------------------------------------------|
 
Lead E|-------------------------------------------------|-------------------------------------------------|
     H|-------------------------------------------------|-------------------------------------------------|
     G|-------------------------------------------------|-------------7-----------------------------------|
     D|---------------------------------------------7---|------------------10-----9-----7-----------------|
     A|-7-----------------------------------7---10------|-------------------------------------10----9-----|
     E|-------------------------------------------------|-10----8-----------------------------------------|
      |                                                 |                                                 |
Gtr.1E|-------------------------------------------------|-------------------------------------------------|
  +  H|-------------------------------------------------|-------------------------------------------------|
bass G|-9-----------------------------------------------|-7-----------------------------------------------|
     D|-9-----------------------------------------------|-7-----------------------------------------------|
     A|-7-----7--7--7-----7--7--7-----7--7--7-----7--7--|-5-----5--5--5-----5--5--5-----5--5--5-----5--5--|
     E|-------------------------------------------------|-------------------------------------------------|
 
Lead E|-------------------------------------------------|-------------------------------------------------|
     H|-------------------------------------------------|-------------------------------------------------|
     G|-------------------------------------------------|-------------------------------------------------|
     D|------------10-----9-----7-----------------------|-------- T --- T --- T ----- T ------9~~~~-------|
     A|------------------------------10-----9-----7-----|-6---9p6-14p9p6-14p9p6-12p6h9--12p9p6---------------|
     E|-8-----7-----------------------------------------|-------------------------------------------------|
      |                                                 |                                                 |
Gtr.1E|-------------------------------------------------|-------------------------------------------------|
 +   H|-------------------------------------------------|-------------------------------------------------|
bass G|-5-----------------------------------------------|-4-----------------------------------------------|
     D|-5-----------------------------------------------|-4-----------------------------------------------|
     A|-3-----3--3--3-----3--3--3-----3--3--3-----3--3--|-2-----2--2--2-----2--2--2-----2--2--2-----------|
     E|-------------------------------------------------|-------------------------------------------------|
 
Lead E|-------------------------------------------------|-------------------------------------------------|
     H|-8--7--------8--7--------8--7--------8--7--------|-10--7-------10--7-------10--7-------10--7-------|
     G|-------9--7--------9--7--------9--7--------9--7--|--------9--7--------9--7--------9--7--------9--7-|
     D|-------------------------------------------------|-------------------------------------------------|
     A|-------------------------------------------------|-------------------------------------------------|
     E|-------------------------------------------------|-------------------------------------------------|
      |                                                 |                                                 |
Gtr.1E|-------------------------------------------------|-------------------------------------------------|
  +  H|-------------------------------------------------|-------------------------------------------------|
bass G|-9-----------------------------------------------|-7-----------------------------------------------|
     D|-9-----------------------------------------------|-7-----------------------------------------------|
     A|-7-----7--7--7-----7--7--7-----7--7--7-----7--7--|-5-----5--5--5-----5--5--5-----5--5--5-----5--5--|
     E|-------------------------------------------------|-------------------------------------------------|
 
Lead E|-7-----------7-----------7-----------------------|-------------------------------------------------|
     H|-------7--8-----8--7-------10--8-----------------|----------------------10-12h13p10h13----13-------|
     G|----9-----------------9----------11--9-----------|--------------9-11-12----------------12----11/12-|
     D|---------------------------------------12--10--9-|-----9-10-12-------------------------------------|
     A|-------------------------------------------------|-12----------------------------------------------|
     E|-------------------------------------------------|-------------------------------------------------|
      |                                                 |                                                 |
Gtr.1E|-------------------------------------------------|-------------------------------------------------|
 +   H|-------------------------------------------------|-------------------------------------------------|
bass G|-5-----------------------------------------------|-7-----------------------------------------------|
     D|-5-----------------------------------------------|-7-----------------------------------------------|
     A|-3-----3--3--3-----3--3--3-----3--3--3-----3--3--|-5-----5--5--5-----5--5--5-----5--5--5-----5--5--|
     E|-------------------------------------------------|-------------------------------------------------|
 
Lead E|-------15p12----15p12----15p12-15-14-------12----|-------17p14----17p14----17p14-17-15-------14----|
     H|-12----------12-------12-------------------------|-15----------15-------15-------------------------|
     G|-------------------------------------------------|-------------------------------------------------|
     D|-------------------------------------------------|-------------------------------------------------|
     A|-------------------------------------------------|-------------------------------------------------|
     E|-------------------------------------------------|-------------------------------------------------|
      |                                                 |                                                 |
Gtr.1E|-------------------------------------------------|-------------------------------------------------|
  +  H|-------------------------------------------------|-------------------------------------------------|
bass G|-9-----------------------------------------------|-7-----------------------------------------------|
     D|-9-----------------------------------------------|-7-----------------------------------------------|
     A|-7-----7--7--7-----7--7--7-----7--7--7-----7--7--|-5-----5--5--5-----5--5--5-----5--5--5-----5--5--|
     E|-------------------------------------------------|-------------------------------------------------|
 
Lead E|-------19p15----20p15----19p15-19-17-------15----|-14----------15----------17----------20----------|
     H|-17----------17-------17-------------------------|-------------------------------------------------|
     G|-------------------------------------------------|-------------------------------------------------|
     D|-------------------------------------------------|-------------------------------------------------|
     A|-------------------------------------------------|-------------------------------------------------|
     E|-------------------------------------------------|-------------------------------------------------|
      |                                                 |                                                 |
Gtr.1E|-------------------------------------------------|-------------------------------------------------|
 +   H|-------------------------------------------------|-------------------------------------------------|
bass G|-5-----------------------------------------------|-4-----------------------------------------------|
     D|-5-----------------------------------------------|-4-----------------------------------------------|
     A|-3-----3--3--3-----3--3--3-----3--3--3-----3--3--|-2-----------------------------------------------|
     E|-------------------------------------------------|-------------------------------------------------|
 
Gtr.2E|-19----20----17----20----------20----------20----|-------------------------------------------------|
     H|-------------------------20----------19----------|-16----------------------------------------------|
     G|-------------------------------------------------|-------------------------------------------------|
     D|-------------------------------------------------|-------------------------------------------------|
     A|-------------------------------------------------|-------------------------------------------------|
     E|-------------------------------------------------|-------------------------------------------------|
      |                                                 |                                                 |
Gtr.1E|-------------------------------------------------|-19----20----17----20----------20----------20----|
     H|-------------------------------------------------|-------------------------20----------19----------|
     G|-------------------------------------------------|-------------------------------------------------|
     D|-------------------------------------------------|-------------------------------------------------|
     A|-------------------------------------------------|-------------------------------------------------|
     E|-------------------------------------------------|-------------------------------------------------|
 
Gtr.2E|-------------------------------------------------|-------------------------------------------------|
     H|-12----13----10----13----------13----------13----|-------------------------------------------------|
     G|-------------------------12----------11----------|-8-----------------------------------------------|
     D|-------------------------------------------------|-------------------------------------------------|
     A|-------------------------------------------------|-------------------------------------------------|
     E|-------------------------------------------------|-------------------------------------------------|
      |                                                 |                                                 |
Gtr.1E|-------------------------------------------------|-------------------------------------------------|
     H|-16----------------------------------------------|-12----13----10----13----------13----------13----|
     G|-------------------------------------------------|-------------------------12----------11----------|
     D|-------------------------------------------------|-------------------------------------------------|
     A|-------------------------------------------------|-------------------------------------------------|
     E|-------------------------------------------------|-------------------------------------------------|
 
Gtr.2E|--------- 3/4 measure ---------------|--------- 3/4 measure ---------------|
     H|-10----------------------------------|-------------------------------------|
     G|-----11---8---11---8------8----------|-------------------------------------|
     D|----------------------10-----10--7---|-10--7-------7-----------------------|
     A|-------------------------------------|---------9-------9---6---9---6-------|
     E|-------------------------------------|---------------------------------8---|
      |                                     |                                     |
Bass G|----R--------------------------------|----R--------------------------------|
     D|----E--------------------------------|----E--------------------------------|
     A|-6--S--------------------------------|-3--S--------------------------------|
     E|----T--------------------------------|----T--------------------------------|
 
Gtr.1E|-------------------------------------------------|-------------------------------------------------|
Gtr.2H|-------------------------------------------------|-------------------------------------------------|
  +  G|-------------------------------------------------|-------------------------------------------------|
bass D|-------------------------------------------------|-------------------------------------------------|
     A|-------------------------------------------------|-------------------------------------------------|
     E|--5----------------------3-----------------------|-2-----------------------3-----------------------|
(3:57 - 4:00) Repeat RIFF 4
(4:00 - 4:27) VERSE 3
(4:27 - 4:41) CHORUS, without the last line
(4:41 - 4:54) CHORUS one more time; instead of the last line here goes:
(4:54 - 5:09)
OUTRO:
   3. -----------------------------------------------------> 
E|--ritenuto--------------------|-----------------------------|
H|------------------------------|-----------------------------|
G|---9-----10------9-----10-----|--9-----10-------------------|
D|------9------9------9------9--|-----9------9---7------------|
A|------------------------------|----------------7------------|
E|------------------------------|----------------5------------|
Вверх

Горящая стрела

Em
Стрелой горящей поезд режет темноту,
                       D C D
Послушный неизвестным силам.
Em
И стук колес здесь заменяет сердца стук,
                        D C D
И кровь от скорости застыла.
H                       C
Движенье стало смыслом жизни,
A                          H C D
Что дальше будет - все равно!

   Em         C      D           Em
   Дрожит земля, дрожит горячий воздух,
   Em        C     D              Em
   Стрела летит туда, где рухнул мост.
   Em         C      D         Em
   Не жди других, пока еще не поздно
   Em        C     D           A  Am
   Разбей окно и прыгай под откос.

В руках билет, чтоб мог ты с поезда сойти,
И не играть в игру чужую.
Но нет того, кому ты можешь предъявить
Свой тайный пропуск в жизнь другую.
Весь этот мир в тебя вонзился
Летящей огненной стрелой.

   Дрожит земля, дрожит горячий воздух,
   Стрела летит туда, где рухнул мост.
   Не жди других, пока еще не поздно
   Разбей окно и прыгай под откос.
Вверх

Горящая стрела (2 вариант)

INTRO:

Гит.1E|---------------------------------------------------|
Гит.2H|---------------------------------------------------|
     G|---------------------------------------------------|
     D|-------------Барабанное вступление ------------2---|
     A|-----------------------------------------------2---|
     E|-----------------------------------------------0---|

(0:01 - 0:20)

РИФФ 1: 
Гит.1E||--------------------------------------------------|--------------------------------------------------|
Гит.2H||--------------------------------------------------|--------------------------------------------------|
     G||-----------2--4--2-----------2-----4~~~~~---------|--------------------------------------------------|
     D||(2)-----5--4--5--4--4--5-----4-----5~~~~~------2--|-(2)----2--4--5--4-----2-----4-----5~~~~~~--------|
     A||(2)-----7-----------5--7-----------------------3--|-(3)----3--5--7--5--5--3-----5-----7~~~~~~-----3--|
     E||(0)--0--------------------------------------------|-----3--------------7--------------------------5--|

Гит.1E|---------------------------------------------------|--------------------------------------------------|
Гит.2H|---------------------------------------------------|--------------------------------------------------|
     G|---------------------------------------------------|--------------------------------------------------|
     D|------------0--2--0-----------0-----2-----------4--|-(4)----------------------4--3--------3--2-----2--|
     A|-(3)-----3--2--3--2--2--3-----2-----3~~~~~------2--|-(2)----------------------2--1--------1--0-----2--|
     E|-(5)--5--5-----------3--5--------------------------|-----------------------------------------------0--|

(0:21 - 0:25)

РИФФ 2:
Гит. E|---------------------------------------------------|--------------------------------------------------|
     H|---------------------------------------------------|--------------------------------------------------|
     G|---------------------------------------------------|--------------------------------------------------|
     D|-(2)--------------------2-----------------------2--|(2)--------------------2-----------------------2--|
     A|-(2)--------------------2-----------------------2--|(2)--------------------2-----------------------2--|
     E|-(0)--0--3-p0--2-p0-----0-----0--5-p0--6-p0-----0--|(0)--0--3-p0--2-p0-----0-----0--5-p0--6-p0-----0--|

(0:25 - 0:45)

1 КУПЛЕТ:
ВокалE|------------------------------------------------------------------------------------------------------|
     H|------------------------------------------------------------------------------------------------------|
     G|------------------------2-----------------------------------------------------------------------------|
     D|---------2-----4-----5-----------5-----4---5-----4----------2-----2--2-----2--------------------------|
     A|------------------------------------------------------------------------------------------------------|
     E|---   Стре -  лой    горя  -    щей   по - езд  ре   -     жет   темно  -  ту,        ----------------|

Гит. E|---------------------------------------------------|--------------------------------------------------|
     H|---------------------------------------------------|--------------------------------------------------|
     G|---------------------------------------------------|--------------------------------------------------|
     D|-(2)--------------------2-----------------------2--|(2)--------------------2-----------------------2--|
     A|-(2)--------------------2-----------------------2--|(2)--------------------2-----------------------2--|
     E|-(0)--0--3-p0--2-p0-----0-----0--5-p0--6-p0-----0--|(0)--0--3-p0--2-p0-----0-----0--5-p0--6-p0-----0--|


ВокалE|------------------------------------------------------------------------------------------------------|
     H|------------------------------------------------------------------------------------------------------|
     G|------------------------2-----------------------------------------------------------------------------|
     D|---------2-----4---5------------5-----4---5-----4--------------2--------------------------------------|
     A|------------------------------------------------------------------------------------------------------|
     E|---     Пос - лушный   не   -   из - вестным   си      -      лам         ----------------------------|
     
Гит. E|---------------------------------------------------|--------------------------------------------------|
     H|---------------------------------------------------|--------------------------------------------------|
     G|---------------------------------------------------|--------------------------------------------------|
     D|-(2)--------------------2-----------------------4--|-(4)-------2-----------------------------------2--|
     A|-(2)--------------------2-----------------------4--|-(4)-------2-----------------2--0-----------2--2--|
     E|-(0)--0--3-p0--2-p0-----0-----0--5-p0--6-p0-----2--|-(2)-------0-----------------------3--2--3-----0--|
 
                И   стук ко - лёс    здесь  за - ме -  ня    -    ет  сердца  стук  
Гит. E|---------------------------------------------------|--------------------------------------------------|
     H|---------------------------------------------------|--------------------------------------------------|
     G|---------------------------------------------------|--------------------------------------------------|
     D|-(2)--------------------2-----------------------2--|(2)--------------------2-----------------------2--|
     A|-(2)--------------------2-----------------------2--|(2)--------------------2-----------------------2--|
     E|-(0)--0--3-p0--2-p0-----0-----0--5-p0--6-p0-----0--|(0)--0--3-p0--2-p0-----0-----0--5-p0--6-p0-----0--|
 
                И   кровь от ско   -   рос - ти  за -  сты     -      ла.
Гит. E|---------------------------------------------------|--------------------------------------------------|
     H|---------------------------------------------------|--------------------------------------------------|
     G|---------------------------------------------------|--------------------------------------------------|
     D|-(2)--------------------2-----------------------4--|-(4)-------2--------------------------2--4--5--4--|
     A|-(2)--------------------2-----------------------4--|-(4)-------2--------------0-h2--3--5-----------2--|
     E|-(0)--0--3-p0--2-p0-----0-----0--5-p0--6-p0-----2--|-(2)-------0--------------------------------------|

(0:45 - 0:55)

ПРЕ-ПРИПЕВ:

ВокалE|------------------------------------------------------------------------------------------------------|
     H|------------------------------------------------------------------------------------------------------|
     G|----------2----2---2----2-----------------------------------------------------------------------------|
     D|---------------------------------5-----4---5----4--------------------------2--------------------------|
     A|------------------------------------------------------------------------------------------------------|
     E|---     Дви -  женье  ста   -   ло    смыслом   жиииииииииизни      -      ни,     -------------------|
      
Гит. E|---------------------------------------------------|--------------------------------------------------|
     H|---------------------------------------------------|--------------------------------------------------|
     G|---------------------------------------------------|--------------------------------------------------|
     D|-(4)--------------------------------------------5--|-(5)-------------------------------------------2--|
     A|-(2)--------------------------------------------3--|-(3)-------------------------------------------0--|
     E|---------------------------------------------------|--------------------------------------------------|
 
ВокалE|------------------------------------------------------------------------------------------------------|
     H|------------------------------------------------------------------------------------------------------|
     G|----------2----2----2---2-----------------------------------------------------------------------------|
     D|---------------------------------5------4--5-----4----------------------------------------------------|
     A|------------------------------------------------------------------------------------------------------|
     E|---      Что   дальше  бу   -   дет   всё рав - но!     ----------------------------------------------|
      |                                                   |                                                  |
Гит. E|---------------------------------------------------|--------------------------------------------------|
     H|---------------------------------------------------|--------------------------------------------------|
     G|---------------------------------------------------|--------------------------------------------------|
     D|-(2)--------------------------------------------4--|-(4)-------------------------------------------9--|
     A|-(0)--------------------------------------------2--|-(2)----------------------2-/3--3--3--3-/5--5--7--|
     E|---------------------------------------------------|--------------------------------------------------|

(0:55 - 1:20)

ПРИПЕВ:
ВокалE|------------------------------------------------------------------------------------------------------|
     H|------------------------------------------------------------------------------------------------------|
     G|------------------------------------------------------------------------------------------------------|
     D|-------------5-----------4----------------------------------------------------------------------------|
     A|-------------------------------------5----------3--------------------5-----5--------5-----5--0----2---|
     E|---        Дро    -     жит         зем   -    ля,                 дро -  жит      го -   рячий  воз- |

Гит. E|---------------------------------------------------|--------------------------------------------------|
     H|---------------------------------------------------|--------------------------------------------------|
     G|---------------------------------------------------|--------------5-----------------------7-----------|
     D|-(9)--------5-----------4----------------------5--|-(5)----2-/5-----------7--------4-/7-----------9--|
     A|-(7)---------------------------------5----------3--|-(3)-3-----------------5-----5-----------------7--|
     E|---------------------------------------------------|--------------------------------------------------|
 
ВокалE|------------------------------------------------------------------------------------------------------|
     H|------------------------------------------------------------------------------------------------------|
     G|------------------------------------------------------------------------------------------------------|
     D|-------------5-----------4-------------------------------------------------------------------2-----2--|
     A|-----2-------------------------------5----------3--------------------5-----5--------5-----5-----------|
     E|  - дух,   Стре     -   ла          ле    -    тит                   ту - да,     где    рухнул   мост|

Гит. E|---------------------------------------------------|--------------------------------------------------|
     H|---------------------------------------------------|--------------------------------------------------|
     G|---------------------------------------------------|--------------5-----------------------7-----------|
     D|-(9)--------5-----------4----------------------5--|-(5)----2-/5-----------7--------4-/7-----9-----9--|
     A|-(7)---------------------------------5----------3--|-(3)-3-----------------5-----5-----------7-----7--|
     E|---------------------------------------------------|--------------------------------------------------|

(1:20 - 1:25) Повторяется РИФФ 2
(1:25 - 1:44) 2 КУПЛЕТ
(1:45 - 1:54) ПРЕ-ПРИПЕВ
(1:55 - 2:19) ПРИПЕВ

(2:19 - 2:29)
РИФФ 3:
ГИТ. E||-------------------------------------------------|-------------------------------------------------|
     H||-------------------------------------------------|-------------------------------------------------|
     G||-------------------------------------------------|-------------------------------------------------|
     D||-------------------------------------------------|-------------------------------------------------|
     A||-------------------------------------------2-----|-------------------------------------------2-----|
     E||-3--2--0--3--2--0--3--2--0--3--2--0--3--2--0-----|-3--2--0--3--2--0--3--2--0--3--2--0--3--2--0-----|

(2:29 - 3:08)

СОЛО: (Кое где не смог подобрать:-(
        F#5                                                D5                      E5
Гит. E|--------------------------------------------------|-------------------------------------------------|
     H|----------------------10--7--10--7----------------|-------------------------------------------------|
     G|-9bend11-----------9---------------9--6--9--------|-------------6-----------------------------------|
     D|--------------------------------------------7bend9|-----------------7--4--7--6----------------------|
     A|--------------------------------------------------|----------------------------7--4-----------------|
     E|--------------------------------------------------|-------------------------------------------------|
        F#5                                                D5                      H5
Гит. E|--------------------------------------------------|---------------------------------------12----10--|
     H|--------------------------------------------------|-------------9----9b10rel9-----------------------|
     G|--------------------------------------------------|-7-----9-----------------------------------------|
     D|--4---4-7p4---4-7p4-...-------------------------9-|-------------------------------------------------|
     A|----7-------7-------------------------------------|-------------------------------------------------|
     E|--------------------------------------------------|-------------------------------------------------|
        F#5                                                D5                      E5
Гит. E|-9-12p9-12p9-12p9-12p9-...------------------------|-------------------------------------------------|
     H|--------------------------------------------------|-------------------------------------------------|
     G|--------------------------------------------------|-------------------------------------------------|
     D|--------------------------------------------------|-------------------------------------------------|
     A|--------------------------------------------------|-------------------------------------------------|
     E|--------------------------------------------------|-------------------------------------------------|
        F#5                                                D5                      H5
Гит. E|--21----------------19----------------17----------|-------------------------------------------------|
     H|-----------19----------------17-------------14----|--...--------------------------------------------|
     G|--------------------------------------------------|-------------------------------------------------|
     D|--------------------------------------------------|-------------------------------------------------|
     A|--------------------------------------------------|-------------------------------------------------|
     E|--------------------------------------------------|-------------------------------------------------|
 
Гит. E|--------------------------------------------------|-------------------------------------------------|
     H|--------------------------------------------------|---------------------------7------7b8r7b8r7~~~~--|
     G|--7bend9~~~~----------7b9release7bend9~~~~~~------|---5--5--7--7-----9--9---------------------------|
     D|--------------------------------------------------|-------------------------------------------------|
     A|--------------------------------------------------|-------------------------------------------------|
     E|--------------------------------------------------|-------------------------------------------------|
     
Гит.2E|--------------------------------------------------|-------------------------------------------------|
     H|--------------------------------------------------|-------------------------------------------------|
     G|--------------------------------------------------|-------------------------------------------------|
     D|-(9)----7-----9--------5--------4-----5--------5--|-(5)------------------7-----------------------9--|
     A|-(7)----5-----7--------7--------5-----7--------3--|-(3)------------------5-----------------------7--|
     E|--------------------------------------------------|-------------------------------------------------|
 
Гит. E|--------------------------------------------------|-------------------------------------------------|
     H|----7b8r7-p5----------------7b8r7-p5-----------5--|-(5)~~~~--------5--7--8~~~~----7~~~~~~-----------|
     G|--------------7--4--------------------7--4-----5--|-(5)~~~~-----------------------------------------|
     D|--------------------5-----------------------5-----|-------------------------------------------------|
     A|-----------------------7--------------------------|-------------------------------------------------|
     E|--------------------------------------------------|-------------------------------------------------|
     
Гит.2E|--------------------------------------------------|-------------------------------------------------|
     H|--------------------------------------------------|-------------------------------------------------|
     G|--------------------------------------------------|-------------------------------------------------|
     D|-(9)----7-----9--------5--------4-----5--------5--|-(5)------------------------------------------9--|
     A|-(7)----5-----7--------7--------5-----7--------3--|-(3)------------------7-----------------------7--|
     E|--------------------------------------------------|----------------------5--------------------------|
 
Гит. E|-----------------------------------------------------------------|----------------------------------|
     H|--8p5---5-8p5---5-8p5---5-8p5---5-8p5---5-8p5---5-8p5---5-8p5----|-10p8---10p8---...----------------|
     G|------7-------7-------7-------7-------7-------7-------7----------|------9------9--------------------|
     D|-----------------------------------------------------------------|----------------------------------|
     A|-----------------------------------------------------------------|----------------------------------|
     E|-----------------------------------------------------------------|----------------------------------|
      
Гит.2E|--------------------------------------------------|-------------------------------------------------|
     H|--------------------------------------------------|-------------------------------------------------|
     G|--------------------------------------------------|-------------------------------------------------|
     D|-(9)----7-----9--------5--------4-----5--------5--|-(5)------------------7-----------------------5--|
     A|-(7)----5-----7--------7--------5-----7--------3--|-(3)------------------5-----------------------3--|
     E|--------------------------------------------------|-------------------------------------------------|
...
Затем:
(3:09 - 3:18) ПРЕ-ПРИПЕВ
(3:19 - 3:43) ПРИПЕВ 2 (Здесь сдвиг на пол-тона между этим и предыдущим припевом)
(3:43 - 4:03) Повторяется РИФФ 1

(4:03 - 4:09)
OUTRO:
Гит. E|---------------------------------------------------|-------------------------------------------------|
     H|---------------------------------------------------|-------------------------------------------------|
     G|---------------------------------------------------|-------------------------------------------------|
     D|--4--3--------3--2-----------4--3--------3--2------|-------------------------------------------------|
     A|--2--1--------1--0-----------2--1--------1--0------|-------------------------------------------2-----|
     E|---------------------------------------------------|-3--2--0--3--2--0--3--2--0--3--2--0--3--2--0-----|
Вверх

Грязь

 Am
За дверь я выгнан в ночь,
 F
Но выйти вон и сам не прочь.
 Dm
Ты без меня хоть застрелись,
           Bdim
Все решат, что это твой каприз,
  E7
Повтори его на "бис".

  Am
Да, я уйду, и мне плевать,
 F
Ты знаешь, где меня искать,
 Dm
В квартале красных фонарей
 Bdim
Я смогу тебя забыть быстрей -
 E7
Это дело двух ночей.

Припев:
   F6        А6                   Am
   Но хватит врать и все время хитрить,
   F6           Ab                 E   F7
   Здесь все за деньги несложно купить.

 E   Am   Dm/А   Bm7/А  Am
   Какая грязь, какая власть,
            Dm/А        Ddim  Am
   И как приятно в эту грязь упасть,
               Dm/А       G/D   Am
   Послать к чертям манеры и контроль,
      F6                    F7             F
   Сорвать все маски и быть просто собой...
                     E
...И не стоять за ценой.

Вокруг - живой товар,
В сердцах - мороз, в глазах - пожар,
Я выбрал ту, что выше всех,
Мой маневр имел большой успех

В доме сладостных утех.

Она молчит, она не пьет,
Не теребит, не пристает
Она послушна и умна,
Все умеет, что уметь должна,
Счет оплачен мой сполна.
Вверх

Грязь (2 вариант)

intro
   Am                          F                      Dm       E        Am
e|-------------------------------------------------------------------------|
h|-------------------------------------------------------------------------|
g|--------------------------------------3-4-5------10-7---7-10-9---9-10----|
d|-7---------------------------3--3-5-6-------10~--10-7-7---10-9-9---10----|
a|-7--------7-----7--7-7--7-7--3--------------8-~--8--5-----8--7-----8--7~-|
e|-5--5-7-8---8-7-5--5-5--5-5--1----------------------------------------5~-|

   C    D
e|----------|
h|----------|
g|----------| - этот рифф 2 раза
d|-5-5--7-7-|
a|-3-3--5-5-|
e|----------|

   Am
e|----------------------------------------------------------|
h|----------------------------------------------------------|
g|----------------------------------------------------------|
d|----------------------------------------------------------|
a|-7~------долго-звучит-------------------------------------|
e|-5~------потом-какая-то фишка-----------------------------|

 I куплет (привожу так,как я играю на акустике,внатуре конечно по-другому,
 там басовые партии валят и барабаны што дурные :))
 -значит несколько раз то же

  Am                         F
e|---|---------------------|---|----------------------------|
h|---|---------------------|---|----------------------------|
g|---|---------------------|---|----------------------------|
d|---|-------------------|---|--------------------------|
a|-7-|---------------------|-3-|----------------------------|
e|-5-|---------------------|-1-|----------------------------|
    За дверь я выгнан в ночь, но выйти вон и сам не прочь,

   Dm                                 Hdim
e|---|-------------------------|----------------------------|
h|---|-------------------------|----------------------------|
g|---|-------------------------|----------------------------|
d|-7-|-----------------------|----------------------------|
a|-5-|-------------------------|-5--7-8----7-5--------------|
e|---|-------------------------|---------------8---7---5--4-|
   Ты без меня хоть застрелись,все решат,что это твой каприз,

    E7
e|--------------------|
h|--------------------|
g|--------------------|
d|--------------------|
a|--5-----------------|
e|-----8-7-5-4--1--0--|
   Повтори его на бис!


Am
Дa, я уйду, и мне плевaть,
F
Ты знaешь, где меня искaть,
Dm
В квaртaле крaсных фонaрей
Bdim
Я смогу тебя зaбыть быстрей -
E7
Это дело двух ночей.

Припев:

   F             Ab                  Am
e|--------------------------------------------------------------------|
h|--------------------------------------------------------------------|
g|--------------------------------------------------------------------|
d|--------------------------------------------------------------------|
a|-3--3---3-3----6---6---6---6-6--6--7--0-2-0-3-0-4-0-5-0-4-0-3-2/3/2-|
e|-1--1---1-1----4---4---4---4-4--4--5--------------------------------|
     Hо хвaтит врaть и все время хитрить,

   F             Ab                 E       F       E    F7
e|--------------------------------------------------------------------|
h|--------------------------------------------------------------------|
g|--------------------------------------------------------------------|
d|--------------------------------------------------------------------|
a|-3--3-----3--3--6---6--6--6--6--6-2--2--2-3-3-3-3-2--2-3-3-3--------|
e|-1--1-----1--1--4---4--4--4--4--4-0--0--0-1-1-1-1-0--0-1-1-1--------|
    Здесь все зa деньги несложно купить.

   E Am    Dm       G    Am
e|---------------------------------------|
h|---------------------------------------|
g|---------------------------------------|
d|---------7--7-7-7----------------------|
a|-2-7-7---5--5-5-5-5-5--7--7-7----------|
e|-0-5-5------------3-3--5--5-5----------|
  Kaкa-я грязь,  кaкa-я влaсть,

   E  Am     Dm       Em        Am
e|---------------------------------------|
h|---------------------------------------|
g|---------------------------------------|
d|-----------7--7---7-7---9---9----------|
a|-2--7----7-5--5---5-5---7---7-7--7-7---|
e|-0--5----5--------------------5--5-5---|
   И кaк при-ятно в эту грязь упaсть,

   E  Am        Dm        G      Am
e|---------------------------------------|
h|---------------------------------------|
g|---------------------------------------|
d|--------------7---7-7-7----------------|
a|-2--7------7--5---5-5-5-5--5---7--7-7--|
e|-0--5------5------------3--3---5--5-5--|
  Послaть к чертям мaнеры и контроль,

   Am Dm                 F                    E        F      E    F7
e|-----------------------------------------------------------------------|
h|-----------------------------------------------------------------------|
g|-----------------------------------------------------------------------|
d|----7-----7--7--7--7-9-10-10-10----10-10-10----------------------------|
a|-7--5-----5--5--5--5-7-8--8--8-----8--8--8--2--2--2-3-3-3-3-2--2-3-3-3-|
e|-5------------------------------------------0--0--0-1-1-1-1-0--0-1-1-1-|
  Сорвaть все мaски         и быть просто со-бой...


                     II
Вокруг - живой товaр,
В сердцaх - мороз, в глaзaх - пожaр,
Я выбрaл ту, что выше всех,
Мой мaневр имел большой успех
В доме слaдостных утех.
Онa молчит, онa не пьет,
Hе теребит, не пристaет
Онa послушнa и умнa,
Все умеет, что уметь должнa,
Счет оплaчен мой сполнa.
             Припев
Вверх

Дай жару!

 D
Что за скорбные лица?
 C
Слезы льются ручьем, и дождь в придачу.
 G
Ты разводишь руками,
         D А
Дело труба.
 D
Можно запросто спиться,
 C
Нас хоронят живьем, и счет оплачен.
 G
Все прощаются с нами,
          D  А
Траурный бал.
 D                   G
Больше молчать не в мочь.
 D                   G
Юмор - черней, чем ночь.
 D              G
Сможет одно помочь
      А
Наш удар!

 D
Дай жару!
Чтобы знали,
 C
Дай жару!
              Bb
Чтобы знали, как делать дело.
 C
Пока не заржавело,
 D         C А
Дай жару!


Где мужчины "в металле"?
Где характер орла, и поступь тигра?
Измельчала порода,
Пляшут враги.
Мы из праха восстанем,
Мы не станем играть в чужие игры,
Быть уродами моды,
Нам не с руки.
Прочь, гробовщик, с пути.
К черту венки и цветы.
Лечит от глухоты Наш удар!
Вверх

Дай жару! (2 вариант)

E
Что за скорбные лица?
D
Слезы льются ручьем, и дождь в придачу
А
Ты разводишь руками
         E
Дело труба
Можно запросто спиться
Нас хоронят живьем, и счет оплачен
Все прощаются с нами
Траурный бал

Cm#        Н         А
Больше молчать не в мочь
Н Cm#        Н         А
  Юмор - черней, чем ночь
Н Cm#     Н      А

  Сможет одно помочь
А     Н
Наш удар!

D
Дай жару!
Чтобы знали
Cm#
Дай жару!
             G
Чтобы знали, как делать дело
D
Пока не заржавело
E
Дай жару!

Где мужчины в "металле"?
Где характер орла, и поступь тигра?
Измельчала порода
Пляшут враги
Мы из праха восстанем
Мы не станем играть в чужие игры
Быть уродами моды
Нам не с руки

Прочь, гробовщик, с пути
К черту венки и цветы
Лечит от глухоты
Наш удар!
Вверх

Дай руку мне mp3

 Dm  C B   Dm B A Gm F A
Дай руку мне.
  Dm   C  B   Dm B A Gm F A
Здесь лишних нет.
 B                              Dm
Ветру ты кажешься не больше песчинки.
 B                           A
Ветер легко собьет с дороги, если в скитаньях ты одинок.

Дай руку мне.
Здесь лишних нет.
Время меняет тишину на цунами.
Если ты будешь с нами рядом, силе твердынь не сбить тебя с ног

    Dm                      C
   Сила твоя, в том, что ты есть.
    A
   Сила твоя, в том, что мы здесь.
   Сила твоя, в том, что ты есть.
   Сила твоя, в том, что мы здесь.

Дай руку мне.
Здесь лишних нет.
Вместе мы инструмент земного оркестра.
Тот, кто сегодня понял это, чувствует силу каждой струны.

   Сила твоя, в том, что ты есть.
   Сила твоя, в том, что мы здесь.
   Сила твоя, в том, что ты есть.
   Сила твоя, в том, что мы здесь.
Вверх

Дай руку мне (2 вариант) mp3

Tемп: модуляция (127 bpm)
РИФФ 1 (w/heavy distortion)
     E|----------------------------------|---------------------------------|
     H|----------------------------------|-6---5---------------------------|
     G|--7-------5---7-------------------|---------7---5-------------------|
     D|--7-------5---7-------------------|---------------------------------|
     A|--5-----------5-------------------|---------------------------------|
     E|----------------------------------|---------------------------------|

     E|----------------------------------|---------------------------------|
     H|----------------------------------|---------------------------------|
     G|-----------------------------/5h6-|---------------------------------|
     D|--7-------5---7-------------------|-7-------5---7-------------------|
     A|--7-------5---7-------------------|-7-------5---7-------------------|
     E|--5-----------5-------------------|-5-----------5-------------------|


РИФФ 2:
     E|----------------------------------|---------------------------------|
     H|--6---------------6-----8-----10--|-6---------------6-----8-----10--|
     G|--7---------------7-----9-----10--|-7---------------7-----9-----10--|
     D|----------------------------------|---------------------------------|
     A|----------------------------------|---------------------------------|
     E|----------------------------------|---------------------------------|
                                      
 БАС G|----------------------------------|---------------------------------|
     D|----------------------------------|---------------------------------|
     A|--5---5---5---5---5---5---5---5---|---------------------------------|
     E|----------------------------------|-6---6---6---6---6---6---6---6---|
 
     E|----------------------------------|---------------------------------|
     H|--8---------------8-----10----11--|----------------/11----10----8---|
     G|--9---------------9-----10----12--|-9--------------/12----10----9---|
     D|----------------------------------|-10------------------------------|
     A|----------------------------------|---------------------------------|
     E|----------------------------------|---------------------------------|
                                    
 БАС G|----------------------------------|---------------------------------|
     D|----------------------------------|---------------------------------|
     A|--3---3---3---3---3---3---3---3---|---------------------------------|
     E|----------------------------------|-5---5---5---5---5---5---5---5---|
 
     E|----------------------------------|---------------------------------|
     H|--8--6-----------6-----8-----10--|-----------------------5-----6---|
     G|--9--7-----------7-----9-----10--|-7---------------7-----5-----7---|
     D|----------------------------------|-8---------------8---------------|
     A|----------------------------------|---------------------------------|
     E|----------------------------------|---------------------------------|
   
 БАС G|----------------------------------|---------------------------------|
     D|----------------------------------|---------------------------------|
     A|--5---5---5---5---5---5---5---5---|---------------------------------|
     E|----------------------------------|-6---6---6---6---6---6---6---6---|
 
     E|----------------------------------|---------------------------------|
     H|------------------------6-----8---|-6-------------------------------|
     G|--6---------------9-----7-----9---|-7-------------------------------|
     D|--7---------------7---------------|---------------------------------|
     A|----------------------------------|---------------------------------|
     E|----------------------------------|---------------------------------|
   
 БАС G|----------------------------------|---------------------------------|
     D|----------------------------------|---------------------------------|
     A|----------------------------------|-5---5---5---5---5---5---5---5---|
     E|--5---5---5---5---5---5---5---5---|---------------------------------|
 
     E|-17p13-------1310---------------------------|---------------------------------|
     H|-------15---------15----15p10----------------|---------------------------------|
     G|----------14---------10------10---12-10-9----|-7---------------6---------------|
     D|-------------------------------12---------10-|-8---------------7---------------|
     A|---------------------------------------------|---------------------------------|
     E|---------------------------------------------|---------------------------------|
    
 БАС G|----------------------------------|---------------------------------|
     D|----------------------------------|---------------------------------|
     A|--8---8---5---5-------------------|-5---------------4---------------|
     E|------------------6---6---3---3---|-6---------------5---------------|


 КУПЛЕТ 1:

    Дай        ру   -   ку      мне!
E|----------------------------------|---------------------------------|
H|----------------------------------|---------------------------------|
G|----------------------------------|---------------------------------|
D|--7-----------5-------3-------7---|-7-----------3---3---------------|
A|--5-----------3-------1-------5---|-5-----------1---1---------------|
E|----------------------------------|---------------------------------|

E|----------------------------------|---------------------------------|
H|----------------------------------|---------------------------------|
G|----------------------------------|---------------------------------|
D|--------------5---------------3---|---------------------------------|
A|--0---4---7-----------4---5-------|-----0---1---0-------0---5---0---|
E|----------------------------------|-----------------1---------------|
  Здесь          лиш  - них     нет!
E|----------------------------------|---------------------------------|
H|----------------------------------|---------------------------------|
G|----------------------------------|---------------------------------|
D|--7-----------5-------3-------7---|-7-----------3---3---------------|
A|--5-----------3-------1-------5---|-5-----------1---1---------------|
E|----------------------------------|---------------------------------|

E|----------------------------------|---------------------------------|
H|----------------------------------|---------------------------------|
G|----------------------------------|---------------------------------|
D|--------------5---------------3---|----------------<3>-----<2>------|
A|--0---4---7-----------4---5-------|-----0---1---0-------------------|
E|----------------------------------|---------------------------------|
    Вет    -    ру              ты    кажешся не  боль - ше  пес -
E|----------------------------------|---------------------------------|
H|----------------------------------|---------------------------------|
G|----------3-----------3-----------|---------3-----------3-------2---|
D|----------3-----------3-----------|---------3-----------3-------0---|
A|--1---1-------0---1-----------0---|-1---1-------0---1---------------|
E|----------------------------------|---------------------------------|
    чин   -   ки.
E|----------------------------------|---------------------------------|
H|----------------------------------|---------------------------------|
G|-(2)------------------2-------x---|-2-------x---x---2---------------|
D|-(0)------------------0-------x---|-0-------x---x---0---------------|
A|----------------------------------|---------------------------------|
E|----------------------------------|---------------------------------|
     Ве    -    тер            лег - ко  собьёт  с доро  -  ги,
E|----------------------------------|---------------------------------|
H|----------------------------------|---------------------------------|
G|----------3-----------3-----------|---------3-----------3-----------|
D|----------3-----------3-----------|---------3-----------3-----------|
A|--1---1-------0---1-----------0---|-1---1-------0---1---------------|
E|----------------------------------|---------------------------------|
    ес - ли  в  скитань  -  ях        ты       о  -  ди - нок.
E|----------------------------------|---------------------------------|
H|----------------------------------|---------------------------------|
G|------------------3-------2-------|-5-------3-------2---2-----------|
D|------------------3-------2-------|-5-------3-------2---2-----------|
A|--0---0---0---0---1-------0-------|-3-------1-------0---0-----------|
E|----------------------------------|---------------------------------|


ПРИПЕВ:

    Сила    тво - я                   в том, что ты  есть,   
E|----------------------------------|---------------------------------|
H|----------------------------------|-6---5---------------------------|
G|--7-------5---7-------------------|---------7---5-------------------|
D|--7-------5---7-------------------|---------------------------------|
A|--5-----------5-------------------|---------------------------------|
E|----------------------------------|---------------------------------|
    Сила    тво - я               в том, что мы здесь!
E|----------------------------------|---------------------------------|
H|----------------------------------|---------------------------------|
G|-----------------------------/5h6-|---------------------5-----------|
D|--7-------5---7-------------------|-7-------5---7-------5-----------|
A|--7-------5---7-------------------|-7-------5---7-------------------|
E|--5-----------5-------------------|-5-----------5-------------------|
   Сила    тво - я                 в том,  что ты  есть,   
E|----------------------------------|---------------------------------|
H|----------------------------------|-6---5---------------------------|
G|--7-------5---7-------------------|---------7---5-------------------|
D|--7-------5---7-------------------|---------------------------------|
A|--5-----------5-------------------|---------------------------------|
E|----------------------------------|---------------------------------|
   Сила    твоя - я                в том,  что мы здесь!
E|----------------------------------|---------------------------------|
H|----------------------------------|---------------------------------|
G|-----------------------------/5h6-|---------------------------------|
D|--7-------5---7-------------------|-7-------5---7-------------------|
A|--7-------5---7-------------------|-7-------5---7-------------------|
E|--5-----------5-------------------|-5-----------5-------------------|
Играется Рифф 2
Потом идёт 2 куплет
Припев
Потом третий
И следом СОЛО(Т-трэппинг):
E|--------------------------T---T---T---T---T---T---|
H|--17бэнд19----------------20p15-20p15-20p15-20p14-|
G|--------------------------------------------------|
D|--------------------------------------------------|
A|--------------------------------------------------|
E|--------------------------------------------------|

E|T---T---T---T---T---T-----T------T-----T-----T----T---|
H|20p14-20p14-20p12-20p12-20p12-20p10-20p10-20p10-20p10-|
G|------------------------------------------------------|
D|------------------------------------------------------|
A|------------------------------------------------------|
E|------------------------------------------------------|

E|----T---T---T---T---T---T---T---T---T----------------------|
H|-p8-20p8-20p8-20p7-20p7-20p7-20p5-20p5-20p5-20p3--5--3--2--|
G|-----------------------------------------------------------|
D|-----------------------------------------------------------|
A|-----------------------------------------------------------|
E|-----------------------------------------------------------|

E|-----------------------------------------------------------|
H|--------------------2-----5~~----3~~~~~--------------------|
G|-3---------------------------------------------------------|
D|-----------------------------------------------------------|
A|-----------------------------------------------------------|
E|-----------------------------------------------------------|


E|--------------------------------------------9-----|
H|--2h3p2------------------------------7h8h10-------|
G|--------4-----------------4h6h7-7-/9--------------|
D|--------------------------------------------------|
A|--------------------------------------------------|
E|--------------------------------------------------|

E|-(9)---------------/14~~~~~~~~~~~~~~~~~~~~--------|
H|--------------------------------------------------|
G|--------------------------------------------------|
D|--------------------------------------------------|
A|--------------------------------------------------|
E|--------------------------------------------------|

E|--------------------------6---7---6---------------|
H|-------------------/6--7--------------7---6---5---|
G|--------3-h4-h6-----------------------------------|
D|-----3--.--.--.-----------------------------------|
A|-----.--------------------------------------------|
E|--------------------------------------------------|

E|-12bend14---- тремоло секция------------------|
H|--------------------------------------------------|
G|--------------------------------------------------|
D|--------------------------------------------------|
A|--------------------------------------------------|
E|--------------------------------------------------|

E|--------------------------------------------------|
H|--------------------------------------------------|
G|--7~~~~~~~~~~~~~~---------7-----------9-----10----|
D|--------------------------------------------------|
A|--------------------------------------------------|
E|--------------------------------------------------|


E|--------------------------------------------------|
H|--------------------------------------8---10--11--|
G|-7~~~~~~~~~~~-------------7---9---10--------------|
D|--------------------------------------------------|
A|--------------------------------------------------|
E|--------------------------------------------------|


E|--------------------------------------------------|
H|--------------------------------------6---7---8---|
G|--9~~~~~~~~~~~~~----------7---8---9---.---.---.---|
D|--------------------------.---.---.---------------|
A|--------------------------------------------------|
E|--------------------------------------------------|

E|-<5>-6--5----<5>----------------------------------|
H|----------6p5-----8p5-----8--5-----------5--------|
G|----------------------7p6-------7--6--7-----7--6--|
D|--------------------------------------------------|
A|--------------------------------------------------|
E|--------------------------------------------------|

                                 T 
E|--------------------------/13-17p13p10------------|
H|---------------------------------------10~~~~~~---|
G|--7-----------------------------------------------|
D|--------------------------------------------------|
A|--------------------------------------------------|
E|--------------------------------------------------|

E|--------------------------------------------------|
H|--------------------------------------------------|
G|-10--------------10-10p9--------------------------|
D|-------------------------12-----------------------|
A|--------------------------------------------------|
E|--------------------------------------------------|

E|-/17-17-18-18-17p15-------------------------------|
H|--------------------18-18p17p15----.... ???? ...--|
G|--------------------------------------------------|
D|--------------------------------------------------|
A|--------------------------------------------------|
E|--------------------------------------------------|

E|--------------------------------------------------|
H|--------------------------------------------------|
G|--------------------------------------------------|
D|--------------------------------------------------|
A|--------0-----1-----0-----------0-----5-----0-----|
E|--------------------------1-----------------------|

ПОВТОР 2-го КУПЛЕТА

ПРИПЕВ:

   Сила   твоя - я                  в том,  что ты  есть,   
E|----------------------------------|----------------------------------|
H|----------------------------------|----------------------------------|
G|--7-----------7---------------7---|-(7)----------5---------------5---|
D|--7-----------7---------------7---|-(7)----------5---------------5---|
A|--5-----------5---------------5---|-(5)----------3---------------3---|
E|----------------------------------|----------------------------------|
   Сила   твоя - я                  в том,  что мы здесь!
E|----------------------------------|----------------------------------|
H|----------------------------------|----------------------------------|
G|-(5)------------------------------|------------------------------5---|
D|-(5)----------7---------------7---|-(7)----------7---------------5---|
A|-(3)----------7---------------7---|-(7)----------7---------------3---|
E|--------------5---------------5---|-(5)----------5-------------------|
   Сила   твоя - я                  в том,  что  ты  есть,   
E|----------------------------------|----------------------------------|
H|----------------------------------|----------------------------------|
G|-(5)----------7---------------7---|-(7)----------5---------------5---|
D|-(5)----------7---------------7---|-(7)----------5---------------5---|
A|-(3)----------5---------------5---|-(5)----------3---------------3---|
E|----------------------------------|----------------------------------|
   Сила    твоя - я                 в том,  что мы здесь!
E|----------------------------------|----------------------------------|
H|----------------------------------|----------------------------------|
G|-(5)------------------------------|----------------------------------|
D|-(5)----------7---------------7---|-(7)----------7-------------------|
A|-(3)----------7---------------7---|-(7)----------7-------------------|
E|--------------5---------------5---|-(5)----------5-------------------|


ДАЛЕЕ ИГРАТЬ РИФФ 2

OUTRO:
E|---------------------------------|---------------------------------|
H|---------------------------------|---------------------------------|
G|---------------------------------|---------------------------------|
D|-----------------------------7---|-(7)-----------------------------|
A|-----0---1---0-------0---5---5---|-(5)-----------------------------|
E|-----------------1---------------|---------------------------------|

Вверх

Дезертир

Dm
Утро в декабре туманом окутано,
                          C
Под ногами белый снег-предатель -
 Dm
Виден каждый шаг, и холоду лютому
  B                         A
Слишком просто сладить с тобой.

Все трудней дышать пронзительным воздухом,
Все труднее небу слать проклятья,
Все трудней бежать - полжизни ты отдал бы,
Чтоб забыть тот бой за спиной.

   B        C
   Ты теперь дезертир,
   Dm            C7
   Вне закона, знай - правды не найти,
   B        C
   Ты теперь просто цель
   Dm            C7
   Для винтовок сотни горных егерей.

      F               D#
      О, каким будет завтрашний день,
              Dm                 C
      В этом мире большом и враждебном,
        F                D#
      Кто пройдет по бурлящей воде,
              Dm                  C#
      Кто напрасно распнет сам себя -
               C           Dm
      Это судьба, это судьба.

За спиной земля атакой разбужена,
Небо там горит над головою,
Ты не стал стрелять, ты бросил оружие
И послал к чертям, этот ад.

За спиною бой - преступный ли, праведный,
Истина войны размыта кровью,
Где свинец слепой отчаянно правит бал,
Кто убит - тот светел и свят!

   Ты теперь дезертир,
   Вне закона, знай - правды не найти,
   Ты теперь просто цель
   Для таких же смертью меченых парней.

      О, каким будет завтрашний день,
      В этом мире большом и враждебном,
      Кто пройдет по бурлящей воде,
      Кто напрасно распнет сам себя -
      Это судьба, это судьба.

Утро в декабре туманом окутано,
Возродилось из ночного праха,
Оборвался след, и с каждой минутою
Все темней таинственный лес.

Ты лежишь в снегах без роду и племени,
Пулею убит, а, может, страхом.
В ледяных цепях ты стал вечным пленником,
А душа блуждает где-то здесь...
Вверх

Дезертир (2 вариант)

Am
Утро в декабре туманом окутано,
                            G
Под ногами белый снег-предатель –
Am
Виден каждый шаг, и холоду лютому
                           E
Слишком просто сладить с тобой.
Все трудней дышать пронзительным воздухом,
Все труднее небу слать проклятья,
Все трудней бежать - полжизни ты отдал бы,
Чтоб забыть тот бой за спиной.

F          G
Ты теперь дезертир,
Am           G
Вне закона, знай - правды не найти,
Ты теперь просто цель
Для винтовок сотни горных егерей.

C               G
О, каким будет завтрашний день,
        Dm                 G
В этом мире большом и враждебном,
C                  G
Кто пройдет по бурлящей воде,
        Dm                     B
Кто напрасно распнет сам себя –
      A           Dm
Это судьба, это судьба.

За спиной земля атакой разбужена,
Небо там горит над головою,
Ты не стал стрелять,
Ты бросил оружие
И послал к чертям, этот ад.
За спиною бой - преступный ли, праведный,
Истина войны размыта кровью,
Где свинец слепой отчаянно правит бал,
Кто убит - тот светел и свят!

Ты теперь дезертир,
Вне закона, знай - правды не найти,
Ты теперь просто цель
Для таких же смертью меченых парней.

Утро в декабре туманом окутано,
Возродилось из ночного праха,
Оборвался след, и с каждой минутою
Все темней таинственный лес.
Ты лежишь в снегах без роду и племени,
Пулею убит, а, может, страхом.
В ледяных цепях ты стал вечным пленником,
А душа блуждает где-то здесь...
Вверх

Дух войны mp3

 E------------7--5--3Н0--|--7--5--3Н0-------|---------------|
 Н-----------------------|------------------|---------------|
 G--5--7--9--------------|------------------|-5-5-5-5-5-5---|
 D--5--7--9--------------|------------------|-5-5-5-5-5-5---|
 А--3--5--7--------------|------------------|-3-3-3-3-3-3-0-|
 E-----------------------|------------------|---------------|

 E-----------------------|--5~~~------------|
 Н-----------------------|------------------|
 G--------------------7--|------------------|
 D--5---5-5-5-5-5-----7--|------------------|
 А--5---5-5-5-5-5-----5--|------------------|
 E--3---3-3-3-3-3-0------|------------------|


 Em
Вновь и вновь я вижу сон:
 C
Кровью залит горизонт,
 D                        C  D
И земля в огне на много миль.
 Em
Шесть минут до часа "X",
 C
Небо скоро рухнет вниз,
 D                          C  B
Ветер всех развеет словно пыль.

Припев:
   C        D
   Время убивать,
   C/E         D/F#
   Время наступать,
   C           D           B7
   Время наступать и побеждать!


   C   D  Em
   Дух войны
                 D
   Скалится из тьмы.
   B             C
   Входит в наши сны
          G
   Дух войны -
               D
   И мы ему верны.


   C   D Em
   Вот и все.
               D
   Мир объят огнем,
   B             C
   Но не стихнет гром.
          G
   Дух войны -
              D
   Он требует еще...
    C
   Еще!



Разрушенье - это страсть.
Все равно какая власть.
Власть пила всегда чужую кровь.
И когда наступит крах,
Солнце вспыхнет на штыках.
И толпу на смерть погонит вновь.

Припев.

Вверх

Дьявольский зной

Dm            C
Ты сменишь лицо, как наряд,
       G                     B            Dm
Ты войдешь в чье-то тело неслышно, как змея,
              C
Ты кольцами сдавишь меня,
       G                        B
Дав понять, кто из нас в жизни лишний.

Твой вирус любви ядовит,
Он разрушит меня, но напрасны все слова -
Сгорю, как сухая трава,
Может, это мне послано свыше?

   E          F                  Dm
   Любовь не может быть тихой игрой,
   E          F
   Достаточно искры одной,
   G                   B7
   Между нами - лишь дьявольский зной.

       Dm
      Шепот молитвы в каменных стенах,
       B
      Лезвие бритвы на тонких венах,
        G
      Счастье наутро, горе под вечер,
        B  C     B       C
      Все так странно и вечно...

      Пусть это 6удет зваться любовью -
      Самой нелепой, самой земною,
      Пусть это 6удет дьявольским зноем,
        B                A
      Зноем, сжигающим все.

Мне нравится эта война
Между светом и тенью, нечистым и святым,
Захочешь - мы все повторим
От заката и до рассвета.

Я буду с тобой до конца,
Проклиная, бледнея от страха и любя,
Ты хочешь все больше огня,
Но ты станешь щепоткою пепла.

   Любовь не может быть тихой игрой,
   Достаточно искры одной,
   Между нами - лишь дьявольский зной.

      Шепот молитвы в каменных стенах,
      Лезвие бритвы на тонких венах,
      Счастье наутро, горе под вечер,
      Все так странно и вечно...

      Пусть это 6удет зваться любовью -
      Самой нелепой, самой земною,
      Пусть это 6удет дьявольским зноем,
      Зноем, сжигающим все.
Вверх

Жизнь задаром

  E                                 Am
Кто-то сказал, что он может бежать даром, даром.
  E                              Am
Кто-то услышал и стал торговать паром, паром.
 G                          F
Несколько звонких монет - приобретайте билет,
 E                                Am
После сеанса вас ждет ресторан с баром, баром.

Кто-то сказал, что он может любить даром, даром.
Кто-то услышал и стал торговать жаром, жаром.
Несколько звонких монет - приобретайте билет,
После сеанса вас ждет ресторан с баром, баром.

     G       F      G
   Все заслонила цена,
     G       F      G Am G F
   Все заслонила цена...

Ты посмотри как он быстро устал стал старым, старым.
Все, что он видел вокруг он считал товаром, варом.
Ум, красота и талант - все заслонил прейскурант,
И получилось что жизнь он отдал задаром, даром.

   Все заслонила цена,
   Все заслонила цена...
Вверх

Закат

Проигрыш:  Em, C, D, Em, C#4, D, Em, C, D, Em, C, D

 Em      Am        D               Em
Я вижу, как закат стекла оконные плавит,
 Em             Am7           F#           B
День прожит, а ночь оставит тени снов в углах.
 Em         Am         D             Em
Мне не вернуть назад серую птицу печали,
                    Am          F#         B
Все в прошлом, так быстро тают замки в облаках.

Припев:
   E7           Am
   Там все живы, кто любил меня,
   C                               B7
   Где восход - как праздник бесконечной жизни,
   E            Am
   Там нет счета рекам и морям,
   C                          B7
   Но по ним нельзя доплыть домой.

Вновь примирит все тьма, даже алмазы и пепел,
Друг равен врагу в итоге, а итог один...
Два солнца у меня на этом и прошлом свете,
Их вместе собой укроет горько-сладкий дым.

Припев.

 G                        D7
Возьми меня с собой, пурпурная река,
 G                     D
Прочь унеси меня с собой, закат.
 Am7     Am6              C
Тоска о том, что было, рвется через край,
 Bm                        C
Под крики серых птичьих стай.


 Em     Am          D6             Em
Я вижу, как закат стекла оконные плавит,
               Am           F#    B7      Em
День прожит, а ночь оставит тени снов в углах.
Вверх

Закат (2 вариант)

Интродукция:
e|-----4-2-0Н2р0-----------|---4-2-0Н2р0---------------|
B|---0-----------4-2--2--0-|--0----------4-2--0--2-2-4-|
G|-1-----------------------|-1-------------------------|
D|-------------------------|---------------------------|
А|--------------------0--2-|---------------------0-0-2-|
E|-----0-------------------|---0-----------------------|

e|-0-----0-2-----0-4-----2-0Н2р0-----------0--------0--|
B|---2-------4-------0-----------4-2-0--2--------4-----|
G|-----2-------4-------1-------------------------------|
D|-----------------------------------------------------|
А|-0-------2----------------------------0-----2--------|
E|-----------------0--------------------------------0--|

e|-----4-2-0Н2р0-----------|---4-2-0Н2р0---------------|
B|---0-----------4-2--2--0-|--0----------4-2--0--2-2-4-|
G|-1-----------------------|-1-------------------------|
D|-------------------------|---------------------------|
А|--------------------0--2-|---------------------0-0-2-|
E|-----0-------------------|---0-----------------------|

e|-0-----0-2-----0-4-----2-0-----------0--------|
B|---2-------4-------0-------4-2-0--2------0--4-|
G|-----2-------4-------1------------------0-----|
D|---------------------------------------2------|
А|-0-------2------------------------0------2----|
E|-----------------0----------------------------|

Проигрыш:
e|---------------------------------|
B|---------------------------------|
G|-----0-------0-------0-------0---| (Играется 4 раза)
D|-------2-------2---2---2---4---4-|
А|---2-------2-----3-------5-------|
E|-0-------0-----------------------|

1 куплет:

   Em    Am    D       Em
e|------0---------------0-------------2-3-2Н3р2----------------|
B|----0---0-----------1---1---------3----------3---------------|
G|--0-------0-------2-------2-----2--------------2--0---0---0--|
D|-2----------2---2-----------2-0-----------------2---2---2---2|
А|--------------0----------------------------------------------|
E|0-----------------------------------------------0------------|
   Я     вижу,     как    закат    стекла оконные     плавит

  Em    Am    F#    B7
e|-------0---------------0--------------2---------------2------|
B|-----0---0-----------1---1----------2---2-----------0---0----|
G|---0-------0-------2-------2------3-------3-------2-------2--|
D|-2-----------2---2-----------2--4-----------4---1-----------1|
А|---------------0------------------------------2--------------|
E|0------------------------------2-----------------------------|
   День прожит,  а ночь  оставит   тени  снов в углах

Мне не вернуть назад
Серую птицу печали,
Все в прошлом, так быстро тают
Замки в облаках.

\Вторая половина куплета играется так же,
\но в конце, перед припевом:
   B7
e|---------2-------|
B|-------0---------|
G|-----2-----------|
D|---1-------------|
А|-2---------------|
E|-----------------|
Припев (боем):
E7          Am
Там все живы, кто любил меня,
     C        B7
Где восход, как праздник бесконечной жизни.
E7      Am
Там нет счета рекам и морям,
     C     B7
Но по ним нельзя доплыть домой.

Проигрыш.

2 куплет (играется так же, как первый):
Вновь примирит все тьма,
Даже алмазы и пепел.
Друг равен врагу в итоге,
А итог один...
Два солнца у меня
На этом и прошлом свете,
Их вместе собой укроет
Горько-сладкий дым.

Припев.

B|------------------------|
G|-----0-2-4-2Н4р2-0------|
D|------------------------|
     G D
Возьми меня с собой, пурпурная река,
     G       D
Прочь унеси меня с собой, закат!
     Am C
Тоска о том, что было рвется через край
     Bm   C
Под крики серых птичьих стай...

Интродукция (постепенно затихая).
Вверх

Закат (3 вариант)

intro:
1|------------------------------------------------------------------
2|-----0-------0-------0-------0-------0-------0-------0-------0----
3|-----0-------0-------0-------0-------0-------0-------0-------0----
4|---2---2---2---2---2---2---4---4---2---2---2---2---2---2---4---4--
5|-----------------3-------2-----------------------3-------2--------
6|-0-------0-----------------------0-------0------------------------

В куплете пеpебоp такой: б4341234 - все кpоме D. D вот так: 43231232

Em      Am         D              Em
Я вижу, как закат стекла оконные плавит,
Em             Am           F#            H7+ (стоится так: 021202, бас-5стp.)
День прожит, а ночь оставит тени снов в углах.
Мне не вернуть назад серую птицу печали,
Все в прошлом, так быстро тают замки в облаках.

пpипев: /боем/

    E            Am
    Там все живы,  кто любил меня,
  C                                H
    Где восход - как праздник бесконечной жизни,
    E            Am
    Там нет счета  рекам и морям,
  C                            H
    Hо по ним нельзя доплыть домой.

/*intro*/

Вновь примирит все тьма, даже алмазы и пепел,
Друг равен врагу в итоге, а итог один...
Два солнца у меня на этом и прошлом свете,
Их вместе собой укроет горько-сладкий дым.

/*пpипев*/

маленький пpоигpыш:
1|------------------------------------------------------------------
2|------------------------------------------------------------------
3|-0--2--3--2^3--0--(здесь уже начинается G)------------------------
4|------------------------------------------------------------------
5|------------------------------------------------------------------
6|------------------------------------------------------------------
 * 2^3 - одинаpная тpель

G                         D
  Возьми меня с собой, пурпурная река,
G                      D
  Прочь унеси меня с собой, закат.
Am                        C
  Тоска о том, что было, рвется через край,
Hm                         C
  Под крики серых птичьих стай.

/*intro*/

Здесь бой такой - большим пальцем плавно пеpебеpаем все стpуны от 6 до 1

Em      Am         D              Em
Я вижу, как закат стекла оконные плавит,
Em             Am           F#    H         Em
День прожит, а ночь оставит тени  снов  в углах.
Вверх

Замкнутый круг

Проигрыш:  Hm, G, А * 4 times

 Bm      G         А
Мы колесили по дорогам,
 Bm       G        А
Меняя струны и подруг,
 А  G        F#m
О, нам не хватало рук,
 Bm     G            А
И если все добро от Бога -
                     Em
Нам не светит теплый рай,
 Em          А
Сколько ни играй,
     D      C         Bb
Это просто замкнутый круг.



Что завтра будет - неизвестно,
Хотя нетрудно предсказать,
О, нам нечего терять.
Какая жизнь - такие песни.
А жизнь нелепа и смешна,
Дальше - тишина,
Не объехать и не убежать.

Припев:
   E5              А5
   Да, да, да, все сказано,
   Да, да, давным-давно,
   Да, да, да, все связано
    D5              C5     Bb5
   Самым древним и хитрым узлом.


 D                         Em
Слишком грустно быть бессмертным -
 D                   Em
Те же лица день за днем.
 D               Em
Те же глупые ответы
 D                  Em
На вопрос "Зачем живем?".


Не всем волчатам стать волками,
Не всякий взмах сулит удар.
Есть странный дар - лететь на пламя,
Чтоб в нем остаться навсегда.

Припев.
Вверх

Замкнутый круг (2 вариант)

Tempo: moderately slow (98 bpm)
(0:01 - 0:23)
INTRO: (guitars 1,2 - both clean acoustic)
SynthE|--14-- fades in & sounds throughout till the end of Intro ---|
     H|--12---------------------------------------------------------|
     G|-------------------------------------------------------------|
     D|-------------------------------------------------------------|
     A|-------------------------------------------------------------|
     E|-------------------------------------------------------------|
 

Gtr.1E|----------------------------------|---------------------------------|
     H|----------3---------------0-------|-------------2-------------------|
     G|--------------4---------------0---|---------2-----------------------|
     D|------4---------------0-----------|-----2---------------------------|
     A|--2-------------------------------|-0-------------------------------|
     E|------------------3---------------|---------------------------------|
 
Gtr.1E|----------------------------------|---------------------------------|
     H|----------3---------------0-------|---------2-----------------------|
     G|--------------4---------------0---|---------2-----------------------|
     D|------4---------------0-----------|-----2---2--^--------------------|
     A|--2-------------------------------|-0----------|--------------------|
     E|------------------3---------------|------------|--------------------|
      |                                  |                                 |
Bass G|----------------------------------|---------------------------------|
     D|----------------------------------|-----------------------------sl--|
     A|----------------------------------|---------------------------2-/---|
     E|----------------------------------|---------------------------------|
 
Gtr.1E|----------------------------------|---------------------------------|
     H|----------3---------------0-------|-------------2-------------------|
     G|--------------4---------------0---|---------2-----------------------|
     D|------4---------------0-----------|-----2---------------------------|
     A|--2-------------------------------|-0-------------------------------|
     E|------------------3---------------|---------------------------------|
      |                                  |                                 |
Gtr.2E|----------------------------------|---------------------------------|
     H|----------------------------------|-----------------------------3p2-|
     G|--4p2-4---------------------------|---------------------------------|
     D|----------------------------------|---------------------------------|
     A|----------------------------------|---------------------------------|
     E|----------------------------------|---------------------------------|
      |                                  |                                 |
Bass G|----------------------------------|---------------------------------|
     D|-------------14-12----------------|---------------------------------|
     A|-/14--------------10----------7h9-|p7---7---------------------------|
     E|----------------------------------|--------5h7p5--------------------|
 
Gtr.1E|----------------------------------|---------------------------------|
     H|----------3---------------0-------|---------2-----------------------|
     G|--------------4---------------0---|---------2-----------------------|
     D|------4---------------0-----------|-----2---2--^--------------------|
     A|--2-------------------------------|-0----------|--------------------|
     E|------------------3---------------|------------|--------------------|
      |                                  |                                 |
Gtr.2E|----------------------------------|---------------------------------|
     H|--3-------------------------------|---------------------------------|
     G|----------------------------------|---------2- bend to 4 -----------|
     D|----------------------------------|---------------------------------|
     A|----------------------------------|-----------slow bend-------------|
     E|----------------------------------|---------------------------------|
      |                                  |                                 |
Bass G|----------------------------------|---------------------------------|
     D|----------------------------------|---------------------------------|
     A|-/9-----------7-9-10--9---7---5---|-5--/7---7-----------------------|
     E|----------------------------------|---------------------------------|
(0:23 - 0:53)
VERSE 1:
VoiceE|--------------------------------------------------------------------|
     H|------7---7----7-7-----------------5----5---------------------------|
     G|----------------------7---7---4-------------------------------------|
     D|--------------------------------------------------------------------|
     A|--------------------------------------------------------------------|
     E|---  My  ko - lesi - li  po  do - ro - gam,     --------------------|
      |                                  |                                 |
Gtr.1E|----------------------------------|---------------------------------|
     H|----------3---------------0-------|-------------2-------------------|
     G|--------------4---------------0---|---------2-----------------------|
     D|------4---------------0-----------|-----2---------------------------|
     A|--2-------------------------------|-0-------------------------------|
     E|------------------3---------------|---------------------------------|
      |                                  |                                 |
Gtr.2E|----------------------------------|---------------------------------|
     H|----------------------------------|-------------------------3p2-----|
     G|----------------------------------|-----------------------------2---|
     D|----------------------------------|---------------------------------|
     A|----------------------------------|---------------------------------|
     E|----------------------------------|---------------------------------|
 
VoiceE|--------------------------------------------------------------------|
     H|-----7--7----7----8--------------7------5---------------------------|
     G|-----------------------7------4-------------------------------------|
     D|--------------------------------------------------------------------|
     A|--------------------------------------------------------------------|
     E|--  menya - ya stru - ny      i pod  - rug.    ---------------------|
      |                                  |                                 |
Gtr.1E|----------------------------------|---------------------------------|
     H|----------3---------------0-------|---------2-----------------------|
     G|--------------4---------------0---|---------2-----------------------|
     D|------4---------------0-----------|-----2---2--^--------------------|
     A|--2-------------------------------|-0----------|--------------------|
     E|------------------3---------------|------------|--------------------|
      |                                  |                                 |
Gtr.2E|----------------------------------|---------------------------------|
     H|-------------------------- in verse 2 only -> --5--bend to 7--------|
     G|--4-------------------------------|---------------------------------|
     D|-------------------------- in verse 1 only -> --5--bend to 7--------|
     A|----------------------------------|---------------------------------|
     E|----------------------------------|---------------------------------|
 
VoiceE|--------------------------------------------------------------------|
     H|--5------------------------------5----------------------------------|
     G|----------------------7---7---7---------6---------------------------|
     D|--------------------------------------------7-----------------------|
     A|--------------------------------------------------------------------|
     E|- O - o - o !        Nam ne  hvata  -  lo  ruk.   ------------------|
      |                                  |                                 |
Gtr.1E|----------------------------------|---------------------------------|
     H|----------2---------------0-------|-------------2-------------------|
     G|--------------2---------------0---|---------0-----------------------|
     D|------2---------------0-----------|-----4---------------------------|
     A|--0-------------------------------|---------------------------------|
     E|------------------3---------------|-2-------------------------------|
      |                                  |                                 |
Gtr.2E|----------------------------------|---------------------------------|
     H|----------------------------------|-------------------------0h2--3/-|
     G|----------------------------------|---------------------------------|
     D|----------------------------------|---------------------------------|
     A|----------------------------------|---------------------------------|
     E|----------------------------------|---------------------------------|
 
VoiceE|------------------7-------------------------------------------------|
     H|------7---7--7---------7-----5------5---5---5-------5-7----5--------|
     G|--------------------------------7---------------7-------------7-----|
     D|--------------------------------------------------------------------|
     A|--------------------------------------------------------------------|
     E|-     I   esli vsyo   dob - ro  ot bo -ga, nam ne svetit  teplyy   -|
      |                                  |                                 |
Gtr.1E|----------------------------------|---------------------------------|
     H|----------3---------------0-------|-------------2---3--2h3p2p0------|
     G|--------------4---------------0---|---------2-------------------2---|
     D|------4---------------0-----------|-----2---------------------------|
     A|--2-------------------------------|-0-------------------------------|
     E|------------------3---------------|---------------------------------|
      |                                  |                                 |
Gtr.2E|----------------------------------|---------------------------------|
     H|-/7-------------------------------|---------------------------------|
     G|----------------------------------|----------------------------<12>-|
     D|----------------------------------|-------------------------- N.H. -|
     A|----------------------------------|---------------------------------|
     E|----------------------------------|---------------------------------|
 
VoiceE|--------------------------------------------------------------------|
     H|---5----------------------7---8-----7-----5-----5-----------------5-|
     G|----------------------------------------------------------------7---|
     D|--------------------------------------------------------------------|
     A|--------------------------------------------------------------------|
     E|- ra   -   ay,          skol?ko    ne     ig - ray.             Eto |
      |                                  |                                 |
Gtr.1E|------------------0---------------|---------------------------------|
     H|----------------------0-----------|-------------2---3---2-----------|
     G|--------------0-----------0-------|---------2---------------2-------|
     D|----------2-------------------2---|-----2-----------------------2---|
     A|------2---------------------------|-0-------------------------------|
     E|--0-------------------------------|---------------------------------|
      |                                  |                                 |
Gtr.2E|----------------------------------|-<12>----------------------------|
     H|-----------------------------<12>-|---------------------------------|
     G|----------------------------------|---------------------------------|
     D|--------------------------- N.H. -|---------------------------------|
     A|----------------------------------|---------------------------------|
     E|----------------------------------|---------------------------------|
 
VoiceE|--------------------------------------------------------------------|
     H|----7-----7-------5---5-7-------------------------------------------|
     G|------------------------------7-------------------------------------|
     D|--------------------------------------------------------------------|
     A|--------------------------------------------------------------------|
     E| pros  - to      zamknutyy  krug.   --------------------------------|
      |                                  |                                 |
Gtr.1E|--2-------2-------0---0---2-------|---------------------------------|
     H|--3-------3-------1-----------3---|-(3)-----------------------------|
     G|--2-------2-------0-----------3---|-(3)-----------------------------|
     D|--0-------0-------2-----------3---|-(3)-----------------------------|
     A|------------------3-----------1---|-(1)-----------------------------|
     E|----------------------------------|---------------------------------|
(0:53 - 1:03) Repeat 2nd half of INTRO.
(1:03 - 1:33)
VERSE 2: (here?s what gtr.2 adds in the end:)
...
       -na,                     dal?she   ti  -  shi  -  na.         Ne ob?-
Gtr.1E|------------------0---------------|---------------------------------|
     H|----------------------0-----------|-------------2---3---2-----------|
     G|--------------0-----------0-------|---------2---------------2-------|
     D|----------2-------------------2---|-----2-----------------------2---|
     A|------2---------------------------|-0-------------------------------|
     E|--0-------------------------------|---------------------------------|
      |                                  |                                 |
Gtr.2E|-----------12b14------12--10--9---|-10------9---------------9-------|
     H|-<12>-----------------------------|-----------------12--------------|
     G|----------------------------------|---------------------------------|
     D|-N.H.-----------------------------|---------------------------------|
     A|----------------------------------|---------------------------------|
     E|----------------------------------|---------------------------------|
 
         e   -  hat?  i ne   u - bezhat?.
Gtr.1E|--2-------2-------0---0---2-------|---------------------------------|
     H|--3-------3-------1-----------3---|-(3)-----------------------------|
     G|--2-------2-------0-----------3---|-(3)-----------------------------|
     D|--0-------0-------2-----------3---|-(3)-----------------------------|
     A|------------------3-----------1---|-(1)-----------------------------|
     E|----------------------------------|---------------------------------|
      |                                  |                                 |
Gtr.2E|--10------14------12------14--10--|-(10)----------------------------|
     H|------10--------------------------|---------------------------------|
     G|----------------------------------|---------------------------------|
     D|----------------------------------|---------------------------------|
     A|----------------------------------|---------------------------------|
     E|----------------------------------|---------------------------------|
(1:33 - 2:13)
CHORUS: (Gtr.3 - distorted)
Gtr.3E|----------------------------------|
     H|----------------------------------|
     G|----------------------5---5-------|
     D|----------------------5---5-------|
     A|----------------------3---3---2---|
     E|--------------------------------3-|
 
VoiceE|------7-------7-------7--------7----5-------------------------------|
     H|--------------------------------------8-5---------------------------|
     G|--------------------------------------------------------------------|
     D|--------------------------------------------------------------------|
     A|--------------------------------------------------------------------|
     E|--   Da,     da,     da,    vsyo  skazano.  ------------------------|
      |                                  |                                 |
Gtr.3E|----------------------------------|---------------------------------|
     H|------5-------5-------5-----------|---------------------------------|
     G|------4---R---4---R---4-----------|-----2---R---2---R---2-----------|
     D|------2---E---2---E---2-----------|-----2---E---2---E---2-----------|
     A|------2---S---2---S---2-----------|-0---0---S---0---S---0-0-3-2-----|
     E|--0-------T-------T-------2---3---|---------T-------T-----------3-2-|
 
VoiceE|------7-------7-------7--7----8-----5-------------------------------|
     H|--------------------------------------------------------------------|
     G|--------------------------------------------------------------------|
     D|--------------------------------------------------------------------|
     A|--------------------------------------------------------------------|
     E|--   Da,     da,     davnym  dav - no.  ----------------------------|
      |                                  |                                 |
Gtr.3E|----------------------------------|---------------------------------|
     H|------5-------5-------5-----------|---------------------------------|
     G|------4---R---4---R---4-----------|-----2---R---2---R---2-----------|
     D|------2---E---2---E---2-----------|-----2---E---2---E---2-----------|
     A|------2---S---2---S---2-----------|-0---0---S---0---S---0-0-3-2-----|
     E|--0-------T-------T-------2---3---|---------T-------T-----------3-2-|
 
VoiceE|------7-------7-------7--------7----5-------------------------------|
     H|--------------------------------------8-5-------------------7----8--|
     G|--------------------------------------------------------------------|
     D|--------------------------------------------------------------------|
     A|--------------------------------------------------------------------|
     E|--   Da,     da,     da,    vsyo svyazano                  sa - mym |
      |                                  |                                 |
Gtr.3E|----------------------------------|---------------------------------|
     H|------5-------5-------5-----------|---------------------------------|
     G|------4---R---4---R---4-----------|-----2---R---2---R---2-----------|
     D|------2---E---2---E---2-----------|-----2---E---2---E---2-----------|
     A|------2---S---2---S---2-----------|-0---0---S---0---S---0---2---3---|
     E|--0-------T-------T-------2---3---|---------T-------T---------------|
 
VoiceE|---5------5-------5--5---7------------------------------------------|
     H|--------------8----------------8------------------------------------|
     G|--------------------------------------------------------------------|
     D|--------------------------------------------------------------------|
     A|--------------------------------------------------------------------|
     E| drev -  nim  i  hitrym  uz - lom.   -------------------------------|
      |                                  |                                 |
Gtr.3E|----------------------------------|---------------------------------|
     H|----------------------------------|---------------------------------|
     G|--7---------------4-----------5---|-(5)-----------------5---5-------|
     D|--7---------------4-----------5---|-(5)-----------------5---5-------|
     A|--5---------------2-----------3---|-(3)-----------------3---3---2---|
     E|----------------------------------|-------------------------------3-|
 
            Da,     da,      da,   vsyo  zdorovo.
Gtr.3E|----------------------------------|---------------------------------|
     H|------5-------5-------5-----------|---------------------------------|
     G|------4---R---4---R---4-----------|-----2---R---2---R---2-----------|
     D|------2---E---2---E---2-----------|-----2---E---2---E---2-----------|
     A|------2---S---2---S---2-----------|-0---0---S---0---S---0-0-3-2-----|
     E|--0-------T-------T-------2---3---|---------T-------T-----------3-2-|
 
            Da,     da,     go - ri  og - nem.
Gtr.3E|----------------------------------|---------------------------------|
     H|------5-------5-------5-----------|---------------------------------|
     G|------4---R---4---R---4-----------|-----2---R---2---R---2-----------|
     D|------2---E---2---E---2-----------|-----2---E---2---E---2-----------|
     A|------2---S---2---S---2-----------|-0---0---S---0---S---0-0-3-2-----|
     E|--0-------T-------T-------2---3---|---------T-------T-----------3-2-|
 
            Da,     da,     my  to - zhe  zoloto.                 My sver -  
Gtr.3E|----------------------------------|---------------------------------|
     H|------5-------5-------5-----------|---------------------------------|
     G|------4---R---4---R---4-----------|-----2---R---2---R---2-----------|
     D|------2---E---2---E---2-----------|-----2---E---2---E---2-----------|
     A|------2---S---2---S---2-----------|-0---0---S---0---S---0---2---3---|
     E|--0-------T-------T-------2---3---|---------T-------T---------------|
 
        ka  -  em, po - ka  ne  um - rem.
Gtr.3E|----------------------------------|---------------------------------|
     H|----------------------------------|---------------------------------|
     G|--7---------------4-----------5---|-(5)-----------------------------|
     D|--7---------------4-----------5---|-(5)-----------------------------|
     A|--5---------------2-----------3---|-(3)-----------------------------|
     E|----------------------------------|---------------------------------|
(2:13 - 2:42)
VERSE 3: (distorted tone)
            Dru - gaya krov?,  drugi - e  ra - ny.                           
Gtr.3E|----------------------------------|---------------------------------|
     H|----------------------------------|---------------------------------|
     G|----------------------------------|---------------------------------|
     D|--9---9-----------5---5-----------|-7---7---------------------------|
     A|--9---9-----------5---5-----------|-7---7---------------------------|
     E|--7---7-----------3---3-----------|-5---5-----------3-3-3---5-5-5---|
             Sovsem  drugi - e    vreme - na.
Gtr.3E|----------------------------------|---------------------------------|
     H|----------------------------------|---------------------------------|
     G|----------------------------------|---------------------------------|
     D|--9---9-----------5---5-----------|-7---7---------------------------|
     A|--9---9-----------5---5-----------|-7---7---------------------------|
     E|--7---7-----------3---3-----------|-5---5-----------3-3-3---7-7-7---|
         O  -  o - o !      Drugi - e    i  -  mena.
Gtr.3E|----------------------------------|---------------------------------|
     H|----------------------------------|---------------------------------|
     G|----------------------------------|---------------------------------|
     D|--7---7-----------5---5-----------|-4---4---------------------------|
     A|--7---7-----------5---5-----------|-4---4---------------------------|
     E|--5---5-----------3---3-----------|-2---2-----------3-3-3---5-5-5---|
            I, slovno schepkoy  v o - ke - ane,   na - mi teshatsya  shtor-
Gtr.3E|----------------------------------|---------------------------------|
     H|----------------------------------|---------------------------------|
     G|----------------------------------|---------------------------------|
     D|--9---9-----------5---5-----------|-7---7---------------------------|
     A|--9---9-----------5---5-----------|-7---7---------------------------|
     E|--7---7-----------3---3-----------|-5---5-----------5-5-5---7-7-7---|
        ma,                     a noch? koro - che  dnya.          Svet dos-
Gtr.3E|----------------------------------|---------------------------------|
     H|--------------5-------------------|---------------------------------|
     G|--------------4-------------------|---------------------------------|
     D|--2-----------2-------------------|-7-----------7-------------------|
     A|--2-----------2-------------------|-7-----------7-------------------|
     E|--0-------------------------------|-5-----------5-------------------|
        ta - net  nas   dazhe  so  dna.   
Gtr.3E|----------------------------------|---------------------------------|
     H|--7---------------5-----------3---|-(3)-----------------------------|
     G|--7---------------5-----------3---|-(3)-----------------------------|
     D|--7---------------5-----------3---|-(3)-----------------------------|
     A|--5---------------3-----------1---|-(1)-----------------------------|
     E|----------------------------------|---------------------------------|
(2:42 - 3:21) CHORUS
SOLO:
(3:22 - 3:58)
Part A: (play 2 times) ( +there?s another harmonic ?? )
Gtr.3E||---------------------------------|-------------------------6---5-6-|
     H||---------------------------------|-----------------8-----8---------|
     G||---------------7-6-----6-5-------|---------------7-----7-----------|
     D||-5p4h5/7h8p7-8-------7-------6---|-5p4h5/7h8p7-8-------------------|
     A||---------------------------------|---------------------------------|
     E||---------------------------------|---------------------------------|
Gtr.3E|----------------------------------|---------------------------------|
     H|--5~~~~~~~~~----------------------|-4~~~~~~~~~----------------------|
     G|----------------------------------|---------------------------------|
     D|----------------------------------|---------------------------------|
     A|----------------------------------|---------------------------------|
     E|----------------------------------|---------------------------------|
Gtr.3E|----------------------------------|---------------------------------|
     H|----------------------------------|-----------------8---------------|
     G|----------------7-6-----6-5-------|---------------7---7-------------|
     D|--5p4h5/7h8p7-8-------7-------6---|-5p4h5/7h8p7-8-------8-7-8-7-----|
     A|----------------------------------|----------------------------10-8-|
     E|----------------------------------|---------------------------------|
Gtr.3E|----------------------------------|---------------------------------||
     H|----------------------------------|---------------------------------||
     G|----------------------------------|---------------------------------||
     D|----------------------------------|---------------------------------||
     A|--7~~~~~~~~~----------------------|-6~~~~~~~~~~~--------------------||
     E|----------------------------------|---------------------------------||
(3:59 - 4:34)
Part B of the SOLO:
Gtr.3E|--------------------------|-------------------------|-------------------------|-------------------------|
     H|-----------12~~~~~~~~~~~--|-10-12b13-10----------10-|-10----------------------|-(10)--------------------|
     G|--9-----------------------|-------------12----9-----|-------------------------|-------------------------|
     D|--------------------------|-------------------------|-------------------------|-------------------------|
     A|--------------------------|-------------------------|-------------------------|-------------------------|
     E|--------------------------|-------------------------|-------------------------|-------------------------|
      |                          |                         |                         |                         |
Bass G|--------------------------|-------------------------|-------------------------|-------------------------|
     D|--------------------------|-------------------------|-------------------------|-------------------------|
     A|--------------sl----------|-------------------------|-0--------12------2--3--|-0--------12------------|
     E|--0--------12------2--3--|-0--------12------2--3--|-------------------------|-------------------2--3--|
 
Gtr.3E|--------------------------|-------------------------|-------------------------|-------------------------|
     H|--------------------------|-------------10-/12------|-------------------------|-------------------------|
     G|--------------9--12--9----|-------9--12----------11~|(11)~~~~~~~~----11-/14-14-14-12p11-------------------|
     D|--------9--12-------------|-------------------------|-------------------------|-------12-------------14-|
     A|--------------------------|-------------------------|-------------------------|-------------------------|
     E|--------------------------|-------------------------|-------------------------|-------------------------|
      |                          |                         |                         |                         |
Bass G|--------------------------|-------------------------|-------------------------|-------------------------|
     D|--------------------------|-------------------------|-------------------------|-------------------------|
     A|--------------sl----------|-------------------------|-0--------12------2--3--|-0--------12------------|
     E|--0--------12------2--3--|-0--------12------2--3--|-------------------------|-------------------2--3--|
 
Gtr.3E|--------------------------|-------------------------|-------------------------|----------------------19-|
     H|-----------------------15~~-17~~~~------------15-17-|-19b20~~~~~~~~~~~~~~~~~~~|(19^)~~~~~~--------17----|
     G|-----------16~~~~~~~------|-------------------------|-------------------------|-------------------------|
     D|-14-----------------------|-------------------------|-------------------------|-------------------------|
     A|--------------------------|-------------------------|-------------------------|-------------------------|
     E|--------------------------|-------------------------|-------------------------|-------------------------|
      |                          |                         |                         |                         |
Bass G|--------------------------|-------------------------|-------------------------|-------------------------|
     D|--------------------------|-------------------------|-------------------------|-------------------------|
     A|--------------sl----------|-------------------------|-0--------12------2--3--|-0--------12------------|
     E|--0--------12------2--3--|-0--------12------2--3--|-------------------------|-------------------2--3--|
 
Gtr.3E|-19--------------------17-|-17--19--17--15-------17-|-17----------------------|-(17)--------------------|
     H|--------------------------|-------------------17----|-------------------------|-------------------------|
     G|--------------------------|-------------------------|-------------------------|-------------------------|
     D|--------------------------|-------------------------|-------------------------|-------------------------|
     A|--------------------------|-------------------------|-------------------------|-------------------------|
     E|--------------------------|-------------------------|-------------------------|-------------------------|
      |                          |                         |                         |                         |
Bass G|--------------------------|-------------------------|-------------------------|-------------------------|
     D|--------------------------|-------------------------|-------------------------|-------------------------|
     A|--------------sl----------|-------------------------|-0--------12------2--3--|-0--------12----0-0h12---|
     E|--0--------12------2--3--|-0--------12------2--3--|-------------------------|-------------------------|
(4:35 - 5:11) Repeat Part A of the Solo.
(5:11 - 5:46)
VERSE 4: (rhythm notation above the acoustic guitar: d - downstroke, u - upstroke)
VoiceE|--------------------------------------------------------------------|
     H|--------7---7----7---7----5----------------8------------------------|
     G|--------------------------------7---4-------------------------------|
     D|--------------------------------------------------------------------|
     A|--------------------------------------------------------------------|
     E|---   Slishkom  grustno  byt?  bessmert - nym  ---------------------|
      |  d     u d   d     u d   d u d u |     u       u     u d   d u d u |
Gtr.1E|--2-----2-2---2-----2-2---2-2-2-2-|-----0-------0-----0-0---0-0-0-0-|
(acu)H|--3-----3-3---3-----3-3---3-3-3-3-|-----0-------0-----0-0---0-0-0-0-|
     G|--2-----2-2---2-----2-2---2-2-2-2-|-----0---R---0-----0-0---0-0-0-0-|
     D|--0-----0-0---0-----0-0---0-0-0-0-|-----2---E---2-----2-2---2-2-2-2-|
     A|----------------------------------|-----2---S---2-----2-2---2-2-2-2-|
     E|----------------------------------|-0-------T-----------------------|
      |                                  |                                 |
Bass G|--14----------11------11h12p11------|---------14h16p14------12-----11h12p|
     D|------------------------------12--|-14------------------------------|
     A|----------------------------------|---------------------------------|
     E|----------------------------------|---------------------------------|
 
VoiceE|--------------------------------------------------------------------|
     H|--------7---7---7---7---5-------------------------------------------|
     G|------------------------------7-----4-------------------------------|
     D|--------------------------------------------------------------------|
     A|--------------------------------------------------------------------|
     E|------ Te zhe  li-tza  den?  za  dnyom  ----------------------------|
      |  d     u d   d     u d   d u d u |     u       u     u d   d u d u |
Gtr.1E|--2-----2-2---2-----2-2---2-2-2-2-|-----0-------0-----0-0---0-0-0-0-|
     H|--3-----3-3---3-----3-3---3-3-3-3-|-----0-------0-----0-0---0-0-0-0-|
     G|--2-----2-2---2-----2-2---2-2-2-2-|-----0---R---0-----0-0---0-0-0-0-|
     D|--0-----0-0---0-----0-0---0-0-0-0-|-----2---E---2-----2-2---2-2-2-2-|
     A|----------------------------------|-----2---S---2-----2-2---2-2-2-2-|
     E|----------------------------------|-0-------T-----------------------|
      |                                  |                                 |
Bass G|-p11------------------------------|---------------------------------|
     D|------12--10----------12--14--12--|-14---------------------------12h14-|
     A|----------------------------------|-------------14----------12h14------|
     E|----------------------------------|---------------------------------|
 
VoiceE|--------------------------------------------------------------------|
     H|----------7---7---7---7---5---------------8-------------------------|
     G|------------------------------7-----4-------------------------------|
     D|--------------------------------------------------------------------|
     A|--------------------------------------------------------------------|
     E|-------- Te zhe glu -py - e   ot - ve  - ty  -----------------------|
      |  d     u d   d     u d   d u d u |     u       u     u d   d u d u |
Gtr.1E|--2-----2-2---2-----2-2---2-2-2-2-|-----0-------0-----0-0---0-0-0-0-|
     H|--3-----3-3---3-----3-3---3-3-3-3-|-----0-------0-----0-0---0-0-0-0-|
     G|--2-----2-2---2-----2-2---2-2-2-2-|-----0---R---0-----0-0---0-0-0-0-|
     D|--0-----0-0---0-----0-0---0-0-0-0-|-----2---E---2-----2-2---2-2-2-2-|
     A|----------------------------------|-----2---S---2-----2-2---2-2-2-2-|
     E|----------------------------------|-0-------T-----------------------|
      |                                  |                                 |
Bass G|--14----------11------9h11p9------|---------------------------------|
     D|------------------------------12--|-9-------7h9p7-------------------|
     A|----------------------------------|---------------------10------9h10p|
     E|----------------------------------|---------------------------------|
 
VoiceE|--------------------------------------------------------------------|
     H|-------------5----7----7--5---------5-------------------------------|
     G|----------7--------------------7------------------------------------|
     D|--------------------------------------------------------------------|
     A|--------------------------------------------------------------------|
     E|-------  na vop -ros  zachem zhi - vem  ----------------------------|
      |  d     u d   d     u d   d u d u |     u       u     u d   d u d u |
Gtr.1E|--2-----2-2---2-----2-2---2-2-2-2-|-----0-------0-----0-0---0-0-0-0-|
     H|--3-----3-3---3-----3-3---3-3-3-3-|-----0-------0-----0-0---0-0-0-0-|
     G|--2-----2-2---2-----2-2---2-2-2-2-|-----0---R---0-----0-0---0-0-0-0-|
     D|--0-----0-0---0-----0-0---0-0-0-0-|-----2---E---2-----2-2---2-2-2-2-|
     A|----------------------------------|-----2---S---2-----2-2---2-2-2-2-|
     E|----------------------------------|-0-------T-----------------------|
      |                                  |                                 |
Bass G|----------------------------------|---------------------------------|
     D|----------------------------------|---------------------------------|
     A|-p9---7---5-----------5---7---5---|-7-------------------------------|
     E|----------------------------------|---------------------------------|
 
            Ne vsem volchatam   stat?  volka - mi   
Gtr.1E|--2-----2-2---2-----2-2---2-2-2-2-|-----0-------0-----0-0---0-0-0-0-|
     H|--3-----3-3---3-----3-3---3-3-3-3-|-----0-------0-----0-0---0-0-0-0-|
     G|--2-----2-2---2-----2-2---2-2-2-2-|-----0---R---0-----0-0---0-0-0-0-|
     D|--0-----0-0---0-----0-0---0-0-0-0-|-----2---E---2-----2-2---2-2-2-2-|
     A|----------------------------------|-----2---S---2-----2-2---2-2-2-2-|
     E|----------------------------------|-0-------T-----------------------|
      |                                  |                                 |
Gtr.3E|----------------------------------|---------------------------------|
     H|----------------------------------|---------------------------------|
     G|----------7-----------------------|-----9---R---9---R---------------|
     D|----------7-----------------------|-----9---E---9---E---------------|
     A|----------5-----------------------|-----7---S---7---S---------------|
     E|----------------------------------|---------T-------T---------------|
 
              Ne vsyakiy  vzmah  sulit   udar   
Gtr.1E|--2-----2-2---2-----2-2---2-2-2-2-|-----0-------0-----0-0---0-0-0-0-|
     H|--3-----3-3---3-----3-3---3-3-3-3-|-----0-------0-----0-0---0-0-0-0-|
     G|--2-----2-2---2-----2-2---2-2-2-2-|-----0---R---0-----0-0---0-0-0-0-|
     D|--0-----0-0---0-----0-0---0-0-0-0-|-----2---E---2-----2-2---2-2-2-2-|
     A|----------------------------------|-----2---S---2-----2-2---2-2-2-2-|
     E|----------------------------------|-0-------T-----------------------|
      |                                  |                                 |
Gtr.3E|----------------------------------|---------------------------------|
     H|----------------------------------|---------------------------------|
     G|----------7-----------------------|-----9---R---9---R---------------|
     D|----------7-----------------------|-----9---E---9---E---------------|
     A|----------5-----------------------|-----7---S---7---S---------------|
     E|----------------------------------|---------T-------T---------------|
 
              Est? strannyy dar letet? na pla - mya  
Gtr.1E|--2-----2-2---2-----2-2---2-2-2-2-|-----0-------0-----0-0---0-0-0-0-|
     H|--3-----3-3---3-----3-3---3-3-3-3-|-----0-------0-----0-0---0-0-0-0-|
     G|--2-----2-2---2-----2-2---2-2-2-2-|-----0---R---0-----0-0---0-0-0-0-|
     D|--0-----0-0---0-----0-0---0-0-0-0-|-----2---E---2-----2-2---2-2-2-2-|
     A|----------------------------------|-----2---S---2-----2-2---2-2-2-2-|
     E|----------------------------------|-0-------T-----------------------|
      |                                  |                                 |
Gtr.3E|----------------------------------|---------------------------------|
     H|----------------------------------|---------------------------------|
     G|----------7-----------------------|-----9---R---9---R---------------|
     D|----------7-----------------------|-----9---E---9---E---------------|
     A|----------5-----------------------|-----7---S---7---S---------------|
     E|----------------------------------|---------T-------T---------------|
 
              chtob tam ostat?sya navseg -
Gtr.1E|--2-----2-2---2-----2-2---2-2-2-2-|
     H|--3-----3-3---3-----3-3---3-3-3-3-|
     G|--2-----2-2---2-----2-2---2-2-2-2-|
     D|--0-----0-0---0-----0-0---0-0-0-0-|
     A|----------------------------------|
     E|----------------------------------|
      |                                  |
Gtr.3E|----------------------------------|
     H|----------------------------------|
     G|----------7-----------------------|
     D|----------7-----------------------|
     A|----------5-----------------------|
     E|----------------------------------|
(5:46 - 6:25) CHORUS:
        da...    Da,    da,    da,   vsyo  skazano
Gtr.3E|----------------------------------|----------------------------------|
     H|----------------------------------|----------------------------------|
     G|--9--R----------------------------|----------2-----------------------|
     D|--9--E----------------------------|----------2-----------------------|
     A|--7--S----------------------------|----------0-------------0-3-2-----|
     E|-----T----------------------------|------------------------------3-2-|
...
(6:26 - 6:45) OUTRO:
Gtr.1E|----------------------------------|----------------------------------|
     H|----------3---------------0-------|--------------2-------------------|
     G|--------------4---------------0---|----------2-----------------------|
     D|------4---------------0-----------|------2---------------------------|
     A|--2-------------------------------|--0-------------------------------|
     E|------------------3---------------|----------------------------------|
           Chto dal?she  budet - neizvestno..    
Gtr.1E|----------------------------------|--------------------- free time --|
     H|----------3---------------0-------|----------2--^--------2-3p2p0-----|
     G|--------------4---------------0---|----------2--|----------------2---|
     D|------4---------------0-----------|------2---2--|--------------------|
     A|--2-------------------------------|--0-------------------------------|
     E|------------------3---------------|----------------------------------|
Gtr.1E|---------------------------------------------------------2--^--------|
  +  H|----2-3p2p0------------------------------------------3---3--|--------|
Gtr.2G|----2-4p2p0-2--------2-4p2p0---------------------2-------2--|--------|
     D|------------4--------4-5p4p2-4---------------0-----------0--|--------|
     A|-----------------------------5-------0-------------------------------|
     E|--------------------------------------------------------- D ---------|
Вверх

Зверь mp3

Em             F#
Я здесь, я пришел к тебе.
G            F#
Пришел вопреки судьбе.
Em              F#
С небес льется лунный свет.
G                 F#
Я - зверь, мне покоя нет.
Am
Крадусь в темноте как тень,
Em
В душе проклиная день,
Am                            C        H
Когда я всего лишь призрак в серой толпе.

Ты помнишь? Давным-давно,
Я жил как во сне легко.
Но, раненный кем-то волк,
Вонзил мне клыки в плечо...
И я стал таким как он,
Невидимым ясным днем,
Убийца и злой хозяин в мире ночном.

                 Cmaj7 D
   Ты - невинный ангел,
               Em   D
   Ангел поднебесья.
                   Cmaj7 D
   В этой жизни странной,
           A
   Ты не моя.
                   Cmaj7 D
   За тобой тень зверя,
                Em   D
   Вы повсюду вместе,
               Cmaj7
   А теперь поверь мне,
     D        Em
   Зверь этот я!

Позволь, я коснусь тебя.
Войдет в кровь звериный яд.
И лунный священный свет,
В тебе свой оставит след.
Ты будешь змеи быстрей,
Всех женщин земных нежней.
Позволь мне тебя коснуться или убей!

   Ты - невинный ангел,
   Ангел поднебесья.
   В этой жизни странной,
   Ты не моя.
   За тобой тень зверя,
   Вы повсюду вместе,
   А теперь поверь мне,
   Зверь этот я!

Смотри же в мои глаза.
Твой взгляд не понять нельзя.
Ты хочешь меня убить.
Убить и про все забыть.
А ночь, словно боль, темна.
Зверь здесь, и он ждет тебя.
Ты чувствуешь вкус охоты, зверь этот - я!

   Ты - невинный ангел,
   Ангел поднебесья.
   В этой жизни странной,
   Ты не моя.
   За тобой тень зверя,
   Вы повсюду вместе,
   А теперь поверь мне,
   Зверь этот я!
Вверх

Зверь (2 вариант) mp3

riff 1:            riff 2:            riff 3:          
3|---------------| 3|---------------| 3|----------5----|
4|-2-2--0-2-4-4--| 4|-5-5--5-7-5-4--| 4|-7-7--5-7---7--|
5|---------------| 5|---------------| 5|---------------|

riff 4:            riff 5:            riff 6:
3|---------------| 3|---------------| 3|---------------|
4|----------5----| 4|-5-5-5-4-------| 4|-5-4-0-2-------|
5|-7-7--5-7---7--| 5|---------------| 5|---------------|

Vesrse:

 riff 1
E
 Я здесь, я пришел к тебе

 riff 2
G
 Пришел вопреки судьбе

 riff 1
E
 С небес льется лунный свет

 riff 2
G
 Я - зверь, мне покоя нет

 riff 3
A
 Крадусь в темноте как тень

 riff 4
Em
 В душе проклиная день

 riff 3                         riff 5  
A                              C        H
 Когда я всего лишь призрак в серой толпе 

   Ты помнишь? Давным-давно
   Я жил как во сне легко
   Но раненный кем-то волк
   Вонзил мне клыки в плечо...
   И я стал таким как он
   Невидимым ясным днем
   Убийца и злой хозяин в мире ночном 

Chorus:
              C     D
Ты - невинный ангел
            Em   D
Ангел поднебесья
                C
В этой жизни странной
 riff 6
Ты не моя

  За тобой тень зверя
  Вы повсюду вместе
  А теперь поверь мне
  Зверь этот я!

Позволь, я коснусь тебя
Войдет в кровь звериный яд
И лунный священный свет
В тебе свой оставит след
Ты будешь змеи быстрей
Всех женщин земных нежней
Позволь мне тебя коснуться или убей!

Chorus.

3|---------------------|
4|---9-9/10-9-7--------|
5|-7------------10-9-7-|
6|---------------------|

3|------------------12-|
4|---9-9/10-9-7--------|
5|-7------------10-----|
6|---------------------| ?Что то типа того, запарился подбирать :))

Смотри же в мои глаза
Твой взгляд не понять нельзя
Ты хочешь меня убить
Убить и про все забыть
А ночь, словно боль, темна
Зверь здесь, и он ждет тебя
Ты чувствуешь вкус охоты, зверь этот - я!
Вверх

Здесь куют металл

  A
Здесь не место для бесед,
Грохот на пределе.
Как при старте ста ракет,
Как девятый вал.

Заготовки молот бьет,
Кровь ликует в теле,
Льет горячий жгучий пот -
Здесь куют металл.

Мышцы крепкие блестят,
Покорись железо,
Чтоб во век лихой булат
Устали не знал.

Раздуваются меха,
Сложен ход процесса.
Это вам не чепуха -
Здесь куют металл.

Напряженный труд мужской
Выдержит не каждый,
Только кто душой такой
Чистый как кристалл.

Если вдруг тебе невмочь
Мы не просим дважды,
Уходи скорее прочь -
Здесь куют металл.
Вверх

Зомби

 Am               C7            Em
Лунный свет твой сон в земле нарушит,
 Am             C7           Em
Полночь бросит колдовской металл,
 Dm         C#         Dm/C    Dm/B
Пес завоет по усопшим душам,
 Bb6           Bb6         А  А7
Рухнет вниз могильная плита.

Три часа горит костер в часовне.
Там, где перевернут черный крест.
Три часа свободы есть у Зомби,
                                   А   А7
Чтоб вершить свой страшный суд и месть.
 B7
Месть.

 Em
Зомби!
 Am                      B7
Твой убийца крепко спит, но ты его найдешь.
 Em
Зомби!
 Am                  B7
Не спасут его мольбы и святая ложь.
 Em
Зомби!
 Am                        B7
Лунный свет - хозяин твой, он за твоей спиной.
 Em
Зомби!
 Am
Лишь кровавою ценой обретешь покой.
 А
Зомби!

Рваный саван вновь пропитан кровью,
Цель близка, и страшен твой прыжок,
Гром расколет небо над тобою,
И сразит убийцу твой клинок...
Вверх

Зомби (2 вариант)

 Intro :
 
 E------------------------------------------------------------------------|
 H------------------------------------------------------------------------|
 G------------------------------------------------------------------------|
 D---7--------5--------4--------5--5--5--5--4------2----(2)---------------|
 A---7--------5--------4--------5--5--5--5--4------2----(2)---------------|
 E---5--0--0--3--0--0--2--0--0--3--3--3--3--2--0---0----(0)---------------|
 
 I verse :
 
     Лунный свет твой сон в земле нaрушит
 E------------------------------------------------------------------------|
 H------------------------------------------------------------------------|
 G--------------------5---------------------------------------------------|
 D---7----------------5----------2----------------------------------------|
 A---7----------------3----------2----------------------------------------|
 E---5---------------------------0----------------------------------------|
 
     Полночь бросит колдовской метaл
 E------------------------------------------------------------------------|
 H------------------------------------------------------------------------|
 G--------------------5---------------------------------------------------|
 D---5--7-------------5----------2----------------------------------------|
 A---5--7-------------3----------2----------------------------------------|
 E---3--5------------------------0----------------------------------------|
 
     Пес зaвоет по усопшим душaм
 E------------------------------------------------------------------------|
 H------------------------------------------------------------------------|
 G---7--------------------------------------------------------------------|
 D---7--------------------------------------------------------------------|
 A---5--------------------------------------------------------------------|
 E------------------------------------------------------------------------|
 
     Рухнет вниз могильнaя плитa
 E------------------------------------------------------------------------|
 H------------------------------------------------------------------------|
 G---7--------------------------------------------------------------------|
 D---7--------------------------------------------------------------------|
 A---5--------------------------------------------------------------------|
 E------------------------------------------------------------------------|
 
     Три чaсa горит костер в чaсовне
     Тaм, где перевернут черный крест
     Три чaсa свободы есть у Зомби
     Чтоб вершить свой стрaшный суд и месть
 
 Chorus:
 
     Зомби!                    Твой убийцa крепко спит, но ты его нaйдешь
     Зомби!                    Hе спaсут его мольбы и святaя ложь
     Зомби!                    Лунный свет - хозяин твой, он зa твоей спиной
 E-----------------------------------------------------------------------|
 H-----------------------------------------------------------------------|
 G-----------------------------------------4-----------------------------|
 D---2-------------2-----------------7-----4-----------------------------|
 A---2-------------2-----------------7-----2-----------------------------|
 E---0---3-2-3-2-0-0-2-3-2--3--2--0--5-----------------------------------|
 
 
                  Три чaсa горит костер в чaсовне
                  Тaм, где перевернут черный крест
                   Три чaсa свободы есть у Зомби
               Чтоб вершить свой стрaшный суд и месть
 
                               Зомби!
             Твой убийцa крепко спит, но ты его нaйдешь
                               Зомби!
                 Hе спaсут его мольбы и святaя ложь
                               Зомби!
           Лунный свет - хозяин твой, он зa твоей спиной
                               Зомби!
                 Лишь кровaвою ценой обретешь покой
                               Зомби!
 
                 Рвaный сaвaн вновь пропитaн кровью
                 Цель близкa, и стрaшен твой прыжок
                    Гром рaсколет небо нaд тобою
                   И срaзит убийцу твой клинок...

Вверх

Игра с огнём

  Em
Грянул хор, и качнулся храм,
            D
Смерть пришла за мной в пять часов утра,
         C                  H           Em
Боль рванула грудь, сразу стал свободен я.

Лица шлюх из миланских лож,
Лица старых дев сводит злобы дрожь.
Им бы плоть мою растерзать средь бела дня.

   Am7
   Я был им как в горле кость,
   C
   Я видел их всех насквозь,
   D
   Я злостью платил за злость.

      Em                D/E
      Эй! Я для них злодей.
                  C
      Знающий секрет
                      Am
      Низменных страстей
       G    F#m  Em
      Нищих и царей.
                   D/E
      Я был скрипачом,
                         C
      Мой талант - мой грех.
                    Am
      Жизнью и смычком
      G    F#m     Em
      Я играл с огнем.

Нет клейма на душе моей,
Кроме господа я не знал царей.
Но на скрипке мне выжег мастер тайный знак.

И змеей пущен черный слух,
Что смычком моим правит адский дух,
А мой лучший друг - Гений Тьмы, сам Сатана!

   Он был мне как в горле кость,
   Он в сердце будил лишь злость,
   Он стоил кровавых слез.

      Эй! Я для них злодей
      Знающий секрет
      Низменных страстей
      Нищих и царей.
      Я был скрипачом,
      Мой талант - мой грех.
      Дьявол ни при чем,
      Я играл с огнем!

         Dm       Ddim
         Эй, скрипач,
          Dm   Ddim
         Ты горяч,
          D       Dm
         Как всегда строптив.
          Dm     Ddim
         Ты не прав,
          Dm     Ddim
         Ты как раб
          D     Dm
         Мой играл мотив.
                A                 A7         Dm
         Ты не хочешь знать, что гений - это я!
                A                 A7          Dm
         Ты же мой футляр, ты - платье для меня...

         ... скрипач!
         Пой и плач,
         И хвались игрой.
         Все равно,
         Мертв ты давно.
         Что нам род людской?
         Им бы пить и жрать в три горла день и ночь,
         Будь ты трижды гений, им нельзя помочь.

      Dm               C
      Но спустись на дно,
                        B
      Пряча в струнах смех.
                     Gm
      Сделай звук вином,
       F    Em      Dm
      Сокруши мой трон.
                      C
      "Адским" скрипачом
                     B
      Станешь без помех.
                  Gm
      Мы тебя поймем,
       F     Em      Dm
      Там играй с огнем!
Вверх

Игра с огнём (2 вариант)

  Em
Грянул хор и качнулся храм,
           Am
Смерть пришла за мной в пять часов утра-
       C                    D            Em
Боль рванула грудь, сразу стал свободен я.
 Em      
Лица шлюх из миланских лож,
       Am
Лица старых дев сводит злобы дрожь
       C               D                Em
Им бы плоть мою растерзать средь бела дня.
 Am
Я был им как в горле кость,
 C
Я видел их всех насквозь,
 D
Я злостью платил за злость!
 Em              D
Эй! Я для них злодей!
           C                 Am
Знающий секрет, низменных страстей-
  G  Fm   Em
Нищих и царей.
  Em        D                    C
Я был скрипачом, мой талант мой грех-
           Am     G   Fm      Em
Жизнью и смычком, я играл с огнём!

Нет клейма на душе моей,
Кроме господа я не знал царей,
Но на скрипке мне выжег мастер тайный знак.
И змеёй пущен черный слух, 
Что смычком моим правит адский дух,
А мой лучший друг- гений тьмы сам сатана!

Он был мне как в горле кость,
Он в сердце будил лишь злость,
Он стоил кровавых слёз.

Эй! Я для них злодей!
Знающий секрет, низменных страстей-
Нищих и царей.
Я был скрипачом, мой талант мой грех-
Дьявол не причём, я играл с огнём!

----------------------
----------------------
-2------2-1----2--2-1- 
----------------------
----------------------
----------------------
 Эй, скрипач, ты горяч.
----------------------
----------------------
----------------------
-4----4--3----3--0----
----------------------
----------------------
Как всегда строптив.
----------------------
----------------------
-2—-2---1----2--2---1- 
----------------------
----------------------
----------------------
Ты не прав, ты как раб
----------------------
----------------------
----------------------
-4--4---3--3--0-------
----------------------
----------------------
Мой играл мотив.
       A                         Dm
Ты не хочешь знать, что гений это я!
       A                         Dm
Ты же мой футляр, ты платье для меня!
    D7    Dm     D7  D    Dm      D    Dm     
Скрипач! Пой и плач, и хвались игрой.
 Dm     D7  Dm         D7
Все равно, мертв ты давно,
 D      Dm       D    Dm
Что нам род людской?
       A                               Dm
Им бы пить и жрать в три горла день и ночь,
           A                        Dm
И будь ты трижды гений им нельзя помочь!

 Dm             C                    Bb
Но спустись на дно, пряча в струнах смех,
             Gm    F    Em      Dm
Сделай звук вином, сокруши мой трон!
 Dm        C                    Bb
Адским скрипачом, станешь без помех
          Gm     F   Em      Dm
Мы тебя поймём- там играй с огнём.
Вверх

Игры не для нас

 Аm
Они посмотрят с вышки,
Они составят план,
И люди словно фишки
Уйдут в густой туман.


Они в слепом азарте
Нажмут на пуск ракет
И вычертят на карте
Значки своих побед.

Припев:
   F         E   E7    Аm
   Война им кажется игрою,
   F       E    E7       Аm
   Она приводит их в экстаз,
   F       E   E7     Аm
   Но заявляем мы с тобою:
    F       E    E7     Аm
   "Все эти игры не для нас".
   Не для нас.


Когда бушует пламя,
Сжигая хлеб и кров,
Они следят за нами
Из крепких бункеров.


Припев.

В дыму завес планета
И солнца диск померк.
Оно для них монета,
А взрывы - фейерверк.

Припев.

Игры не для вас!!!
Вверх

Игры не для нас (2 вариант)

 Intro (0.35 - 1.03)

  (1)|------------------------------------------------|
  (2)|------------------------------------------------|
  (3)|------------------------------------------------|
  (4)|-------2--------4--------5--------7--------45--|
  (5)|-0--0--0--0--0--2--0--0--3--0--0--5--0--0--23--|
  (6)|------------------------------------------------|
  p.m  .  .     .  .     .  .     .  .     .  .

  (1)|--------------------------------------------|
  (2)|--------------------------------------------|
  (3)|--------------------------------------------|
  (4)|-------2--------4--------5--------7----57--|
  (5)|-0--0--0--0--0--2--0--0--3--0--0--5----35--|
  (6)|--------------------------------------------|
  p.m  .  .     .  .     .  .     .  .      

 Kyplet (1.03 - 1.18)

  (1)|-------------------------------------------------|
  (2)|-------------------------------------------------|
  (3)|-------------------------------------------------|
  (4)|--2--2--2--2--2--2--2--2--4--------5--------57--|
  (5)|--0--0--0--0--0--0--0--0--2--0--0--3--0--0--35--|
  (6)|-------------------------------------------------|
  p.m      .  .  .  .  .  .  .     .  .     .  .

  (1)|---------------------------------------------|
  (2)|---------------------------------------------|
  (3)|---------------------------------------------|
  (4)|--2--2--2--2--2--2--2--2--2--2--2--2--57-5--|
  (5)|--0--0--0--0--0--0--0--0--0--0--0--0--35-3--|
  (6)|---------------------------------------------|
  p.m      .  .  .  .  .  .  .  .  .  .  .

  (1)|-------------------------------------------------|
  (2)|-------------------------------------------------|
  (3)|-------------------------------------------------|
  (4)|--2--2--2--2--2--2--2--2--4--------5--------57--|
  (5)|--0--0--0--0--0--0--0--0--2--0--0--3--0--0--35--|
  (6)|-------------------------------------------------|
  p.m      .  .  .  .  .  .  .     .  .     .  .

  (1)|-------------------------------------------------|
  (2)|-------------------------------------------------|
  (3)|-------------------------------------------------|
  (4)|-2--2--2--2--2--2--2--2--2--2--2--2--2--2--2--2--|
  (5)|-0--0--0--0--0--0--0--0--0--0--0--0--0--0--0--0--|
  (6)|-------------------------------------------------|
  p.m     .  .  .  .  .  .  .  .  .  .  .  .  .  .  .   

  Play (1.18 - 1.32)

  (1)|------------------------------------------------|
  (2)|------------------------------------------------|
  (3)|------------------------------------------------|
  (4)|-------2--------4--------5--------7--------45--|
  (5)|-0--0--0--0--0--2--0--0--3--0--0--5--0--0--23--|
  (6)|------------------------------------------------|
  p.m  .  .     .  .     .  .     .  .     .  .

  (1)|--------------------------------------------|
  (2)|--------------------------------------------|
  (3)|--------------------------------------------|
  (4)|-------2--------4--------5--------7----57--|
  (5)|-0--0--0--0--0--2--0--0--3--0--0--5----35--|
  (6)|--------------------------------------------|
  p.m  .  .     .  .     .  .     .  .      


  Kuplet 2 (1.33 - 1.46)

  (1)|-------------------------------------------------|
  (2)|-------------------------------------------------|
  (3)|-------------------------------------------------|
  (4)|--2--2--2--2--2--2--2--2--4--------5--------57--|
  (5)|--0--0--0--0--0--0--0--0--2--0--0--3--0--0--35--|
  (6)|-------------------------------------------------|
  p.m      .  .  .  .  .  .  .     .  .     .  .

  (1)|---------------------------------------------|
  (2)|---------------------------------------------|
  (3)|---------------------------------------------|
  (4)|--2--2--2--2--2--2--2--2--2--2--2--2--57-5--|
  (5)|--0--0--0--0--0--0--0--0--0--0--0--0--35-3--|
  (6)|---------------------------------------------|
  p.m      .  .  .  .  .  .  .  .  .  .  .

  (1)|-------------------------------------------------|
  (2)|-------------------------------------------------|
  (3)|-------------------------------------------------|
  (4)|--2--2--2--2--2--2--2--2--4--------5--------57--|
  (5)|--0--0--0--0--0--0--0--0--2--0--0--3--0--0--35--|
  (6)|-------------------------------------------------|
  p.m      .  .  .  .  .  .  .     .  .     .  .

  (1)|-------------------------------------------------|
  (2)|-------------------------------------------------|
  (3)|-------------------------------------------------|
  (4)|-2--2--2--2--2--2--2--2--2-----------------------|
  (5)|-0--0--0--0--0--0--0--0--0--0--0--0--0--2--3--5--|
  (6)|-------------------------------------------------|
  p.m     .  .  .  .  .  .  .  .      

  Chorus (1.47 - 2.11)
  
   3 time
  (1)|-----------------------------------------------------------|
  (2)|-----------------------------------------------------------|
  (3)|-----------------------------------------------------------|
  (4)|---------------------2--------4--------5-------------------|
  (5)|-3-------2-----0--0--0--0--0--2--0--0--3--0--0-----0-2-3-5-|
  (6)|-1-------0-------------------------------------------------|

  (1)|--------------|
  (2)|--------------|
  (3)|--------------|
  (4)|--------------|
  (5)|-3-------2----|
  (6)|-1-------0----|

  Play (2.12 - 2.25) 

  (1)|------------------------------------------------|
  (2)|------------------------------------------------|
  (3)|------------------------------------------------|
  (4)|-------2--------4--------5--------7--------45--|
  (5)|-0--0--0--0--0--2--0--0--3--0--0--5--0--0--23--|
  (6)|------------------------------------------------|
  p.m  .  .     .  .     .  .     .  .     .  .

  (1)|--------------------------------------------|
  (2)|--------------------------------------------|
  (3)|--------------------------------------------|
  (4)|-------2--------4--------5--------7----57--|
  (5)|-0--0--0--0--0--2--0--0--3--0--0--5----35--|
  (6)|--------------------------------------------|
  p.m  .  .     .  .     .  .     .  .      

  Kuplet (2.26 - 2.39)

  Chorus (2.40 - 3.05)
  
  Play 

  Solo
Вверх

Икар

 Am G       C   F G
Кто видел Икара,
 Am G          C F E
Там в синей дали?
Крыл легкая пара,
Сын грешной земли.

         Dm        C    G            C
   Он летел над горами гордый, как орел,
         Dm      C       G
   Рассекая стрелой облака.
         Dm        C    G          C
   Он летел над горами солнцем озарен,
         Dm        C        E
   И на землю смотрел свысока.

Кто дал ему крылья?
Кто ждал на скале?
Но все позабыл он,
И скрылся во мгле.

   Он летел над горами гордый, как орел,
   Рассекая стрелой облака.
   Он летел над горами солнцем озарен,
   И на землю смотрел свысока.

Кто видел Икара,
Там в синей дали?
Крыл легкая пара,
Здесь в серой пыли?

   Он летел над горами гордый, как орел,
   Рассекая стрелой облака.
   Он летел над горами солнцем озарен,
   И на землю смотрел свысока.
Вверх

Искушение

Проигрыш: Dm, F, Em, E7

   Am    Am/B     C    Am/B
Закрой глаза, коснись меня.
   Dm                   E
Ты пахнешь соблазном и медом.
  Dm              Dm/F
Исчезнет грязь осколков дня,
  E7
Ударит в гонг природа.
    Am    Am/C      C       Am/B
Крадется ночь, как черный зверь,
   Dm                  E
Вибрирует в лунном свечении,
     Dm               Dm/F
Скребется в дверь, стучит в окно.
   E7
Ей холодно одной,
 Dm
Холодно одной.
    F           Dm
Лаская ночь, коснись меня,
 F               E7
Имя тебе - искушенье.

   Dm
   Дай мне
   F                    Am
   Больше, чем просто любовь,
   Dm
   Дай мне
   F
   Больше чем страсть,
           E
   Что проходит, словно боль.
        F
   Я сгорю в огне,
       G             Am
   Сгорю в тебе, пускай.
        F               E7
   Я могу стать пеплом, но...


Ты знаешь все, что надо знать.
Я знаю чуть больше чем надо.
За мной иди в тот древний край,
Что был Библейским Садом.
Забудь о тех, кто говорит,
Что путь твой - разврат и паденье.
Пускай в ночи твой смех звучит
И спелый плод горит,
Дьявольски горит.
Лаская ночь, коснись меня,
Имя тебе - искушение.


   Дай мне
   Больше чем просто любовь.
   Дай мне!
   Больше чем страсть,
   Что проходит, словно боль.
   Я сгорю в огне,
   Сгорю в тебе, пускай.
        F
   Я могу стать пеплом,
    E7               Am
   Лишь познав твой рай...

рай... рай... рай...
Вверх

Искушение (2 вариант)

Am            Am*             
Закрой глаза, коснись меня 
F                     E
Ты пахнешь соблазном и медом
Dm                F 
Исчезнет грязь осколков дня
E	E*	E	E*
Ударит в гонг природа 
Крадется ночь как черный зверь 
Вибрирует в лунном свечении 
Скребется в дверь, стучит в окно 
   E   E*    E	  E*
Ей холодно одной 
E   E*    E	E*
Холодно одной 

 
Dm               F
Лаская ночь, коснись меня
Dm             E 
Имя тебе - искушение  


Dm
Дай мне!
   F              Am 
Больше, чем просто любовь
Dm 
Дай мне!
          F 
Больше, чем страсть,
          E
Что проходит словно боль
 F
Я сгорю в огне 
  G            Am
Сгорю в тебе, пускай
Dm                  E          Am
Я могу стать пеплом, но... 

Ты знаешь все, что надо знать 
Я знаю чуть больше, чем надо 
За мной иди в тот древний край,
Что был Библейским Садом 
Забудь о тех, кто говорит 
Что путь твой - разврат и паденье 
Пускай в ночи твой смех звучит 
И спелый плод горит 
Дьявольски горит 
Лаская ночь, коснись меня 
Имя тебе - искушение 

Дай мне! 
Больше, чем просто любовь 
Дай мне! 
Больше, чем страсть 
Что проходит словно боль
Я сгорю в огне 
Сгорю в тебе, пускай 
Я могу стать пеплом 
Лишь познав твой рай...


Am*
E—0--
H—1—
G—0--
D—2--
A—0--
E—0--

E*
E—0--
H—0—
G—2--
D—3--
A—3--
E—0--
Вверх

Кода

В скобках указаны ноты, которые играются флажалетом.

|-----------12~-|------------|
|--------(12)---|------(12)~-|
|-----(12)------|---8--------|
|---9-----------|------------|
|---------------|-9----------|
|-0-------------|------------|

|------------------|-----(12)---|
|--------(12)------|------------|
|------(12)-(12)---|------------|
|----(12)-----(12)-|---------11-|
|--10--------------|--12--------|
|------------------|------------|

|------0-|-0----|-2----|---------|
|-----1--|--0---|---3--|---------|
|----2---|---0--|-----2|--------0|
|---2----|------|-0----|-020--2--|
|-0------|------|------|----3----|
|--------|-0----|------|---------|

|-----------12~-|------------|
|--------(12)---|------(12)~-|
|-----(12)------|---8--------|
|---9-----------|------------|
|---------------|-9----------|
|-0-------------|------------|

|------------------|-----(12)---|
|--------(12)------|------------|
|------(12)-(12)---|------------|
|----(12)-----(12)-|---------11-|
|--10--------------|--12--------|
|------------------|------------|

|------0-|-0----|-------|-0~~~~-|
|-----1--|--0---|-4-----|-0~~~~-|
|----2---|---0--|---4---|-0~~~~-|
|---2----|------|-----4-|-------|
|-0------|------|-2-----|-------|
|--------|-0----|-------|-0~~~~-|

|-----------8|-3------|-2-------|
|---------8--|--------|---3-----|
|-------9----|----4---|-----2---|
|----10------|------5-|-0-------|
|------------|--------|---------|
|--8---------|-3------|---------|

|-----------|---------|
|-----------|---------|
|--------0--|---------|
|-020--2----|---------|
|----3------|---------|
|-----------|---0~~~~-|
Вверх

Колизей mp3

Am
Боги прокляли спятивший Рим,
G
Город брошенных женщин и калек.
F
Здесь глотают отравленный дым,
               E
Режут лезвием вены.

Здесь по праздникам ходят смотреть,
Как в агонии бьется человек,
Как пирует свирепая смерть
В желтом круге арены.

    Dm
   Сила приносит свободу,
         Am     G          D
   Побеждай и станешь звездой,
                Dm
   А может обретешь покой.

             Am         C
      Твой враг в пыли жалок и слаб,
       Dm               F
      Загнанный зверь, раненый раб.
        Am            C
      Еще секунда и скажет "Убей!"
       Dm              F G
      Перст императора...
          Am         C
      Святой судьбе не прекословь!
       Dm          F
      Воет толпа, чувствует кровь,
           Am             C
      Не стоит скорби ни жен, ни друзей
       Dm              F G
      Жизнь гладиатора
           Am D# Am F
      Колизей.

Словно псы, что дерутся за кость,
Обреченные рвут друг другу плоть.
В их глазах не азарт и не злость,
Ничего кроме боли.

Ты один не сломался, не лег,
От ударов хранил тебя Господь.
Видишь, Цезарь сошел на песок
Наградить тебя волей.

   Сила приносит свободу,
   Побеждай и станешь звездой,
   А может обретешь покой.

      Твой враг в пыли жалок и слаб,
      Загнанный зверь, раненый раб
      Еще секунда и скажет "Убей!"
      Перст императора...
      Святой судьбе не прекословь!
      Воет толпа, чувствует кровь,
      Не стоит скорби ни жен, ни друзей
      Жизнь гладиатора
      Колизей.

 Am
Помнишь, ты ведь помнишь,
        Em
Ты был гордым мудрым вождем
 Am
Помнишь, ты ведь помнишь,
        Em
Как вошли солдаты в твой дом.
         Am
Ты встречал рассвет
                  E
Среди выжженных скал.
        Am
Время шло, и вот
                 E
Час расплаты настал.
  Dm              F
Хлеба и зрелищ народу
        Am
Через край!
 Dm               B
Сила приносит свободу,
      G  E
Побеждай!

      Твой враг в пыли жалок и слаб,
      Загнанный зверь, раненый раб
      И выбил искры из серых камней
      Меч гладиатора.
      Святой судьбе не прекословь!
      Воет толпа, чувствует кровь,
      Не стоит скорби ни жен, ни друзей
      Жизнь императора
      Колизей.
Вверх

Колизей (2 вариант) mp3

Tempo: moderately (123 bpm)

Tuning: half-step down (e to eb
                        H to Bb
                        G to Gb
                        D to Db
                        A to Ab
                        E to Eb)

INTRO:

Gtr.1Eb||---------------------|--------------------|---------------------|----------------||
     Hb||---------------------|--------------------|---------------------|----------------||
     Gb||---------------------|--------------------|---------------------|----------------||
     Db||-9-------------------|-(9)----------------|-(9)-----------------|-(9)------------||
     Ab||-9-------------------|-(9)----------------|-(9)-----------------|-(9)------------||
     Eb||-7-------------------|-(7)----------------|-(7)-----------------|-(7)------------||

RIFF 1:

Gtr.2Eb|----------------------------------|---------------------------------|
     Hb|----------7-----------7-----------|-7-----------7-----------7-------|
     Gb|------4-----------4-----------4---|---------4-----------4-------4---|
     Db|--4-----------4-----------4-------|-----4-----------4---------------|
     Ab|----------------------------------|---------------------------------|
     Eb|----------------------------------|---------------------------------|
       |                                  |                                 |
Gtr.1Eb|----------------------------------|---------------------------------|
     Hb|----------------------------------|---------------------------------|
     Gb|----------------------------------|---------------------------------|
     Db|--9-------------------------------|-(9)-----------------------------|
     Ab|--9-------------------------------|-(9)-----------------------------|
     Eb|--7-------------------------------|-(7)-----------------------------|

 

Gtr.2Eb|----------------------------------|---------------------------------|
     Hb|----------6-----------6-----------|-6-----------6-----------6-------|
     Gb|------5-----------5-----------5---|---------5-----------5-------5---|
     Db|--3-----------3-----------3-------|-----3-----------3---------------|
     Ab|----------------------------------|---------------------------------|
     Eb|----------------------------------|---------------------------------|
       |                                  |                                 |
Gtr.1Eb|----------------------------------|---------------------------------|
     Hb|----------------------------------|---------------------------------|
  ;   Gb|----------------------------------|---------------------------------|
     Db|--3-------------------------------|-(3)-----------------------------|
     Ab|--3-------------------------------|-(3)-----------------------------|
     Eb|--1-------------------------------|-(1)-----------------------------|

 

Gtr.2Eb|----------------------------------|---------------------------------|
     Hb|----------7-----------7-----------|-7-----------7-----------7-------|
     Gb|------4-----------4-----------4---|---------4-----------4-------4---|
     Db|--4-----------4-----------4-------|-----4-----------4---------------|
     Ab|----------------------------------|---------------------------------|
     Eb|----------------------------------|---------------------------------|
       |                                  |                                 |
Gtr.1Eb|----------------------------------|---------------------------------|
     Hb|----------------------------------|---------------------------------|
     Gb|----------------------------------|---------------------------------|
     Db|--9-------------------------------|-(9)-----------------------------|
     Ab|--9-------------------------------|-(9)-----------------------------|
     Eb|--7-------------------------------|-(7)-----------------------------|

 

Gtr.2Eb|----------------------------------|---------------------------------|
     Hb|----------8-----------8-----------|-8-----------8-----------8-------|
     Gb|------7-----------7-----------7---|---------7-----------7-------7---|
     Db|--5-----------5-----------5-------|-----5-----------5---------------|
     Ab|----------------------------------|---------------------------------|
     Eb|----------------------------------|---------------------------------|
       |                                  |                                 |
Gtr.1Eb|----------------------------------|---------------------------------|
     Hb|----------------------------------|---------------------------------|
     Gb|----------------------------------|---------------------------------|
     Db|--5-------------------------------|-(5)-----------------------------|
     Ab|--5-------------------------------|-(5)-----------------------------|
     Eb|--3-------------------------------|-(3)-----------------------------|

RIFF 2:

Gtr.1Eb|----------------------------------|---------------------------------|
  +  Hb|----------------------------------|---------------------------------|
Gtr.2Gb|--------------------------R-------|-------------------------R-------|
     Db|--9-9-9-9-9---9-9---9-9---E-------|-9-9-9-9-9---9-9---9-9---E-------|
     Ab|--9-9-9-9-9---9-9---9-9---S-------|-9-9-9-9-9---9-9---9-9---S-------|
     Eb|--7-7-7-7-7---7-7---7-7---T-------|-7-7-7-7-7---7-7---7-7---T-------|

VERSE 1:

VoiceEb|--------------------------------------------------------------------|
     Hb|--------------------------------------------------------------------|
     Gb|--------------------------------------------------------------------|
     Db|----------2---0---4-------2---0---------0---2---4-------------------|
     Ab|------------------------------------2-------------------------------|
     Eb|-------  Bo -gi pro  - klya -li  spya -tivshiy Rim   ---------------|
       |                                  |                                 |
Gtr.1Eb|----------------------------------|---------------------------------|
  +  Hb|----------------------------------|---------------------------------|
Gtr.2Gb|----------------------------------|---------------------------------|
     Db|----------------------------------|---------------------------------|
     Ab|--9-9-9-9-9---9-9---9-9---9-9-9-9-|-7/9-9-9-9---9-9---9-9---9-9-9-9-|
     Eb|--7-7-7-7-7---7-7---7-7---7-7-7-7-|-5/7-7-7-7---7-7---7-7---7-7-7-7-|

 

VoiceEb|--------------------------------------------------------------------|
     Hb|--------------------------------------------------------------------|
     Gb|------------------------------------2-------2-----------------------|
     Db|----------2---0----4------2---0-----------------4-------2---0-------|
     Ab|--------------------------------------------------------------------|
     Eb|-------  Go -rod bro  - shen-nyh  zhen - schin  i      ka -lek  ----|
       |                                  |                                 |
Gtr.1Eb|----------------------------------|---------------------------------|
  +  Hb|----------------------------------|---------------------------------|
Gtr.2Gb|----------------------------------|---------------------------------|
     Db|----------------------------------|---------------------------------|
     Ab|--7-7-7-7-7---7-7---7-7---7-7-7-7-|-6/7-7-7-7---7-7---7-7---7-7-7-7-|
     Eb|--5-5-5-5-5---5-5---5-5---5-5-5-5-|-4/5-5-5-5---5-5---5-5---5-5-5-5-|



VoiceEb|--------------------------------------------------------------------|
     Hb|--------------------------------------------------------------------|
     Gb|--------------------------------------------------------------------|
     Db|----------0----0--4-------2---0----------0--2---4-------------------|
     Ab|-------------------------------------2------------------------------|
     Eb|------  Zdes? glota  -   yut  ot - rav -lennyy dym   ---------------|
       |                                  |                                 |
Gtr.1Eb|----------------------------------|---------------------------------|
  +  Hb|----------------------------------|---------------------------------|
Gtr.2Gb|----------------------------------|---------------------------------|
     Db|----------------------------------|---------------------------------|
     Ab|--6-6-6-6-6---6-6---6-6---6-6-6-6-|-5/6-6-6-6---6-6---6-6---6-6-6-6-|
     Eb|--4-4-4-4-4---4-4---4-4---4-4-4-4-|-3/4-4-4-4---4-4---4-4---4-4-4-4-|

 

VoiceEb|--------------------------------------------------------------------|
     Hb|--------------------------------------------------------------------|
     Gb|--------------------------------------------------------------------|
     Db|---0------0-------0---2---0----0--------5---------------------------|
     Ab|--------------------------------------------------------------------|
     Eb|- Re  - zhut     lez-vi - em  ve   -   ny   ------------------------|
       |                                  |                                 |
Gtr.1Eb|----------------------------------|---------------------------------|
  +  Hb|----------------------------------|---------------------------------|
Gtr.2Gb|----------------------------------|---------------------------------|
     Db|----------------------------------|------------------------/10------|
     Ab|--5-5-5-5-5---5-5---5-5---5-5-5-5-|-4/5-5-5-5---5-5---5-5--/10------|
     Eb|--3-3-3-3-3---3-3---3-3---3-3-3-3-|-2/3-3-3-3---3-3---3-3--/8-------|

...

VoiceEb|--------------------------------------------------------------------|
     Hb|--------------------------------------------------------------------|
     Gb|--------------------------------------------------------------------|
     Db|---0------0-------0---2---0----0------------------------------------|
     Ab|----------------------------------------4---------------------------|
     Eb|- zhel - tom    kru -ge   a - re   -   ny   ------------------------|
       |                                  |                                 |
Gtr.1Eb|----------------------------------|---------------------------------|
  +  Hb|----------------------------------|---------------------------------|
Gtr.2Gb|----------------------------------|---------------------------------|
     Db|----------------------------------|---------------------------------|
     Ab|--5-5-5-5-5---5-5---5-5---5-5-5-5-|-4-4-4-4-4---4-4---4-4---4-4-4-4-|
     Eb|--3-3-3-3-3---3-3---3-3---3-3-3-3-|-2-2-2-2-2---2-2---2-2---2-2-2-2-|

PRE-CHORUS:

VoiceEb|------------------------------------------------------------------------------------------------------|
     Hb|------------------------------------------------------------------------------------------------------|
     Gb|------------------------------------------------------------4---4-----4-----------2-------------------|
     Db|--2-----2-----0---2-----2-----0-----2-----2-------------------------------------------4-----2-----0---|
     Ab|------------------------------------------------------------------------------------------------------|
     Eb|- Si - la   pri -no -  sit  svo  - bo  - du.               Po -bezh -day          i sta - nesh? zvez- |
       |                                  |                                 |                                 |
Gtr.1Eb|----------------------------------|---------------------------------|---------------------------------|
  +  Hb|----------------------------------|---------------------------------|---------------------------------|
Gtr.2Gb|----------------------------------|---------------------------------|---------------------------------|
     Db|--9---------------------------7---|-9-------------------------------|---------------------------------|
     Ab|--7---------------------------5---|-7-------------------------------|-9---------------7---------------|
     Eb|----------------------------------|---------------------------------|-7---------------5---------------|

 

VoiceEb|--------------------------------------------------------------------|
     Hb|--------------------------------------------------------------------|
     Gb|--------------------------------------------------------------------|
     Db|---2----------0-------------------------0-------------------4---4---|
     Ab|------------------2-------0---2-------------------------------------|
     Eb|- do    -     o - oy,     a  mo   -   zhet                  ob -re- |
       |                                  |                                 |
Gtr.2Eb|--4---------------4---------------|-4---------------4---------------|
     Hb|--------5---------------5---------|-------5---------------5---------|
     Gb|--------------4---------------4---|-------------4---------------4---|
     Db|----------------------------------|---------------------------------|
     Ab|----------------------------------|---------------------------------|
     Eb|----------------------------------|---------------------------------|
       |                                  |                                 |
Gtr.1Eb|----------------------------------|---------------------------------|
     Hb|----------------------------------|---------------------------------|
     Gb|----------------------------------|---------------------------------|
     Db|----------------------------------|---------------------------------|
     Ab|--7-------------------------------|-(7)-----------------------------|
     Eb|--4-------------------------------|-(4)-----------------------------|

 

VoiceEb|--------------------------------------------------------------------|
     Hb|--------------------------------------------------------------------|
     Gb|--------------------------------------------------------------------|
     Db|---2----------0---------------------------------------------4-------|
     Ab|------------------2--------0----2-----------------------------------|
     Eb|- te     -    e - esh?    po - koy.                       Tvoy  ----|
       |                                  |                                 |
Gtr.2Eb|--3---------------3---------------|---------------------------------|
     Hb|--------3---------------3---------|---------------------------------|
     Gb|--------------4---------------4---|---------------------------------|
     Db|----------------------------------|---------------------------------|
     Ab|----------------------------------|---------------------------------|
     Eb|----------------------------------|-3p2p1p0-3p2p1p0-3p2p1p0-3p2p1p0-|
       |                                  |                                 |
Gtr.1Eb|----------------------------------|---------------------------------|
     Hb|----------------------------------|---------------------------------|
     Gb|----------------------------------|---------------------------------|
     Db|----------------------------------|---------------------------------|
     Ab|--5-------------------------------|---------------------------------|
     Eb|--3-------------------------------|-3p2p1p0-3p2p1p0-3p2p1p0-3p2p1p0-|

CHORUS:

VoiceEb|--------------------------------------------------------------------|
     Hb|--------------------------------------------------------------------|
     Gb|---4----------2---------------------2-------------------------------|
     Db|------------------4-----------------------4-----2---4---------------|
     Ab|--------------------------------------------------------------------|
     Eb| vrag      v py -li,              zha  - lok    i slab,   ----------|
       |                                  |                                 |
Gtr.1Eb|----------------------------------|---------------------------------|
  +  Hb|----------------------------------|---------------------------------|
Gtr.2Gb|--4-----------4-----------4-------|-7-----------7-----------7-------|
     Db|--4-----------4-------4-4-4-------|-7-----------7-------7-7-7-------|
     Ab|--2-----------2-------2-2-2-------|-5-----------5-------5-5-5-------|
     Eb|----------------------------------|---------------------------------|

 

VoiceEb|--------------------------------------------------------------------|
     Hb|--------------------------------------------------------------------|
     Gb|--------------------------------------------------------------------|
     Db|--2---2---4---2---------------------2---2---4---5---------------4---|
     Ab|--------------------------------------------------------------------|
     Eb| zagnannyy  zver?,                 ra -nennyy  rab.             E- -|
       |                                  |                                 |
Gtr.1Eb|----------------------------------|---------------------------------|
  +  Hb|----------------------------------|---------------------------------|
Gtr.2Gb|--9-----------9-----------9-------|-9-------------------------------|
     Db|--9-----------9-------9-9-9-------|-9-------------------------------|
     Ab|--7-----------7-------7-7-7-------|-7-------------------------------|
     Eb|----------------------------------|---------------------------------|

 

VoiceEb|--------------------------------------------------------------------|
     Hb|--------------------------------------------------------------------|
     Gb|---4----------2---------------------2-------------------------------|
     Db|------------------4-------4---4-----------4-----2---4---------------|
     Ab|--------------------------------------------------------------------|
     Eb| sche        se- kun  -  da,  i   ska - zhet   "u -bey"     --------|
       |                                  |                                 |
Gtr.1Eb|----------------------------------|---------------------------------|
  +  Hb|----------------------------------|---------------------------------|
Gtr.2Gb|--4-----------4-----------4-------|-7-----------7-----------7-------|
     Db|--4-----------4-------4-4-4-------|-7-----------7-------7-7-7-------|
     Ab|--2-----------2-------2-2-2-------|-5-----------5-------5-5-5-------|
     Eb|----------------------------------|---------------------------------|

 

VoiceEb|--------------------------------------------------------------------|
     Hb|--------------------------------------------------------------------|
     Gb|--------------------------------------------------------------------|
     Db|--2------2----4---2---0---------------------------------------------|
     Ab|--------------------------2-----------------------------------------|
     Eb| perst   im -pe -ra -to -ra.    ------------------------------------|
       |                                  |                                 |
Gtr.1Eb|----------------------------------|---------------------------------|
  +  Hb|----------------------------------|---------------------------------|
Gtr.2Gb|--9-----------9-----------9-------|---------------------------------|
     Db|--9-----------9-------9-9-9-------|-5-------5-------7-------7-------|
     Ab|--7-----------7-------7-7-7-------|-5-------5-------7-------7-------|
     Eb|----------------------------------|-3---3-3-3-------5---5-5-5-------|
  
 ...

RIFF 1

VERSE 2

PRE-CHORUS

CHORUS

INTERLUDE:

Gtr.Eb|--------7-----------------|-------------------------|-------7-----------------|-------------------------|
    Hb|-----------------10-------|-(10)--------------------|----------------10-------|-(10)--------------------|
    Gb|-----7--------7-----------|-------------------------|----7--------7-----------|-------------------------|
    Db|--9--------9--------------|-------------------------|-9--------9--------------|-------------------------|
    Ab|--------------------------|-------------------------|-------------------------|-------------------------|
    Eb|--------------------------|-------------------------|-------------------------|-------------------------|
      |                          |                         |                         |                         |
BassGb|----------------/11------|---------------/11------|-------------------------|-------------------------|
    Db|--------4-----------------|-------4-----------------|---------------/9-------|---------------/9-------|
    Ab|--2-----------2-----------|-2-----------2-----------|-------5-----------------|-------5-----------------|
    Eb|--------------------------|-------------------------|-3-----------3-----------|-3-----------3-----------|

 

Gtr.Eb|--------------------------|-------------------------|-------7-----------------|-------------------------|
    Hb|--------10-------8--------|-(8)---------------------|----------------10-------|-(10)--------------------|
    Gb|-----7--------7-----------|-------------------------|----7--------7-----------|-------------------------|
    Db|--9--------9--------------|-------------------------|-9--------9--------------|-------------------------|
    Ab|--------------------------|-------------------------|-------------------------|-------------------------|
    Eb|--------------------------|-------------------------|-------------------------|-------------------------|
      |                          |                         |                         |                         |
BassGb|----------------/16------|---------------/16------|---------------/11------|---------------/11------|
    Db|--------9-----------------|-------9-----------------|-------4-----------------|-------4-----------------|
    Ab|--7-----------7-----------|-7-----------7-----------|-2-----------2-----------|-2-----------2-----------|
    Eb|--------------------------|-------------------------|-------------------------|-------------------------|

SOLO:

LeadEb|--12h14p12----------------------------------------|-------------------12-14-12h14p12---------------------|
    Hb|-----------15-14~~~~~~~~~~~~~~~~~~~~~~~~~~~~~~~~~~~~~~-------12-14-15---------------15p14-12----12-14-15-|
    Gb|--------------------------------------------------|-------14----------------------------14----------|
    Db|--------------------------------------------------|-------------------------------------------------|
    Ab|--------------------------------------------------|-------------------------------------------------|
    Eb|--------------------------------------------------|-------------------------------------------------|
      |                                                  |                                                 |
RthmEb|--------------------------------------------------|-------------------------------------------------|
    Hb|--------------------------------------------------|-------------------------------------------------|
    Gb|--------------------------------------------------|-------------------------------------------------|
    Db|--9-----------9-----------9-----------9-----------|-9-----------9-----------9-----------9-----------|
    Ab|--7-----7--7--7-----7--7--7-----7--7--7-----7--7--|-7-----7--7--7-----7--7--7-----7--7--7-----7--7--|
    Eb|--------------------------------------------------|-------------------------------------------------|

 

LeadEb|--14-------12-------------------------------------|-------------------------------------------------|
    Hb|--------------------15----------------------------|-------------------------------------------------|
    Gb|--------------------------11----------------------|-------------------------------------------------|
    Db|--- tremolo picking ---------------14-------12----|------------------ A.H. -------------------------|
    Ab|--------------------------------------------------|-9-----------------------------------------------|
    Eb|--------------------------------------------------|----------12------<10>---------------------------|
      |                                                  |                                                 |
RthmEb|--------------------------------------------------|-------------------------------------------------|
    Hb|--------------------------------------------------|-------------------------------------------------|
    Gb|--------------------------------------------------|-------------------------------------------------|
    Db|--------------------------------------------------|-------------------------------------------------|
    Ab|--9-----------9-----------9-----------9-----------|-9-----------9-----------9-----------9-----------|
    Eb|--7-----7--7--7-----7--7--7-----7--7--7-----7--7--|-7-----7--7--7-----7--7--7-----7--7--7-----7--7--|

 

LeadEb|--------------------------------------------------|-----------------------7h10p7---------------------|
    Hb|--------------------------------------------------|---7--10--7----7h10-10p7-------10p7-10p7-------------|
    Gb|----------------------7--------------7--9--7-----7--|-9-----------9-----------------------9-p7--9-p7--|
    Db|--------7-----------7---9p7----7--9-----------9-----|-------------------------------------------------|
    Ab|--7--9-----9--7--9--------9-----------------------|-------------------------------------------------|
    Eb|--------------------------------------------------|-------------------------------------------------|
      |                                                  |                                                 |
RthmEb|--------------------------------------------------|-------------------------------------------------|
    Hb|--------------------------------------------------|-------------------------------------------------|
    Gb|--------------------------------------------------|-------------------------------------------------|
    Db|--7-----------7-----------7-----------7-----------|-7-----------7-----------7-----------7-----------|
    Ab|--5-----5--5--5-----5--5--5-----5--5--5-----5--5--|-5-----5--5--5-----5--5--5-----5--5--5-----5--5--|
    Eb|--------------------------------------------------|-------------------------------------------------|

 

LeadEb|--------------------------------------------------|-------------------------------------------------|
    Hb|--------------------------------------------------|-------------------------------------------------|
    Gb|--9~~~~~~~~~~~~~~~~~~~~~~~~~~~~~~~~~~~~~----------|-(9)---7----<6>-----\- w/tremolo bar --|
    Db|--------------------------------------------------|----------- A.H. --------------------------------|
    Ab|--------------------------------------------------|-------------------------------------------------|
    Eb|--------------------------------------------------|-------------------------------------------------|
      |                                                  |                                                 |
RthmEb|--------------------------------------------------|-------------------------------------------------|
    Hb|--------------------------------------------------|-------------------------------------------------|
    Gb|--------------------------------------------------|-------------------------------------------------|
    Db|--------------------------------------------------|-------------------------------------------------|
    Ab|--7-----------7-----------7-----------7-----------|-7-----------7-----------7-----------7-----------|
    Eb|--5-----5--5--5-----5--5--5-----5--5--5-----5--5--|-5-----5--5--5-----5--5--5-----5--5--5-----5--5--|

 

LeadEb|--------------------------------------------------|-------------------------------------------------|
    Hb|--------------------------------------------------|-------------------------------------------------|
    Gb|--------------------------------------------------|-9-h11p9-p7--9-----9-h11p9-p7--9-----------7-----|
    Db|--2-h4-p2-p0--2-----2-h4-p2-p0--2-----------------|-------------------------------------------------|
    Ab|--------------------------------------------------|-------------------------------------------------|
    Eb|--------------------------------------------------|-------------------------------------------------|
      |                                                  |                                                 |
RthmEb|--------------------------------------------------|-------------------------------------------------|
    Hb|--------------------------------------------------|-------------------------------------------------|
    Gb|--------------------------------------------------|-------------------------------------------------|
    Db|--9-----------9-----------9-----------9-----------|-9-----------9-----------9-----------9-----------|
    Ab|--7-----7--7--7-----7--7--7-----7--7--7-----7--7--|-7-----7--7--7-----7--7--7-----7--7--7-----7--7--|
    Eb|--------------------------------------------------|-------------------------------------------------|

 

LeadEb|--------------------------10----------12----------|-12bend14.........release12------------14--------|
    Hb|--------------7-----------------------------------|-------------------------------------------------|
    Gb|--7-----------------------------------------------|-------------------------------------------------|
    Db|--------------------------------------------------|-------------------------------------------------|
    Ab|--------------------------------------------------|-------------------------------------------------|
    Eb|--------------------------------------------------|-------------------------------------------------|
      |                                                  |                                                 |
RthmEb|--------------------------------------------------|-------------------------------------------------|
    Hb|--------------------------------------------------|-------------------------------------------------|
    Gb|--------------------------------------------------|-------------------------------------------------|
    Db|--------------------------------------------------|-------------------------------------------------|
    Ab|--9-----------9-----------9-----------9-----------|-9-----------9-----------9-----------9-----------|
    Eb|--7-----7--7--7-----7--7--7-----7--7--7-----7--7--|-7-----7--7--7-----7--7--7-----7--7--7-----7--7--|

 

LeadEb|--17p14----14-19p14----14-17p14---19p14---17p14---19p14---|-17p14---19p14---17p14---19p14---17p14---19p14---17p14---19p14---|
    Hb|--------17----------17---------17------17------17------17-|------17------17------17------17------17------17------17------17-|
    Gb|--------------------------------------------------|-------------------------------------------------|
    Db|--------------------------------------------------|-------------------------------------------------|
    Ab|--------------------------------------------------|-------------------------------------------------|
    Eb|--------------------------------------------------|-------------------------------------------------|
      |                                                  |                                                 |
RthmEb|--------------------------------------------------|-------------------------------------------------|
    Hb|--------------------------------------------------|-------------------------------------------------|
    Gb|--------------------------------------------------|-------------------------------------------------|
    Db|--7-----------7-----------7-----------7-----------|-7-----------7-----------7-----------7-----------|
    Ab|--5-----5--5--5-----5--5--5-----5--5--5-----5--5--|-5-----5--5--5-----5--5--5-----5--5--5-----5--5--|

    Eb|--------------------------------------------------|-------------------------------------------------|

 

LeadEb|--15----14h15p14p12----------------------------------|-------------------------------------------------|
    Hb|--------------------15bend17~~~~~~~~~~~~~~--15----|-------------------------------------------------|
    Gb|--------------------------------------------------|-14~~~~~~~~~~~~~~~~~~~~~~~\------------|
    Db|--------------------------------------------------|-------------------------- w/tremolo bar --------|
    Ab|--------------------------------------------------|-------------------------------------------------|
    Eb|--------------------------------------------------|-------------------------------------------------|
      |                                                  |                                                 |
RthmEb|--------------------------------------------------|-------------------------------------------------|
    Hb|--------------------------------------------------|-------------------------------------------------|
    Gb|--------------------------------------------------|-------------------------------------------------|
    Db|--------------------------------------------------|-------------------------------------------------|
    Ab|--7-----------7-----------7-----------7-----------|-7-----------7-----------7-----------7-----------|
    Eb|--5-----5--5--5-----5--5--5-----5--5--5-----5--5--|-5-----5--5--5-----5--5--5-----5--5--5-----5--5--|

 

Gtr.1Eb|--------------------------|-------------------------|-------------------------|-------------------------|
     Hb|--12h15p12h15p12h15p12h15p12h15p12h15p12h15p12h15p12h15p12h15p12h15p12h15p12h15p12h15p12h15p12---------|
     Gb|--------------------------|-------------------------|-------------------------|-------------------------|
     Db|--------------------------|-------------------------|-------------------------|-------------------------|
     Ab|--------------------------|-------------------------|-------------------------|-------------------------|
     Eb|--------------------------|-------------------------|-------------------------|-------------------------|
       |                          |                         |                         |                         |
Gtr.2Eb|-- H5 --------------------|-------------------------|-------------------------|-------------------------|
     Hb|--------------------------|-------------------------|-------------------------|-------------------------|
     Gb|--------------------------|-------------------------|-7p6h7p6h7p6h7p6h7p6h7p6h7p6h7p6h7p6h7p6----------|
     Db|--------------------------|-------------------------|-------------------------|-------------------------|
     Ab|--------------------------|-------------------------|-------------------------|-------------------------|
     Eb|--------------------------|-------------------------|-------------------------|-------------------------|

BRIDGE: (I guess there?s also another voice)

VoiceEb|--------------------------------------------------------------------|
     Hb|--------------------------------------------------------------------|
     Gb|--------------------------------------------------------------------|
     Db|--------------------------------------------------------------------|
     Ab|--5-------5-----------4-------2-----5-------5-----------4-------2---|
     Eb| Pom  -  nish?,      ty      ved?  pom  -  nish?,      ty      byl -|
       |                                  |                                 |
Bass Gb|----------------------------------|---------------------------------|
     Db|----------------------------------|---------------------------------|
     Ab|--5---5-5-5---5-5-5---5-5-5---5-5-|-5---5-5-5---5-5-5---5-5-5---5-5-|
     Eb|----------------------------------|---------------------------------|

 

VoiceEb|--------------------------------------------------------------------|
     Hb|--------------------------------------------------------------------|
     Gb|--------------------------------------------------------------------|
     Db|--------------------------------------------------------------------|
     Ab|--4-------4---4-------4---5---------4-------------------------------|
     Eb| gor  -  dym mud  -  rym vozh   -  dem.         --------------------|
       |                                  |                                 |
Bass Gb|----------------------------------|---------------------------------|
     Db|----------------------------------|---------------------------------|
     Ab|--4---4-4-4---4-4-4---4-4-4---4-4-|-4---4-4-4---4-4-4---4-4-4---0---|
     Eb|----------------------------------|---------------------------------|

 

VoiceEb|--------------------------------------------------------------------|
     Hb|--------------------------------------------------------------------|
     Gb|--------------------------------------------------------------------|
     Db|--------------------------------------------------------2-------4---|
     Ab|--5-------5-----------4-------2-----5-------5-----------------------|
     Eb| Pom  -  nish?,      ty      ved?  pom  -  nish?,      kak     vosh-|
       |                                  |                                 |
Bass Gb|----------------------------------|---------------------------------|
     Db|----------------------------------|---------------------------------|
     Ab|--5---5-5-5---5-5-5---5-5-5---5-5-|-5---5-5-5---5-5-5---5-5-5---5-5-|
     Eb|----------------------------------|---------------------------------|

 

VoiceEb|--------------------------------------------------------------------|
     Hb|--------------------------------------------------------------------|
     Gb|--------------------------------------------------------------------|
     Db|--------------------------------------------------------------------|
     Ab|--4-------4--4-------4----5---------4----------------------4-----0--|
     Eb| li      solda   -  ty v tvoy      dom.                   Ty vstre -|
       |                                  |                                 |
Bass Gb|----------------------------------|---------------------------------|
     Db|----------------------------------|---------------------------------|
     Ab|--4---4-4-4---4-4-4---4-4-4---4-4-|-4---4-4-4---4-4-4---4-4-4---0---|
     Eb|----------------------------------|---------------------------------|

 

VoiceEb|--------------------------------------------------------------------|
     Hb|--------------------------------------------------------------------|
     Gb|--------------------------------------------------------------------|
     Db|-----------4--------------------------------4---4---4----2----------|
     Ab|---2---2-------------------------------------------------------5----|
     Eb| chal rassvet                             sre -di  vyzhzhen - nyh  -|
       |                                  |                                 |
Gtr. Eb|----------------------------------|---------------------------------|
     Hb|----------------------------------|---------------------------------|
     Gb|----------------------------------|---------------------------------|
     Db|----------4-----------2-----------|---------4-----------2-----------|
     Ab|--2---------------2-----------5---|-2---------------2-----------5---|
     Eb|----------------------------------|---------------------------------|
       |                                  |                                 |
Bass Gb|----------------------------------|---------------------------------|
     Db|----------------------------------|---------------------------------|
     Ab|--2---2-2-2---2-2-2---2-2-2---2-2-|-2---2-2-2---2-2-2---2-2-2---2-2-|
     Eb|----------------------------------|---------------------------------|

 

VoiceEb|--------------------------------------------------------------------|
     Hb|--------------------------------------------------------------------|
     Gb|--------------------------------------------------------------------|
     Db|--------------------------------------------------------------------|
     Ab|---4------5---4----------------------------------------------4--4---|
     Eb| ska   -  a - al.                                          Vremya  -|
       |                                  |                                 |
Gtr. Eb|----------------------------------|---------------------------------|
     Hb|----------------------------------|---------------------------------|
     Gb|----------------------------------|---------------------------------|
     Db|----------------------------------|---------------------------------|
     Ab|----------4-----------2-----------|---------4-----------2-----------|
     Eb|--2---------------2-----------5---|-2---------------2-----------5---|
       |                                  |                                 |
Bass Gb|----------------------------------|---------------------------------|
     Db|----------------------------------|---------------------------------|
     Ab|----------------------------------|---------------------------------|
     Eb|--2---2-2-2---2-2-2---2-2-2---2-2-|-2---2-2-2---2-2-2---2-2-2---2-2-|

...

VoiceEb|--------------------------------------------------------------------|
     Hb|--------------------------------------------------------------------|
     Gb|----------------------------------------------------------------2---|
     Db|--2-----2-----2---2-----2-----4-----5-----5-----------------5-------|
     Ab|--------------------------------------------------------------------|
     Eb| Hle - ba     i zre -  lisch na  - ro -  du               che -rez  |
       |                                  |                                 |
Gtr. Eb|----------------------------------|---------------------------------|
     Hb|----------------------------------|---------------------------------|
     Gb|--9---------------------------11--|-12------------------------------|
     Db|--9---------------------------11--|-12------------------------------|
     Ab|--7---------------------------9---|-10------------------------------|
     Eb|----------------------------------|---------------------------------|

 

VoiceEb|--------------------------------------------------------------------|
     Hb|--------------------------------------------------------------------|
     Gb|--4-----------------------------------------------------------------|
     Db|--------------------------------------------------------------------|
     Ab|--------------------------------------------------------------------|
     Eb| kray.                        --------------------------------------|
       |                                  |                                 |
Gtr. Eb|----------------------------------|---------------------------------|
     Hb|----------------------------------|---------------------------------|
     Gb|----------------------------------|---------------------------------|
     Db|----------------------------------|---------------------------------|
     Ab|--------------------------5-------|-------------------------5-------|
     Eb|--5h7---5h7---5h7---5h7-------7---|-5h7---5h7---5h7---5h7-------7---|

 

VoiceEb|--------------------------------------------------------------------|
     Hb|--------------------------------------------------------------------|
     Gb|----------------------------------------------------------------2---|
     Db|--2-----2-----2---2-----2-----4-----5-----5-----------------5-------|
     Ab|--------------------------------------------------------------------|
     Eb| Si  - la   pri -no -  sit  svo  - bo -  du,               po -bezh |
       |                                  |                                 |
Gtr. Eb|----------------------------------|---------------------------------|
     Hb|----------------------------------|---------------------------------|
     Gb|--9---------------------------7---|-5-------------------------------|
     Db|--9---------------------------7---|-5-------------------------------|
     Ab|--7---------------------------5---|-3-------------------------------|
     Eb|----------------------------------|---------------------------------|

 

VoiceEb|--------------------------------------------------------------------|
     Hb|--------------------------------------------------------------------|
     Gb|--2-----------------------------------------------------------------|
     Db|--------------------------------------------------------------------|
     Ab|--------------------------------------------------------------------|
     Eb| day.                         --------------------------------------|
       |                                  |                                 |
Gtr. Eb|----------------------------------|---------------------------------|
     Hb|----------------------------------|---------------------------------|
     Gb|----------------------------------|---------------------------------|
     Db|----------------------------------|---------------------------------|
     Ab|--------------------------3-------|-4-------------------------------|
     Eb|--3h5---3h5---3h5---3h5-------5---|-2-------------------------------|

CHORUS
Вверх

Король дороги mp3

 D
Я о ней мечтал всю жизнь.
Наконец мои желанья сбылись -
 Em
Вот она, вот она!

 D
Вся блестит и манит взгляд,
На такой не грех отправиться в ад -
 Em
Вот она, вот она!

    Bb
Чем дальше - тем больше,
Чем больше - тем сильней.
   C
Друзей душит зависть.
Плевать мне на друзей.
          Bb
И днем, и ночью я буду мчаться
По черной полосе.
    C
Слились воедино
                C D
Два призрака шоссе.

Припев.
   Em
   Я - король дороги,
   C/E
   Я - король от Бога.
   D
   В ад или рай -
     B7     C  D
   Сама выбирай!

   Em
   Жить как все мне скучно.
   C/E
   Мне и смерть - игрушка,
   D
   Скорость в крови,
    B7
   Удачу лови!

Я о ней мечтал всю жизнь,
И с небес она спускается вниз -
Вот она, вот она!

Золотой волной волос
Закружила и накрыла всерьез -
Вот она, вот она!

Чем дальше - тем больше,
Чем больше - тем сильней.
Нас двое в машине,
А ночь все горячей.
И днем, и ночью мы будем мчаться
По черной полосе.
Слились воедино
Два призрака шоссе.

Припев.

 B                  C
Мы на лету срывали вечность,
    Am7            B
А дорога шипела змеей.
                        C
Тела светились, словно свечи,
       Am7               B
В этой гонке такой неземной,
Неземной...

Я очнулся ото сна
И увидел свою жизнь из окна -
Вот она, вот она!

Старый кузов без колес.
И подруга, что целует взасос -
Вот она, вот она!

Чем дальше - тем больше,
Чем больше - тем сильней.
Все те же, все то же,
А ночь все холодней.
И днем, и ночью я пил не мало
За призраков шоссе...
Их больше не стало
На черной полосе.

Припев.
Вверх

Король дороги (2 вариант) mp3

Am                    Asus4
Я о ней мечтал всю жизнь
Am                       C
Наконец мои желанья сбылись
G        Am
Вот она. Вот она!

Вся блестит и манит взгляд
На такой не грех отправиться в ад
Вот она. Вот она!

F
Чем дальше - тем больше
                   G
Чем больше - тем сильней
F
Друзей душит зависть
                  G
Плевать мне на друзей
F                           G
И днем, и ночью я буду мчаться
По черной полосе
F
Слились воедино
                G
Два призрака шоссе!

        Am
        Я - король дороги
             F
        Я - король от Бога
        G
        В ад или рай
              E
        Сама выбирай!

        Жить как все мне скучно
        Мне и смерть игрушка
        Скорость в крови
        Удачу лови!

Я о ней мечтал всю жизнь
И с небес она спускается вниз
Вот она
Вот она!

Золотой волоной волос
Закружила и накрыла всерьез
Вот она
Вот она!

Чем дальше - тем больше
Чем больше - тем сильней
Нас двое в машине
А ночь все горячей
И днем, и ночью мы будем мчаться
По черной полосе
Слились воедино
Два призрака шоссе!

F                       G
Мы на лету срывали вечность
      Dm             E
А дорога шипела змеей
F                    G
Тела светились словно свечи
  Dm              E
В этой гонке такой неземной
Неземной...

Я очнулся ото сна
И увидел свою жизнь из окна
Вот она
Вот она!

Старый кузов без колес
И подруга, что целует взасос
Вот она
Вот она!

Чем дальше - тем больше
Чем больше - тем сильней
Все те же, все то же
А ночь все холодней
И днем, и ночью я пил не мало
За призраков шоссе...
Их больше не стало
На черной полосе

   Asus4
|----|----|----|
|----|----|--*-|
|----|--*-|----|
|----|--*-|----|
|----|----|----|
|----|----|----|
Вверх

Король дороги (3 вариант) mp3

G 
Я о ней мечтал всю жизнь 
наконец мои желанья сбылись
Am
Вот она. Вот она!

Вся блестит и манит взгляд 
на такой не грех отправиться в ад
Вот она. Вот она!

     F
Чем дальше - тем больше чем больше - тем сильней
    G
Друзей душит зависть плевать мне на друзей
           F                           
И днем, и ночью я буду мчаться по черной полосе
   G                         E    F
Слились воедино два призрака шоссе!

        Am                F
        Я - король дороги я - король от Бога
          G                    F  G
        В ад или рай cама выбирай!
        Жить как все мне скучно мне и смерть игрушка
        Скорость в крови удачу лови!

Я о ней мечтал всю жизнь 
и с небес она спускается вниз
Вот она Вот она!

Золотой волной волос 
закружила и накрыла всерьез 
Вот она Вот она!

Чем дальше - тем больше 
чем больше - тем сильней
Нас двое в машине, 
а ночь все горячей
И днем, и ночью мы будем мчаться 
По черной полосе
Слились воедино
Два призрака шоссе!

Em                  F
Мы на лету срывали вечность
    Dm            Em
А дорога шипела змеей
Em                     F
Тела светились словно свечи
        Dm              E
В этой гонке такой неземной
Неземной...

Я очнулся ото сна
И увидел свою жизнь из окна
Вот она Вот она!

Старый кузов без колес
И подруга, что целует взасос
Вот она Вот она!

Чем дальше - тем больше 
Чем больше - тем сильней
Все те же, все то же
А ночь все холодней
И днем, и ночью я пил не мало
За призраков шоссе...
Их больше не стало
На черной полосе  
Вверх

Крещение Огнем mp3

Аккорды при строе гитары на 1/2 тона ниже(Eb):
C#m=Dm
H=C
A=B
Gm=G#m
Ebm=Em
Db=D
H=H#
Am(V)=Bm


 C#m
Древние рощи полны голосов
H         A       C#m       
Шопотом трав и камней
   C#m
К северу тянется дым от костров
 H            A       C#m
Враг рыщет в той стороне
C#m    Gm    C#m
Духи грозы бьют в барабан
     H      A        C#m
Из молний куют нам мечи
     Gm       C#m
Мы принесём жертву богам
   H      A      C#m
Кровью своей напоим


Ebm
Против нас блеск византийских церквей
Db         H      Ebm
Пышность пиров и даров
Ebm
Мы придаём смерти наших детей
Db         H      Ebm
Зная жестокость врагов
       Am(V)   Ebm
Знаки луны грозят нам бедой
Db       H       Ebm
Стрелы поют об одном
       Am(V)       Ebm
Выбор жесток - крещение водой
Db      H      Ebm
Или крещение огнём

Припев:
С#m     (?)    H          C#m
Ооооо, Ооооо, крещение огнём
C#m     (?)    H          C#m
Ооооо, Ооооо, крещение огнём
Ebm     (?)    Db         Ebm     
Ооооо, Ооооо, крещение огнём
Ebm     (?)    Db         Ebm
Ооооо, Ооооо, крещение огнём

Мы обезумев от гнева дрались 
Веря в бессмертие душ
Станет погибший не горстью земли
А стражем в небесном саду
Вниз по реке идолам плыть
Некому бить им поклон
Нас больше нет - стоит ли жить
В мире крещённом огнём

Припев:
С#m     (?)    H          C#m
Ооооо, Ооооо, крещение огнём
C#m     (?)    H          C#m
Ооооо, Ооооо, крещение огнём
Ebm     (?)    Db         Ebm     
Ооооо, Ооооо, крещение огнём
Ebm     (?)    Db         Ebm
Ооооо, Ооооо, крещение огнём


 C#m
Древние рощи веками молчат
H           A       C#m       
В мире, крещённом огнём
Вверх

Крещение огнём

  Cm
Древние рощи полны голосов,
 B       G#       Cm
Шепота трав и камней.
К северу тянется дым от костров,
  B           G#       Cm
Враг рыщет в той стороне.

    Cm      D   G#        Cm
   Духи грозы бьют в барабан,
               B         G# B
   Из молний куют нам мечи.
    Cm      D   G#       Cm
   Мы принесем жертву богам,
             B      F  Cm
   Кровью своей напоим.

  Dm
Против нас - блеск византийских церквей,
 C          B       Dm
Пышность пиров и даров.
Мы предаем смерти наших детей,
  C      B          Dm
Зная жестокость врагов.

     Dm     E     B         Dm
   Знаки Луны грозят нам бедой,
            C        B  C
   Стрелы поют об одном.
    Dm       E        B       Dm
   Выбор жесток - крещение водой
           C       G
   Или крещение огнем!

      Cm  G#  B              Cm
      О - о - о, крещенье огнём...
      Cm  G#  B              F
      О - о - о, крещенье огнём...
      Dm  B   C              Dm
      О - о - о, крещенье огнём...
      Dm  B   C              G
      О - о - о, крещенье огнём...

Мы, обезумев от гнева, дрались,
Веря в бессмертие душ.
Станет погибший не горстью земли,
А стражем в небесном саду.

   Вниз по реке идолам плыть,
   Некому бить им поклон.
   Нас больше нет - стоит ли жить
   В мире крещенном огнем...

      О - о - о, крещенье огнём...
      О - о - о, крещенье огнём...
      О - о - о, крещенье огнём...
      О - о - о, крещенье огнём...

  Cm
Древние рощи веками молчат
   B        G#       Cm
В мире, крещённом огнём.
Вверх

Кровь за кровь

Проигрыш:
E|------------------------------|------------------------------|
B|----8---7---------------------|---7--------------------------|
G|---9--------9---7-------9-----|---7---9---7----------8-------|
D|--9-------------------10------|---7-----------10----9--------|
А|--------------------10--------|--------------------9---------|
E|------------------------------|------------------------------|

E|------------------------------|-----------------------------||
B|---8---7----8----10--8--------|-7--8--7--8--7Н8р7-----------||
G|--9------9------9----------9--|-7------------------7-----9--||
D|-9------------10---------10---|-7-----------------------9---||
А|-----------------------10-----|-----------------------10----||
E|------------------------------|-----------------------------||

Main riff:

E|------------------------------|------------------------------|
B|------------------------------|------------------------------|
G|------------------------------|------------------------------|
D|--7-------8-------7-----------|------------------------------|
А|-----8--5----8--5----8--5-5---|-5-5-----5--7--8--7-5Н7р5---5-|
E|------------------------------|------8--------------------8--|

E|------------------------------|------------------------------|
B|------------------------------|------------------------------|
G|------------------------------|------------------------------|
D|--7--------8--------7---------|------------------------------|
А|-----8--5-----8--5-----8--5-5-|-5-5----5--7--8--7-5Н7р5------|
E|------------------------------|------8------------------8--5-|

E|------------------------------|------------------------------|
B|------------------------------|------------------------------|
G|------------------------------|------------------------------|
D|-7--------8-------7-----------|------------------------------|
А|----8--5-----8--5---8--5---5--|-5-5---5-7--8--7--5Н7р5--8--5-|
E|------------------------------|-----8------------------------|

E|------------------------------|------------------------------|
B|------------------------------|------------------------------|
G|------------------------------|------------------------------|
D|-7--------8--------7----------|----------------------------7-|
А|----8--5-----8--5-----8--5--5-|-5--5---5--7-8--7-5Н7р5--8----|
E|------------------------------|------8-----------------------|
I Версия :

   G5                                   А5
   Ты готов сорваться в бой...  Понтий Пилат
E|----------------------|--------------------------------------|
B|----------------------|------------------------------11--10--|
G|----------------------|--------------------------------------|
D|---5------------------|--------7----------8--7---------------|
А|---5------------------|--------7----8--7--------8--7---------|
E|---3------------------|--------5-----------------------------|

 А
Древний град Иерусалим довлеет над тобой
Н
Понтий Пилат
 А                         Н
Ты готов сорваться в Рим, махнуть на все рукой
 А             Н
Забрав с собой солдат
 G#
Ты устал от этих лиц
           А
От чужой, неискренней земли
G#
Боль тупая бьет в висок
А            Н C    Н
Дню мучений выпал срок

Em
Кровь за кровь!
     D                 Em
В том воля не людей, а богов
 Em
Смерть за смерть!
    D                       Н
Ты должен не роптать, а терпеть
Em
Здесь твой ад!
D                     Em
Ты знаешь - нет дороги назад
Em
Пей свой яд!
 D                      Н
Пей, прокуратор Понтий Пилат

Над Голгофой - траур мглы ты чувствуешь беду
Ты сам не свой
Меж солдат, от зноя злых, твоих решений ждут
Два вора и святой

Он безумен - видит Бог
Виноват, лишь в том, что одинок
Но ты шепчешь приговор
                  Иудейский царь распят как вор!

                    Em           C
* (Так играется    В серебристый сон
* только здесь)     D            Н
*                  Ты бы с ним ушел
*                  По дороге вечных звезд
*                  Над простором строгих гор
*                  Ты бы перед ним
*                  На колени встал
*                  Не стыдясь ни слов, ни слез
*                  Кто любил - тот и распял...

Ты хотел найти покой на дне озерных вод
Понтий Пилат
Ты стал сам себе судьей, но смерть твоя не в счет
Для вечной Силы Зла

Дьявол помнит о тебе
Он в страстную ночь идет к воде
Жаждет смыть с себя позор
Но все тщетно до сих пор.
Вверх

Кто ты?

  G#m  D#m C# H      G#m D#m C#  G#m C# G#m
Сно - ва  полночь, слы- шу  чей-то  го-лос
 G#m D#m C# H   G#m D#m C# H D#m H D#m
Шеп-чет  и-мя, ма- нит  и зовет меня.
H  B   G#m B   H     B      G#m      B
И белым туманом на стеклах чей-то вздох оставлен,
H  B    G#m      B   H   B      G#m B
И гаснет вдруг пламя, хотя нет ветра.
 G#m D#m C#  H   G#m D#m  C# H  D#m H  D#m
Ви- жу  тень я, кто-то в черном у   окна.

     H  B       D#m       F#
   Кто ты? Наказанье или милость?
     H  B       D#m         D#dim
   Кто ты? Отрекатся не спеши.
    H B        D#m       F#   C#
   Может за душой моей явилась,
    H      G#m   D#m
   Только нет души.

Проклят, брошен словно камень с неба,
Страшно падать, только ждать еще страшней.
Всё помнить и жаждать любви, но быть распятым ею,
И мчатся к безумью, услышав голос.
Ровно в полночь снова тень идет ко мне.

   Кто ты? Наказанье или милость?
   Кто ты? Отрекатся не спеши.
   Может за душой моей явилась,
   Только нет души.
Вверх

Кто ты? (2 вариант)

1|---------------------------------|---------------------------
2|---------------------------------|----------------3---1-3---1
3|2-----0-----0--------------------|2-----0-------0------------
4|--4-----2-----2-4-----4^5^4-2---0|--4-----2---2-----0-----0--
5|----------2-------5-----------0--|----------2----------0-----
6|----0---------------0------------|----0----------------------

1|---------------------------------|---------------------------
2|---------------------------------|------0-------0-3---1--0---
3|-2----0-----0--------------------|-2------0---0------------2-
4|---4----2-----2-4-----4^5^4-2---0|---4------2-------0------4-
5|----------2-------5-----------0--|---------------------0-----
6|----0---------------0------------|-----0---------------------

1|-0--------------|
2|---0------------|
3|-------2--------|
4|-----5---4^5-2--|
5|----------------|
6|----------------|

Снова полночь -
слышу чей-то голос,
Шепчет имя,
манит и зовет меня...


1|---------------|--------------|--------------|---------------
2|-8----8-7---7--|5----5-4--4---|-1----1-4--4--|-5----5-4------
3|---9----------8|--5---------5-|---2---------5|---5------5-4--
4|---------------|--------------|--------------|--------------5
5|-----0----0----|----0----0----|-----0----0---|-----0---------
6|---------------|--------------|--------------|---------------

И белым
Туманом
На стеклах чей-то вздох оставлен,
И гаснет вдруг пламя
Хотя нет ветра.
Вижу тень я -
Кто-то в черном у окна.

  C  Н7      Em
Кто ты? Наказанье или милость?
  C  Н7      Em
Кто ты? Отрекаться не спеши!
 C Н7        Em
Может, за душой моей явилась?
 G      C     Em
Только нет души.

Проклят, брошен
словно камень с неба,
Страшно падать,
только ждать еще страшней!
Все помнить
И жаждать
Любви, но быть распятым ею,
И мчаться
К безумью,
Услышав Голос...

Ровно полночь -
снова тень идет ко мне...
Вверх

Кто ты? (3 вариант)

--------------------------------------------------------------------
--------------------------------------------------------------------
-2-----0-----0-------------------2-----0-------0-7---5---7---5------
---4-----2-----2-4-----24----2-----4-----2---2----------------------
-------------------5-----3-----3-------------------0---0---0---0----
-----0-----0---------0-----0---------0-----0------------------------
сно -  ва   в пол -   ночь      слы -  шу       чей- то  го-лос

-----------------------------------------------------------------0-------
---------------------------------------0--------------------------0-0----
-2-----0-----0-------------------2-------0-----0-7---5---4---2-----0-----
---4-----2-----2-4-----24----2-----4---------2-----------------------452-
-------------------5-----3-----3-----------------------------------------
-----0-----0---------0-----0---------0-----0-------0---0---0---0---------
шеп - чет        и -  мя        ма  - нит        и  зо- вёт ме - ня

-------------------------------------------------0------------------
-8-----7-----7---5-----4-----4---1-----4-------4---4----------------
---9-----8-----8---5-----5-----5---2-----5---5----------------------
-----------------------------------------------------5---5-4-2-1----
-----0-----0---------0-----0---------0-----0---------------------3-2
--------------------------------------------------------------------
   и  бе- лым     ту- ма- ном           на стё-клах чей - то вздох оставлен

-------------------------------------------------0---3-----2------------
-8-----7-----7---5-----4-----4---1-----4-------4---4---5-----4----------
---9-----8-----8---5-----5-----5---2-----5---5-----------5--------------
---------------------------------------------------------------5-4------
-----0-----0---------0-----0---------0-----0-----------------------3-2--
-----------------------------------------------------------------------3
   и  гас-нет   вдруг пла-мя            хотя   нет  вет -  ра

-----------------------------------------------------------------0-------
---------------------------------------0--------------------------0-0----
-2-----0-----0-------------------2-------0-----0-7---5---4---2-----0-----
---4-----2-----2-4-----24----2-----4---------2-----------------------452-
-------------------5-----3-----3-----------------------------------------
-----0-----0---------0-----0---------0-----0-------0---0---0---0---------
 ви - жу        тень   я        кто - то     в  чёр-ном  у   ок-на

 
ПРИПЕВ:

   C  B        Em        G       F#
 Кто ты - наказанье или милость?
 
 Кто ты? Отрекаться не спеши.

 Может за душой моей явилась...
  C      A     Em 
 Только нет души.


2-Й КУПЛЕТ:

 Проклят, брошен, словно камень с неба.
 Страшно падать, только ждать ещё страшней.
 Всё помнить и жаждать любви, но быть распятым ею
 И мчаться к безумью, услышав голос...
 Ровно в полночь снова тень идёт ко мне.

ПРИПЕВ.

  
Вверх

Мания величия

Tempo: slow (80 bpm)
(0:01 - 0:26)
INTRO:
Church Organ.
...
(0:26 - 0:50)
VERSE 1: (*2 times)
Choir1E|-10----------------------------------------------|-------------------------------------------------|
      H|-------10-------------------------------------8--|-10-------10----------------------------------8--|
      G|----------7--------------------------7--9--10----|-------9-----------------------------7--9--10----|
      D|-------------------------------------------------|-------------------------------------------------|
      A|-------------------------------------------------|-------------------------------------------------|
      E|-------------------------------------------------|-------------------------------------------------|
       |                                                 |                                                 |
Bass  G|-------------------------------------------------|-------------------------------------------------|
 +    D|-------------------------------------------------|-------------------------------------------------|
choir2A|----------------5--7--8--5-----------------------|----------------4--5--7--------------------------|
      E|-------------------------------------------------|-------------------------5-----------------------|
 
Choir1E|-------------------------------------------------|-------------------------------------------------|
      H|-10----8--------8--10----8-----------------------|-------------------------------------------------|
      G|----------10----------------------------9--10----|-7--------10----9--7-----7-----------------------|
      D|----------------------------10-------------------|----------------------10-------------------------|
      A|-------------------------------------------------|-------------------------------------------------|
      E|-------------------------------------------------|-------------------------------------------------|
       |                                                 |                                                 |
Bass  G|-------------------------------------------------|-------------------------------------------------|
 +    D|-------------------------------------------------|-------------------------------------------------|
choir2A|-------------------------------------------------|-5--------8-----7--5-----5-----------------------|
      E|--6----------------------8-----------5-----------|----------------------8--------------------------|
...
(1:12 - 1:36)
CHORUS: (*2 times)
Choir1E|-10----------------------------------------------|-------------------------------------------------|
      H|-------10-------------------------------------8--|-10-------10----------------------------------8--|
      G|----------7--------------------------7--9--10----|-------9-----------------------------7--9--10----|
      D|-------------------------------------------------|-------------------------------------------------|
      A|-------------------------------------------------|-------------------------------------------------|
      E|-------------------------------------------------|-------------------------------------------------|
       |                                                 |                                                 |
Gtr.  E|-------------------------------------------------|-------------------------------------------------|
      H|-------------------------------------------------|-------------------------------------------------|
      G|-------------------------------------------------|-------------------------------------------------|
      D|-------------------------7-----------------------|-------------------------------------------------|
      A|-------------------------5-----------------------|-------------------------7-----------------------|
      E|-------------------------------------------------|-------------------------5-----------------------|
 
Choir1E|-------------------------------------------------|-------------------------------------------------|
      H|-10----8--------8--10----8-----------------------|-------------------------------------------------|
      G|----------10----------------------------9--10----|-7--------10----9--7-----7-----------------------|
      D|----------------------------10-------------------|----------------------10-------------------------|
      A|-------------------------------------------------|-------------------------------------------------|
      E|-------------------------------------------------|-------------------------------------------------|
       |                                                 |                                                 |
Gtr.  E|-------------------------------------------------|-------------------------------------------------|
      H|-------------------------------------------------|-------------------------------------------------|
      G|-------------------------------------------------|-------------------------------------------------|
      D|-------------------------------------------------|-7-----------------------------------------------|
      A|--8----------------------10----------7-----------|-5-----------------------------------------------|
      E|--6----------------------8-----------5-----------|-------------------------------------------------|
undefined 
Вверх

Машина смерти

D#m
Машина смерти сошла с ума,
G#m    E           D#m B D#m
Она летит сметая всех.
Мы увернулись на этот раз,
Ушли по белой полосе.

   G#m         B  H
   Мы здесь сегодня,
   D#m       F     F#
   А завтра будем там
   H         G#m         C# B
   Где тошно от огня чертям.

                 D#m          C#
      Мы будем драться на земле,
                  H                G#m
      Под солнцем и в кромешной тьме,
                 H            D#m
      Мы будем драться в небесах,
                 H           C# F
      Мы будем дратся до конца.

      Мы будем драться, чтобы жить,
      За тех, кто первым был убит.
      Как, словно призрак без лица,
      Мы будем драться до конца,
      Мы будем драться.

Под чёрной майкой играет кровь,
И мы готовы побеждать.
Как тайна тела без лишних слов
Отправь подальше воевать.

   Войну придумай,
   Придумай нам врага.
   И смерть, что рыщет в трёх шагах.

      Мы будем драться на земле,
      Под солнцем и в кромешной тьме,
      Мы будем драться в небесах,
      Мы будем дратся до конца.

      Мы будем драться чтобы жить,
      За тех кто первым был убит,
      Как словно призрак без лица,
      Мы будем драться до конца.
      Мы будем драться.

   Мы здесь сегодня,
   А завтра будем там,
   Где тошно от огня чертям.

      Мы будем драться на земле,
      Под солнцем и в кромешной тьме,
      Мы будем драться в небесах.
      Мы будем дратся до конца.

      Мы будем драться чтобы жить,
      За тех кто первым был убит,
      Как словно призрак без лица.
      Мы будем драться до конца,
      Мы будем драться.
Вверх

Машина смерти (2 вариант)

Рифф 1:
Гит. E|-------------------------------------------------|-------------------------------------------------|
     H|-------------------------------------------------|-------------------------------------------------|
     G|-------------------------------------------------|-------------------------------------------------|
     D|-------------------------------------------------|-------------------------------------------------|
     A|----------------7--------------------------------|----------------7--------------------------------|
     E|-3-p0--0--7-p0-----0--0--3-p0--0--6-p0--6--5~~~~-|-3-p0--0--7-p0-----0--0--3--0--6--5~~~~~~~~~-----|
Гит. E|-------------------------------------------------|-------------------------------------------------|
     H|-------------------------------------------------|-------------------------------------------------|
     G|-------------------------------------------------|-------------------------------------------------|
     D|-------------------------------------------------|-------------------------------------------------|
     A|----------------7--------------------------------|-6--------5--------4--------------------------2--|
     E|-3-p0--0--7-p0-----0--0--3-p0--0--6-p0--6--5~~~~-|----7--0-----6--0-----5--0--0--3--6-----3-----0--|
Куплет:
ВокалE|---------------------------------------------------------------------------------------------------|
     H|---------------------------------------------------------------------------------------------------|
     G|-------4-----4----5--4-----------------------------------------------------------------------------|
     D|-------------------------------7----------------------------------------5--------------------------|
     A|---------------------------------------------------------7------7----7-----------------------------|
     E|----  Ма -  ши - нa смер  -   ти                        сo -  шлa  с умa   ------------------------|
      |                                                 |                                                 |
Гит. E|-------------------------------------------------|-------------------------------------------------|
     H|-------------------------------------------------|-------------------------------------------------|
     G|-------------------------------------------------|-------------------------------------------------|
     D|-------------------------------------------------|-------------------------------------------------|
     A|(2)-------------------2-----------------------2--|(2)-------------------2-----------------5--6--7--|
     E|(0)-0--0--0--0--0--0--0-----0--0--0--0--0--0--0--|(0)-0--0--0--0--0--0--0-----0--0--0--0--3--4--5--|
 
ВокалE|---------------------------------------------------------------------------------------------------|
     H|---------------------------------------------------------------------------------------------------|
     G|-------5-----5----5--4------------------------4----------------------------------------------------|
     D|-------------------------------7-----5--7----------------------------------------------------------|
     A|---------------------------------------------------------------------------------------------------|
     E|----   о  - нa    летит,     сме -   тая    всех.     ---------------------------------------------|
      |                                                 |                                                 |
Гит. E|-------------------------------------------------|-------------------------------------------------|
     H|-------------------------------------------------|-------------------------------------------------|
     G|-------------------------------------------------|-------------------------------------------------|
     D|-------------------------------------------------|----------------------------4--4-/5--5-4--4-----|
     A|(7)----------7--5-----3-----------------------2--|(2)----------2--------2-----2--2-/3--3-2--2--2--|
     E|(5)-5--5--5--5--3-----1-----1--1--1--1--1--1--0--|(0)-0--0--0--0--0--0--0-----------------------0--|
...
Предприпев:
ВокалE|---------------------------------------------------------------------------------------------------|
     H|-------5-----5-----7--7-----------8----------------------5-----5-----7-----7--8-----5--------------|
     G|---------------------------------------------------------------------------------------------------|
     D|---------------------------------------------------------------------------------------------------|
     A|---------------------------------------------------------------------------------------------------|
     E|----  Mы   здесь  сегод    -     ня,                     а    зa -втрa    будем    там.  ----------|
      |                                                 |                                                 |
Гит. E|-------------------------------------------------|-------------------------------------------------|
     H|-------------------------------------------------|-------------------------------------------------|
     G|(2)-------------------4-----------5--------------|----------------------------------------------5--|
     D|(2)-------------------4-----------5-----------2--|(2)-------------------4-----------5-----------5--|
     A|(0)-------------------2-----------3-----------2--|(2)-------------------4-----------5-----------3--|
     E|----------------------------------------------0--|(0)-------------------2-----------3--------------|
 
ВокалE|-------------------------------------5-------------------------------------------------------------|
     H|-------5-----5-----7--7--------5--------8-----8----------7--------------------------8--8-----7-----|
     G|---------------------------------------------------------------------------------------------------|
     D|---------------------------------------------------------------------------------------------------|
     A|---------------------------------------------------------------------------------------------------|
     E|----  где  тошно от огня   чертяяяааам!  ----------------------------------------- Mы бу -  дем  --|
      |                                                 |                                                 |
Гит. E|-------------------------------------------------|-------------------------------------------------|
     H|----------------------------------------------4--|(4)----------------------------------------------|
     G|(5)-------------------2-----------------------4--|(4)-------------------4--R-----------------------|
     D|(5)-------------------2-----------------------4--|(4)-------------------4--E-----------------------|
     A|(3)-------------------0-----------------------2--|(2)-------------------2--S-----------------------|
     E|-------------------------------------------------|-------------------------T-----------------------|
Припев:
ВокалE|--------------------------------------------------------------5------------------------------------|
     H|---7----5----5-----7--8-----------8---8----7--7----------5-------8------7-----5-----8--8-----7-----|
     G|---------------------------------------------------------------------------------------------------|
     D|---------------------------------------------------------------------------------------------------|
     A|---------------------------------------------------------------------------------------------------|
     E|  драться   нa   земле,          под  солнцем и     в  крo -  мешной тьме  -  е.   Mы бу -  дем  --|
      |                                                 |                                                 |
Гит. E|-------------------------------------------------|-------------------------------------------------|
     H|-------------------------------------------------|-------------------------------------------------|
     G|-------------------------------------------------|-------------------------------------------------|
     D|-9--------------------7-----------------------5--|(5)-------------------2-----------------------5--|
     A|-7--------------------5-----------------------3--|(3)-------------------0--------------0--2-----3--|
     E|-------------------------------------------------|-------------------------------------------------|
 
ВокалE|---------------------------------------------------------------5-----------------------------------|
     H|---7----5----5--------------------8---8-----7------7-----5----------7---8-----------8--8-----7-----|
     G|----------------7-----7-----4----------------------------------------------------------------------|
     D|---------------------------------------------------------------------------------------------------|
     A|---------------------------------------------------------------------------------------------------|
     E|  драться   в небе -  са  -  aх.  Mы  бу -  дем     драться    до    конца.         Mы бу -  дем  -|
      |                                                 |                                                 |
Гит. E|-------------------------------------------------|-------------------------------------------------|
     H|-------------------------------------------------|-------------------------------------------------|
     G|-------------------------------------------------|-------------------------------------------------|
     D|(5)-------------------------------------------5--|(5)-------------------7-----------8-----------9--|
     A|(3)-------------------2-----------------------3--|(3)-------------------5-----------6-----------7--|
     E|-------------3--2-----0--------------------------|-------------------------------------------------|
...
Соло:
Гит.1E|-------------------------------------------------|-------------------------------------------------|
     H|-7--8--7-----------------7--8--7-----------------|-7--8--7-----------------7--8--7-----------------|
     G|----------9-----------------------9--------------|----------9-----------------------9--------------|
     D|-------------------------------------------------|-------------------------------------------------|
     A|-------------------------------------------------|-------------------------------------------------|
     E|-------------------------------------------------|-------------------------------------------------|
      |                                                 |                                                 |
Гит.2E|-------------------------------------------------|-------------------------------------------------|
     H|-------------------------------------------------|-------------------------------------------------|
     G|-------------------------------------------------|-------------------------------------------------|
     D|-------------------------------------------------|-------------------------------------------------|
     A|-7--7--7--7--7--7--7--7--7--7--7--7--7--7--7--7--|-7--7--7--7--7--7--7--7--7--7--7--7--7--7--7--7--|
     E|-------------------------------------------------|-------------------------------------------------|
 
Гит.1E|-------------------------------------------------|-------------------------------------------------|
     H|-4--5--4-----------------4--5--4-----------------|-4--5--4-----------------4--5--4-----------------|
     G|----------6~~~~~~~~~~-------------6~~~~~~~~~~----|----------6~~~~~~~~~~-------------6~~~~~~~~~~----|
     D|-------------------------------------------------|-------------------------------------------------|
     A|-------------------------------------------------|-------------------------------------------------|
     E|-------------------------------------------------|-------------------------------------------------|
      |                                                 |                                                 |
Гит.2E|-------------------------------------------------|-------------------------------------------------|
     H|-------------------------------------------------|-------------------------------------------------|
     G|-------------------------------------------------|-------------------------------------------------|
     D|-------------------------------------------------|-------------------------------------------------|
     A|-4--4--4--4--4--4--4--4--4--4--4--4--4--4--4--4--|-4--4--4--4--4--4--4--4--4--4--4--4--4--4--4--4--|
     E|-------------------------------------------------|-------------------------------------------------|
 
                                        T        T
Гит.1E|-------------------------T-------10p5h6h8-10p8p6p5---------T-------|
     H|------------------T------10p5h6h8-----------------8p6p5h6h8-10p8p6p5-|
     G|----------T-------9p4h5h7-----------------------------------------|
     D|-T--------9p4h5h7-------------------------------------------------|   ...
     A|-10p4h5h7---------------------------------------------------------|
     E|------------------------------------------------------------------|
      |                                                                  |
Гит.2E|------------------------------------------------------------------|
     H|------------------------------------------------------------------|
     G|------------------------------------------------------------------|
     D|------------------------------------------------------------------|
     A|--3---3---3---3---3---3---3---3---3---3---3---3---3---3---3---3---|
     E|------------------------------------------------------------------|

         *1*
Em                       G G# Am
машина смерти сошла с ума
Am G     F           Em   H C H Em
она летит сметая всех
мы увернулись на этот раз
ушли по белой полосе

       *пред припев 1*
Am       H    C  Em
мы здесь сегодня
Em       F#   G   C
а завтра будем там
C            Am   H
где тошно от огня чертям

         *припев:*
              Em       D  C
мы будем драться на земле
C                          Am
под солнцем и в крамешной тьме
Am        C         Em
мы будем драться в небесах 
C                    D  Em
мы будем дратся до конца
мы будем драться чтобы жить
за тех кто первым был убит
как словно призрак без лица
мы будем драться до конца
мы будем драться

          *2*
под чёрной майкой играет кровь
и мы готовы побеждать
как тайна тела без лишних слов
отправь подальше воевать

         *пред припев 2*
войну придумай 
придумай нам врага
и серть што рышет в трёх шагах

 *припев.*
 *solo.*
*пред припев 1*
 *припев.* 
 
 
Вверх

Мертвая зона

Intro 2x:
E-----------------------------------------------------------
B-----------------------------------------------------------
G--------4----------9------------4----------9---------
D--------4---5-4-3--9---5-4-3-4--4---5-4-3--9---5-3-4
A--------2----------7------------2----------7---------
E-----------------------------------------------------------

Bridge:
   Hm    A    G    Hm  G   D  Cm# A Hm
E-----------------------------------------------------------
B-----------------------------------------------------------
G--4-4------------4-4------7--6------4---------------
D--4-4--7-7--5-5--4-4--5---7--6---7--4---------------
A--2-2--7-7--5-5--2-2--5---5--4---7--2-------------
E-------5-5--3-3-------3----------5------------------

    Hm  A     G   Hm   G   D     Em  F   F#
E-----------------------------------------------------------
B-----------------------------------------------------------
G--4-4------------4-4------7-----9--10--11-------------
D--4-4--7-7--5-5--4-4--5---7-----9--10--11-------------
A--2-2--7-7--5-5--2-2--5---5-----7--8--- 9----------
E-------5-5--3-3-------3-----------------------------



Verse 1
Hm    A         G           Hm
Мне никогда не войти в этот сад, 
G           D     Cm# A Hm
В нем нет цветов для меня. 
Hm     A       G    Hm    
Я ненавижу штыки оград, 
  G           DEmF   F#
Бьющих в сплетение дня. 
Мне не хватает в закрытых садах 
Воздуха, рвущего плоть, 
Кто слаб душою, спешит сюда, 
Не в силах себя побороть. 

Chorus.
G         Em
Сад не придуман мною, 
G      A
Он - реален как ты, 
G      Em
Но ты идешь спокойно 
F#
В сад пустоты... 
Bridge:

Verse 2
Я не люблю безнадежности спин, 
Верю в энергию лиц, 
Против движенья иду один, 
Нарушив условность границ. 
Прочь от аллеи железных святош, 
Холод их песен страшит, 
Следом за ними вошла в сад ложь, 
Розы подняв на свой щит.

Pre-chorus:
Hm                    F 
Там есть все, только нет души, 
Em                   F#
Вместо росы белый жемчуг дрожит, 
Hm             F
Робот птиц восковых сторожит, 
Em                  F#
Сад всем диктует законы. 
Думать о будущем нет причин,
Прошлая жизнь под контролем машин, 
Ты выходишь из сада живым, 
Но в сердце мертвая зона.

D      A      Em               F#
Прочь беги, пока хватает сил, беги
D     A            Hm    F#
На восход, в сад живой... 
Вверх

Мечты

      Аm
Ты устала быть покорной,
      F    G      Аm
Ты устала быть рабой.
Жить надеждой иллюзорной,
Отвечать на жест любой.


Припев:
   Dm   Dm/F      Аm
   Барабанит по стеклам
   Дождь как будто живой
   Ты опять одинока,
       F               E7
   Открой, открой, открой.

    F                 C
   Жизнь идет где-то за стеною,
     Dm               Аm
   А ты в плену пустоты,
   F                   C
   О, как жаль, но всему виною
       Dm            E7
   Мечты, мечты, мечты.


Ты пыталась стать жестокой,
Стать прозрачной словно лед.

Недоступной и далекой,
И живущей без забот.

Припев.
Вверх

Мечты (2 вариант)

      Am
Ты устала быть покорной,
      F    G      Am
Ты устала быть рабой.
Жить надеждой иллюзорной,
Отвечать на жест любой.

Пpипев:
E |----------------------------------------------------5-5---8-7-|
H |3-3-3-1---3-1---3-3-3-1---1---3-3-3-1---3-1---6-6-------------|
G |--------2---------------2-------------2-----------------------|

 Dm    Dm7     Asus4 Am
Барабанит по стекл___ам
 Dm           Dm7  Am
Дождь как будто живой
 Dm      Dm7 Asus4 Am
Ты опять одинок____а,
    F       F(V) Eaug E(VII)
Открой, открой,  откр_ой.
 F                 C
Жизнь идет где-то за стеною,
   Dm              Am
А ты в плену пустоты,
F                   C(III)
О, как жаль, но всему виною

E |------5-5---8-7-|
H |6-6-------------|
G |----------------|

    Dm     Dm(V) Eaug E(VII)
Мечты, мечты,   мечт__ы.

Ты пыталась стать жестокой,
Стать прозрачной словно лед.
Недоступной и далекой,
И живущей без забот.

Припев.

Am [x02210]
Asus4 [x02230]
Dm [xx0231]
Dm(V) [x57765]
Dm7 [xx0211]
C [(3)32010]
C(III) [x35553]
F [133211]
F(V) [x87565]
G [355433]
E(VII) [x79997]
Eaug [xx9998]
Вверх

Мёртвая зона

  Hm      A        G         Hm
Мне никогда не войти в этот сад,
   G                    Hm G A
В нем нет цветов для меня.
Hm     A       G    Hm
Я ненавижу штыки оград
  G                  F#
Бьющих в сплетение дня.

Мне не хватает в закрытых садах
Воздуха, рвущего плоть.
Кто слаб душою, спешит сюда,
Не в силах себя побороть.

    G   F#m   Em
   Сад не придуман мною.
   G  F#m A
   Он - реален как ты.
    G  F#m Em
   Но ты идешь спокойно
      F#           Hm
   В сад пустоты...

Я не люблю безнадежности спин,
Верю в энергию лиц.
Против движенья иду один,
Нарушив условность границ.

Прочь от аллеи железных святош.
Холод их песен страшит.
Следом за ними вошла в сад ложь,
Розы подняв на свой щит.

   Сад не придуман мною.
   Он - реален как ты.
   Но ты идешь спокойно
   В сад пустоты...

       Hm                   Hdim           Hdim
      Там есть все, только нет души.   +-+-+-+-+-+
        Em               H             0 | | 0 | 0 I
      Вместо росы белый жемчуг дрожит. +-+-+-+-+-+
       Hm              Hdim            | 0 | | | |
      Робот птиц восковых сторожит.    +-+-+-+-+-+
       Em                 F#           | | 0 | 0 |
      Сад всем диктует законы.         +-+-+-+-+-+

      Думать о будущем нет причин.
      Прошлая жизнь под контролем машин.
      Ты выходишь из сада живым.
      Но в сердце мертвая зона.

  D      A     Em                F#
Прочь беги, пока хватает сил, беги
 D     A            Hm  F#
На восход, в сад живой...
Вверх

На службе силы зла

A G F# G F# Em
A
Твой флаг поднят вверх
Идет жизнь без помех
    G F# G F# Em
Вперед!
Все взял, что хотел
А то, что не успел
Не в счет

F#
Ты как все вокруг
Врагам - враг, другу - друг
G
Но лишь под землей
Становишься собой
F#
Под землей скрыт бункер твой
Ты в нем вершишь дела
G                 F#  G
Ты - на службе Силы Зла...


A
Зная исход
Веришь в себя
G
Твой дом обойдет
F#     G
Чаша сия
Точен как штык
Как штык жесток
Мир в один миг
Ляжет у ног!




Вверх

Небо тебя найдёт

 D#m             C#       D#m C# Bm      D#m
Ты совсем одна, ты в тупике, в душной неволе.
 D#m            C#      D#m C# Bm    D#m
Быть его рабой на поводке ты не смогла.
 D#m                       C# Bm    D#m
Ты не смогла, в сердце игла полная боли.
D#m            C#       D#m C# Bm D#m
И зовут тебя, там вдалеке колокола.

     G#m
   Стой! Это бездна,
   C#
   И не жди иного.
   G#m         C#
   Бесполезно...

       D#m        C#     D#m
      Небо - мольбы не ждет,
       H
      Небо - угроз не слышит,
       G#m      Bm          D#m C#
      Небо - ведет особый счет.

      Небо - мольбы не ждет,
      Небо - угроз не слышит,
      Небо - само тебя найдет.

Ты совсем один, ты в тупике, в шаге от ада.
Ты ловил зарю, но в кулаке серая мгла.
Серая мгла, в вене игла полная яда.
И зовут тебя, там, вдалеке колокола.

   Стой! Это бездна,
   И не жди иного.
   Бесполезно...

      Небо - мольбы не ждет,
      Небо - угроз не слышит,
      Небо - ведет особый счет.

      Небо - мольбы не ждет,
      Небо - угроз не слышит,
      Небо - само тебя найдет.
Вверх

Небо тебя найдёт (2 вариант)

Em
Ты совсем одна, ты в тупике
D              Em
    В душной неволе
Быть его рабой на поводке 
    Ты не смогла...
Ты не смогла, в сердце игла
    Полная боли
И зовут тебя, там вдалеке
    Колокола

D
Стой! Это бездна
И не жди иного -
Am
Бесполезно...

Em         C
Небо - мольбы не ждет
Am      D
Небо - угроз не слышит
Am      H           Em
Небо - ведет особый счет
Небо - мольбы не ждет 
Небо - угроз не слышит 
Небо - само тебя найдет

Ты совсем один, ты в тупике
В шаге от ада
Ты ловил зарю, но в кулаке
Серая мгла...
Серая мгла, в вене игла
Полная яда
И зовут тебя, там, вдалеке 
Колокола
Вверх

Небо тебя найдёт (3 вариант)

Am
Ты совсем одна, ты в тупике
     G        Am
    В душной неволе
Быть его рабой на поводке 
    Ты не смогла...
Ты не смогла, в сердце игла
    Полная боли
И зовут тебя, там вдалеке
    Колокола

Dm
Стой! Это бездна
G
И не жди иного -
Dm         G
Бесполезно...

Am         
Небо - мольбы не ждет
F      
Небо - угроз не слышит
Dm        E          Am
Небо - ведет особый счет
Небо - мольбы не ждет 
Небо - угроз не слышит 
Небо - само тебя найдет

Ты совсем один, ты в тупике
В шаге от ада
Ты ловил зарю, но в кулаке
Серая мгла...
Серая мгла, в вене игла
Полная яда
И зовут тебя, там, вдалеке 
Колокола
Вверх

Небо тебя найдёт (4 вариант)

Em               D       Em C  
Ты совсем одна, ты в тупике
   D       Em
В душной неволе
Быть его рабой на поводке 
Ты не смогла...
Em                          C
Ты не смогла, в сердце игла
 D     Em
Полная боли
И зовут тебя, там вдалеке
Колокола
  D             C
Стой! Это бездна
И не жди иного -
 D
Бесполезно...

 Em    
Небо - мольбы не ждет
 C
Небо - угроз не слышит
 Am       B    С      Em
Небо - ведет особый счет
Небо - мольбы не ждет 
Небо - угроз не слышит 
Небо - само тебя найдет

Ты совсем один, ты в тупике
В шаге от ада
Ты ловил зарю, но в кулаке
Серая мгла...
Серая мгла, в вене игла
Полная яда
И зовут тебя, там, вдалеке 
Колокола
Вверх

Не хочешь - не верь мне

E|------------------------------| 2 раза,
B|------------------------------| затем 2 раза на бэк-фоне
G|------------------------------|
D|--------5----0-3---0-2---0-1--|
A|------5----3-----2-----1------|
E|---3--------------------------|

E|-------------------------------------------------------|
B|-------------------------------------------------------| 2
G|--5--5-3-4~--4-2-3~--3-1-2~----------------------------| раза
D|----------------------------6-4-5~--5-3-4~--4-2-3-2-0--|
A|-------------------------------------------------------|
E|-------------------------------------------------------|

E|------------------------------------|
B|------------------------------------|
G|-------------------------------7~~--|
D|---9--7--12--10---------------------|
A|---7--5--10--8---7-8-7Н0-5~~--------|
E|------------------------------------|

E|-------------------------------|
B|-------------------------------|
G|-------------------------------|
D|---9--7--12--10----------------|
A|---7--5--10--8---7-8-7Н0-5~~---|
E|-------------------------------|

E|------------------------------------------------------|
B|------------------------------------------------------|
G|-------7-----------------5-----------------------3----|
D|-------7--7--7--7--7--7--5--5--5--5--5--5--5--5--3-3--|
A|-12^0--5--5--5--5--5--5--3--3--3--3--3--3--3--3--1-1--|
E|------------------------------------------------------|
        Dm                C                       Bb
        Я не верил, что я мертв, я слышал брань и плачь.

E|------------------------------------------------------|
B|------------------------------------------------------|
G|--------------------2-----------------------7---------|
D|--3--3--3--3--3--3--2--2--2--2--2--2--2--2--7---------|
A|--1--1--1--1--1--1--0--0--0--0--0--0--0--0--5---------|
E|------------------------------------------------------|
                      Am                      Dm
Видел как над телом там внизу шаманил старый врач.

E|---------------------------------------------------|
B|---------------------------------------------------|
G|----------------------------5-----------------3----|
D|----------7--7--7--7--7--7--5--5--5--5--5--5--3--3-|
A|----------5--5--5--5--5--5--3--3--3--3--3--3--1--1-|
E|---------------------------------------------------|
           Dm                C                 Bb
         Я плыл в черной пустоте, я обретал покой.

E|------------------------------------------------------|
B|------------------------------------------------------|
G|--------------------2--------------------------7------|
D|--3--3--3--3--3--3--2--2--2--2--2--2--2--2--2--7------|
A|--1--1--1--1--1--1--0--0--0--0--0--0--0--0--0--5------|
E|------------------------------------------------------|
                     Am                         Dm
Свет в конце тонеля, как магнит тянул к себе дух мой...

E|---------------------------------------------------|
B|---------------------------------------------------|
G|---------------------------------------------7~~~--|
D|---9--7--12--10------------------------------------|
A|---7--5--10--8---7-8-7Н0-5~~~----------------------|
E|---------------------------------------------------|
                                            Bb
                            Не хочешь - не верь мне!

E|-------------------------------|
B|-------------------------------|
G|-------------------------------|
D|---9--7--12--10----------------|
A|---7--5--10--8---7-8-7Н0-5~~~--|
E|-------------------------------|

Свет был ярче тысяч солнц,    |
Я понял - это бог!            |
Не бездушный идол,            |
А живой сверкающий поток.     | играется также,
Свет заставил вспомнить всех  | как в первом куплете
С кем дрался и грешил.        |
Он заставил вспомнить,        |
Каждый шаг бунтующей души...  |

E|---------------------------------------------------|
B|---------------------------------------------------|
G|---------------------------------------------7~~~--|
D|---9--7--12--10------------------------------------|
A|---7--5--10--8---7-8-7Н0-5~~~----------------------|
E|---------------------------------------------------|
                            Не хочешь - не верь мне!

E|--------------------------------------------------|
B|--------------------------------------------------|
G|-----------------------------------------------9--|
D|-9--7--12--10----------------------------------9--|
A|-7--5--10--8---7-8-7Н0-5--7-8-7Н0-5--7-8-7Н0---7--|
E|--------------------------------------------------|

D|--9--9--9--9--9--9--5-----|
A|--7--7--7--7--7--7--3-----|
E|--------------------------|
   Em                C
   Я не хочу той пустоты,

D|--5--5--5--5--5--5--------|
A|--3--3--3--3--3--3--7-----|
E|--------------------5-----|
                     Am
   Я не хочу той чистоты,

D|--------------------------|
A|--7--7--7--7--7--7--5-----|
E|--5--5--5--5--5--5--3-----|
                     G
   Я не хочу той высоты,

G|-----------------------9--|
D|-----------4--4--4--4--9--|
A|--5--5--5--2--2--2--2--7--|
E|--3--3--3-----------------|
            B7          Em
   Я не прошел всего пути!

D|--9--9--9--9--9--9--5-----|
A|--7--7--7--7--7--7--3-----|
E|--------------------------|
                     C
   Я не хочу той высоты,

D|--5--5--5--5--5--5--------|
A|--3--3--3--3--3--3--7-----|
E|--------------------5-----|
                     Am
   Я не хочу той чистоты,

D|--------------------------|
A|--7--7--7--5--5--5--5-----|
E|--5--5--5--7--7--7--3-----|
                     G
   Я не хочу той пустоты,

G|-----------------------------------------------9-----|
D|-----------4--4--4--4--5--5--5--5--7--7--7--7--9-----|
A|--5--5--5--2--2--2--2--3--3--3--3--5--5--5--5--7-----|
E|--3--3--3--------------------------------------------|
            B7          C           D           Em
                                                Нет!

E|-------------------------------------------------------|
B|-------------------------------------------------------| 2
G|--5--5-3-4~--4-2-3~--3-1-2~----------------------------| раза
D|----------------------------6-4-5~--5-3-4~--4-2-3-2-0--|
A|-------------------------------------------------------|
E|-------------------------------------------------------|

Я звал друга, но никто
Не слышал голос мой,
Я рванул сквозь стены,
Но никто не бросился за мной.
Там внизу горел асфальт
От сбитых с неба звезд.
Мне хотелось ветра
Чтобы бил наотмашь и насквозь.
Не хочешь - не верь мне!
Вверх

Ночь в июле

    C
Ты уходишь пpочь из дома
Dm                Fm     G
В час когда все кpепко спят
      C         G    Am
По доpоге незнакомой
             G
От pассвета на закат

Пpипев:
 A7             Dm
Hочь в июле полна соблазна
Fm            C
И мятежна ночная даль
Dm            Am
Свыше путь тебе указан
  C         G
Знает бог один куда

Слишком много было фальши
Hесвободы и вpанья
Ангел мой, так будет дальше
Hо беги, беги пока

Пpипев.

Знаю встpетишь незнакомца
Сеpдце дpогнет и замpет
В новой клетке будет солнце
Hо никто от боли не спасет

Пpипев.
  G           F
Свыше путь тебе указан
C           G
Знает бог один куда

Am          E
Я и сам мечтал когда-то
Am                   E
Раскачать безумный этот миp
Am            E
Hо умчалось все куда-то
Am                    E
Все пpошло как спелых яблок дым
F7                               G
Hу а ты беги пока свободна и легка

Пpипев.
Вверх

Ночь в июле

      С
Ты уходишь прочь из дома -
 Dm                 F      G
В час, когда все крепко спят.
      C           G    Am
По дороге мне знакомой,
            G
От рассвета на закат.

Припев:
    А      А7    Dm
   Ночь в июле полна соблазнов,
   F    G        C
   И мятежна ночная даль.
   Dm           Am
   Свыше путь тебе указан,
     C         G
   Знает бог один куда...

Слишком много было фальши,
Несвободы и вранья.
Ангел мой, так будет дальше,
Но беги, беги пока.

Припев.

Знаю, встретишь незнакомца,
Сердце вздрогнет и замрет.
В новой клетке будет солнце,
Но никто от боли не спасет.

Припев.

 Am          Em
Я и сам мечтал когда-то,
 Am                 Em
Раскачать безумный этот мир,
 Am          Em
Но умчалось все куда-то,
 Am                      Em
Все прошло, как с белых яблонь дым,
 F                                 G
Но, а ты беги пока, свободна и легка...

Припев.
Вверх

Ночь в июле (2 вариант)

Intro

 00:30
e(------------------0------------------------------------0------------)
B(----5-6-8-6-5-1-----1^3^1-----------5-6-8^10^8-6-5-1-----1^3^1------)
G(----------------2---------2-4-4-5-5------------------2---------2----)
D(----------------0------------------------------------0--------------)
A(----------------------------------3--------------3------------------)
E(-8------6---5---------------3--------------6-------5----------------)

 
e(----------------------0----------------------------------0----------)
B(----------5-6-8-6-5-1-----1-3-3-------5-6-8^10^8-6-5-1-----1^3^1----)
G(-4-5420-5---------------2-------4-2-5------------------2---------2--)
D(----------------------3--------------------------------0------------)
A(--------3---------5-----------------3--------------5----------------)
E(-3------------6---------------3--------------6----------------------)


e(--------------0-8--12-----)
B(----------------10-13-----)
G(-4-5420-5-0-2-------------)
D(--------------------------)
A(--------3-----3-----------)
E(-3------------------------)

( в ближайшем времени будет продолжение )


	Ты уходишь прочь из дома
    	В час, когда все крепко спят,
     	По дороге мне знакомой
     	От рассвета на закат.

     	ПР.Ночь в июле полна соблазнов,
  	   И мятежна ночная даль.
     	   Свыше путь тебе указан,
     	   Знает бог один куда...

      Слишком много было фальши,
      Несвободы и вранья.
    	Ангел мой, так будет дальше,
     	Но беги, беги пока.
       	
      Знаю, встретишь незнакомца,
      Сердце вздрогнет и замрет.
      В новой клетке будет солнце,
     	Но никто от боли не спасет.
       	                       
     	Я и сам мечтал когда-то
      Раскачать безумный этот мир,
      Но умчалось все куда-то,
      Все прошло, как с белых яблонь дым,
      Но, а ты беги пока
      свободна и легка...

	ПР.Ночь в июле полна соблазнов,
  	   И мятежна ночная даль.
     	   Свыше путь тебе указан,
     	   Знает бог один куда...

e(------------------------------------------------------------)
B(--17-18-20-18-17^18^17-13-----17-18-20-18-17^18^17-13----13-)
G(--------------------------14--------------------------14----)
D(------------------------------------------------------------)
A(------------------------------------------------------------)
E(------------------------------------------------------------)
Вверх

Ночь короче дня mp3

Em                                  F# F
Мне не до сна, палач придет на рассвете.
Em                       C          D
И звук шагов за дверью бьет словно нож.
Em                                   F# F
Но в клетку входит не гонец верной смерти,
Em                    Cmaj7 D6
А, в рясе черной, Святая Ложь.

Святой отец принес во тьму слово божье,
И вечной жизни мне сулил чудеса.
"Ты - смертник, и вернуться к Богу ты должен" -
Шептал священник и лгал в глаза.

     H              C            D          Em
   "Кайся, сын, земная жизнь прелюдия к другой.
    H          C           D             H
   На стене своей тюрьмы увидишь лик святой!"

       Em
      Ночь короче дня, день убьет меня,
       D                    Em  F# F
      Мир иллюзий в нем сгорает.
       Em
      Ночь короче дня, день убьет меня,
        D            C    D    C  Em
      Все живое исчезает как и я...

Блаженство рая я оставлю для нищих.
У нищих духом должен быть Царь и Бог.
Я - тварь земная и на небе я лишний.
И к черту вечность, какой в ней прок?

Пускай я должен испытать муки ада,
Пускай толпа на казнь бежит со всех ног.
Мне крики ненависти станут наградой,
Я буду в смертный час не одинок.

   Луч зари к стене приник я слышу звон ключей.
   Вот и все... Палач мой здесь со смертью на плече.

      Ночь короче дня, день убьет меня,
      Мир иллюзий в нем сгорает.
      Ночь короче дня, день убьет меня,
      Все живое исчезает как и я...
Вверх

Ночь короче дня (2 вариант) mp3

Chor:   riff
        E D E F# F 
        Em D Em D

Intro:
Bass, Solo

Bass: 
4|-9-9-9-~-7-7-7-~-5-5-5-~-9-9-9-~-| 2 
5|--7-7-7~--5-5-5~--3-3-3~--7-7-7~-|time

Solo:
2|--8----7-8-----7-8-10-----| 8 time
3|--------------------------|

E(m)*

Verse:

E(m)                              F# F
Мне не до сна палач придет на рассве-те
E(m)                     C          D
И звук шагов за дверью бьет словно нож
E(m)                                 F# F
Но в клетку входит не гонец верной смерти
E(m)                  C   D
А, в рясе черной, Святая Ложь
 Святой отец принес во тьму слово божье
 И вечной жизни мне сулил чудеса
 "Ты - смертник, и вернуться к Богу ты должен"
 Шептал священник и лгал в глаза

 Hm
"Кайся, сын
    C
Земная жизнь
    D          Em
Прелюдия к другой
 Hm
На стене
   C
Своей тюрьмы
  D             H  C D
Увидишь лик святой!" 
Chorus:

Riff:
    Em                       D
1|-----7-5-3-2-----7-5-3-2-----5-3-2-3-5-3-2--|
2|--5------------5-----------3----------------|
3|--------------------------------------------|

riff
 Em
Ночь короче дня
День убьет меня
 D                    Em   F# F
Мир иллюзий в нем сгорает
 Em
Ночь короче дня
День убьет меня
  D            C    D      Em
Все живое исчезает как и я...

Solo1:
2|--8-7-5--3/5--8-7-5----8-7-5--3/5--8-7-5-|
3|-----------------------------------------|

2|--8-7-5--3/5--8-7-5----8-7-5--3/5--8-7-5-|
3|-----------------------------------------|
2|--8-7-5-------8-7-5----8-7-5-------8-7-5-|

3|---------5--------------------5----------|
2|--8-7-5--3/5--8-7-5----8-7-5--3/5--8-7-5-|
3|-----------------------------------------|

 Блаженство рая я оставлю для нищих
 У нищих духом должен быть Царь и Бог
 Я - тварь земная и на небе я лишний
 И к черту вечность, какой в ней прок?
 Пускай я должен испытать муки ада
 Пускай толпа на казнь бежит со всех ног
 Мне крики ненависти станут наградой
 Я буду в смертный час не одинок
 Луч зари
 К стене приник
 Я слышу звон ключей
 Вот и все...
 Палач мой здесь
 Со смертью на плече

Chorus.
Solo1.

1|-----7---5----------7-----5--------|
2|--5----7---8-7----5---7-8---8-7----|
3|----------------7------------------|
4|-----------------------------------|

1|-----7---5----------7-----5--------|
2|--5----7---8-7----5---7-8---8-7----|
3|----------------7------------------|
4|-----------------------------------|

1|-----7---5----------7-----5--------|
2|--5----7---8-7----5---7-8---8-7----|
3|----------------7------------------|
4|-----------------------------------|

1|-----8---5------------8-----5------|
2|--6----8---8-7----6-8---6-8---8-7--|
3|-----------------------------------|
4|-----------------------------------|

Last:
2|---7----5-7---5-7-8---| x time
Вверх

Ночь короче дня (3 вариант) mp3

Em                                 G  F 
Мне не до сна палач придет на рассвете
Em                       G         Am
И звук шагов за дверью бьет словно нож
Em                                  G   F
Но в клетку входит не гонец верной смерти
Em                    G   Am
А, в рясе черной, Святая Ложь

Святой отец принес во тьму слово божье
И вечной жизни мне сулил чудеса
"Ты - смертник, и вернуться к Богу ты должен"
Шептал священник и лгал в глаза

Pre-chorus:
   Hm
"Кайся, сын
    C
Земная жизнь
    D          C
Прелюдия к другой
  Hm
На стене
   C
Своей тюрьмы
  D           C    D 
Увидишь лик святой!"

Припев:
 Em         G
Ночь короче дня
 Em         G
День убьет меня
 Em        G         Am  G  F
Мир иллюзий в нем сгорает
 Em        G         
Ночь короче дня
 Em         G
День убьет меня
Em             G  Am    Em
Все живое исчезает как и я...

Блаженство рая я оставлю для нищих
У нищих духом должен быть Царь и Бог
Я - тварь земная и на небе я лишний
И к черту вечность, какой в ней прок?

Пускай я должен испытать муки ада
Пускай толпа на казнь бежит со всех ног
Мне крики ненависти станут наградой
Я буду в смертный час не одинок

Луч зари
К стене приник
Я слышу звон ключей
Вот и все...
Палач мой здесь
Со смертью на плече
Вверх

Обман mp3

E|--------------|---------------|--------------|---------------|
B|--------------|---------------|--------------|---------------|
G|--------------|---------------|--------------|---------------|
D|---2---2---2--|----2---2---2--|---2---2---2--|----2-------2--|
A|-2---2---2---2|--2---2---2---2|--2--2---2---2|--2---2---2---2|
E|0-------------|0--------------|0-------------|0-------1------|

 Em
В рассветный час шакал, о голоде забыв,
            C7
Следит с холма
            Em
За мрачной конницей вдали.
Сегодня черный день - владыка мира мертв,
           C7
И стар, и мал
          Em
Не могут слез сдержать своих.

 Am
Он добрый повелитель,
 Adim7           Em
Он солнцем был и был луной,
 Am
Империя осталась
 Adim7
Его вдовой.

Он будет погребен в нефритовом гробу
В степи пустой,
Где грезит падалью шакал,
И тысяча коней затопчет путь к нему,
Чтоб плач людской
Сон мертвеца не осквернял.

Шакал пролает хрипло,
Что мертвый царь - ему родня:
Одни клыки и жадность,
И кровь одна.

Припев:
             Em          C7        Am9       D
   Это все обман, что он был самым добрым царем,
              Em         C7       Am9      D
   Это все неправда - он правил огнем и мечом,
             Em          C7      Am9        D
   Это все обман, я ваш царь, и один только я.
              Em      C7             Am9      D
   Люди, как звери, когда власть над миром дана,
              Em
   Это все обман.

Шаманы и жрецы шакала проклянут,
И на бегу
Пронзит предателя копье.
Царь должен быть святым, и право не дано
Свергать зверью
С небес величие его.

А царский сын смеется,
Шакалий дух в себе храня:
Одни клыки и жадность,
И кровь одна.

Припев.

 C  Bm                     Am
Ветер, древний житель степной,
 C  Bm                     Am  Bdim7
Помнит до сих пор хриплый вой...

Припев.
Вверх

Осколок льда

Am        C          F
Ночь унесла тяжелые тучи,
     Dm         G           Am
Но дни горьким сумраком полны
Am       C                 F
Мы расстаемся - так будет лучше
    Dm         G              Am
Вдвоем нам не выбраться из тьмы...

       Припев:
              F     G         Am
               Я любил и ненавидел
               F      G            Am
               Но теперь душа пуста
              F       G           C Em       Am
               Все исчезло, не оставив и следа
                           F         G            D
               И не знает боли в груди осколок льда...

Я помню все, о чем мы мечтали
Но жизнь не для тех, кто любит сны
Мы слишком долго выход искали
Но шли бесконечно вдоль стены...

Пусть каждый сам находит дорогу -
Мой путь будет в сотню раз длинней
Но не виню ни черта, ни Бога
За все заплатить придется мне!
Вверх

Осколок льда (2 вариант)

Into:
E|-------------------------------------------------------------|
B|-------------------------------------------------------------|
G|--------7-9-----7--------------------------------------------|
D|-7-9-10------10----9-10--7-10--9Н10р9-7----------------------|
А|-------------------------------------------------------------|
E|-------------------------------------------------------------|

E|-------------------------------------------------------------|
B|-------------------------------------------------------------|
G|---------7-9-----7-------------------------------------------|
D|--7-9-10------10-----9-10--7-9b(10)r9-7----------------------|
А|-------------------------------------------------------------|
E|-------------------------------------------------------------|
Fig 1: 2 times
  Am                                  Fm
E|--------0-----0-----0-----0----|------1-----1------1----1----|
B|------1---1-----1-----1-----1--|----1---1------1-----1----1--|
G|----2-------2-----2-----2-----2|--2-------2------2-----2----2|
D|--2----------------------------|-3---------------------------|
А|0------------------------------|-----------------------------|
E|-------------------------------|1----------------------------|
                                      Am
E|--------0-----0------0-----0----|--------0----0----0----0----|
B|------3---3------3-----3-----3--|------1---1----0----0----0--|
G|----2-------2------2-----2-----2|----2-------2----2----2----2|
D|--2-----------------------------|--2-------------------------|
А|0-------------------------------|0---------------------------|
E|--------------------------------|----------------------------|

Fig 2: 2 times
Am
E|------------------0---------------|
B|-----1---0---1--------1---0---1---|
G|---2---2---2---2----2---2---2---2-|
D|----------------------------------|
А|-0--------------------------------|
E|----------------------------------|
  C                                  Fm                Gm
E|-------------------------------|--------------|-------3-------
B|---1---0---1----3---1---0---1--|---1---0---1--|---0-------0---
G|-0---0---0---0----0---0---0---0|-2---2---2---2|-0---0---0---0-
D|-------------------------------|--------------|---------------
А|3------------------------------|--------------|---------------
E|-------------------------------|1-------------|3--------------

E|-----------------|-----------------|
B|-----1---0---1---|-3---1---0---1---|
G|---2---2---2---2-|---2---2---2---2-|
D|-----------------|-----------------|
А|-0---------------|-----------------|
E|-----------------|-----------------|

Fig 3: 3 times

E|-----------------|-----------------|
B|-----1---0---1---|-3---1---0---1---|
G|---2---2---2---2-|---2---2---2---2-|
D|-----------------|-----------------|
А|-0---------------|-----------------|
E|-----------------|-----------------|
                     G                третий раз играется с Gm
E|---------1-------|---------3-------|  |---------3----------|
B|-----1-------1---|-----0-------0---|  |-----3-------3------|
G|---2---2---2---2-|---0---0---0---0-|  |---0---0---0---0----|
D|-----------------|-----------------|  |--------------------|
А|-----------------|-----------------|  |--------------------|
E|-1---------------|-3---------------|  |-3------------------|

Fig 4: 1 times
E|-0---0-----------|---------0-------|------------------|
B|---1---3---3-1---|-1---1-------1---|-----1---0---1----|
G|---------4-----2-|---2---2---2---2-|---2---2---2---2--|
D|-----------------|-----------------|------------------|
А|-----------------|-----------------|------------------|
E|-----------------|-----------------|-1----------------|

E|---------3-------|---------2-------|-----------------|
B|-----0-------0---|-----3-------3---|-----3---3-1-0---|
G|---0---0---0---0-|---2---2---2---2-|---2---2-------0-|
D|-----------------|-0---------------|-0---------------|
А|-----------------|-----------------|-----------------|
E|-3---------------|-----------------|-----------------|

E|---------2-------|-----------------|
B|-----3-------3---|-3---1---0---1---|
G|---2---2---2---2-|---2---2---2---2-|
D|-0---------------|-----------------|
А|-----------------|-----------------|
E|-----------------|-----------------|

Fig 5: 2 times

E|---------0-------|---------0-------|---------0-------|\  \
B|-----1-------1---|-----1-------1---|-----0-------0---||П |В
G|---2---2---2---2-|---2---2---2---2-|---0---0---0---0-||Е |Т
D|-----------------|-2---------------|-----------------||Р |О
А|-0---------------|-----------------|-0---------------||В |Р
E|-----------------|-----------------|-----------------||Ы |О
                                                        |Й |Й
E|---------0-------|---------1-------|---------3-------||  |
B|-----0-------0---|-----1-------1---|-----0-------0---||Р |Р
G|---0---0---0---0-|---2---2---2---2-|---0---0---0---0-||А |А
D|-2---------------|-----------------|-----------------||З |З
А|-----------------|-----------------|-----------------||  |
E|-----------------|-1---------------|-3---------------||  /
                                                        |
E|-----------------|-----------------|                  |
B|-----1---0---1---|-3---1---0---1---|                  |
G|---2---2---2---2-|---2---2---2---2-|                  |
D|-----------------|-----------------|                  |
А|-0---------------|-----------------|                  |
E|-----------------|-----------------|                  /

 Fig 6: 2 times
  играется
  один раз
 /        \
E|---5----|---------------|--5--|--3--|--3--------1--|--3--|-0-|
B|---5----|---------------|--5--|--5--|----5------1--|--3--|-1-|
G|---5----|-7---5---4--5--|--5--|--5--|-----------2--|--4--|-2-|
D|--------|---7---7---7---|--7--|--5--|-------5---3--|--5--|-2-|
А|--------|---------------|--7--|--3--|-----------3--|--5--|-0-|
E|--------|---------------|--5--|-----|-----------1--|--3--|---|

Fil 1: distorsion

E|--|---|---|---|-------------|--|--|--|-------|---|---|-------|
B|--|---|---|---|-------------|--|--|--|-------|---|---|-------|
G|--|---|---|---|-------------|--|--|--|-------|---|---|-------|
D|2-|---|---|-2-|-----2-------|--|--|-2|-----2-|---|---|-5-4-2-|
А|0-|-3-|-5-|-0-|-3-2-0-3-2-5-|-3|-5|-0|-3-2-0-|-3-|-5-|-3-2-0-|
E|--|-1-|-3-|---|-----------3-|-1|-3|--|-------|-1-|-3-|-------|

E|---|---|---|-----|----|----|---|------|---|------|---|---|---|
B|---|---|---|-----|----|----|---|------|---|------|---|---|---|
G|---|---|-2-|-----|----|----|---|------|---|------|---|---|---|
D|---|-0-|-0-|-----|----|----|-2-|------|---|------|---|-0-|-2-|
А|-3-|---|---|-----|----|----|-0-|------|-2-|------|-3-|---|-0-|
E|-1-|-3-|---|-----|----|----|---|------|-0-|------|-1-|-3-|---|
                                 р.m.......................
E|---|----|---|----|---|---|-----------------|-----------------|
B|---|----|---|----|---|---|-----------------|-----------------|
G|---|----|---|----|---|---|-----------------|-----------------|
D|-2-|----|---|----|---|-0-|-2-2-2-2-2-2-2-2-|-2-2-2-2-2-2-2-2-|
А|-0-|----|-2-|----|-3-|---|-0-0-0-0-0-0-0-0-|-0-0-0-0-0-0-0-0-|
E|---|----|-0-|----|-1-|-3-|-----------------|-----------------|

Fil 2: 2 times distorsion
  р.m.      р.m................     р.m............
E|----------------------------|---------------|----------------|
B|----------------------------|---------------|----------------|
G|----------------------------|---------------|----------------|
D|----------------------------|---------------|----------------|
А|-3-3-3--3--3-3-5-5-5--5-5-5-|-7-7-7--7--7-7-|-5-5-5--5-5-5---|
E|-1-1-1--1--1-1-3-3-3--3-3-3-|-5-5-5--5--5-5-|-3-3-3--3-3-3---|
   р.m.      р.m..........            /второй раз\
E|-------------|--------------|-----|    |------|---|
B|-------------|--------------|-----|    |------|---|
G|----------------------------|-----|    |------|-2-|
D|----------------------------|---7-|    |-7----|-2-|
А|-3-3-3--3--3-3-5-5-5--5-5-5-|-7-7-|    |-5----|-0-|
E|-1-1-1--1--1-1-3-3-3--3-3-3-|-5---|    |------|---|

Solo: 2 times
E|-----10-8---10-8-3-|----|-10-8-7-8-|------|-----|--10-8-7-8--|
B|-10-------8--------|-10-|----------|------|-----|------------|
G|-------------------|----|----------|------|-----|------------|
D|-------------------|----|----------|------|-----|------------|
А|-------------------|----|----------|------|-----|------------|
E|-------------------|----|----------|------|-----|------------|

E|---|-10-12-|----|-----|-----|-----|-----|-----|-----|-----|---
B|---|-------|-10-|-----|-----|-----|-----|-----|-----|-----|---
G|---|-------|----|-----|-----|-----|-----|-----|-----|-----|---
D|---|-------|----|-----|-----|-----|-----|-----|-----|-----|---
А|---|-------|----|-----|-----|-----|-----|-----|-----|-----|---
E|---|-------|----|-----|-----|-----|-----|-----|-----|-----|---

E|--5|--5|--5|7---|-8-|---|----|-10-10-|-5-|-7---|-8---10---17-|
B|8--|8--|8--|--5-|---|-8-|-10-|-------|---|---5-|---6----8----|
G|---|---|---|----|---|---|----|-------|---|-----|-------------|
D|---|---|---|----|---|---|----|-------|---|-----|-------------|
А|---|---|---|----|---|---|----|-------|---|-----|-------------|
E|---|---|---|----|---|---|----|-------|---|-----|-------------|

E|-8-7-5---5|-8-7-8-7-5---8-7-5---8-7-5---5-|-8-7-8-7-5--8-7-5--
B|-------8--|-----------8-------8-------8---|----------8------8-
G|----------|-------------------------------|-------------------
D|----------|-------------------------------|-------------------
А|----------|-------------------------------|-------------------
E|----------|-------------------------------|-------------------
                                             второй раз
E|-8-7-5---5-|8-7--8-7-5---8-7-5----5-||-12-|   |-5-|
B|-------8-------|-------8-------8----------|   |---|
G|---------------|--------------------------|   |---|
D|---------------|--------------------------|   |---|
А|---------------|--------------------------|   |---|
E|---------------|--------------------------|   |---|


конец: distorsion
E|---|------|---|------|---|------|---|------|---|------|
B|---|------|---|------|---|------|---|------|---|------|
G|---|------|---|------|---|------|---|------|---|------|
D|-2-|------|---|------|-0-|------|-2-|------|-2-|------|
А|-0-|------|-3-|------|-0-|------|-0-|------|-0-|------|
E|---|------|-1-|------|---|------|---|------|---|------|

E ---|------|---|------|---|
B ---|------|---|------|---|
G ---|------|---|------|---|
D ---|------|-0-|------|-2-|
А -3-|------|-0-|------|-0-|
E -1-|------|---|------|---|
Вверх

Осколок льда (3 вариант)

Tempo: slow (72 bpm)
Tuning: normal
INTRO:
(0:01 - 0:26)
RIFF 1: (play 2 times) (both guitars clean)
Gtr.1E||-------------0--------0--------0--------0--------|-------------1--------1--------1--------1--------|
     H||----------1-----1--------0--------0--------0-----|----------1-----1--------1--------1--------1-----|
     G||-------2-----------2--------2--------2--------0--|-------2-----------2--------2--------2--------2--|
     D||----2--------------------------------------------|-3-----------------------------------------------|
     A||-0-----------------------------------------------|-------------------------------------------------|
     E||-------------------------------------------------|-------------------------------------------------|
      ||                                                 |                                                 |
Gtr.2E||-------------------------------------------------|-------------------------------------------------|
     H||----------3--5--------3--------------------------|-------------------------------------------------|
     G||-2--4--5-----------2--------2--5-----2--5--------|-4--------5p4p2-----------------------------------|
     D||-------------------------------------------------|-------------------------------------------------|
     A||-------------------------------------------------|-------------------------------------------------|
     E||-------------------------------------------------|-------------------------------------------------|
      ||                                                 |                                                 |
Bass G||-------------------------------------------------|-------------------------------------------------|
     D||-------------------------------------------------|-------------------------------------------------|
     A||-0-----------------------------------0--3--------|-------------------------------------------------|
     E||-------------------------------------------------|-1-----------------------------------------------|
 
Gtr.1E|--------------0--------0--------0--------0--------|-------------0--------0--------0--------0--------||
     H|-----------3-----3--------3--------3--------3-----|----------1-----1--------0--------0--------0-----||
     G|--------2-----------2--------2--------2--------2--|-------2-----------2--------2--------2--------2--||
     D|--0-----------------------------------------------|----2--------------------------------------------||
     A|--------------------------------------------------|-0-----------------------------------------------||
     E|--------------------------------------------------|-------------------------------------------------||
      |                                                  |                                                 ||
Gtr.2E|--------------------------------------------------|-------------------------------------------------||
     H|-----------3--5--------3--------------------------|-------------------------------------------------||
     G|--2--4--5-----------2--------2--5-----2--4--------|-2-----------------------------------------------||
     D|--------------------------------------------------|-------------------------------------------------||
     A|--------------------------------------------------|-------------------------------------------------||
     E|--------------------------------------------------|-------------------------------------------------||
      |                                                  |                                                 ||
Bass G|--------------------------------------------------|-------------------------------------------------||
     D|--------------------------------------------------|-------------------------------------------------||
     A|--5-----------------------------------0--2--------|-0-----------------------------------------------||
     E|--------------------------------------------------|-------------------------------------------------||
(0:26 - 0:53)
VERSE 1:
VoiceE|---------------------------------------------------------------------------------------------------|
     H|-------------------------5-----3-------------------3-----------------------------------------------|
     G|---2--------------4---5-----------5----4---4-------------5--5---------------------------------2----|
     D|---------------------------------------------------------------------------------------------------|
     A|---------------------------------------------------------------------------------------------------|
     E|- Noch?           u -nesla   tyazhe - ly - e      tu  -  uchi,                               no  --|
      |                                                 |                                                 |
Gtr.1E|-------------------------------------------------|-------------------------------------------------|
 +   H|-------1-----0-----1-----------1-----0-----1-----|-------1-----0-----1-----------1-----0-----1-----|
bass G|----2-----2-----2-----2-----2-----2-----2-----2--|----0-----0-----0-----0-----0-----0-----0-----0--|
     D|-------------------------------------------------|-------------------------------------------------|
     A|-0-----------------------0-----------------------|-3-----------------------3-----------------------|
     E|-------------------------------------------------|-------------------------------------------------|
 
VoiceE|---------------------------------------------------------------------------------------------------|
     H|-------------------------5-----3-------------------------------------------------------------------|
     G|---2-------------4---5------------5-----4-----5----------------------------------------------------|
     D|---------------------------------------------------------------------------------------------------|
     A|---------------------------------------------------------------------------------------------------|
     E| dni            gor?kim sum - rakom    pol - ny.  -------------------------------------------------|
      |                                                 |                                                 |
Gtr.1E|-------------------------------------------------|-------------------------------------------------|
 +   H|-------1-----0-----1-----------5-----3-----5-----|-------1-----0-----1-----3-----1-----0-----1-----|
bass G|----2-----2-----2-----2-----4-----4-----4-----4--|----2-----2-----2-----2-----2-----2-----2-----2--|
     D|-------------------------------------------------|-------------------------------------------------|
     A|-------------------------------------------------|-0-----------------------------------------------|
     E|-1-----------------------3-----------------------|-------------------------------------------------|
...
(0:53 - 1:16)
CHORUS:
VoiceE|------------8------8---7-------5----------5--------------------------------------------------------|
     H|-------------------------------------8--------5-------5--------------------------------------------|
     G|---------------------------------------------------------------------------------------------------|
     D|---------------------------------------------------------------------------------------------------|
     A|---------------------------------------------------------------------------------------------------|
     E|--------    Ya   lyu -bil      i    ne - na -vi   -  del                ---------------------------|
      |                                                 |                                                 |
Gtr.1E|-------------------------------------------------|-------------------------------------------------|
     H|-------1-----0-----1-----------5-----3-----5-----|-------1-----0-----1-----------1-----0-----1-----|
     G|----2-----2-----2-----2-----4-----4-----4-----4--|----2-----2-----2-----2-----2-----2-----2-----2--|
     D|-------------------------------------------------|-------------------------------------------------|
     A|-------------------------------------------------|-0-----------------------0-----------------------|
     E|-1-----------------------3-----------------------|-------------------------------------------------|
      |                                                 |                                                 |
Bass G|-------------------------------------------------|-------------------------------------------------|
     D|-------------------------------------------------|-------------------------------------------------|
     A|-------------------------------------------------|-0-----------------------3--2--0-----2--0--------|
     E|-1-----------------------3-----------------------|-------------------------------------------3-----|
 
VoiceE|------------8------8---7-------5--------5-----5----------------------------------------------------|
     H|-------------------------------------8-------------------------------------------------------------|
     G|---------------------------------------------------------------------------------------------------|
     D|---------------------------------------------------------------------------------------------------|
     A|---------------------------------------------------------------------------------------------------|
     E|--------    No    te -per?    du - sha pus - ta                         ---------------------------|
      |                                                 |                                                 |
Gtr.1E|-------------------------------------------------|-------------------------------------------------|
     H|-------1-----0-----1-----------5-----3-----5-----|-------1-----0-----1-----------1-----0-----1-----|
     G|----2-----2-----2-----2-----4-----4-----4-----4--|----2-----2-----2-----2-----2-----2-----2-----2--|
     D|-------------------------------------------------|-------------------------------------------------|
     A|-------------------------------------------------|-0-----------------------0-----------------------|
     E|-1-----------------------3-----------------------|-------------------------------------------------|
      |                                                 |                                                 |
Bass G|-------------------------------------------------|-------------------------------------------------|
     D|-------------------------------------------------|-------------------------------------------------|
     A|-------------------------------------------------|-0-----------------------------------2--0--------|
     E|-1-----------------------3-----------------------|-------------------------------------------3-----|
 
VoiceE|------------8------8---7-------5-------------5-----------------------------------------------------|
     H|------------------------------------------8--------5-----5--------------5--------------5--5--------|
     G|------------------------------------------------------------7-------5-------------------------7-5--|
     D|---------------------------------------------------------------------------------------------------|
     A|---------------------------------------------------------------------------------------------------|
     E|-------    Vsyo    ischez  -  lo,        ne  os - ta  - viv i     sle -da.             I ne znayu -|
      |                                                 |                                                 |
Gtr.1E|-------------------------------------------------|-------------------------------------------------|
     H|-------1-----0-----1-----------5-----3-----5-----|-------1-----0-----1-----------1-----0-----1-----|
     G|----2-----2-----2-----2-----4-----4-----4-----4--|----2-----2-----2-----2-----2-----2-----2-----2--|
     D|-------------------------------------------------|-------------------------------------------------|
     A|-------------------------------------------------|-3-----------------------0-----------------------|
     E|-1-----------------------3-----------------------|-------------------------------------------------|
      |                                                 |                                                 |
Bass G|-------------------------------------------------|-------------------------------------------------|
     D|-------------------------------------------------|-------------------------------------------------|
     A|-------------------------------------------------|-------------------------------------------------|
     E|-1-----------------------3-----------------------|-8-----------7-----------5-----------------------|


VoiceE|-------------------------------------------------|
     H|-------------------------------------------------|
     G|-------5--------------5--4-----5-----4-----------|
     D|--7-------------------------------------7-----7--|
     A|-------------------------------------------------|
     E| bo - li,          v grudi     os - kolok  l?da -|
      |                                                 |
Gtr.1E|-------------------------------------------------|
 +   H|-------1-----0-----1-----------5-----3-----5-----|
bass G|----2-----2-----2-----2-----4-----4-----4-----4--|
     D|-------------------------------------------------|
     A|-------------------------------------------------|
     E|-1-----------------------3-----------------------|
(1:17 - 1:23)
RIFF 2:
Gtr.1E|-2-----------2-----------3-2h3p2-----3-2h3p2-----|-1-----------------------------------------------|
     H|-3-----------3-----------------3-----------3-----|-3-----------------------3-----------------------|
     G|-2-----------2-----------------------------------|-2-----------------------------5-----4-----5-----|
     D|-------------------------------------------------|-------------------------------------------------|
     A|-------------------------------------------------|-------------------------------------------------|
     E|-------------------------------------------------|-------------------------------------------------|
      |                                                 |                                                 |
Bass G|-------------------------------------------------|-------------------------------------------------|
     D|-------------------------------------------------|-------------------------------------------------|
     A|-0-----------------------------------0--0-h3-----|-5--------------------0-h5-----3-----2-----3-----|
     E|-------------------------------------------------|-------------------------------------------------|
(1:23 - 1:50)
VERSE 2: ( + gtr.1 the same as in verse 1 )
        Ya             pomnyu vsyo,  o chem   my  mech - ta  -  ali,                                no    
Bass G|-------------------------------------------------|-------------------------5-----------------------|
     D|-------------------------7-----------------------|----------------------5-----5--------------------|
     A|----------------------7--------------------3-----|-3-----------------------------3-----------------|
     E|-5-----------------------------5-----------------|-------------------------------------------------|
       zhizn?          ne dlya teh,    kto lyu - bit  sny.
Bass G|-------------------------------------------------|-------------------------------------------------|
     D|-------------------------------------------------|-------------------------------------------------|
     A|-------------------------------------------------|----------------------0-h5-----3-----2-----3-----|
     E|-1-----------------------3-----------------------|-5-----------------------------------------------|
(1:51 - 2:14)
CHORUS 2: (distorted guitar joins)
                         Ya lyu - bil   i  ne - na - vi - del  
Gtr.3 E|---------|---------------------------------|---------------------------------| 
      H|---------|---------------------------------|---------------------------------| 
      G|---------|-2-------------------------------|---------------------------------| 
      D|---------|-3---------------5---------------|-7-------------------------------| 
      A|-3-2-0---|-3---------------5---------------|-7-------------------------------|
      E|---------|-1---------------3---------------|-5---------------8-7-5---7-5-3---|
(2:15 - 3:18)
SOLO:
Gtr.3E|-------------------------------------------------|-------------------------------------------------|
     H|-------------------------------------------------|-------------------------------------------------|
     G|-9bend11--------------------------------9b11release10-----------hold then release------------------|
     D|-------------------------------------------------|-------------------------------------------------|
     A|-------------------------------------------------|-------------------------------------------------|
     E|-------------------------------------------------|-------------------------------------------------|
      |                                                 |                                                 |
Bass G|-------------------------------------------------|-------------------------------------------------|
     D|-------------------------------------------------|-------------------------------------------------|
     A|-0-----------------------------------0--0-h3-----|-5--------------------0-h5-----3-----2-----3-----|
     E|-------------------------------------------------|-------------------------------------------------|
 
Gtr.3E|-------------------------------------------------|-------------------------------------------------|
     H|-------------------------------------------------|-------------------------------------------------|
     G|-9----------------------------------9---9-bend-to-12-release-9---------------------------9-bend-to-|
     D|-------------------------------------------------|-------------------------------------------------|
     A|-------------------------------------------------|-------------------------------------------------|
     E|-------------------------------------------------|-------------------------------------------------|
      |                                                 |                                                 |
Bass G|-------------------------------------------------|-------------------------------------------------|
     D|-------------------------7-----------------------|-------------------------2-----------------------|
     A|----------------------7--------------------------|----------------------2-----2--------------------|
     E|-5-----------------------------5-----------------|-0-----------------------------0-----------------|
 
Gtr.3E|-------------------------------------------------|-------------------------------------------------|
     H|-------------------------------------------------|-------------------------------------------------|
     G|-to12-partial release to 10 bend 12 rel 10 rel 9 |------------------------/17----16----16----14----|
     D|-------------------------------------------------|-------------------------------------------------|
     A|-------------------------------------------------|-------------------------------------------------|
     E|-------------------------------------------------|-------------------------------------------------|
      |                                                 |                                                 |
Bass G|-------------------------------------------------|-------------------------------------------------|
     D|-------------------------------------------------|-------------------------------------------------|
     A|-------------------------------------------------|----------------------0-h5-----3-----2-----3-----|
     E|-1-----------------------3-----------------------|-5-----------------------------------------------|
 
Gtr.3E|-------------------------------------------------|-------------------------------------------------|
     H|-------------------------------------------------|-------------------------------------------------|
     G|-14---------------------------------14--14bend16--16rel14-p-12-------------------------------------|
     D|-------------------------------------------------|-------------------------------------------------|
     A|-------------------------------------------------|-------------------------------------------------|
     E|-------------------------------------------------|-------------------------------------------------|
      |                                                 |                                                 |
Bass G|-------------------------------------------------|-------------------------------------------------|
     D|-------------------------7-----------------------|-------------------------2-----------------------|
     A|----------------------7--------------------------|----------------------2-----2--------------------|
     E|-5-----------------------------5-----------------|-0-----------------------------0-----------------|
 
Gtr.3E|----------------------------------------------22---------------------------22-bend24--release------|
     H|----------------------------------------------20bend22-------------------(20b22)-------------------|
     G|-12b14-------------------14b16-------------------|-------------------------------------------------|
     D|-------15--15------------------17--17------------|-------------------------------------------------|
     A|-------------------------------------------------|-------------------------------------------------|
     E|-------------------------------------------------|-------------------------------------------------|
      |                                                 |                                                 |
Bass G|-------------------------------------------------|-------------------------------------------------|
     D|-------------------------------------------------|-------------------------------------------------|
     A|-------------------------------------------------|-------------------------------------------------|
     E|-1-----------------------3-----------------------|-5--5--5--5--5--5--5--5--5--5--5--5--5--5--5--5--|
 
Gtr.3E|-------------------------------------------------|-------------------------------------------------|
Gtr.4H|-13-12-------------13-12-13-12-------13-12-------|-13-12-------------13-12-13-12-------13-12-------|
     G|-14-12-14-12-14----14-12-14-12-14-12-14-12-14-12-|-14-12-14-12-14----14-12-14-12-14-12-14-12-14-12-|
     D|-------15-14-15----------------15-14-------15-14-|-------14-12-14----------------14-12-------14-12-|
     A|-------------------------------------------------|-------------------------------------------------|
     E|-------------------------------------------------|-------------------------------------------------|
      |                                                 |                                                 |
Bass G|-------------------------------------------------|-------------------------------------------------|
     D|-------------------------------------------------|-------------------------------------------------|
     A|-------------------------------------------------|-------------------------------------------------|
     E|-1--1--1-----1-----1--1--3--3--3-----3--3--3-----|-5--5--5-----5-----5--5--3--3--3-----3--3--3-----|
 
Gtr.3E|-------------------------------------------------|-------------------------------------------------|
Gtr.4H|-13-12-------------13-12-13-12-------13-12-------|-------15b17-------------------------------------|
     G|-14-12-14-12-14----14-12-14-12-14-12-14-12-14-12-|-14----------------------------------------------|
     D|-------15-14-15----------------15-14-------15-14-|-------------------------------------------------|
     A|-------------------------------------------------|-------------------------------------------------|
     E|-------------------------------------------------|-------------------------------------------------|
      |                                                 |                                                 |
Bass G|-------------------------------------------------|-------------------------------------------------|
     D|-------------------------------------------------|-------------------------------------------------|
     A|-------------------------------------------------|-------------------------------------------------|
     E|-1--1--1-----1-----1--1--3--3--3-----3--3--3-----|-5-----------------------------------------------|
...
(3:19 - 3:45)
VERSE 3:
        Pust?          kazhdyy sam   naho  - dit   do -  ro  -  ogu,                               moy 
Gtr.1E|-0-----------------------------------------------|-0-----------------------------------0-----------|
     H|-1-----------------------------------------------|-1--------------------------------------1--------|
     G|-2-----------------------------------------------|-0-----------------------------------------0-----|
     D|-2-----------------------------------------------|-2-----------------------------------------------|
     A|-0-----------------------------------------------|-3-----------------------------------------------|
     E|-------------------------------------------------|-------------------------------------------------|
        put?           budet v sot - nyu raz   dlin - ney.  
Gtr.1E|-1-----------------------3-----------------------|-0-----------------------------------------------|
     H|-1-----------------------3-----------------------|-1-----------------------3-----1-----0-----1-----|
     G|-2-----------------------4-----------------------|-2--------------------------2-----2-----2-----2--|
     D|-3-----------------------5-----------------------|-2-----------------------------------------------|
     A|-3-----------------------5-----------------------|-0-----------------------------------------------|
     E|-1-----------------------3-----------------------|-------------------------------------------------|
(3:45 - 4:22) CHORUS
(4:22 - 5:21) Repeat RIFF 1, first with only gtr.2 part
Вверх

Осколок льда (4 вариант)

ИНТРА:
1|---------0-------------------------0----------|
2|---0-1-3-----3---1-0--1p0-----0-1-3----3---1-0|
3|-2---------2---2----------2-2--------2---2----| играть два раза
4|-------------------0--------0-----------------|
5|-0-------------------------------------------0|


A---0-2-3-5-7-0-5-0-3-0-2-2-0
A---0-2-3-5-7-0-5-0-3-0-2-0

Перебор: бас,3,2,3,1,3,2,3

 Am                  C
Ночь унесла тяжелые тучи
     F          G           Am
Но дни горьким сумраком полны
 Am                        C
Мы расстаемся - так будет лучше
    F          G              Am
Вдвоем нам не выбраться из тьмы...

  ПРИПЕВ:

F      G         Am
  Я любил и ненавидел
F       G            Am
  Но теперь душа пуста
F        G           C G        Am
  Все исчезло, не оставив и следа
              F         G            D  Dm  Am
  И не знает боли в груди осколок льда... 

Я помню все, о чем мы мечтали
Но жизнь не для тех, кто любит сны
Мы слишком долго выход искали
Но шли бесконечно вдоль стены...

  ПРИПЕВ.

Пусть каждый сам находит дорогу -
Мой путь будет в сотню раз длинней
Но не виню ни черта, ни Бога
За все заплатить придется мне!

  ПРИПЕВ:

F      G         Am
  Я любил и ненавидел
F       G            Am
  Но теперь душа пуста
F        G           C G        Am
  Все исчезло, не оставив и следа
              F         G            D  
  И не знает боли в груди осколок льда... 
              F         G            Am  
  И не знает боли в груди осколок льда... 

Вверх

Отшельник

Проигрыш solo:

----------------|------0----1----|--5------------|
--3-------------|----------------|---------------|
----------------|----------------|---------------|
----------------|----------------|---------------|
----------------|----------------|---------------|
----------------|----------------|---------------|

 ---------------|---------------|-------1-3--1----|--0---------|
 ------6--------|--8------------|-----------------|------------|
 -----------7---|---------------|-----------------|------------|
 ---------------|---------------|-----------------|------------|
 ---------------|---------------|-----------------|------------|
 ---------------|---------------|-----------------|------------|

 ---------------|---------------|------0----1----|--5----------|
 --1------------|--3------------|----------------|-------------|
 ---------------|---------------|----------------|-------------|
 ---------------|---------------|----------------|-------------|
 ---------------|---------------|----------------|-------------|
 ---------------|---------------|----------------|-------------|

 ---------------|---------------|---------3-----|--0-----------|
 -----6---------|--8------------|------6-----6--|--------------|
 ----------7----|---------------|---------------|--------------|
 ---------------|---------------|---------------|--------------|
 ---------------|---------------|---------------|--------------|
 ---------------|---------------|---------------|--------------|

 --8------------|---------------|------0----5---|--10----------|
 ---------------|--6------------|------8----6---|--10----------|
 ---------------|--7------------|---------------|--------------|
 ---------------|---------------|---------------|--------------|
 ---------------|---------------|---------------|--------------|
 ---------------|---------------|---------------|--------------|

 ---------------|--8------------|-----6-8--6----|--5-----------|
 ---10----------|--8------------|-----6-8--6----|--5-----------|
 ---10----10----|---------------|---------------|--------------|
 ---------12----|---------------|---------------|--------------|
 ---------------|---------------|---------------|--------------|
 ---------------|---------------|---------------|--------------|

 ---------------|---------------|-----0----5----|--10----------|
 --5------------|--6------------|-----8----6----|--10----------|
 --5------------|--7------------|---------------|--------------|
 ---------------|---------------|---------------|--------------|
 ---------------|---------------|---------------|--------------|
 ---------------|---------------|---------------|--------------|

 ---------------|--8------------|----6--8--6----|--5-----------|
 ---10----------|--8------------|----6--8--6----|--5-----------|
 ---10----10----|---------------|---------------|--------------|
 ---------12----|---------------|---------------|--------------|
 ---------------|---------------|---------------|--------------|
 ---------------|---------------|---------------|--------------|

 -12------------|--13-----------|
 -13------------|--15-----------|
 ---------------|---------------|
 ---------------|---------------|
 ---------------|---------------|
 ---------------|---------------|


 Em   D/E         C#m/E
Кто взял мой хрустальный шар
       C/E
Не спросив меня?
 Em  D/E     C#m/E
Кто мне яду подмешал
      C/E
Среди бела дня?
 D          D/F#         Em      Eb
Стой, где очерчен мелом круг, -
 D          D/F#         C7  B7
Как мне приятен твой испуг!


Ты знал, что войти в мой дом -
Значит умереть!
Ты знал, но играл с огнем
И попался в сеть!
Но я не враг твой - я твой друг.
Стой, где очерчен мелом круг!

Припев:
   Em      Edim     Em       Edim
   Да, я отшельник, маг и волшебник,
   D               B7
   Тяжек мой путь.
   Em      Edim  Em       Edim
   Древние тайны всех мирозданий
   C6  C   D
   Мне под силу.
   Em     Edim Em     Edim  D            B7
   Я заклинаю и превращаю в золото ртуть,
   Em      Edim Em         Edim
   Стану тобою, ты станешь мною,
   C6  C  D      Em  Edim  Em11  Em Edim  Em11
   Верным сыном зла.


Ты жив, но для всех исчез
В черных облаках,
Вот здесь ставят кровью крест -
Подпись на века.
Я научу тебя летать,
В зеркале мира исчезать.

Припев.

 G
В хрустальном шаре
    F
Ты видишь этот мир,
  Em
Пороки в нем играют
  D
Нелепыми людьми,
 Gm
В хрустальном шаре
    F
Ты видишь и себя -
   Eb
То демон ты, то ангел,
  D              Em
И мечется душа твоя.


О, ты поставил кровью крест,
До скорой встречи на костре.

Припев.
Вверх

Палач

 Dm
Мой меч - это власть, мой меч - закон
 B
Мой плащ кровь впитал и дрожь времен
Gm
Я - палач, и я рожден бессмертным
  Dm
Слуги и цари мне бьют поклон.

Мой трон - эшафот, подруга - смерть
Вся грязь, все грехи людей на мне
Был один из вас невинной жертвой
Лишь один был чист... на всей земле!

   Gm
   Он вновь и вновь в мой входит сон
                              B C
   Сквозь пыль веков я вижу все...

День шел, словно гвоздь под молотком
Злой смех заглушал безумца стон
Он спасал весь мир и Галилею
Бога он назвал своим отцом...

Сердцем он хотел всех вас принять
Умереть за вас и за меня
В дар, что свыше дан, он свято верил
Вера - вот и вся его вина...

   Но все равны в моих руках
   Последний миг и страх в глазах...

       Dm                   B       Gm B C
      День придет - сгинет род людской
                Dm     F          B     Gm
      Звезды в первый раз смех услышат мой
         Dm             B       Gm B C
      В пустоту я свой меч швырну
           Dm    F        B     Gm Dm
      И навек уйду в ледяную тьму.

Кто даст мне покой? Подарит свет?
Божий сын казнен - ответа нет
Я решил идти в обитель Бога
Против воли всех небесных рек.

Свой меч бросить там я был готов
Нет сил жечь людей огнем костров
Плыть в чужой крови, казнить пророков
Но создатель ваш не слышал слов.

   Царила тьма в его глазах
   И на меня нахлынул страх.

      День придет - сгинет род людской
      Звезды в первый раз смех услышат мой
      В пустоту я свой меч швырну
      И навек уйду в ледяную тьму.

          Dm
         Мертвым казался Бог на небесах
                                             E
         Равнодушье видел я в старческих глазах
         Dm
         И откровенья свет пронзил меня -
                                                E
         Тот безумец был никем, ваш спаситель - Я!

      День придет - сгинет род людской
      Звезды в первый раз смех услышат мой
      В пустоту я свой меч швырну
      И навек уйду в ледяную тьму.

Dm               Gm
Я - рядом, я - здесь!
 Dm             Gm
Меч - это мой крест!
 B            Gm
Но вам не распять меня...
  B               Gm
Плачь! Небом был создан я
   Dm
Палач...
Вверх

Палач (2 вариант)

Em
Мой меч - это власть, мой меч - закон
Мой плащ кровь впитал и дрожь времен
Am
Я - палач, и я рожден бессмертным
Em
Слуги и цари бьют мне поклон
Мой трон - эшафот, подруга - смерть
Вся грязь, все грехи людей на мне
Был один из вас невинной жертвой
Лишь один был чист... на всей земле!

C               Am            H7
Он вновь и вновь в мой входит сон
Сквозь пыль веков я вижу все...

День шел, словно гвоздь под молотком
Злой смех заглушал безумца стон
Он спасал весь мир и Галилею
Бога он назвал своим отцом...
Сердцем он хотел всех нас принять
Умереть за вас и за меня
В дар, что свыше дан, он свято верил
Вера - вот и вся его вина...

Но все равны в моих руках
Последний миг и страх в глазах...

Em                   C        H7
День придет - сгинет род людской
Звезды в первый раз смех услышат мой
В пустоту я свой меч швырну
И навек уйду в ледяную тьму

Кто даст мне покой? Подарит свет?
Божий сын казнен - ответа нет
Я решил идти в обитель Бога
Против воли всех небесных рек
Свой меч бросить там я был готов
Нет сил жечь людей огнем костров
Плыть в чужой крови, казнить пророков
Но создатель ваш не слышал слов

Царила тьма в его глазах
И на меня нахлынул страх

Em                   C        H7
День придет - сгинет род людской
Звезды в первый раз смех услышат мой
В пустоту я свой меч швырну
И навек уйду в ледяную тьму

Em
Мертвым казался Бог на небесах
                 Am                 H7
Равнодушье видел я в старческих глазах
И откровенья свет пронзил меня -
Тот безумец был никем, ваш спаситель - Я!

Em                   C        H7
День придет - сгинет род людской
Звезды в первый раз смех услышат мой
В пустоту я свой меч швырну
И навек уйду в ледяную тьму

Em               Am  H7
Я - рядом, я - здесь!
Меч - это мой крест!
Но вам не распять меня...
Плачь! Небом был создан я
Em
Палач...

Вверх

Память о...

Tempo: free time, for most of the time
INTRO:
BassG|----------<5>-----<4>-------------------------------|
    D|------<5>-----------------<5>-----<4>---------------|
    A|--<5>-------------------------------------<4>-------|
    E|------ Natural Harmonics ---------------------------|
BassG|----------<5>-----<4>---------------------<3>-------|
    D|------<5>-----------------<5>-----<4>---------------|
    A|--<5>-----------------------------------------------|
    E|----------------------------------------------------|
(0:58 - 1:07)
RIFF 1: (?)
BassG|---------------------------------------------------------------------7-------------|
    D|--7--10---8---7------------7--10---8---7------7--10---8---7------7-----------------|
    A|-----------------0-----5------------------0------------------0---------------------|
    E|--------------------8--------------------------------------------------------------|
(1:07 - 1:20)
RIFF 2:
BassG|-7---9---10--9---7---9---7-------|-7-------------------------------|
    D|-----------------------------10--|----10---8---10--8---7---8---7---|
    A|---------------------------------|---------------------------------|
    E|---------------------------------|---------------------------------|
BassG|--------------------------------|----------------------------------|
    D|-----7---8---7------7-----------|----------------------------------|
    A|-10-------------10-----10---8---|-10---8---7---8---10--12--10/-----|
    E|--------------------------------|----------------------------------|
BassG|-----9---10---9--10--12--10---9--|-10---9---7---9---7------7-------|
    D|-12------------------------------|---------------------10-----10---|
    A|---------------------------------|---------------------------------|
    E|---------------------------------|---------------------------------|
BassG|--------------------------------|----------------------------------|
    D|-----7---8---7------7-----------|----------------------------------|
    A|-10-------------10-----10---8---|-10---8---7---8/10--10h12---------|
    E|--------------------------------|--------------------------10------|
(1:21 - 1:30)
RIFF 3:
BassG|-5-h7--------7-h9--------9-h10-------10h12--------|-12h14-------14h15-------14----------15p14p12-15-|
    D|-------0--0--------0--0--------0--0---------0--0--|-------0--0--------0--0--x-----------------------|
    A|--------------------------------------------------|-------------------------------------------------|
    E|--------------------------------------------------|-------------------------------------------------|
BassG|-14----------17-------15-14-----------------------|----------18b19....rel18---------7--------------|
    D|----------------------------17-15-14--------------|--------------------------sl-------0-------------|
    A|--------------------------------------16----------|------------------------------------8------------|
    E|--------------------------------------------------|-------- ritenuto -------------------------------|
(1:30 - 1:37)
RIFF 4:
BassG|---5-----7-----5-----------------4h5p4-----------------|
    D|--7------------------7--------5------------5--------5--|
    A|-0-------------------------0---------------------7-----|
    E|-------------------------------------------------------|
BassG|-------2--4-p2-------------------1--------------2------|
    D|----2------------------------2--------------2----------|
    A|-0-----------------------2--------------0--------------|
    E|-------------------------------------------------------|
(1:37 - 1:43)
RIFF 5:
BassG|-14-14-14-14-14-14-14-14-14-14-14-14-14-14-14-14-14-14-14-14-14-14-14-14-14-14-|
    D|-------------------------------------------------------------------------------|
    A|------ tremolo picking --------------------------------------------------------|
    E|-------------------------------------------------------------------------------|
BassG|-12-12-12-12-12-12-14-14-14-12-14p12p10-12p10p9-10p97-9-7----7----------------|
    D|-----------------------------------------------------------10---10-9-10-9------|
    A|--------------------------------------------------------------------------10---|
    E|-------------------------------------------------------------------------------|
(1:43 - 2:32)
RIFF 6:
BassG|----------4---5---4---------------|---------4---5---4---------------|
    D|------5---------------5-------5---|-----5---------------5-------5---|
    A|--7-----------------------7-------|-7-----------------------7-------|
    E|----------------------------------|---------------------------------|
BassG|----------4---5---4---------------|---------4---5---4---------------|
    D|------5---------------5-------5---|-----5---------------5-------5---|
    A|--5-----------------------5-------|-5-----------------------5-------|
    E|----------------------------------|---------------------------------|
BassG|----------3---5---3---------------|---------3---5---3---------------|
    D|------5---------------5-------5---|-----5---------------5-------5---|
    A|--3-----------------------3-------|-3-----------------------3-------|
    E|----------------------------------|---------------------------------|
BassG|----------------------------------|---------------------------------|
    D|------4---5---4-------------------|-----4---5---4--------------sl---|
    A|--2---------------2---3---2-------|-----------------2---3---2--/----|
    E|------------------------------3---|-2-------------------------------|
BassG|----------4---5---4-----------4---|-5---4---------------4---5---4---|
    D|------5---------------5---5-------|---------5-------5---------------|
    A|-/7-------------------------------|-------------7-------------------|
    E|----------------------------------|---------------------------------|
BassG|----------4---5---4---------------|---------4---5---4---------------|
    D|------5---------------5-------5---|-----5---------------5-------5---|
    A|--5-----------------------5-------|-5-----------------------5-------|
    E|----------------------------------|---------------------------------|
BassG|----------3---5---3---------------|---------3---5---3---------------|
    D|------5---------------5-------5---|-----5---------------5-------5---|
    A|--3-----------------------3-------|-3-----------------------3-------|
    E|----------------------------------|---------------------------------|
BassG|----------------------------------|------------------ ritenuto -----|
    D|------4---5---4-------------------|-----4---5---4-------------------|
    A|--2---------------2---3---2-------|-2---------------2---3---2-------|
    E|------------------------------3---|-----------------------------3---|
(2:32 - 2:43)
OUTRO:
BassG|-----------------------------------|
    D|----0--4-------------------2-------|
    A|---5------7--5~~~--------slap------|
    E|--x-----------------0--------------|
Вверх

Паранойя mp3

  C          G          Am
        Am              F     G

Am
Я работал как волк, но не выл на Луну
Am                        C             G
Каждый день я привык уходить на войну -
                        F                  G E  Am
Здесь воюют всегда За кресты, за звезды и за воздух

В этой пьяной стране есть для каждого кнут
Здесь поют о душе и в нее же плюют
Как назло, как назло, как нзало
Я понял слишком поздно...

    G                  F
Пр: Эта жизнь не для белых
    G                    F
    Эта жизнь не для черных, нет
    G                F             E
    Эта жизнь без надежды на просвет!
    C                  G                  Am
    Где-то любовь светла, где-то вода чиста
    Am            F      G   C
    И не стучится в дверь беда
    C               G
    Где-то покой и свет
                    Am
    Но только нас там нет
     Am           F        G
    Нам не бывать там никогда

У подруги моей тоже собственый ад
Но там нет ничего: ни чертей ни огня
Только страх темноты
И случайной встречи с незнакомцем
Он высок, он жесток, он полночный маньяк
У него сто имен на газетных листах
Он везде, он везде, он везде
Как только сядет солнце...

Я вчера видел крыс - завтра грянет чума
И пойдет пировать, поджигая дома
Всем раздаст по кресту
И на Страшный Суд отправит строем
А сегодня все пьют, чтоб не выть на Луну
Пир во время чумы, кто есть кто не пойму
Я бегу чтобы жить
А вокруг ликует паранойя
Вверх

Паранойя (2 вариант) mp3

1|----4-4-4-4-2p0----4-4-4-2-0------------4-4-4-2-4-4/5--4p2-------------|
2|-5---------------------------4-4/5--2----------------------5p3-3p2-2p0-|

3|----------------4------------------------------------------------------|
1|----4-4-4-4-2p0-7--7-7-7-9-7---5/7--4---4-4-4-2-4-4/5--4p2-------------|
2|-5---------------------------------------------------------5p3-3p2p0---|
3|---------------------------------------------------------------------2-|

Intro: Em

4|----------5------|         4|-----------------|
5|-5--5-7-7---7-7--| 3 times 5|-7--8-7-5-7-5----|
6|-----------------|         6|--------------7--|

4|----------5------|         4|-----------------|
5|-5--5-7-7---7-7--| 3 times 5|-7--8-7-5-7------|
6|-----------------|         6|-----------------|

     Em
Я работал как волк, но не выл на Луну
Каждый день я привык уходить на войну -
        D
Здесь воюют всегда
                           Em riff1
За кресты, за звезды и за воздух

riff1
4|------------------|
5|-7--8-7-5-7-5-----|
6|--------------7-5-|

  В этой пьяной стране есть для каждого кнут
  Здесь поют о душе и в нее же плюют
  Как назло, как назло, как назло
  Я понял слишком поздно...

Chorus:

H   riff2        C
Эта жизнь не для белых
H   riff3         C
Эта жизнь не для черных, нет
H   riff4        C            H
Эта жизнь без надежды на просвет! 

riff2                 riff3                  riff4
1|-----------------|  1|------------------|  1|--------------------7-| 
2|-7-7-7--5-7-8-8--|  2|-7-7-7--5-7-8-8-8-|  2|-7-7-7--5-7-8-8-7-8---| 
3|-----------------|  3|------------------|  3|----------------------| 

Em                   H
  Где-то любовь светла
                  C#m
  Где-то вода чиста
                           D
  И не стучится в дверь беда
  Где-то покой и свет
  Но только нас там нет
  Нам не бывать там никогда

Intro.

У подруги моей тоже собственный ад
Но там нет ничего: ни чертей ни огня
Только страх темноты
И случайной встречи с незнакомцем
Он высок, он жесток, он полночный маньяк
У него сто имен на газетных листах
Он везде, он везде, он везде
Как только сядет солнце...

Chorus.
Intro.

Я вчера видел крыс - завтра грянет чума
И пойдет пировать, поджигая дома
Всем раздаст по кресту
И на Страшный Суд отправит строем
А сегодня все пьют, чтоб не выть на Луну
Пир во время чумы, кто есть кто не пойму
Я бегу чтобы жить
А вокруг ликует паранойя
Вверх

Патриот mp3

 Gm
Духи далеких гор
Мчатся во весь опор,
     Dm
В огне твой край.
 Gm
Молятся на Восток,
Режут людей, как скот,
    Dm
И рвутся в рай...

   F             E
   А у нас за душой -
      Am
   Небес простор
      G
   И вечный спор -
     F                E
   Кто чужой, а кто свой.

Каждый из нас - мишень,
Прячься, не прячься в тень -
Везде найдут,
В спину стреляют здесь,
Продано все, что есть,
Свои сдают!

   Веру предков сожгли,
   Но тень ее -
   Среди лесов...
   Слушай голос земли.

      Am     G        Am
      Имя тебе - Патриот,
              F         Dm         Am
      Кто не помнит корней, не поймет.
                 G         C
      В сердце огонь не погас,
                F          B     Am
      Кто не с нами, тот против нас!

Выход у нас один -
Выстрел и в сердце - клин,
Прикрой меня!
Мертвым оставь покой,
Действуй, пока живой -
Идет война...

   Кровь течет по камням,
   Забудь про все,
   Иди вперед,
   Слушай голос огня!

      Имя тебе - Патриот,
      Кто не помнит корней, не поймет.
      В сердце огонь не погас,
      Кто не с нами, тот против нас!
Вверх

Патриот (2 вариант) mp3

            Dm                  F
 Боги далеких гор, мчаться во весь опор,
 C     B  A
 Во сне в свой край,
    Dm                         F
 Молятся на восход, режут людей как скот,
      C   B   A
 И жгут свой рай,
    F          Hm                 C        A
 А у нас за душой, и весь простор, и весь престол,
   F             Hm
 Кто чужой, а кто свой.

 Каждый из нас мишень, прячься, не прячься в тень,
 Везде найдут,
 С виду стреляют здесь, продано все что есть
 Своих сдают,
 Веру предков за жизнь, но тень ее среди лесов,
 Слушай голос земли
                  Dm      F
 Пр.           Имя тебе - Патриот,
                     Hm          A      F
               Кто не помнит корней, не поймет,
                    G          F
               Сердца огонь не погас,
                    Hm     A     F
               Кто не с нами тот против нас!

 Выход у нас один, выстрел из сердца клин,
 Прикрой меня,
 Мертвый оставь покой, действуй пока живой,
 Идет война!
 Кровь течет по камням, забудь про все, иди вперед
 Слушай голос огня!

 Пр.
 
 Забудь про все, иди вперед,
 Слушай голос огня  

 Пр. 2 раза
Вверх

Позади Америка

Em
Он выбрал весьма удачный маршрут.
Объехал весь мир за 20 минут.
Он видел огни не здешних реклам.
Он видел улыбки сказочных дам.

   A
   Он не жал на педаль, на ветру не дрожал,
   Он читал перед сном популярный журнал
   Em
   У... с иллюстрацией цветной,
         C          D       A
   Ливерпуль, Сингапур и Ханой.

                  Em   A          Em  A
      Позади Австралия, позади Европа,
                Em      A       C        D
      Позади Антарктика, перед ним весь мир.
               Em   A          Em  A
      Позади Италия, позади Сахара,
                 Em A       C        D
      Позади Япония, перед ним весь мир.
               Em
      Позади Америка ...

Он понял круиз - опасный каприз.
В дороге любой случится сюрприз.
Злой бурей сорвется ласковый бриз.
И сложно порою с выдачей виз.

   Он не жал на педаль, на ветру не дрожал,
   Он читал перед сном популярный журнал
   У... с иллюстрацией цветной,
   Ливерпуль, Сингапур и Ханой.

      Позади Австралия, позади Европа,
      Позади Антарктика, перед ним весь мир.
      Позади Италия, позади Сахара,
      Позади Япония, перед ним весь мир.
      Позади Америка ...
Вверх

Позади Америка (2 вариант)

(0:01 - 0:11)
Интро:
Бас   G|----------------------------------------------|
      D|---5-----4------------------------------------|
      A|-------------------5-----4--------------------|
      E|-----------------------------------3-----0----|
(0:11 - 0:19)
Рифф 1:
Гит.1E|-------------------------------------------------|-------------------------------------------------|
     H|-------------------------------------------------|-------------------------------------------------|
     G|-------------------------------------------------|-------------------------------------------------|
     D|-------------------------------------------------|-------------------------------------------------|
     A|-------------------------------------------------|-------------------------------------------------|
     E|-0--0--0--0--0--0--0--0--0--0--0--0--0--0--0--0--|-0--0--0--0--0--0--0--0--0--0--0--0--0--0--0--0--|
      |                                                 |                                                 |
Гит.2E|-------------------------------------------------|-------------------------------------------------|
     H|-------------------------------------------------|---------------------------------------------------|
     G|-------------------------------------------------|---------------------------------------------------|
     D|-------------------------------------------------|-------------------------------------------------|
     A|-------------------------------------------------|-------------------------------------------------|
     E|-------------------------------------------------|-------------------------------------------------|

(0:19 - 0:47)
 1 Куплет:
ВокалE|---------------------------------------------------------------------------------------------------|
     H|---------------------7---8-------------------------------------------------------------------------|
     G|-------9-----7--9--------------7---9---7--------9--------------------------------------------------|
     D|-------------------------------------------9-------------------------------------------------------|
     A|---------------------------------------------------------------------------------------------------|
     E|------ Он   выбрал  весьма     у -дачный маршрут   ------------------------------------------------|
      |                                                 |                                                 |
Гит.1E|-------------------------------------------------|-------------------------------------------------|
     H|-------------------------------------------------|-------------------------------------------------|
     G|-------------------------------------------------|-------------------------------------------------|
     D|-------------------------------------------------|-------------------------------------------------|
     A|-------------------------------------------------|-------------------------------------------------|
     E|-0--0--0--0--0--0--0--0--0--0--0--0--0--0--0--0--|-0--0--0--0--0--0--0--0--0--0--0--0--0--0--0--0--|
      |                                                 |                                                 |
Гит.2E|-------------------------------------------------|-------------------------------------------------|
     H|-------------------------------------------------|-------------------------------------------------|
     G|-------------------------------------------------|----------------------------------------------7--|
     D|-2-----------------------------------------------|-------9-----7-/9-----4-/5--------------4--5-----|
     A|-2-----------------------------------------------|-------7-----5-/7-----2-/3-----5--2--------------|
     E|-0-----------------------------------------------|-------------------------------3--0--------------|
 
ВокалE|---------------------------------------------------------------------------------------------------|
     H|--------------------7----8-------------------------------------------------------------------------|
     G|-------9-----7--9--------------7---9---7------9----------------------------------------------------|
     D|--------------------------------------------9------------------------------------------------------|
     A|---------------------------------------------------------------------------------------------------|
     E|------ Объ -  ехал  весь мир   за двадцать минут   ------------------------------------------------|
      |                                                 |                                                 |
Гит.1E|-------------------------------------------------|-------------------------------------------------|
     H|-------------------------------------------------|-------------------------------------------------|
     G|-------------------------------------------------|-------------------------------------------------|
     D|-------------------------------------------------|-------------------------------------------------|
     A|-------------------------------------------------|-------------------------------------------------|
     E|-0--0--0--0--0--0--0--0--0--0--0--0--0--0--0--0--|-0--0--0--0--0--0--0--0--0--0--0--0--0--0--0--0--|
      |                                                 |                                                 |
Гит.2E|-------------------------------------------------|-------------------------------------------------|
     H|-------------------------------------------------|-------------------------------------------------|
     G|-(7)--------------------------------------------|----------------------------------------------7--|
     D|-------------------------------------------------|-------9-----7-/9-----4-/5--------------4--5-----|
     A|-------------------------------------------------|-------7-----5-/7-----2-/3--0--5-/7--------------|
     E|-------------------------------------------------|-------------------------------3-/5--------------|
 
              Он   видел     огни    нездешних  реклам.
Гит.1E|-------------------------------------------------|-------------------------------------------------|
     H|-------------------------------------------------|-------------------------------------------------|
     G|-------------------------------------------------|-------------------------------------------------|
     D|-------------------------------------------------|-------------------------------------------------|
     A|-------------------------------------------------|-------------------------------------------------|
     E|-0--0--0--0--0--0--0--0--0--0--0--0--0--0--0--0--|-0--0--0--0--0--0--0--0--0--0--0--0--0--0--0--0--|
      |                                                 |                                                 |
Гит.2E|-------------------------------------------------|-------------------------------------------------|
     H|-------------------------------------------------|-------------------------------------------------|
     G|-(7)--------------------------------------------|----------------------------------------------7--|
     D|-------------------------------------------------|-------9-----7-/9-----4-/5--------------4--5-----|
     A|-------------------------------------------------|-------7-----5-/7-----2-/3--0--5-/7--------------|
     E|-------------------------------------------------|-------------------------------3-/5--------------|
 
              Он   видел    у -лыб - ки  сказоч -ных  дам.
Гит.1E|-------------------------------------------------|-------------------------------------------------|
     H|-------------------------------------------------|-------------------------------------------------|
     G|-------------------------------------------------|-------------------------------------------------|
     D|-------------------------------------------------|-------------------------------------------------|
     A|-------------------------------------------------|-------------------------------------------------|
     E|-0--0--0--0--0--0--0--0--0--0--0--0--0--0--0--0--|-0--0--0--0--0--0--0--0--0--0--0--0--0--0--0--0--|
      |                                                 |                                                 |
Гит.2E|-------------------------------------------------|-------------------------------------------------|
     H|-------------------------------------------------|-------------------------------------------------|
     G|-(7)--------------------------------------------|---------------------------------------4h5p4p2-------|
     D|-------------------------------------------------|-------9-----7-/9-----4-/5-------------------5-4-2-|
     A|-------------------------------------------------|-------7-----5-/7-----2-/3-----5--2--------------|
     E|-------------------------------------------------|----------------------------0--3--0--------------|
(0:47 - 1:01)
Прелюдия:
ВокалE|------5--5---5---5----8----------------------------------5--5--5--5--------------------------------|
     H|--------------------8-------------------------------------------------8--5-------------------------|
     G|---------------------------------------------------------------------------------------------------|
     D|---------------------------------------------------------------------------------------------------|
     A|---------------------------------------------------------------------------------------------------|
     E|---- Он не  жал на педаль.                              На ветру не дрожал.    --------------------|
      |                                                 |                                                 |
Гит.2E|-------------------------------------------------|-------------------------------------------------|
     H|-------------------------------------------------|-------------------------------------------------|
     G|-------------------------------------------------|-------------------------------------------------|
     D|-------------------------------------------------|-------------------------------------------5-----|
     A|-7--7--------------------------------------------|-7--7-------------------------------/7-----------|
     E|-5--5--------------------------------------------|-5--5--------------------0-----3-----------------|
 
ВокалE|------5---5-5--5-------8--10-8---------------------------5-5--5--5---------------------------------|
     H|------------------8---------------------------------------------------8--5-------------------------|
     G|---------------------------------------------------------------------------------------------------|
     D|---------------------------------------------------------------------------------------------------|
     A|---------------------------------------------------------------------------------------------------|
     E|---- Он читал перед сно -о -ом                         популярный  журнал     ---------------------|
      |                                                 |                                                 |
Гит.2E|-------------------------------------------------|-------------------------------------------------|
     H|-------------------------------------------------|-------------------------------------------------|
     G|-------------------------------------------------|-------------------------------------------------|
     D|-------------------------------------------------|-------------------------------------------------|
     A|-7--7--------------------------------------------|-7--7--------------------------------------------|
     E|-5--5--------------------------------------------|-5--5--------------------------------------------|
(1:02 - 1:15)
ПредПрипев:
VoiceE|---------------------------------------------------------------------------------------------------|
     H|--8----------------------------------7---5---5-----------5--5--------------------------5-----7-----|
     G|------------------------------------------------7--7-----------------------------------------------|
     D|---------------------------------------------------------------------------------------------------|
     A|---------------------------------------------------------------------------------------------------|
     E| Мммммммм                          с  иллюстраци -и  
цветной.                       Ли  - вер -  |
      |                                                 |                                                 |
Гит.1E|-------------------------------------------------|-------------------------------------------------|
     H|-------------------------------------------------|-------------------------------------------------|
     G|-------------------------------------------------|-------------------------------------------------|
     D|-------------------------------------------------|-------------------------------------------------|
     A|-------------------------------------------------|-------------------------------------------------|
     E|-0--0--0--0--0--0--0--0--0--0--0--0--0--0--0--0--|-0--0--0--0--0--0--0--0--0--0--0--0--0--0--0--0--|
 
ВокалE|-------------------------5-------------------------------------------------------------------------|
     H|--8----------7-----5-----------------8-----7-------5------------------------------------8-7-5------|
     G|-----------------------------------------------------------------------------------------------7---|
     D|---------------------------------------------------------------------------------------------------|
     A|---------------------------------------------------------------------------------------------------|
     E| -пуль,     Син - га  - пур          и    Ха  -   ной?.                                Позади Ав- -|
      |                                                 |                                                 |
Гит.1E|-------------------------------------------------|-------------------------------------------------|
     H|-------------------------------------------------|-------------------------------------------------|
     G|-------------------------------------------------|-------------------------------------------------|
     D|-5-----------------------7-----------------------|-------------------------------------------------|
     A|-3-----------------------5-----------------------|-7-----------------------------------------------|
     E|-------------------------------------------------|-5-----------------------------------------------|
(1:15 - 1:44)
Припев:
       стралия.                              Позади Ев - ро - па.                           Позади Ан - 
Гит.1E|-------------------------------------------------|-------------------------------------------------|
     H|-------------------------------------------------|-------------------------------------------------|
     G|-------------------------------------------------|-------------------------------------------------|
     D|-------------------------------------------------|-------------------------------------------------|
     A|-------------------------------------------------|-------------------------------------------------|
     E|-0-----2-----3-----4--5--------3-----2-----3-----|-0-----2-----3-----4--5-----5-p3-----2-----3-----|
       тарктика.                          Впе  -  ре  -  ди                весь мир.         Позади  И -
Гит.1E|-------------------------------------------------|-------------------------------------------------|
     H|-------------------------------------------------|-------------------------------------------------|
     G|-------------------------------------------------|-------------------------------------------------|
     D|-------------------------------------------------|-------------------------------------------------|
     A|-------------------------------------------------|-3-----2-----3-----4--5-----5-p3-----2-----------|
     E|-0-----2-----3-----4--5-----5-p3-----2-----3-----|-------------------------------------------3-----|
(1:44 - 1:51) Рифф 1
(1:52 - 2:21) 2 Куплет.
(2:21 - 2:35) Прелюдия
(2:35 - 2:50) ПредПрипев
(2:50 - 3:19) Припев
...
(4:11 - 5:11) Припев (*2 раза)

Вверх

Потерянный рай

Hm                А
От края до края небо в огне сгорает,
Em                       G          А
И в нем исчезают все надежды и мечты.
Hm                 А
Но ты засыпаешь,и Ангел к тебе слетает,
Em                         G           А
Смахнет твои слезы, и во сне смеешься ты.

              Припев:

     G        А              Hm
Засыпай, на руках у меня засыпай,
     G А              Hm
Засыпай под пенье дождя.
     G          А              Hm(VII) А(V) G(VII) Em(VII)
Далеко, там где неба кончается кра-а-а-а-а-а-й,
       G  А            Hm
Ты найдешь потерянный рай.

               II

Во сне хитрый демон может пройти сквозь стены,
Дыхание спящих он умеет похищать.
Бояться не надо, душа моя будет рядом
Твои сновиденья до рассвета охранять.

             Припев:
              solo

 III - транспонируем на тон выше (на 2 лада)

Cm#                   Н
Подставлю ладони их болью своей наполни,
Fm#                       А           Н
Наполни печалью, страхом гулкой темноты.
Cm#                   Н
И ты не узнаешь, как небо в огне сгорает,
Fm#                       А          Н
И жизнь разбивает все надежды и мечты.

             Припев:

     А        Н              Cm#
Засыпай,на руках у меня засыпай,
     А Н              Cm#
Засыпай под пенье дождя.
     А          Н              Cm# Н А Fm#
Далеко,там где неба кончается кра-а-а-а-а-й,
       А  Н            Cm#
Ты найдешь потерянный рай.

       Cm#    Н А
     В мире сно-oв
         ...
            А          Н
     Все надежды и мечты
Вверх

Потерянный рай (2 вариант)

Dm
От края до края
Gm
Небо в огне сгорает
F
И в нем исчезают
        C      G
Все надежды и мечты


Но ты засыпаешь
И ангел к тебе слетает

Смахнет твои слезы
И во сне смеешься ты

        F
Засыпай,
          G              Am
На руках у меня засыпай,
        F
Засыпай
          G        Am
Под пенье дождя...
        F
Далеко,
  G                        Am Hm ...
Там, где неба кончается кра-а-а-й
        F     G  N/C
Ты найдешь
                 Am
Потерянный рай.

Во сне хитрый демон
Может пройти сквозь стены
Дыханье у спящих
Он умеет похищать

Бояться не надо,
Душа моя будет рядом
Твои сновиденья
До рассвета охранять.

Засыпай,
На руках у меня засыпай,
Засыпай
Под пенье дождя...
Далеко,
Там, где неба кончается кра-а-а-й
Ты найдешь
Потерянный рай.

Подставлю ладони --
Их болью своей наполни
Наполни печалью
Страхом гулкой темноты

И ты не узнаешь
Как небо в огне сгорает
И в нем исчезают
Все надежды и мечты

Засыпай,
На руках у меня засыпай,
Засыпай
Под пенье дождя...
Далеко,
Там, где неба кончается кра-а-а-й
Ты найдешь
Потеряный рай.

В мире снов...
Вверх

Потерянный Рай (3 вариант)

 (X) 1-*-|----|-----   (Y) 1-*-|----|-----    (Z) 1 ---|----|---  
     2---|----|-----       2---|----|-*---        2 ---|----|---                      
     3---|-*--|-----       3---|-*--|-----        3 ---|-*--|---           
     4---|----|-*---       4---|----|-*---        4 ---|-*--|---
--------------------------------------------------------------------
INTRO:

Am7    Am6    X    Y Am   (2 раза)
 
Am7               Am6                                               
   От края до края небо в огне сгорает,
F                          C           G
   И в нём исчезают все надежды и мечты,
   Но ты засыпаешь, и ангел к тебе слетает.
   Смахнёт твои слёзы, и во сне смеёшься ты.

ПРИПЕВ:
        F        G              Am   Z 
   Засыпай на руках у меня, засыпай.
        F   G               Am  Z
   Засыпай    под пенье дождя.
        F             G              Am   B   C   D
   Далеко - там, где неба кончается кра - а - а - ай
          F   G              Am
   Ты найдёшь    потерянный рай. 

INTRO.

   Во сне хитрый демон может пройти сквозь стены,
   Дыханье у спящих он умеет похищать.
   Бояться не надо, душа моя будет рядом
   Твои сновиденья до рассвета охранять.

ПРИПЕВ.

ПРОИГРЫШ:      Am     G     F#     F Em  (4 раза)
  
Hm                        A       
   Подставлю ладони - их болью своей наполни,
G                           E7            A
   Наполни печалью, страхом гулкой темноты.
   И ты не узнаешь, как небо в огне сгорает, 
   И жизнь разбивает все надежды и мечты.

ПРИПЕВ:

        G        A              Hm
   Засыпай на руках у меня, засыпай.
        G   A              Hm       
   Засыпай    под пенье дождя.
        G             A              Hm  C#   D   E
   Далеко - там, где неба кончается кра - а - а - ай
          G    A            Hm
   Ты найдёшь    потерянный рай. 
  Hm                        G       A         Hm
В мире снов (3 раза) все надежды и мечты ....
Вверх

Пробил час

     Am
Все сказаны слова, все сделаны дела
          C          Н           Am
И снова вместе на дороге мы с тобой
Время в даль лететь, нет больше сил терперь
Когда ты в коже, на коне, а конь стальной
Я не состарюсь никогда, в крови огонь, а не вода
А не по нраву я кому-то - мне плевать
Колеса есть и есть друзья, горячий ветер и гроза
Пока не сдохнем по дороге будем гнать

  C           G
Пробил час - не остановишь нас
     Am                 F
Свыше контролю не бывать
          C
Делай то, что по душе
     G               Am
На своем стальном коне
        F          G
Мы здесь, чтоб полночь
    Am
Взорвать!

Am G Am; Am C Am

Каждый встречный неудачник мажет грязью нас
Что ж нет ни денег, ни дворцов - есть жизнь одна
Ее я трачу как могу, кто любит хэви-тот мой друг
Для меня байк и советчик, и жена
Никто меня не понял: ни школа, ни семья
Мой удар учитель помнит и не зря
Гнить в тюрьме, болтаться  в школе-
выбор мой был в пользу воли
Больше пива, больше хэви - счастлив я!

Мы в прошлом победили и не глядим назад
Мы здесь, чтоб дать пинка врагам под зад
Эй, почувствуй звук колес и подними свой тост
Тост за нас и этот ад!
Вверх

Пробил час (2 вариант)

      Em
 Все сказаны слова, все сделаны дела
           C          H           Em
 И снова вместе на дороге мы с тобой
 Время в даль лететь, нет больше сил терперь
 Когда ты в коже, на коне, а конь стальной
 Я не состарюсь никогда, в крови огонь, а не вода
 А не по нраву я кому-то - мне плевать
 Колеса есть и есть друзья, горячий ветер и гроза
 Пока не сдохнем по дороге будем гнать

   G           D
 Пробил час - не остановишь нас
      Em                 C
 Свыше контролю не бывать
     G
 Делай то, что по душе
      D            Em
 Hа своем стальном коне
      C           D
 Мы здесь, чтоб полночь
     Em
 Взорвать!

Em G Em ; Em D Em -два раза


 Каждый встpечный неудачник мажет гpязью нас
 Что ж нет ни денег, ни двоpцов - есть жизнь одна
 Ее я тpачу как могу, кто любит хэви-тот мой дpуг
 Для меня байк и советчик, и жена
 Hикто меня не понял: ни школа, ни семья
 Мой удар учитель помнит и не зря
 Гнить в тюрьме, болтаться  в школе-
 выбор мой был в пользу воли
 Больше пива, больше хэви - счастлив я!

 Мы в прошлом победили и не глядим назад
 Мы здесь, чтоб дать пинка врагам под зад
 Эй, почувствуй звук колес и подними свой тост
 Тост за нас и этот ад! 
Вверх

Прощай, Норфолк!

Вступление.

21 августа 1915 года британский генерал Гамильтон
отправил Норфолкский полк в качестве подкрепления
своим войскам на передовую. Полк поднялся высоко в горы,
вошел в осевшее в ущелье огромное облако и... исчез.
Из облака не вышел ни один солдат!

 Bm
В небе на битву сходились орлы,
 D
Людям для войн не хватало земли.
 G  Bb                  Bm   G Bb
О... лето жгло свой восход.
 Bm
Немцы убитых тащили во рвы,
 D
В бой англичане бросались как львы.
 G  Bb                Bm
О... шел пятнадцатый год.

   G7
   Прощай, Норфолк!
   Bm
   За честь короны мы умрем.
   G7
   Прощай, Норфолк!
   А
   Мы в рай едва ли попадем.

 D               D/C             Bm       Bb
Штык в спине, а пуля в сердце - отпоет шакал.
 D              D/C            Bb            C
Мертвым славой не согреться, кто б не согревал,
 D                D/C           Bm            Bb
В жилах кровь суровых бриттов бьется, словно ток.
 D              D/C
Смерть сегодня будет сытой.
 Bb     C       D
Да хранит вас Бог!


Полк из Норфолка затерян в горах,

Стынут молитвы и брань на устах.
О... потемнел горизонт,
Странное облако скрыло солдат.
Ни звона стали, ни звуков команд.
О... тяжкий бред, страшный сон.

    Прощай, Норфолк!
    За честь короны мы умрем.
    Прощай, Норфолк!
    Мы в рай едва ли попадем.


И рванулся над ущельем яркий столб огня.
И застыла на мгновенье ночь на ранах дня,
Хохот демонов и скрежет, черных змей клубок,
Стала облаком вся нежить...
Да хранит вас Бог!


В диком ущелье пульсирует мрак,
Чертит дыханьем языческий знак.

О... значит, полк обречен.
Облако медленно вверх поднялось,
Вспыхнуло криком разгневанных звезд.
О... снова чист небосклон.

    Прощай, Норфолк!
    За честь короны мы умрем.
    Прощай, Норфолк!
    Мы в рай едва ли попадем.

Над Норфолком в ту же полночь грянул алый дождь,
Сколько стен от белых молний факелом зажглось,
Черный пепел, черный ветер всех сбивали с ног.
Каждый видел гибель Света...
Да хранит вас Бог!
Вверх

Прощай, Норфолк! (2 вариант)

Dm xx0231	D xx0232
F/Dm xx3231	D/C x30323
Bb 113331	C 032010
C# 446664

	Dm
	В небе на битву сходились орлы,
	F/Dm
	Людям для войн нехватало земли.
    Bb C#              Dm	Bb C#
	Лето жгло свой восход.
	Dm
	Немцы убитых тащили во рвы,
	F/Dm
	В бой англичане бросались как львы.
    Bb C#              Dm       Bb C#
	Шел пятнадцатый год.


	Bb		Dm
	Прощай Норфолк - за честь короны мы умрем,
	Bb		C		    D
	Прощай Норфолк - мы в рай едва ли попадем.
	D		C/D		Bb	C
	Штык в спине, а пулю в сердце отпоет шакал.
	D		C/D		Bb	C
	Мертвым славой не согреться, дом не согревал.
	D		C/D		Bb	C
	В жилах бес в суровых пытках бъется словно ток.
	D		C/D		Bb	C D
	Смерь сегодня будет сытой, да хранит вас бог.

Полк из Норфолка затерян в горах,
Стынут молитвы и брань на устах.
Почернел горизонт.
Странное облако скрыло солдат,
Ни звона стали, ни звуках команд.
Тяжкий бред, страшный сон.

Прощай Норфолк - за честь короны мы умрем,
Прощай Норфолк - мы в рай едва ли попадем.
И рванулся над ущельем яркий столб огня.
И застыла на мгновенье ночь на ранах дня.
Хохот демонов и скрежет черных змей клубок.
Стало облаком вся нежить, да хранит вас бог.

В диком ущелье пульсирует мрак,
Чертит дыханьем языческий знак,
Значит порт обречен.
Облако медленно вверх поднялось,
Вспыхнуло криком разгневанных звезд,
Снова чист небосклон.

Прощай Норфолк - за честь короны мы умрем,
Прощай Норфолк - мы в рай едва ли попадем.
Над Норфолком в туже полночь грянул алый дождь.
Сколько стен от белых молний факелом зажглось.
Черный пепел, черный ветер всех сбивает с ног.
Каждый видел гибель света, да хранит вас бог.

Вверх

Путь в никуда

Dm
Вспышка в темноте, яркий свет в глазах,
              G7
Я ослеп на миг.
Dm
Кто-то так хотел разбудить мой страх,
                  G7
Разбудить мой крик.

      Gm                    B
      Снова все мои желанья, что я сжег дотла,
      Gm                 C A
      Оживают и зовут меня.

Я все время плыл по теченью дней,
Были сном мечты.
Но мираж ожил: словно жадный зверь
Появилась ты.

      Я твое дыханье слышу за своей спиной,
      Только ветер глушит голос мой!

     Dm        C
   Путь в никуда.
        B
   Я зову, но мне в ответ ни слова.
    Dm         G
   Путь в никуда.
           B                  C
   Из-под ног моих уходит земля.

   Путь в никуда.
   Я искал к тебе пути иного.
   Путь в никуда.
   Ничего уже исправить нельзя.

"Для героев - рай, ад - для дураков",*
Я, такой, как есть.
Осветил мне грань, где легко пропасть
Выстрел в темноте.

      Голоса грозы все громче, все трудней дышать,
      На свободу просится душа!

   Путь в никуда.
   Я зову, но мне в ответ ни слова.
   Путь в никуда.
   Из-под ног моих уходит земля.

   Путь в никуда.
   Я искал к тебе пути иного.
   Путь в никуда.
   Ничего уже исправить нельзя.

         F                  D#     D
         Пусть душа моя кричит от боли,
         F                        D#    D
         Пусть в глазах стоит густой туман,
         F                                D#     D
         Лучше камнем вниз, чем жить по чьей-то воле.
         F                   D# D
         Этот путь я выбрал сам.

      Снова все мои желанья, что я сжег дотла
      Оживают и ведут меня...
Вверх

Путь наверх

 A
Ты брошен вниз силой судьбы,
 G        A
Ты унижен и раздавлен,
  A
Время забыть то, кем ты был,
    G                A
Но помнить, кем ты стал.
  D
Брошен на дно - где все равно,
     C         D
За что тебя любила слава.
 D
Подлость огнем ставит клеймо,
   C          D
Душа твоя пуста.

Люди на дне рыщут во тьме,
Они готовы жрать друг друга,
Лишь бы продлить дикую жизнь,
Урвать себе кусок.
Свой среди них, жадных и злых,
Ты в той же стае мчишь по кругу,
С ними ползешь закону под нож,
Как раб, а не пророк!

Cm                        G
О, если б слушать только тишину,
Cm                            G       Cm
Не ложь, не лесть, не полдень и не тьму,
G#
Под солнцем снегом тая,
B
Любить, измен не зная, -
G#                     G
Ты умер бы от злой тоски!

 Am          C
Хей, жители неба,
  F             Am
Кто на дне еще не был?
Am              C
Не пройдя преисподни,
 F                E
Вам не выстроить рай!

Хей, жители дна,
Гром смеется над вами:
Чтобы быть с ним на равных,
Есть один путь - наверх!
Есть один путь - наверх!

Но яркий луч вспыхнет в мозгу,
И покорность выбьет клином,
Прошлые дни в душе оживут -
Свершится новый грех.
Кровь на руках, кровь на камнях,
По телам и жалким спинам
Тех, кто готов сдохнуть в рабах,
Ты рвешься вновь наверх.

О, если б слушать только тишину,
Не ложь, не лесть, не полдень и не тьму,
Под солнцем снегом тая,
Любить, измен не зная, -
Ты умер бы от злой тоски!

Хей, жители неба,
Кто на дне еще не был?
Не пройдя преисподни,
Вам не выстроить рай!

Хей, жители дна,
Гром смеется над вами.
Чтобы быть с ним на равных,
Есть один путь - наверх!
Есть один путь - наверх!
Вверх

Пытка тишиной

 Am        Bm/А    Am          Bm/А
Дождь за окном надоел давным-давно,
   Am            Bm/А         Am   Bm/А
И увидеть блики солнца мне не суждено.
 Am         Bm/А        Am            Bm/А
Ты, словно тень, растворилась в темноте,
      Am            Bm/А          Am      Bm/А
Алый шарф застыл на стуле, как вчерашний день...

Припев:
          D7     C
   Я выключаю в комнатах свет,
             D7    C   Bm  Bb
   Мне не хватает лишь сигарет,
      Am
   Их нет...

Я жду, когда ночь завесит черным даль
И остатки слез небесных станут коркой льда,
Мне все равно, плохо ли тебе одной,
Ты хотела перемен и сердцем, и душой...

Припев.

           Am7
Бесконечна пытка тишиной,
          Bm7
Тишина смеется над тобой,
          C
Застывает время на стене,

          D7            G#
У часов печали стрелок нет.
               Am7
Ночь за ночью, день за днем - один,
            Bm7
Сам себе слуга и господин,
        А/C
А года уходят в никуда,
                D7        G#           Am
Так течет в подземный, подземный мир вода...

Боль, только боль
До конца честна со мной,
И она бывает сладкой,
Но все чаще злой.
А снег за окном скоро сменится дождем,
Это ангелы без крыльев плачут о былом...

Припев.
Вверх

Рабство иллюзий mp3

     Am
В краю древних предков я рос чужаком,
И не чтил ни святых ни чертей.
Я шел против ветра, я шел напролом
                             G
В мир нездешних и вольных людей.
      F           Dm         Am
Но я не был никогда рабом иллюзий

Здесь молятся Богу и Сатане.
Без хозяина трудно прожить.
И каждый построил себе по тюрьме,
Веря в праведность царственной лжи.
Но я не был никогда рабом иллюзий.
      F           Dm         D
Но я не был никогда рабом иллюзий.

     G
   Здесь, на вершине рядом со мной
            F
   В небе кружат три белых орла.
    G
   Гордость им имя, Дух и Покой,
         F
   А за ними ни Зла ни Добра.
     A
   Стой на вершине рядом со мной,
             G
   Там где кружат три белых орла.
    A
   Гордость - им имя, Дух и Покой,
         G
   А за ними лишь высь, лишь холодная высь,
    Am
   Ни Добра ни Зла.

Меня проклинали, смеялись в лицо,
А старухи плевали мне в след.
Друзья награждали терновым венцом,
И пророчили множество бед.
Но я не был никогда рабом иллюзий.

Но даже в час смерти не стану другим,
И никто не поставит мне крест.
Я буду свободным, но трижды чужим,
Для пустых и холодных небес.
Я не стану никогда рабом иллюзий.
Я не стану никогда рабом иллюзий.
Вверх

Рабство иллюзий (2 вариант) mp3

 Intro:
 
 E|-----------------------------|-----------------------------|-
 H|-----------------------------|-----------------------------|-
 G|-----------------------------|-----------------------------|-
 D|-----5---7-5-4-5--4---4------|-----2---4-2---5--4-2--7-5-4-|-
 A|-7-7---7------------7----7-5-|-3-3---3-----3---------------|-
 E|-----------------------------|-----------------------------|-
 
                         I
 Am
 В краю древних предков я рос чужаком и не чтил ни святых ни чертей
                                                                   G
 И я шел против ветра, я шел напролом в мир нездешних и вольных людей
       F          Dm         Am
 Hо я не был никогда рабом иллюзий.
 
 Здесь молятся Богу и Сатане, без хозяина трудно прожить
 И каждый построил себе по тюрьме веря в правильность царственной лжи,
 Hо я не был никогда рабом иллюзий.
       F          Dm          D
 Hо я не был никогда рабом иллюзий!
 
         Припев:
             G
           Здесь, на вершине, рядом со мной
                    F
           В небе кружат три белых орла
            G
           Гордость им имя, Дух и Покой,
                 F
           А за ними ни зла, ни добра.
             A
           Стой на вершине, рядом со мной
                     G
           Там где кружат три белых орла
            A
           Гордость им имя, Дух и Покой,
                 G
           А за ними лишь высь, лишь холодная высь,
            Am
           Hи добра ни зла.
 
                         II
 Меня проклинали, смеялись в лицо, а старухи плевали мне в след.
 Друзья награждали терновым венцом и пророчили множество бед,
 Hо я не был никогда рабом иллюзий.
 
 Hо даже в час смерти не стану другим, и никто не поставит мне крест.
 Я буду свободным, но трижды чужим для пустых и холодных небес.
 Я не стану никогда рабом иллюзий.
 
 Я не стану никогда рабом иллюзий!
Вверх

Раб страха

 Dm
Слушай!
Ты вольным считал сам себя,
 C6
Только
Во всем походил на раба.
    Bb7
Ты боялся подумать не так,
     C
Ты боялся ответить не так,
          Dm
Ты - раб страха!
 Dm
Страшно
В немилости быть у богов.
 C6
Сверху
Сильнее ударом кулаком.
         Bb7
Страшно падать и страшно летать,
         C6
Страшно жить, в потом умирать.
          Dm
Ты - раб страха!
 Gm7
Мм... а смерть все ближе,
 А7                    Bb
Мм... рабов у смерти нет.
 Bb7           Gm7            C А7/C
Смерть даст покой и вечный свет.


 Dm
Небо!
          Bb7
Слабых не милуй.
             C6
Всем не под силу
          F  А7
Бремя свобод.
 Dm
Время!
        Bb7
Время рассудит,
         C6
Хуже не будет.
               Dm  C Bb
Рвись, раб, вперед!


Рабство!
Оно зажимает в тиски.
Рабство!
Оно травит ядом мозги.
Терпишь молча пинки дураков
И плодишь поколенья рабов
Ты - раб страха!
Страшно!
Поколенья рабов строят мир.
Страшно!
Мир станет слепым и немым.
В центре мира - чугунный глупец.
На спине его - красный рубец.
Ты - раб страха!
Вверх

Раб страха (2 вариант)

Вступление,оно же проигрыш : C#m   H   A   H  C#m
     C#m
           Слушай! Ты вольным считал сам себя,
           G#m
           Только во всем походил на раба :
                A(V)
           Ты боялся подумать не так,
                G#m
           Ты боялся ответить не так -    
                  C#m               далее идет проигрыш
           Ты раб страха
          
           Страшно в немилости быть у богов 
           Сверху сильнее удар кулаком.  
           Страшно падать и страшно летать,
           Страшно жить,а потом умирать,
           Ты раб страха
Припев :
               F#m
              ...Мм........А смерть все ближе...
                H                          A(I)
              ...Мм......  Рабов у смерти нет,
                                Hm            F#
                 Смерть даст покой и вечный све-ет...
                  G              Hm
              ...Небо!слабых не милуй ,
                              G             F#
                 всем не под силу бремя свобод
                     G             Hm
                 Время...Время рассудит,
                          G
                 Хуже не будет 
                                C#m,проигрыш.
                 Рвись,раб,вперед.
                 
           Рабство,оно зажимает в тиски,
           Рабство,оно травит ядом мозги,
           Ты ведешь полчища дураков(??)
           Ты плодишь поколенья рабов
           Ты раб страха

           Страшно - поколенье рабов строит мир,
           Страшно - мир будет слепым и немым
           В центре мира чугунный глупец,
           На спине его красный рубец.
           Ты раб страха. 
                 
           Припев,4 раза проигрыш,
           потом соло(буду признателен,если кто пришлет)
           
           Припев.

Вверх

Раскачаем этот мир

 Am
Город твой - двуликий зверь.
       Em
Для тебя он днем откроет дверь,
          F                  E7
А вот в полночь он объявит тебе:
 F    G
"Ты враг!"
 Am
Враг парней, что ищут драк -
       Em
Им плевать, кто трус, а кто - смельчак.
        F                       E
Город прячет в недрах стаи волков,
 F   G    Am
Но есть мы!

   Am/C         D
Раскачаем этот мир,
  F             G      Am
Где в разгаре грязный пир.
     Am/C             D
Дух насилья рвется в дом,
   F      E       Am
Насилье рвется в дом.
   Am/C         D
Раскачаем этот мир -
 F          G   Am
Или волки, или мы!
          Am/C          Dm
Здесь для слабых места нет,
      C     E     Am
Для слабых места нет.

В темноте глаза горят.
В них сомненья нет - один азарт.
Волчья стая свой готовит прыжок.
Цель есть!
Ты - чужак, ты сам не свой.
В сердце страх засел стальной иглой.
Ты все понял - здесь бессилен сам бог,
Но есть мы!

 Am
Сначала дразнят, но не бьют.
                        F
Сначала гонят, но не рвут.
                     Dm
И ночь с волками заодно,
        E7           Am
А ты бежишь не чуя ног,
 A
Но неизбежен этот миг -
                        F
Глухой тупик погасит крик,
                           Dm
И шансов нет - ты здесь чужой.
           E7             Am
Пророчит смерть звериный вой!
             F  Dm E7 Am
...Звериный вой!

Вспыхнул день, и стаи нет,
А в глазах горит спокойный свет.
Их ласкают дома сестры и мать,
Но лишь
Бросит ночь на город мрак,
Для парней ты снова лютый враг.
Город прячет в недрах стаи волков,
Но есть мы!
Вверх

Раскачаем этот мир (2 вариант)

Am
Город твой - двуликий зверь
       C
Для тебя он днем откроет дверь
          F                 E
А вот в полночь он объявит тебе
F    G
Ты враг!
Am
Враг парней, что ищут драк
     C
Им плевать, кто трус, а кто смельчак
        F                      E
Город прячет в недрах стаи волков
F   G    Am
Hо есть мы!
    C         D
Раскачаем этот мир
  F              E      Am
Где в разгаре грязный пир
Дух насилья рвется в дом
Hасилье рвется в дом

Раскачаем этот мир
Или волки или мы!
Здесь для слабых места нет
Для слабых места нет

В темноте глаза горят
В них сомненья нет - один азарт
Волчья стая свой готовит прыжок
Цель есть!
Ты - чужак, ты сам не свой
В сердце страх засел стальной иглой
Ты все понял - здесь бессилен сам бог!
Hо есть мы!

Am
Сначала дразнят, но не бьют
                        F
Сначала гонят, но не рвут
                     Dm
И ночь с волками заодно
        E            Am
А ты бежишь не чуя ног

Hо неизбежен этот миг
Глухой тупик погасит крик
И шансов нет - ты здесь чужой
Пророчит смерть звериный вой!

Вспыхнул день, и стаи нет
А в глазах горит спокойный свет
Их ласкают дома сестры и мать
Hо лишь
Бросит ночь на город мрак
Для парней ты снова лютый враг
Город прячет в недрах стаи волков
Hо есть мы!
Вверх

Свет дневной иссяк...

E|---------------------------------|---------------------------------|
H|-----8-------7-8-10--8-7---------|-----7-8-7-----------7-8-7-------|
G|-------------------------9-------|-7-9---------9-7-9-----------9-7-|
D|-9-------------------------------|---------------------------------|
A|---------------------------------|---------------------------------|
E|---------------------------------|---------------------------------|

Dm        C
Свет дневной иссяк,
Dm          B
И вокруг меня - пустыня,
Dm          B            Dm
Звон звезд гонит прочь мрак,
Dm            C
Да святится Твое имя!

Я здесь, я нигде,
Но слезами боль не хлынет,
Будь свят скорбный удел,
Да святится Твое имя!

   A        Adim(I)
   Ни ветра, ни сна,
   A           H
   Кто вспомнит меня?!
    D#
   Как бы я хотел плыть в лодке
    C#
   Морем на закат,
    G
   Вольным быть, как зверь, свободным.
   H
   И растить свой сад
    Cm      G       Cm
   Жить бы лет до ста
   B               D# D7          G
   И любить, как все любят на земле!

Сын небесных сфер,
Здесь лишь демоны и змеи,
Но ты молод и смел,
Вместе миром овладеем.

Ты мне поклонись -
И получишь все богатства.
Власть тьмы - вот это жизнь
В беспробудном танце адском!

   Все жены - твои,
   Под звон золотых,
   Ты же сам хотел плыть в лодке
   Морем на закат,
   Вольным быть, как зверь, свободный,
   И растить свой сад,
   Жил бы лет до ста.
   И любил, как все, но не на кресте...
Вверх

Свобода

          Cm   Fm
Огонь все ярче,
          G#            B
Страницы жизни в нем горят.
Что будет дальше?
Об этом знаю только я.
Вопросов больше нет,
В ответ не слышно красивой лжи.
Меня в бесконечность уносит
Поток стальных машин.

           D#       B
   Другая жизнь не сон,
      G#             B
   Я был для нее рожден.
        D#           B
   И в час ночных дорог
   G#       G
   Я не одинок.

          Cm                Fm
      Мы верим что есть свобода,
         B          D# B
      Пока жива мечта.
       Cm              Fm
      Верим в свою свободу,
      B                D# B Cm
      И будет так всегда.

Я вижу лица,
На них печать восьми ветров.
Кому молиться?
Чтоб нам в пути всегда везло?
А тот, кого выбрала смерть,
Других ей не отдаст.
Он тенью скользит между нами
И охраняет нас.

   Другая жизнь не сон,
   Все ближе горизонт.
   И в час ночных дорог
   Никто не одинок.

      Мы верим что есть свобода,
      Пока жива мечта.
      Верим в свою свободу,
      И будет так всегда.
Вверх

Свобода (2 вариант)

Строй гитары - Eb (все струны опускаются на 1 лад)

G#sus4  F#m Bsus4  B
--------------------- |                ---
--------2---5------4- |                ---
6-------2---4------4- |2 раза, потом   -6-    
6-------4---4------4- |                -6-
4-------------------- |                -4-    
--------------------- |                ---

C#m         F#m         Bsus4      B
Огонь все ярче страницы жизни в нем горят
Что будет дальше об этом знаю только я
Вопросов больше нет в ответ не слышно красивой лжи
Меня в бесконечность уносит поток стальных машин

E              H     A           B
Другая жизнь не сон я был для нее рожден
И в час ночных дорог я не одинок

C#m          F#m     
Мы верим, что есть свобода
B            E B
Пока жива мечта
C#m          F#m     
Верим в свою свободу
B        E     H A
И будет так всегда

Я вижу лица, на них печать восьми ветров
Кому молиться, чтоб нам в пути всегда везло?
А тот кого выбрала смерть, других ей не отдаст
Он тенью скользит рядом с нами и охраняет нас

Другая жизнь не сон все ближе горизонт
И в час ночных дорог никто не одинок

Мы верим, что есть свобода
Пока жива мечта
Верим в свою свободу
И будет так всегда

(Пока жива мечта
Никто не сможет отнять нашу свободу
Во все века пусть будет так)
Вверх

С кем ты?

G#               B        Gm     Cm
Разделился весь мир на "они" и "мы",
G#                B       Gm   Cm
Бьют набатом сердца и бурлят умы,
G#              B        Gm     Cm
Чей металл тяжелей и верней посты,
G#               B                  Cm
Разделился весь мир, отвечай с кем ты?

   Gm B    Gm B
   С кем ты?
   Gm B    Gm
   С кем ты?
   D#
   С кем ты?
   G
   С кем ты?
   С кем ты?

Кто, скажи мне, кричал: "Покорись Восток"?
Как слепой автомат нажимал на курок,
Кто, надев балахон, зажигал кресты?
Разделился весь мир, отвечай с кем ты?

   С кем ты?
   С кем ты?
   С кем ты?
   С кем ты?
   С кем ты?

Не остаться в живых если вдруг гроза
Так не стой, как чужой, опустив глаза
Только действиям счет, все слова пусты
Разделился весь мир, отвечай с кем ты?

   С кем ты?
   С кем ты?
   С кем ты?
   С кем ты?
   С кем ты?
Вверх

С кем ты? (2 вариант)

Tempo: 94 quarternotes per minute
INTRO:
(0:01 - 0:24)
RIFF 1:
Gtr.1E|--------------------------------------------------|
     H|-------------------------- here ------------------|
     G|------------------------ drums only --------------|
     D|--------------------------------------------------|
     A|-----------------------------------------8-----8--|
     E|-----------------------------------------6-----6--|
                                                >     >
Gtr.1E|--------------------------------------------------|-------------------------------------------------|
     H|--------------------------------------------------|-------------------------------------------------|
     G|--------------------------------------------------|-------------------------------------------------|
     D|-----------------------------------------------8--|(8)-------10----------8--------------------------|
     A|-(8)-------------------8-----------------------6--|(6)-------8-----------6-----------------6--5--6--|
     E|-(6)-8--8--8--8--8--8--6-----8--8--8--8--8--8-----|----------------------------8--8--8--8-----------| 
            .  .  .  .  .  .  >     .  .  .  .  .  .  >             >           >     .  .  .  .
Gtr.1E|--------------------------------------------------|-------------------------------------------------|
     H|--------------------------------------------------|-------------------------------------------------|
     G|--------------------------------------------------|-------------------------------------------------|
     D|--------------------------------------------------|-------------------------------------------------|
     A|-(6)-------------6--5--6-----------------------6--|(6)-5-----8-----6--5--6--5--------5-----8-----8--|
     E|-----8--8--8--8--------------8--8--8--8--8--8-----|-------8--------------------8-----3-----6-----6--|
            .  .  .  .              .  .  .  .  .  .          .  .                    .     >     >     >
Gtr.1E|--------------------------------------------------|-------------------------------------------------|
     H|--------------------------------------------------|-------------------------------------------------|
     G|--------------------------------------------------|-------------------------------------------------|
     D|-----------------------------------------------8--|(8)-------10----------8--------------------------|
     A|-(8)-------------------8-----------------------6--|(6)-------8-----------6-----------------6--5--6--|
     E|-(6)-8--8--8--8--8--8--6-----8--8--8--8--8--8-----|----------------------------8--8--8--8-----------| 
            .  .  .  .  .  .  >     .  .  .  .  .  .  >             >           >     .  .  .  .
Gtr.1E|--------------------------------------------------|-------------------------------------------------|
     H|--------------------------------------------------|-------------------------------------------------|
     G|--------------------------------------------------|-------------------------------------------------|
     D|--------------------------------------------------|-------------------------------------------------|
     A|-(6)-------------6--5--6-----------------------6--|(6)-5-----8-----6--5--6--5--------5--------------|
     E|-----8--8--8--8--------------8--8--8--8--8--8-----|-------8--------------------8-----3--------------|
            .  .  .  .              .  .  .  .  .  .          .  .                    .     >
Gtr.1E|----- 3/4 measure --------------------|
     H|--------------------------------------|
     G|--------------------------------------|
     D|-----------------------------8--------|
     A|-(5)-------------------------6-----6--|
     E|-(3)-------------------------------4--|
                                    >     >
(0:24 - 0:44)
VERSE 1:
VoiceE|----------------------------------------------------------------------------------------------------|
     H|-------4--4-4---4--4--------------------------------------------------------------------------------|
     G|------------------------3------3---3----3---3----5--------------------------------------------------|
     D|----------------------------------------------------------------------------------------------------|
     A|----------------------------------------------------------------------------------------------------|
     E|---   Razdelilsya ves? mir    na  "o - ni"  i  "my"         ----------------------------------------|
      |                                                  |                                                 |
Gtr.1E|--------------------------------------------------|-------------------------------------------------|
     H|--------------------------------------------------|-------------------------------------------------|
     G|--------------------------------------------------|-------------------------------------------------|
     D|-----------------------------------------------5--|(5)-------------------3-/5--------------8--------|
     A|-(6)-------------------8-----------5-----------3--|(3)-------------------1-/3--------------6-----6--|
     E|-(4)-------------------6-----------3--------------|----------------------------------------------4--|
      |                                                  |                                                 |
Gtr.2E|--------------------------------------------------|-------------------------------------------------|
     H|--------------------------------------------------|-------------------------------------------------|
     G|--------------------------------------------------|-------5--5--8--8--5-----------5--5--8--8--7-----|
     D|--------------------------------------------------|----------------------------------------------6--|
     A|--------------------------------------------------|-------------------------------------------------|
     E|--------------------------------------------------|-------------------------------------------------|
 
VoiceE|----------------------------------------------------------------------------------------------------|
     H|-------4---4-4-4---4--------------------------------------------------------------------------------|
     G|------------------------3----3----3------3--3----5--------------------------------------------------|
     D|----------------------------------------------------------------------------------------------------|
     A|----------------------------------------------------------------------------------------------------|
     E|---- Byut nabatom serdtza    i   bur - lyat u - my     ---------------------------------------------|
      |                                                  |                                                 |
Gtr.1E|--------------------------------------------------|-------------------------------------------------|
     H|--------------------------------------------------|-------------------------------------------------|
     G|--------------------------------------------------|-------------------------------------------------|
     D|-----------------------------------------------5--|(5)-------------------3-/5--------------8--------|
     A|-(6)-------------------8-----------5-----------3--|(3)-------------------1-/3--------------6-----6--|
     E|-(4)-------------------6-----------3--------------|----------------------------------------------4--|
      |                                                  |                                                 |
Gtr.2E|--------------------------------------------------|-------------------------------------------------|
     H|--------------------------------------------------|-------------------------------------------------|
     G|--------------------------------------------------|-------5-5-5-8--8--------------5--5--8--8--7-----|
     D|-(6)----------------------------------------------|----------------------------------------------6--|
     A|--------------------------------------------------|-------------------------------------------------|
     E|--------------------------------------------------|-------------------------------------------------|
 
VoiceE|----------------------------------------------------------------------------------------------------|
     H|-------4--4--4-----4-4--6----6----6-----6----6------------------------------------------------------|
     G|------------------------------------------------5---------------------------------------------------|
     D|----------------------------------------------------------------------------------------------------|
     A|----------------------------------------------------------------------------------------------------|
     E|---  Chey metall tyazheley   i   ver - ney  posty?         -----------------------------------------|
      |                                                  |                                                 |
Gtr.1E|--------------------------------------------------|-------------------------------------------------|
     H|--------------------------------------------------|-------------------------------------------------|
     G|--------------------------------------------------|-------------------------------------------------|
     D|-----------------------------------------------5--|(5)-------------------3-/5--------------8--------|
     A|-(6)-------------------8-----------5-----------3--|(3)-------------------1-/3--------------6-----6--|
     E|-(4)-------------------6-----------3--------------|----------------------------------------------4--|
      |                                                  |                                                 |
Gtr.2E|--------------------------------------------------|-------------------------------------------------|
     H|--------------------------------------------------|-------------------------------------------------|
     G|--------------------------------------------------|-------5-5-5-8--8--------------5--5--8--8--7-----|
     D|-(6)----------------------------------------------|----------------------------------------------6--|
     A|--------------------------------------------------|-------------------------------------------------|
     E|--------------------------------------------------|-------------------------------------------------|
 
VoiceE|----------------------------------------------------------------------------------------------------|
     H|-------4--4-4---4--4--------------------------------------------------------------------------------|
     G|------------------------3------3--3--3-------3----5-------------------------------------------------|
     D|----------------------------------------------------------------------------------------------------|
     A|----------------------------------------------------------------------------------------------------|
     E|---   Razdelilsya ves? mir,    otvechay: "s kem  ty?"  ---------------------------------------------|
      |                                                  |                                                 |
Gtr.1E|--------------------------------------------------|-------------------------------------------------|
     H|--------------------------------------------------|-------------------------------------------------|
     G|--------------------------------------------------|-------------------------------------------------|
     D|--------------------------------------------------|-------------------------------------------------|
     A|-(6)-------------------8-----------------------10-|(10)---------------------------------------------|
     E|-(4)-------------------6-----------------------8--|(8)-------------------8--\------------6--5--|
(0:44 - 1:10)
CHORUS:
                                                        S  kem  ty?
Gtr.1E|----------------------------------|----------------------------------|
     H|----------------------------------|----------------------------------|
     G|----------------------------------|----------------------------------|
     D|----------------------3-----------|----------------------------------|
     A|------5---3---6---5-------5-------|----------------------------------|
     E|--3---------------------------6---|-(6)--------------------------6-5-|
Gtr.1E|----------------------------------|----------------------------------|
     H|----------------------------------|----------------------------------|
     G|----------------------------------|----------------------------------|
     D|----------------------3-----------|----------------------------------|
     A|------5---3---6---5-------5-------|----------------------------------|
     E|--3-------------------------6-----|-(6)--------------------------6-5-|
                                                        S  kem  ty?
Gtr.1E|----------------------------------|----------------------------------|
     H|----------------------------------|----------------------------------|
     G|----------------------------------|----------------------------------|
     D|----------------------3-----------|----------------------------------|
     A|------5---3---6---5-------5-------|----------------------------------|
     E|--3---------------------------6---|-(6)--------------------------6-5-|
                                                   S  kem  ty?
Gtr.1E|----------------------------------|----------------------------------|
     H|----------------------------------|----------------------------------|
     G|--------------------------------8-|-(8)------------------------------|
     D|----------------------3---------8-|-(8)------------------------------|
     A|------5---3---6---5-------5-----6-|-(6)------------------------------|
     E|--3---------------------------6---|----------------------------------|
                S  kem  ty?        S  kem  ty?
Gtr.1E|----------------------------------|----------------------------------|
     H|----------------------------------|----------------------------------|
     G|--7-------------------------------|----------------------------------|
     D|--7-------------------------------|----------------------------------|
     A|--5-------------------------------|----------------------------------|
     E|----------------------------------|--3-------------------------------|
(1:10 - 1:33) 
RIFF 1? (RIFF 1 without the last 3/4-measure):
Gtr.1E|--------------------------------------------------|
     H|--------------------------------------------------|
     G|--------------------------------------------------|
     D|--------------------------------------------------|
     A|-----------------------------------------8-----8--|
     E|-----------------------------------------6-----6--|
Gtr.1E|--------------------------------------------------|-------------------------------------------------|
     H|--------------------------------------------------|-------------------------------------------------|
     G|--------------------------------------------------|-------------------------------------------------|
     D|-----------------------------------------------8--|(8)-------10----------8--------------------------|
     A|-(8)-------------------8-----------------------6--|(6)-------8-----------6-----------------6--5--6--|
     E|-(6)-8--8--8--8--8--8--6-----8--8--8--8--8--8-----|----------------------------8--8--8--8-----------|
Gtr.1E|--------------------------------------------------|-------------------------------------------------|
     H|--------------------------------------------------|-------------------------------------------------|
     G|--------------------------------------------------|-------------------------------------------------|
     D|--------------------------------------------------|-------------------------------------------------|
     A|-(6)-------------6--5--6-----------------------6--|(6)-5-----8-----6--5--6--5--------5-----8-----8--|
     E|-----8--8--8--8--------------8--8--8--8--8--8-----|-------8--------------------8-----3-----6-----6--|
Gtr.1E|--------------------------------------------------|-------------------------------------------------|
     H|--------------------------------------------------|-------------------------------------------------|
     G|--------------------------------------------------|-------------------------------------------------|
     D|-----------------------------------------------8--|(8)-------10----------8--------------------------|
     A|-(8)-------------------8-----------------------6--|(6)-------8-----------6-----------------6--5--6--|
     E|-(6)-8--8--8--8--8--8--6-----8--8--8--8--8--8-----|----------------------------8--8--8--8-----------|
Gtr.1E|--------------------------------------------------|-------------------------------------------------|
     H|--------------------------------------------------|-------------------------------------------------|
     G|--------------------------------------------------|-------------------------------------------------|
     D|--------------------------------------------------|----------------------------------------8--------|
     A|-(6)-------------6--5--6-----------------------6--|(6)-5-----8-----6--5--6--5--------5-----6-----6--|
     E|-----8--8--8--8--------------8--8--8--8--8--8-----|-------8--------------------8-----3-----------4--|
(1:33 - 1:52) VERSE 2
(1:53 - 2:18) CHORUS
(2:18 - 2:48)
Bass SOLO:
Gtr.1E|--------------------------------------------------|
     H|--------------------------------------------------|
     G|--------------------------------------------------|
     D|--------------------------------------------------|
     A|-----------------------------------------------7--|
     E|-----------------------------------------------5--|
      |                                                  |
Bass G|--------------------------------------------------|
     D|--------------------------------------------------|
     A|-----------------------------------------------0--|
     E|--------------------------------------------------|
 
Gtr.1E||-------------------------------------------------|-------------------------------------------------|
     H||-------------------------------------------------|-------------------------------------------------|
     G||-------------------------------------------------|-------------------------------------------------|
     D||----------------------5-----------7--------------|----------------------5-----------7--------------|
     A||-(7)------------------3-----------5-----------7--|(7)-------------------3-----------5-----------7--|
     E||-(5)------------------------------------------5--|(5)-------------------------------------------5--|
      ||                                                 |                                                 |
Bass G||-------------------------------------------------|-------------------------------------------------|
     D||----------0--2--5--2-------------/7--5-----------|----------0--2--5--2-------------/7--5-----------|
     A||(0)-2--3--------------3-----------------7----0--|(0)-2--3--------------3-----------------7----0--|
     E||-------------------------------------------------|-------------------------------------------------|
 
Gtr.1E|--------------------------------------------------|-------------------------------------------------||
     H|--------------------------------------------------|-------------------------------------------------||
     G|--------------------------------------------------|-------------------------------------------------||
     D|-----------------------5-----------7-----------9--|(9)----------------------------------------------||
     A|--(7)------------------3-----------5-----------7--|(7)-------------------------------------------7--||
     E|--(5)---------------------------------------------|----------------------------------------------5--||
      |                                                  |                                                 ||
Bass G|---------------------------------------------------0h4-0----0h4-0----0h4-0----0h4-0----0h4-0--------||
     D|-----------0--2--5--2-------------/7--5-----------|-------2--------2--------2--------2--------2-----||
     A|-(0)-2--3--------------3-----------------7-------|----------------------------------------------0--||
     E|--------------------------------------------------|-------------------------------------------------||
 
Bass G|--------4--------4--------4-----------------------|--- 6/4 measure ----------------------------------|
     D|-----6--------6--------6--------------------------|--------------------------------------------------|
     A|--7--------7--------7-----------------------------|---???--------------------------------------------|
     E|--------------------------------------------------|--------------------------------------------------|
(2:48 - 3:28)
SOLO 2:
Gtr.1E|--------------------------------------------------|-------------------------------------------------|
     H|--------------------------------------------------|-------------------------------------------------|
     G|--------------------------------------------------|-------------------------------------------------|
     D|-----------------------2--------------------------|-------------------------------------------------|
     A|-(0)----2-----3-----0-----------------------------|-------------0--------3--------2-----0-----2-----|
     E|-----------------------------------------------1--|(1)----3--------1--1--------------------------3--|
      |                                                  |                                                 |
Bass G|--------------------------------------------------|-------------------------------------------------|
     D|--------------------------------------------------|-------------------------------------------------|
     A|-(0)----------------------------------2--3--0-----|-------------------------------------------------|
     E|-----------------------------------------------1--|(1)-------------------------------------------3--|
 
Gtr.1E|--------------------------------------------------|-------------------------------------------------|
     H|--------------------------------------------------|-------------------------------------------------|
     G|--------------------------------------------------|-------------------------------------------------|
     D|--------------------------------------------------|-------------------------------------------------|
     A|--------0-----2--------5--------------------------|----------------------5--------3-----2-----3--0--|
     E|-(3)----------------3--------------------------0--|(0)----1-----3--0--0-----------------------------|
      |                                                  |                                                 |
Bass G|--------------------------------------------------|-------------------------------------------------|
     D|--------------------------------------------------|-------------------------------------------------|
     A|--------------------------------------0--2--------|----------------------------------------------0--|
     E|-(3)----------------------------------------3--0--|(0)----------------------------------------------|
 
Gtr.1E|--------------------------------------------------|-------------------------------------------------|
     H|--------------------------------------------------|-------------------------------------------------|
     G|--------------------------------------------------|-------------------------------------------------|
     D|-----------------------2--------------------------|-------------------------------------------------|
     A|-(0)----2-----3-----0-----------------------------|-------------0--------3--------2-----0-----2-----|
     E|-----------------------------------------------1--|(1)----3--------1--1--------------------------3--|
      |                                                  |                                                 |
Bass G|--------------------------------------------------|-------------------------------------------------|
     D|--------------------------------------------------|-------------------------------------------------|
     A|-(0)----------------------------------2--3--0-----|-------------------------------------------------|
     E|-----------------------------------------------1--|(1)-------------------------------------------3--|
 
Gtr.1E|--------------------------------------------------|-------------------------------------------------|
     H|--------------------------------------------------|-------------------------------------------------|
     G|--------------------------------------------------|-------------------------------------------------|
     D|--------------------------------------------------|-------------------------------------------------|
     A|--------0-----2--------5--------------------------|----------------------5--------3-----2-----3--3--|
     E|-(3)----------------3--------------------------0--|(0)----1-----3--0--0-----------------------------|
      |                                                  |                                                 |
Bass G|--------------------------------------------------|-------------------------------------------------|
     D|--------------------------------------------------|-------------------------------------------------|
     A|--------------------------------------0--2--------|----------------------------------------------3--|
     E|-(3)----------------------------------------3--0--|(0)----------------------------------------------|
 
Gtr.1E|--------------------------------------------------|-------------------------------------------------|
     H|--------------------------------------------------|-------------------------------------------------|
     G|--------------------------------------------------|-------------------------------------------------|
     D|-----------------------5--------------------------|-------------------------------------------------|
     A|-(3)----5-----6-----3-----------------------------|-------------3--------6--------5-----3-----5-----|
     E|-----------------------------------------------4--|(4)----6--------4--4--------------------------6--|
      |                                                  |                                                 |
Bass G|--------------------------------------------------|-------------------------------------------------|
     D|--------------------------------------------------|-------------------------------------------------|
     A|-(3)----------------------------------5--6--3-----|-------------------------------------------------|
     E|-----------------------------------------------4--|(4)-------------------------------------------6--|
 
Gtr.1E|--------------------------------------------------|-------------------------------------------------|
     H|--------------------------------------------------|-------------------------------------------------|
     G|--------------------------------------------------|-------------------------------------------------|
     D|--------------------------------------------------|----------------------3--------------------------|
     A|--------------5--------8--------------------------|-------------------------------6-----5-----6--3--|
     E|-(6)----8-----------6--------------------------3--|(3)----4-----6--3--3-----------------------------|
      |                                                  |                                                 | 
Bass G|--------------------------------------------------|-------------------------------------------------|
     D|--------------------------------------------------|-------------------------------------------------|
     A|--------------------------------------3--5--------|----------------------------------------------3--|
     E|-(6)----------------------------------------6--3--|(3)----------------------------------------------|
 
Gtr.1E|--------------------------------------------------|-------------------------------------------------|
     H|--------------------------------------------------|-------------------------------------------------|
     G|--------------------------------------------------|-------------------------------------------------|
     D|-----------------------5--------------------------|-------------------------------------------------|
     A|-(3)----5-----6-----3-----------------------------|-------------3--------6--------5-----3-----5-----|
     E|-----------------------------------------------4--|(4)----6--------4--4--------------------------6--|
      |                                                  |                                                 |
Bass G|--------------------------------------------------|-------------------------------------------------|
     D|--------------------------------------------------|-------------------------------------------------|
     A|-(3)----------------------------------5--6--3-----|-------------------------------------------------|
     E|-----------------------------------------------4--|(4)-------------------------------------------6--|
 
Gtr.1E|--------------------------------------------------|-------------------------------------------------|
     H|--------------------------------------------------|-------------------------------------------------|
     G|--------------------------------------------------|-------------------------------------------------|
     D|--------------------------------------------------|----------------------3-----------------8--------|
     A|--------------5--------8--------------------------|-------------------------------6-----5--6-----6--|
     E|-(6)----8-----------6--------------------------3--|(3)----4-----6--3--3--------------------------4--|
      |                                                  |                                                 | 
Bass G|--------------------------------------------------|-------------------------------------------------|
     D|--------------------------------------------------|-------------------------------------------------|
     A|--------------------------------------3--5--------|----------------------------------------6--------|
     E|-(6)----------------------------------------6--3--|(3)-------------------------------------------4--|
(3:28 - 3:49) VERSE 3
(3:49 - 4:14) CHORUS
(4:14 - 4:37) 
RIFF 1":
Gtr.1E|--------------------------------------------------|
     H|--------------------------------------------------|
     G|--------------------------------------------------|
     D|--------------------------------------------------|
     A|-----------------------------------------8-----8--|
     E|-----------------------------------------6-----6--|
                                                >     >
Gtr.1E|--------------------------------------------------|-------------------------------------------------|
     H|--------------------------------------------------|-------------------------------------------------|
     G|--------------------------------------------------|-------------------------------------------------|
     D|-----------------------------------------------8--|(8)-------10----------8--------------------------|
     A|-(8)-------------------8-----------------------6--|(6)-------8-----------6-----------------6--5--6--|
     E|-(6)-8--8--8--8--8--8--6-----8--8--8--8--8--8-----|----------------------------8--8--8--8-----------| 
            .  .  .  .  .  .  >     .  .  .  .  .  .  >             >           >     .  .  .  .
Gtr.1E|--------------------------------------------------|-------------------------------------------------|
     H|--------------------------------------------------|-------------------------------------------------|
     G|--------------------------------------------------|-------------------------------------------------|
     D|--------------------------------------------------|-------------------------------------------------|
     A|-(6)-------------6--5--6-----------------------6--|(6)-5-----8-----6--5--6--5--------5-----8-----8--|
     E|-----8--8--8--8--------------8--8--8--8--8--8-----|-------8--------------------8-----3-----6-----6--|
            .  .  .  .              .  .  .  .  .  .          .  .                    .     >     >     >
Gtr.1E|--------------------------------------------------|-------------------------------------------------|
     H|--------------------------------------------------|-------------------------------------------------|
     G|--------------------------------------------------|-------------------------------------------------|
     D|-----------------------------------------------8--|(8)-------10----------8--------------------------|
     A|-(8)-------------------8-----------------------6--|(6)-------8-----------6-----------------6--5--6--|
     E|-(6)-8--8--8--8--8--8--6-----8--8--8--8--8--8-----|----------------------------8--8--8--8-----------| 
            .  .  .  .  .  .  >     .  .  .  .  .  .  >             >           >     .  .  .  .
Gtr.1E|--------------------------------------------------|-------------------------------------------------|
     H|--------------------------------------------------|-------------------------------------------------|
     G|--------------------------------------------------|-------------------------------------------------|
     D|--------------------------------------------------|-------------------------------------------------|
     A|-(6)-------------6--5--6-----------------------6--|(6)-5-----8-----6--5--6--5--------5-----8-----10-|
     E|-----8--8--8--8--------------8--8--8--8--8--8-----|-------8--------------------8-----3-----6-----8--|
            .  .  .  .              .  .  .  .  .  .          .  .                    .     >     >     >

 
[Close] 
 
 
 
[Close] 
 
Разделился весь мир на они и мы
Бьют набатом сердца и бурлят умы
Чей метал тяжелей и верней посты
Разделился весь мир, отвечай: - "С кем ты?"

--RF--	С кем ты?

Кто скажи мне кричал: "Покорись Восток"?
Как слепой автомат нажимал на курок
Кто, надев балахон, зажигал кресты?
Разделился весь мир, отвечай: - "С кем ты?"

--RF--

Не остался в живых, если вдруг гроза
Там не стой как чужой, опустив глаза
Только действиям счет отдавал пустым
Разделился весь мир, отвечай: - "С кем ты?"

--RF--
Вверх

Следуй за мной

 Dm
По дороге в Ад
 Bb
Черный Всадник мчится -
 Gm                      Dm
Бледное лицо и странный блеск застывших глаз.
Он посланник Зла,
 Bb7
Тень предсмертной птицы.
 Gm7                           Dm    C
Словно сквозь прицел он видит нас...

Припев.

   Am7
   Он не просит,
   Bb6
   Жжет и рушит,
   Gm

   В ночь уносит
   А7
   Наши души.

 Dm           Bb    C    Dm
   Всадник отслужит на горе
         Bb7   C    Dm
  Черную мессу по тебе,
         Bb9    C7     Dm
  И эхом грянет над землей:
             Bb7    G7
  "Следуй за мной!"


На дороге в Ад
Ветер и движенье.
Тормоз не спасет, след крови смоет до утра.
Черный Всадник мчит
В полном облаченье,
И совсем пуста дорога в Рай...

Припев.
Вверх

Смотри

Em
Смотри, близится финал,
Этот век все силы растерял,
D               A                C  H
Словно старый зверь, раненный зимой.

Вокруг кладбище надежд,
Вечный страх и торжество невежд,
Будущего нет здесь у нас с тобой...

   A             H
   Смертельный яд кипит в морях,
   C                  D         H7
   Кислота - вместо снега и дождя...
   Em       C
   О, веры больше нет,
           C#m
   Смыт надежды след,
          D      D#
   Ни любви, ни жизни.
   Em         C
   О, скоро грянет гром
           C#m
   В небе голубом,
           D        D#     Em
   Словно горькой тризны звон...

Смотри, ядерный фантом
Из глубин разумного рожден,
Адские лучи убивают жизнь,
Наш ум - генератор зла.
Черным дням и войнам нет числа,
Не остановить этот механизм...

   Смертельный яд кипит в морях,
   Кислота - вместо снега и дождя...
   О, веры больше нет,
   Смыт надежды след,
   Ни любви, ни жизни.
   О, скоро грянет гром
   В небе голубом,
   Словно горькой тризны звон...

Смотри, начался отсчет,
Может быть нам снова повезет
В океане звезд и других планет.
Прощай, кладбище надежд,
Вечный страх и торжество невежд,
Здесь у нас с тобой будущего нет...

   Смертельный яд кипит в морях,
   Кислота - вместо снега и дождя...
   О, веры больше нет,
   Смыт надежды след,
   Ни любви, ни жизни.
   О, скоро грянет гром
   В небе голубом,
   Словно горькой тризны звон...
Вверх

Смотри (2 вариант)

Вст. - Am

Em
Смотри, близится финал,
Этот век все силы растерял,
D              C#m              C
Словно старый зверь, раненный зимой.
Вокруг кладбище надежд,
Вечный страх и торжество невежд,
Будущего нет здесь у нас с тобой

Am
Смертельный яд
H
Кипит в морях,
C                 D
Кислота - вместо снега и дождя...

Em              D
О, веры больше нет,
             C#m
Смыт надежды след,
  C
Hи любви, ни жизни.
О, скоро грянет гром
В небе голубом,
Словно горькой тризны звон...

Смотри, ядерный фантом
Из глубин разумного рожден,
Адские лучи убивают жизнь,
Hаш ум - генератор зла.
Черным дням и войнам нет числа,
Hе остановить этот механизм...

Смотри, начался отсчет,
может быть нам снова повезет
В океане звезд и других планет.
Прощай, кладбище надежд,
вечный страх и торжество невежд,
Здесь у нас с тобой будущего нет...
Вверх

Смутное время

          Hm
Смутное время -
            G         A
Призрак свободы на коне,
            Hm
Кровь по колено,
            G             A
Словно в каком-то диком сне,
         Em          F#m
Тешится люд - бьют старых богов,
         Em          F#m       F#
Молится люд - ждут праведных снов.

В небе комета -
Близких несчастий верный знак,
Воины света
Павших сжигают на кострах,
Воины тьмы - мир - взяли в кольцо,
Тысячи птиц вниз рухнут дождем.

           G
   Мы не знаем, кто мы -
          A
   Дети красной звезды,
         G
   Дети черной звезды
        F#
   Или новых могил.

       Hm     A
      Танец смерти
        D        G F#
      Прост и страшен,
       Hm   A      G     F#
      Но пока не пробил час,
       Hm    A       D      G F#
      За грехи всех жизней наших
        Hm    A     G    F#
      Время смут карает нас!

Мы еще живы!
Кто-то спасется, кто-то - нет,
Диким порывом
В крепости нашей гасит свет,
Сорванный флаг - знак - к сдаче врагам,
Но нас не возьмешь - врешь - мы живы пока!

Смутное время -
Призрак свободы на коне,
Кровь по колено,
Словно в каком-то диком сне,
Тешится люд - бьют старых богов,
Молится люд - ждут праведных снов.

   Мы не знаем, кто мы -
   Дети красной звезды,
   Дети черной звезды
   Или новых могил.

      Танец смерти
      Прост и страшен,
      Но пока не пробил час,
      За грехи всех жизней наших
      Время смут карает нас!
Вверх

Смутное время (2 вариант)

Intro:

Riff 1(два раза)
1|--------------------|-------9-----------|
2|-12-11----9---------|-12-11-------12-11-|
3|-------11------11-9-|-------------------|
4|--------------------|-------------------|
5|--------------------|-------------------|
6|--------------------|-------------------|

1|--------------------|----------9--------|
2|-12-11----9---------|-12-11-------------|
3|-------11------11-9-|-------11----------|
4|--------------------|-------------------|
5|--------------------|-------------------|
6|--------------------|-------------------|

Riff 2:
1|------------------------|--------------------|
2|----------------5-------|----------------5---|
3|-7--6--4--6--7-----7--6-|-7--6--4--6--7----6-|
4|------------------------|--------------------|
5|------------------------|--------------------|
6|------------------------|--------------------|

Riff 3(Gtr):
1|-------------------------|--------------------------|
2|-------------------------|--------------------------|
3|-------------------------|--------------------------|
4|-2h4---4---5---2h4-------|-2h4---4---5--------------|
5|-2-----2---2---2---0-2-3-|-2-----2---2-------1~~~~~-|
6|-----0---0---0-----------|-----0---0---0-2-3--------|

Куплет:

Вокал:1|---------2----------------------------------------|
      2|-7-5----------------------7---7--7--8--7--7--5--5-|
      3|------7-----4-------------------------------------|
      4|--------------------------------------------------|
      5|--------------------------------------------------|
      6|-смутное время            призрак свободы на коне.|
       |                                          |
Gtr:  1|------------------------------------------|
      2|------------------------------------------|
      3|---------------2--------------------------|
      4|-4-------------4---4h5p4p0----------------|
      5|-4-------------4-----------2-------2---2--|
      6|-2-------2-2-2-2--------------3------3----|

Вокал:1|------------2-----------------------5--------------|
      2|-7-----5-----------------7---7--7------8-----------|
      3|----------7---4------------------------------------|
      4|---------------------------------------------------|
      5|---------------------------------------------------|
      6|-Кровь по колено         словно в какомто дикомсне-|
       |                                                   |
Gtr:  1|---------------------------------------------------|
      2|---------------------------------------------------|
      3|------------------------2--------------------------|
      4|----------4-------------4---4h5p4p0----------------|
      5|--4--5----4-------------4-----------2-------2---2--|
      6|-3--3--3--2-------2-2-2-2--------------3------3----|

Вверх

Смутное время (3 вариант)

Am  
Смутное время -
        Dm         G
Призрак свободы на коне,
      Am
Кровь по колено,
         Dm       G
Словно в каком-то диком сне,
        Dm         Em     
Тешится люд - бьют старых богов,
        Dm         Em
Молится люд - ждут праведных снов.

В небе комета -
Близких несчастий верный знак,
Воины света
Павших сжигают на кострах,
Воины тьмы - мир - взяли в кольцо, 
Тысячи птиц вниз рухнут дождем.

      F     
Мы не знаем, кто мы -
G
Дети красной звезды,
Dm
Дети черной звезды
E         E7
Или новых могил...

Am
Танец смерти
F       G 
Прост и страшен,
Am         F      G
Но пока не пробил час,
Am            F       G
За грехи всех предков наших
Am         F      G
Время смут карает нас!

Мы еще живы!
Кто-то спасется, кто-то - нет, 
Диким порывом
В крепости нашей гасит свет,
Сорванный флаг - шаг - к сдаче врагам,
Но нас не возьмешь - врешь - мы живы пока!

Мы не знаем, кто мы -
Дети красной звезды,
Дети черной звезды
Или новых могил...

Танец смерти
Прост и страшен,
Но пока не пробил час,
За грехи всех предков наших
Время смут карает нас!
Вверх

Такая вот печаль

   Am        C
Такая вот печаль -
     Dm       E
Никого и ничего не жаль.
    Am              C
Не жаль бродяг в пыли,
     Dm       E
И отчаянной моей любви.
 Dm           E
Я устал от слез,
      C      E     Am
От затертых ясных звезд.
 Dm           E
Так устал кричать
            C    E   Am
И лезть в драку сгоряча.

Мне снится много лет,
Как плыву на древнем корабле.
А моря нет давно,
Только камни и сухое дно.
Все друзья ушли,
В направлении земли.
Ночь меняет день,
И мне душно в пустоте.

Припев:
   Dm           E            C    E   Am
   Это серьезно и несерьезно каждому свое:
   Dm                    E               Am  G F E
   Мерзнуть под солнцем, греться под дождем.
   Dm              E            C     E     Am
   Время к закату, и настроенье ход меняет свой,
   Dm               E
   И я рад, что я живой...

Такая вот печаль,
Я с души своей сорвал печать.
Тревога на душе
Мне рисует белую мишень.

Эй,судьба моя,
Чем порадуешь меня?
Дай мне новый шанс
И пошли мне ураган.

Припев.
Вверх

Такая вот печаль (2 вариант)

   G#m       E
Такая вот печаль...
     C#m      D#
Никого и ничего не жаль.
    G#m             E
Не жаль бродяг в пыли,
     C#m      D#
И отчаянной моей любви.

   C#m          D#
   Я устал от слёз,
         G#m   F#      E
   От затертых ясных звезд.
    C#m          D#
   Так устал кричать,
               G#m   F#  E
   И лезть в драку сгоряча.

Мне снится много лет,
Как плыву на древнем корабле,
А моря нет давно,
Только камни и сухое дно.

   Все друзья ушли
   В направлении земли.
   Ночь сменяет день,
   И мне душно в пустоте.

      E            D#             G#m  F#   E
      Это серьезно и несерьезно, каждому своё.
       E                      D#           G#m F# E D#
      Мерзнуть под солнцем, грется под дождем.
        E            D#            G#m   F#    E
      Время к закату и настроение ход меняет свой,
           C#m          D#
      И я рад, что я живой...

Такая вот печаль...
Я с души своей сорвал печать.
Тревога на душе
Мне рисует белую мишень.

   Эй, судьба моя,
   Чем порадуешь меня.
   Дай мне новый шанс,
   И пошли мне ураган.

      Это серьезно и несерьезно, каждому своё.
      Мерзнуть под солнцем, грется под дождем.
      Время к закату и настроение ход меняет свой,
      И я рад, что я живой...
Вверх

Там высоко mp3

Em                C+7
Не ведьма, не колдунья
     D            Em
Ко мне явилась в дом,
                C+7
Не в пору полнолунья,
   D              Em
А летним, ясным днем...

   Em              C+7
   "Обычно на рассвете
       D           Em
   Я прихожу, во сне,
                    C+7
   Но все не так на этот раз..." -
     Am    D     Em
   Она сказала мне.

"Усталость, ненависть и боль,
Безумья темный страх...
Ты держишь целый ад земной
Как небо, на плечах!

   Любой из вас безумен -
   В любви и на войне,
   Но жизнь - не звук, чтоб обрывать...", -
   Она сказала мне.

                C D          Em C
      Там, высоко - нет никого
           F        H            Em
      Там также одиноко, как и здесь
                C D          Em C
      Там, высоко - бег облаков
           F            H             Em
      К погасшей много лет назад звезде.

"Пока ты жив, не умирай,
На этот мир взгляни -
У многих здесь душа мертва,
Они мертвы внутри!

   Но ходят и смеются,
   Не зная, что их нет...
   Не торопи свой смертный час", -
   Она сказала мне.

      Там, высоко - нет никого
      Там также одиноко, как и здесь
      Там, высоко - бег облаков
      К погасшей много лет назад звезде.

"Сбежать от жизни можно
От смерти - никогда.
Сама жизнь крылья сложит
И я вернусь сюда..."

   Не ведьма, не колдунья
   Явилась в дом ко мне,
   А летним днем испить воды
   Зашла случайно смерть.

      Там, высоко - нет никого
      Там также одиноко, как и здесь
      Там, высоко - бег облаков
      К погасшей много лет назад звезде.
Вверх

Там Высоко...

Am               Dm7   G                 Am
Не ведьма, не колдунья ко мне явилась в дом
Не в пору полнолунья, а летним ясным днем.
Обычно на рассвете я прихожу во сне
   Am             Dm7         F      G    Am
Но все не так на этот раз, - она сказала мне.
Усталость, ненависть и боль, безумье, темный страх
Ты держишь целый ад земной, как небо на плечах
Любой из вас безумен в любви и на войне
Но жизнь - не звук чтоб обрывать . она сказала мне
Припев:
         F G        C F
Там высоко нет никого
    Dm        E            Am 
Там также одиноко, как и здесь
        F G         C F
Там высоко бег облаков
     Dm           E             Am
К погасшей много лет назад звезде
Пока ты жив, не умирай на этот мир взгляни
У многих здесь душа мертва, они мертвы внутри
Но ходят и смеются, не зная, что их нет
Не торопи свой смертный час . она сказала мне
Припев
Сбежать от жизни можно от смерти . никогда
Сама жизнь крылья сложит, и я вернусь сюда
Не ведьма ни колдунья явилась в дом ко мне
А летним днем испить воды зашла случайно смерть
Припев
         F G Am5
Там высоко (2 раза).
Вверх

Там высоко (2 вариант) mp3

Am               Dm7   G                 Am
Не ведьма, не колдунья ко мне явилась в дом
Не в пору полнолунья, а летним ясным днем.
Обычно на рассвете я прихожу во сне
    Am            Dm7         F      G    Am
Но все не так на этот раз, - она сказала мне.

Усталость, ненависть и боль, безумье, темный страх
Ты держишь целый ад земной, как небо на плечах
Любой из вас безумен в любви и на войне
Но жизнь - не звук чтоб обрывать – она сказала мне

Припев:
        F G          C F
Там высоко нет никого
    Dm        E             Am 
Там также одиноко, как и здесь
        FG           CF
Там высоко бег облаков
     Dm           E            Am
К погасшей много лет назад звезде

Пока ты жив, не умирай на этот мир взгляни
У многих здесь душа мертва, они мертвы внутри
Но ходят и смеются, не зная, что их нет
Не торопи свой смертный час – она сказала мне

Припев

Сбежать от жизни можно от смерти – никогда
Сама жизнь крылья сложит, и я вернусь сюда
Не ведьма ни колдунья явилась в дом ко мне
А летним днем испить воды зашла случайно смерть

Припев

         F G Am5
Там высоко (2 раза).
Вверх

Твой новый мир mp3

 Dm                 E
Ты мечтал родиться сотни лет назад
 F                     G            A
Биться на турнирах в блеске черных лат...
   Dm                    E
Закат багровой краской твой бы красил щит,
F                   G          A
И враги бы знали - ты лишен души
           B       A         Dm
Так ты мечтал с утра и до утра.

Все меняет время - в Мировой Сети
Ты - бессмертный воин, лучше не найти!
"Найти и уничтожить!" - твой девиз такой.
Трупы и руины, кровь течет рекой -
Идет игра с утра и до утра.

   E
   Не знает боли
         B
   И прощальных горьких слов
   F                      C
   Этот самый новый из миров!
               Dm
   Твой новый мир,
                  B
   Ты веришь в него,
        F                C
   Обрекая на гибель врагов,
               Dm
   Твой новый мир,
                    B
   Твой храм на крови,
           F                 C
   Он всегда будет только твоим,
               Dm
   Твой новый мир!

Все меняет время - залпы батарей,
Под огнем идешь ты по чужой земле
Земля пропахла кровью, снайпер метко бьет,
Падаешь убитый, небо все твое!
Идет война с утра и до утра.

   Пуля ставит точку -
   Знак прощенья и любви,
   Новый мир останется твоим!
   Твой новый мир,
   Ты верил в него,
   Обрекая на гибель врагов,
   Твой новый мир,
   Твой храм на крови,
   Он всегда будет только твоим,
   Твой новый мир!
Вверх

Твой новый мир (2 вариант) mp3

Tuning: half-step down (e to eb
                        H to Bb
                        G to Gb
                        D to Db
                        A to Ab
                        E to Eb)
Tempo: fast (202 bpm)
INTRO:
(0:01 - 0:10)
RIFF 1: (*2 times)
Gtr.1Eb||-------------------------|-------------------------|-------------------------|-------------------------||
  +  Hb||-------------------------|-------------------------|-------------------------|-------------------------||
Gtr.2Gb||-------------------------|-------------------------|-------------------------|-------------------------||
     Db||-------------------------|-------------------------|-------------------------|-------------------------||
     Ab||-------------------------|-------------------5-----|-------------------------|-------------4--5--4--5--||
     Eb||-6--0--0--3--0--0--6--0--|-0--3--0--0--6--0--3-----|-6--0--0--3--0--0--6--0--|-0--3--0--0--2--3--2--3--||
(0:10 - 0:20) RIFF 1 w/another guitar adding some tremolo bar efefcts
(0:20 - 0:53)
VERSE 1:
VoiceEb|--7--------7--7---------------------------------------6--------6--5-------------------------------------|
     Hb|--------------------8--7----------8-------------------------------------8--7----------------------------|
     Gb|--------------------------------------------------------------------------------------------------------|
     Db|--------------------------------------------------------------------------------------------------------|
     Ab|--------------------------------------------------------------------------------------------------------|
     Eb| Ty       mechtal   rodit?  -   sya                  sot  -   ni let   nazad.               ------------|
       |                          |                         |                         |                         |
Gtr.1Eb|--------------------------|-------------------------|-------------------------|-------------------------|
  +  Hb|--------------------------|-------------------------|-------------------------|-------------------------|
Gtr.2Gb|--------------------------|-------------------------|-------------------------|-------------------------|
     Db|--2-----------------------|-2--------2--------2-----|-4-----------------------|-4--------4--------4-----|
     Ab|--2-----------------------|-2--------2--------2-----|-4-----------------------|-4--------4--------4-----|
     Eb|--0-----------------------|-0-----0--0-----0--0-----|-2-----------------------|-2-----2--2-----2--2-----|
 
VoiceEb|--7--------7--5---------------------------------------5--------5-----------7----------------------7-----|
     Hb|-----------------8-----7----------8----------------------8-----------8----------------------------------|
     Gb|--------------------------------------------------------------------------------------------------------|
     Db|--------------------------------------------------------------------------------------------------------|
     Ab|--------------------------------------------------------------------------------------------------------|
     Eb| Bit? -  sya na tur - ni    -    rah              v bleske   cher - nyh   lat.                   Za -  -|
       |                          |                         |                         |                         |
Gtr.1Eb|--------------------------|-------------------------|-------------------------|-------------------------|
  +  Hb|--------------------------|-------------------------|-------------------------|-------------------------|
Gtr.2Gb|--------------------------|-------------------------|-2--------------------4--|(4)----------------------|
     Db|--5-----------------------|-5--------5--------5-----|-2--------------------4--|(4)----------------------|
     Ab|--5-----------------------|-5--------5--------5-----|-0--------------------2--|(2)-2--2--2--2--0--------|
     Eb|--3-----------------------|-3-----3--3-----3--3-----|-------------------------|-------------------3-----|
 
VoiceEb|--7--------7--5---------------------------------------6--------6--5-------------------------------------|
     Hb|--------------------8--7----------8-------------------------------------8--7----------------------------|
     Gb|--------------------------------------------------------------------------------------------------------|
     Db|--------------------------------------------------------------------------------------------------------|
     Ab|--------------------------------------------------------------------------------------------------------|
     Eb| kat      bagrovoy   kras   -    koy                tvoy      by krasil schit.              ------------|
       |                          |                         |                         |                         |
Gtr.1Eb|--------------------------|-------------------------|-------------------------|-------------------------|
  +  Hb|--------------------------|-------------------------|-------------------------|-------------------------|
Gtr.2Gb|--------------------------|-------------------------|-------------------------|-------------------------|
     Db|--2-----------------------|-2--------2--------2-----|-4-----------------------|-4--------4--------4-----|
     Ab|--2-----------------------|-2--------2--------2-----|-4-----------------------|-4--------4--------4-----|
     Eb|--0-----------------------|-0-----0--0-----0--0-----|-2-----------------------|-2-----2--2-----2--2-----|
 
VoiceEb|--7--------7--5--5------------------------------------5--------5-----------7-------7-----7-----7-----5--|
     Hb|----------------------------7-----8----------------------8-----------8----------------------------------|
     Gb|--------------------------------------------------------------------------------------------------------|
     Db|--------------------------------------------------------------------------------------------------------|
     Ab|--------------------------------------------------------------------------------------------------------|
     Eb|- I      vragi  by        zna  - li,                 ty li - shen   du - shi,     ty    tak   mech -ta- |
       |                          |                         |                         |                         |
Gtr.1Eb|--------------------------|-------------------------|-------------------------|-------------------------|
  +  Hb|--------------------------|-------------------------|-------------------------|-------------------------|
Gtr.2Gb|--------------------------|-------------------------|-2--------------------4--|(4)----------------------|
     Db|--5-----------------------|-5--------5--------5-----|-2--------------------4--|(4)----------------------|
     Ab|--5-----------------------|-5--------5--------5-----|-0--------------------2--|(2)-2--2--2--2--0-----3--|
     Eb|--3-----------------------|-3-----3--3-----3--3-----|-------------------------|-------------------3-----|
 
VoiceEb|-(5)--------------------------------------------------7-----------5-------------------------5-----------|
     Hb|--------8-------------------------------------5---------------------------------8-----------------------|
     Gb|--------------------------------------------------------------------------------------------------------|
     Db|--------------------------------------------------------------------------------------------------------|
     Ab|--------------------------------------------------------------------------------------------------------|
     Eb|  -     al...                               s ut  -  ra           i            do           ut   -    --|
       |                          |                         |                         |                         |
Gtr.1Eb|--------------------------|-------------------------|-------------------------|-------------------------|
  +  Hb|--------------------------|-------------------------|-------------------------|-------------------------|
Gtr.2Gb|--------------------------|----------2--5--0--------|-4-----------------------|-3-----------2-----------|
     Db|--------------2-----2--4--|-5--4--5-----------2-----|-4-----------------------|-3-----------2-----------|
     Ab|-(3)-2--3--5-----5--------|-------------------------|-2-----------------------|-1-----------0-----------|
     Eb|--------------------------|----------------------0--|-------------------------|-------------------------|
 
VoiceEb|--------------------------------------------------------------------------------------------------------|
     Hb|--8-----5-----------------------------------------------------------------------------------------------|
     Gb|--------------------------------------------------------------------------------------------------------|
     Db|--------------------------------------------------------------------------------------------------------|
     Ab|--------------------------------------------------------------------------------------------------------|
     Eb| ra  -  a...             -------------------------------------------------------------------------------|
       |                          |                         |                         |                         |
Gtr.1Eb|--------------------------|-------------------------|-------------------------|-------------------------|
  +  Hb|--------------------------|-------------------------|-------------------------|-------------------------|
Gtr.2Gb|--------------------------|-------------------------|-------------------------|-------------------------|
     Db|--------------------------|-------------------------|-------------------------|-------------------------|
     Ab|--------------------------|-------------------5-----|-------------------------|-------------4--5--4--5--|
     Eb|--6--0--0--3--0--0--6--0--|-0--3--0--0--6--0--3-----|-6--0--0--3--0--0--6--0--|-0--3--0--0--2--3--2--3--|
 
Gtr.1Eb|--------------------------|-------------------------|-------------------------|-------------------------|
  +  Hb|--------------------------|-------------------------|-------------------------|-------------------------|
Gtr.2Gb|--------------------------|-------------------------|-------------------------|-------------------------|
     Db|--------------------------|-------------------------|-------------------------|-------------------------|
     Ab|--------------------------|-------------------5-----|-------------------------|-------------------------|
     Eb|--6--0--0--3--0--0--6--0--|-0--3--0--0--6--0--3-----|-6--0--0--3--0--0--6--0--|-0--3--0--0--0--0--0--0--|
(0:54 - 1:22) VERSE 2
(1:23 - 1:32)
PRE-CHORUS:
VoiceEb|--------------------------------------------------------------------------------------------------------|
     Hb|--------7-----7--7-----7----------------7--7-----5----------5-----5-----7--8----------------------------|
     Gb|----------------------------------6---------------------------------------------------------------------|
     Db|--------------------------------------------------------------------------------------------------------|
     Ab|--------------------------------------------------------------------------------------------------------|
     Eb|----   Ne   zna -et   bo    -    li     i pro -schal?  -   nyh   gor? -kih slov     --------------------|
       |                          |                         |                         |                         |
Gtr.1Eb|--------------------------|-------------------------|-------------------------|-------------------------|
  +  Hb|--------------------------|-------------------------|-------------------------|-------------------------|
Gtr.2Gb|--------------------------|----------------------5--|-(5)---------------------|-(5)---------------------|
     Db|--4-----------------------|-(4)------------------5--|-(5)---------------------|-(5)------------------5--|
     Ab|--4-----------------------|-(4)------------------3--|-(3)---------------------|-(3)------------------5--|
     Eb|--2-----------------------|-(2)---------------------|-------------------------|----------------------3--|
 
VoiceEb|-----------------5-----7----------7-----5-------------5-------------------------------------------------|
     Hb|--------8--8--8-------------------------------8---------------------------------8--------7--------------|
     Gb|--------------------------------------------------------------------------------------------------7-----|
     Db|--------------------------------------------------------------------------------------------------------|
     Ab|--------------------------------------------------------------------------------------------------------|
     Eb|----    etot samyy    no    -    vyy    iz   mi   -  rov.                     Tvoy      no   -   vyy  --|
       |                          |                         |                         |                         |
Gtr.1Eb|--------------------------|-------------------------|-------------------------|-------------------------|
  +  Hb|--------------------------|-------------------------|-------------------------|-------------------------|
Gtr.2Gb|--------------------------|-------------------------|-7--------7--------7-----|-R-----------------------|
     Db|-(5)----------------------|-(5)---------------------|-7--------7--------7-----|-E-----------------------|
     Ab|-(5)----------------------|-(5)---------------------|-5-----5--5-----5--5-----|-S-----------------------|
     Eb|-(3)----------------------|-(3)---------------------|-------------------------|-T-----------------------|
(1:32 - 1:51)
CHORUS:
VoiceEb|--------------------------------------------------------------------------------------------------5-----|
     Hb|--5-----------------7-------8--------7----------------5-------------------------------------8-----------|
     Gb|----------------------------------------------7---------------------------------------------------------|
     Db|--------------------------------------------------------------------------------------------------------|
     Ab|--------------------------------------------------------------------------------------------------------|
     Eb| mir.              Ty      ve   -   rish?  v ne   -  go,                                    ob - re -  -|
       |                          |                         |                         |                         |
Gtr.2Eb|-E5-----------------------|-------------------------|-C5----------------------|-C5-------H5-------G5----|
     Hb|--------------------------|-------------------------|-------------------------|-------------------------|
     Gb|--------------------------|-------------------------|-------------------------|-------------------------|
     Db|--------------------------|-------------------------|-------------------------|-------------------------|
     Ab|--7--7--7--7--7--7--7--7--|-10-10-10-9--9--9--10---|-3--3--3--3--3--3--3--3--|-3--3--3--3--3--3--3--3--|
     Eb|--------------------------|-------------------------|-------------------------|-------------------------|
 
VoiceEb|--7--------7--------7-------7--------5----------------5-------------------------------------------------|
     Hb|----------------------------------------------8---------------------------------8--------7--------------|
     Gb|--------------------------------------------------------------------------------------------------7-----|
     Db|--------------------------------------------------------------------------------------------------------|
     Ab|--------------------------------------------------------------------------------------------------------|
     Eb| ka   -   ya       na      gi    -  bel?    vra   -  gov.                     Tvoy      no   -   vyy   -|
       |                          |                         |                         |                         |
Gtr.2Eb|--G5----------------------|-------------------------|-D5----------------------|-H5-------H5-------D5----|
     Hb|--------------------------|-------------------------|-------------------------|-------------------------|
     Gb|--------------------------|-------------------------|-------------------------|-------------------------|
     Db|--------------------------|-------------------------|-------------------------|-------------------------|
     Ab|--10-10-10-10-10-10-10-10-|-10-10-10-9--9--9--10---|-5--5--5--5--5--5--5--5--|-------------------5-----|
     Eb|--------------------------|-------------------------|-------------------------|-7--7--7--7--7--7--------|
...
(1:51 - 2:01)
RIFF 2: (*2 times)
Gtr.1Eb||-------------------------|-------------------------|-------------------------|-------------------------||
  +  Hb||-------------------------|-------------------------|-------------------------|-------------------------||
Gtr.2Gb||-------R-----R-----R-----|-------R-----R-----R-----|-------R-----R-----R-----|-------------------------||
     Db||-------E-----E-----E-----|-------E-----E-----E-----|-------E-----E-----E-----|-------------------------||
     Ab||-2--2--S--2--S--2--S--2--|----2--S--2--S--2--S--2--|----2--S--2--S--2--S-----|-------------------------||
     Eb||-0--0--T--0--T--0--T--0--|-3--0--T--0--T--0--T--0--|-5--0--T--0--T--0--T--0--|-6--0--5--0--3--0--5-----||
(2:01 - 2:11)
RIFF 2A: (*2 times)
Gtr.1Eb||-------------------------|-------------------------|-------------------------|-------------------------||
  +  Hb||-------------------------|-------------------------|-------------------------|-------------------------||
Gtr.2Gb||-------R-----R-----R-----|-------R-----R-----R-----|-------R-----R-----R-----|-------------------------||
     Db||-------E-----E-----E-----|-------E-----E-----E-----|-------E-----E-----E-----|-------------------------||
     Ab||-4--4--S--4--S--4--S--4--|----4--S--4--S--4--S--4--|-2--4--S--4--S--4--S-----|-3-----2-----------2-----||
     Eb||-2--2--T--2--T--2--T--2--|-5--2--T--2--T--2--T--2--|----2--T--2--T--2--T--2--|----2-----2--5--2--------||
(2:11 - 2:31)
SOLO:
Lead Eb|-----12----12----12----12-|-----12----12------------|-------------12-12----12-|-------------------------|
     Hb|-15bf--15bf--15bf--15bf---|-15bf--15bf--15b17rp12----12-|-15bf----15bf-----15bf---|-15bf--17b20-17b20-17b20-|
     Gb|--------------------------|-------------------14----|-------------------------|-------------------------|
     Db|--------------------------|-------------------------|-------------------------|-------------------------|
     Ab|--------------------------|-------------------------|-------------------------|-------------------------|
     Eb|--------------------------|-------------------------|-------------------------|-------------------------|
       |                          |                         |                         |                         |
Gtr.1Eb|--------------------------|-------------------------|-------------------------|-------------------------|
  +  Hb|--------------------------|-------------------------|-------------------------|-------------------------|
Gtr.2Gb|--------R-----R-----R-----|-------R-----R-----R-----|-------R-----R-----R-----|-------------------------|
     Db|--------E-----E-----E-----|-------E-----E-----E-----|-------E-----E-----E-----|-------------------------|
     Ab|--2--2--S--2--S--2--S--2--|----2--S--2--S--2--S--2--|----2--S--2--S--2--S-----|-------------------------|
     Eb|--0--0--T--0--T--0--T--0--|-3--0--T--0--T--0--T--0--|-5--0--T--0--T--0--T--0--|-6--0--5--0--3--0--5-----|
 
Lead Eb|--15-17b19-^--^--^--^--^--|-^-r17p15----------------|-------------------------|-------------------------|
     Hb|---------- keep picking --|----------17-17-17-1512-|-15-12--------------------------|-------------------------|
     Gb|---------- the bent note -|-------------------------|------14-12h14p12-14-12---------|-------------------------|
     Db|--------------------------|-------------------------|-----------------------14-14-12-|-14-12--------------------------|
     Ab|--------------------------|-------------------------|-------------------------|------14-12h14p12-14-12---------|
     Eb|--------------------------|-------------------------|-------------------------|-----------------------15-12-14-|
       |                          |                         |                         |                         |
Gtr.1Eb|--------------------------|-------------------------|-------------------------|-------------------------|
  +  Hb|--------------------------|-------------------------|-------------------------|-------------------------|
Gtr.2Gb|--------R-----R-----R-----|-------R-----R-----R-----|-------R-----R-----R-----|-------------------------|
     Db|--------E-----E-----E-----|-------E-----E-----E-----|-------E-----E-----E-----|-------------------------|
     Ab|--2--2--S--2--S--2--S--2--|----2--S--2--S--2--S--2--|----2--S--2--S--2--S-----|-------------------------|
     Eb|--0--0--T--0--T--0--T--0--|-3--0--T--0--T--0--T--0--|-5--0--T--0--T--0--T--0--|-6--0--5--0--3--0--5-----|
 
Lead Eb|--------------------------|-------------------------|-------------------------|-------------------------|
     Hb|--------------------------|-------------------------|-15b17----15b17----15b17-|------17b20-17b20-17b20--|
     Gb|--------R--14-R--11-R-----|-17-14-17-14----17-------|-------------------------|-------------------------|
     Db|-----11-E--14-E--11-E-----|-17-14-17-14----17-------|-------------------------|-------------------------|
     Ab|--14----S-----S-----S--0--|----------------------14|-------------------------|-------------------------|
     Eb|--------T-----T-----T-----|-------------------------|-------------------------|-------------------------|
       |                          |                         |                         |                         |
Gtr.1Eb|--------------------------|-------------------------|-------------------------|-------------------------|
  +  Hb|--------------------------|-------------------------|-------------------------|-------------------------|
Gtr.2Gb|--------R-----R-----R-----|-------R-----R-----R-----|-------R-----R-----R-----|-------------------------|
     Db|--------E-----E-----E-----|-------E-----E-----E-----|-------E-----E-----E-----|-------------------------|
     Ab|--4--4--S--4--S--4--S--4--|----4--S--4--S--4--S--4--|-2--4--S--4--S--4--S-----|-3-----2-----------2-----|
     Eb|--2--2--T--2--T--2--T--2--|-5--2--T--2--T--2--T--2--|----2--T--2--T--2--T--2--|----2-----2--5--2--------|
 
Lead Eb|----------------------------------|---------------------------------|
     Hb|--17p14--------14-17p14--------14-|-17p14--------14-17p14----------14-17p|
     Gb|-------16-14-16--------16-14-16---|------16-14-16---------16-14-16-------|
     Db|----------------------------------|---------------------------------|
     Ab|----------------------------------|---------------------------------|
     Eb|----------------------------------|---------------------------------|
       |                                  |                                 |
Gtr.1Eb|----------------------------------|---------------------------------|
  +  Hb|----------------------------------|---------------------------------|
Gtr.2Gb|----------R-------R-------R-------|---------R-------R-------R-------|
     Db|----------E-------E-------E-------|---------E-------E-------E-------|
     Ab|--4---4---S---4---S---4---S---4---|-----4---S---4---S---4---S---4---|
     Eb|--2---2---T---2---T---2---T---2---|-5---2---T---2---T---2---T---2---|
 
Lead Eb|----------------------------------|---------------------------------|
     Hb|--14--------14-17p14--------14-17p14---------|-14-17p14----------14-17p14----------14-17-|
     Gb|----16-14-16--------16-14-16--------16-14-16-|----------16-14-16----------16-14-16-------|
     Db|----------------------------------|---------------------------------|
     Ab|-------------------- gradually press tremolo bar -------------------|
     Eb|----------------------------------|---------------------------------|
       |                                  |                                 |
Gtr.1Eb|----------------------------------|---------------------------------|
  +  Hb|----------------------------------|---------------------------------|
Gtr.2Gb|----------R-------R-------R-------|---------------------------------|
     Db|----------E-------E-------E-------|---------------------------------|
     Ab|--2---4---S---4---S---4---S---4---|-3-------2---------------2-------|
     Eb|------2---T---2---T---2---T---2---|-----2-------2---5---2-----------|
(2:31 - 2:50)
RIFF 3:
Gtr.1Eb|--------------------------|-------------------------|-------------------------|-------------------------|
Gtr.2Hb|--------------------------|-------------------------|-------------------------|-------------------------|
     Gb|--------------------5-----|-7--------7-----5--------|-------------------5-----|-7--------7-----5--------|
     Db|--5-----9-----------7-----|-9--------9-----7--9-----|-5-----9-----------7-----|-9--------9-----7--9-----|
     Ab|--7-----10----------------|-------------------10----|-7-----10----------------|-------------------10----|
     Eb|--------------------------|-------------------------|-------------------------|-------------------------|
       |                          |                         |                         |                         |
Bass Gb|-----R--------------------|-------------------------|----R--------------------|-------------------------|
     Db|-----E--------------------|-------------------------|----E--------------------|-------------------------|
     Ab|-----S--------------------|-------------------------|----S--------------------|-------------------------|
     Eb|--0--T--------------------|-------------------------|-8--T--------------------|-------------------------|
 
Gtr.1Eb|--------------------------|-------------------------|-------------------------|-------------------------|
Gtr.2Hb|--------------------------|-------------------------|-------------------------|-------------------------|
     Gb|--------------------5-----|-7--------7-----5--------|-------11-------9--------|-7--------5--------7-----|
     Db|--5-----9-----------7-----|-9--------9-----7--9-----|-9-----12----7--10----5--|-9-----4--7-----5--9-----|
     Ab|--7-----10----------------|-------------------10----|-10----------9--------7--|-------5--------7--------|
     Eb|--------------------------|-------------------------|-------------------------|-------------------------|
       |                          |                         |                         |                         |
Bass Gb|------R-------------------|-------------------------|-------11-------9--------|-7--------5--------7-----|
     Db|------E-------------------|-------------------------|-9-----------7--------5--|-------4--------5--------|
     Ab|--10--S-------------------|-------------------------|-------------------------|-------------------------|
     Eb|------T-------------------|-------------------------|-------------------------|-------------------------|
 
Gtr.1Eb|--------------------------|-------------------------|-------------------------|-------------------------|
Gtr.2Hb|--------------------------|-------------------------|-------------------------|-------------------------|
     Gb|--------------------5-----|-7--------7-----5--------|-------------------5-----|-7--------7-----5--------|
     Db|--5-----9-----------7-----|-9--------9-----7--9-----|-5-----9-----------7-----|-9--------9-----7--9-----|
     Ab|--7-----10----------------|-------------------10----|-7-----10----------------|-------------------10----|
     Eb|--------------------------|-------------------------|-------------------------|-------------------------|
       |                          |                         |                         |                         |
Bass Gb|--------------------------|-------------------------|-------------------------|-------------------------|
     Db|--------------------------|-------------------------|-------------------------|-------------------------|
     Ab|--7--7--7--7--7--7--7--7--|-7--7--7--7--7--7--7--7--|-------------------------|-------------------------|
     Eb|--------------------------|-------------------------|-8--8--8--8--8--8--8--8--|-8--8--8--8--8--8--8--8--|
 
Gtr.1Eb|--------------------------|-------------------------|-------------------------|-------------------------|
Gtr.2Hb|--------------------------|-------------------------|-------------------------|-------------------------|
     Gb|--------------------5-----|-7--------7-----5--------|-------11-------9--------|-7--------5--------7-----|
     Db|--5-----9-----------7-----|-9--------9-----7--9-----|-9-----12----7--10----5--|-9-----4--7-----5--9-----|
     Ab|--7-----10----------------|-------------------10----|-10----------9--------7--|-------5--------7--------|
     Eb|--------------------------|-------------------------|-------------------------|-------------------------|
       |                          |                         |                         |                         |
Bass Gb|--------------------------|-------------------------|-------------------------|-------------------------|
     Db|--------------------------|-------------------------|-------------------------|-------------------------|
     Ab|--10-10-10-10-10-10-10-10-|-10-10-10-10-10-10-10-10-|-------------------------|-------------------------|
     Eb|--------------------------|-------------------------|-10-10-10-10-10-10-10-10-|-7--7--7--7--7--7--7--7--|
(2:51 - 3:00)
RIFF 4:
Gtr.1Eb||-------------------------|-------------------------|-------------------------|-------------------------||
  +  Hb||-------------------------|-------------------------|-------------------------|-------------------------||
Gtr.2Gb||-------------------------|-------------------------|-------------------------|-------------------------||
     Db||----9--------7--------5--|(5)----4-----------------|----9--------7--------5--|(5)----4-----------------||
     Ab||----7--------5--------3--|(3)----2-----------------|----7--------5--------3--|(3)----2-----------------||
     Eb||-0--------0--------0-----|----0--------5--3--2--3--|-0--------0--------0-----|----0--------5--3--2--3--||
(3:00 - 3:29) VERSE 3
(3:29 - 3:38) PRE-CHORUS
(3:38 - 3:57) CHORUS
(3:58 - 4:03)
OUTRO:
Gtr.1Eb|--------------------------|-------------------------|-------------------------|-------------------------|
  +  Hb|--------------------------|-------------------------|-------------------------|-------------------------|
Gtr.2Gb|--------------------------|-------------------------|-------------------------|-------------------------|
     Db|--------------------------|-------------------------|-------------------------|-------------------------|
     Ab|--------------------------|-------------------5-----|-------------------------|-------------4--5--4-----|
     Eb|--6--0--0--3--0--0--6--0--|-0--3--0--0--6--0--3-----|-6--0--0--3--0--0--6--0--|-0--3--0--0--2--3--2-----|
Вверх

Тебе дадут знак

C#m
Раньше ты был в стороне - не "против" и не "за",
A                                       C#m
Но однажды Старший Брат тебе открыл глаза:
C#m
"Сговор древних мудрецов поставил мир на грань.
A                                          C#m
Власть в руках у чужаков, и ты им платишь дань!"

Пустота на месте звезд, огонь вокруг креста,
Кто-то проклял твой народ, и это неспроста.
Но наступит время "икс" - и оживет колосс,
Ставки слишком высоки, игра идет всерьез.

    F#  G#   F# G#
   Нож как бритва,
    C#m H A  G#
   Будет битва.
      C#m                           A
   Кулак - как флаг над буйной головой,
      C#m                              A
   Вожак сказал: - "Свое возьмем с лихвой!"
         E        F#
   Во тьме не спасется враг!
      E     H              A
   Пора, готовься сделать шаг,
   H       G#   C#m
   Тебе дадут знак!

Ловко пущен механизм, идет за строем строй,
В одиночку ты никто, зато в толпе - герой.
У тебя свои цвета, ты знаешь грозный клич,
Нерушима та стена, в которой ты кирпич!

   Нож как бритва,
   Будет битва.
   Кулак - как флаг над буйной головой,
   Вожак сказал: - "Свое возьмем с лихвой!"
   Во тьме не спасется враг!
   Пора, готовься сделать шаг,
   Тебе дадут знак!

      C#                  D#
      Ты мог родиться совсем в иных краях
      D                        C#
      Где нет решеток, и не строят плах,
      C#                     D#
      Где женщины не плачут, и не прячут лиц,
      D                    C#
      Где дети не хотят играть в убийц.

Ангел смерти будет здесь, когда начнется бой,
Он толкнет тебя на штык и заберет с собой.
Но опять играет Марш, опять вопит Главарь.
И колонны дураков восходят на алтарь!

   Нож как бритва,
   Будет битва.
   Кулак - как флаг над буйной головой,
   Маньяк сказал: - "Свое возьмем с лихвой!"
   Во тьме не спасется враг,
   Пора, готовься сделать шаг.
                C#m
   Тебе дадут знак!
                 F#m
   Тебе дадут ствол!
   Тебе дадут флаг!
   Тебе дадут штык!

   Тебе дадут знак!
   Тебе дадут кол!
   Тебе дадут танк!
   Тебе дадут цепь!

   Тебе дадут знак!
   Тебе дадут лом!
   Тебе дадут кнут!
   Тебе дадут гроб!
   Тебе дадут знак!
Вверх

Тебе дадут знак (2 вариант)

b    - бенд
r    - возврат после бенда
/,  - слайд
h    - хаммер
p    - пул-офф
PM   - Palm muting
~    - вибрато

ВСТУПЛЕHИЕ
Clean Guitar

           2 times            F            Gm
   Dm           B
E|--0----0-0-----1----1-1---|-5----5-5-----3----3-3----
B|*-3----3-3-----3----3-3-*-|-6----6-6-----3----3-3----
G|--2----2-2-----3----3-3---|-5----5-5-----3----3-3----
D|--0----0-0-----3----3-3---|-7----7-7-----5----5-5----
A|*-0----0-0-----1----1-1-*-|-8----8-8-----5----5-5----
E|--------------------------|--------------3----3-3----
/

  F    Fmaj7    Gm   Am
E|-5----5-5------3----5-----
B|-6----5-5------3----5-----
G|-5----5-5------3----5-----
D|-7----7-7------5----7-----
A|-8----8-8------5----7-----
E|---------------3----5-----
/


Riff D5
Guitar I
  Dm
E|---------------------|------------------------------
B|---------------------|------------------------------
G|---------------------|------------------------------
D|---------7---------5-|---------8---------5----------
A|-5-5-5-5---5-5-5-5---|-5-5-5-5---5-5-5-5------------
E|---------------------|------------------------------
/
PM . . . .   . . . .     . . . .   . . . .
Guitar II

E|---------------------|------------------------------
B|---------------------|------------------------------
G|---------------------|------------------------------
D|---------3---------2-|---------5---------2----------
A|-5-5-5-5---5-5-5-5---|-5-5-5-5---5-5-5-5------------
E|---------------------|------------------------------
/
PM . . . .   . . . .     . . . .   . . . .



Guitar I
    Dm
E|---------------------
B|---------------------
G|---------------------
D|---7-----------------
A|---5-----------------
E|---------------------
/
Guitar II

E|---------------------
B|---------------------
G|---------------------
D|---7-----------------
A|---5-----------------
E|---------------------
/
     Раньше ты был в стороне, не "против" и не "за"
     Riff D5

Guitar I
    B
E|---------------------
B|---------------------
G|---------------------
D|---8-----------------
A|---8-----------------
E|---6-----------------
/
Guitar II

E|---------------------
B|---------------------
G|---------------------
D|---8-----------------
A|---8-----------------
E|---6-----------------
/
     Hо однажды старший брат тебе открыл глаза
     Riff D5

Guitar I
    Dm
E|---------------------
B|---------------------
G|---------------------
D|---7-----------------
A|---5-----------------
E|---------------------
/
Guitar II

E|---------------------
B|-------------13b15---
G|---------------------
D|---7-----------------
A|---5-----------------
E|---------------------
/
     Сговор древних мудрецов поставил мир на грань
     Riff D5

Guitar I
    B
E|---------------------
B|---------------------
G|---------------------
D|---8-----------------
A|---8-----------------
E|---6-----------------
/
Guitar II

E|---------------------
B|---------------------
G|---------------------
D|---8-----------------
A|---8-----------------
E|---6-----------------
/
     Власть в руках у чужаков, и ты и платишь дань
     Riff D5



Riff G5 - 2 раза
Guitar I
  G     A      G     A
E|-------------|--------------
B|-------------|--------------
G|-------------|4-4-4/6-6-6---
D|-5-5-5/7-7-7-|--------------
A|-------------|--------------
E|-------------|--------------
/
Guitar II

E|-------------|--------------
B|-------------|--------------
G|-------------|--------------
D|-------------|-5-5-5/7-7-7--
A|-5-5-5/7-7-7-|--------------
E|-------------|--------------
/


Пустота на месте звезд, огонь вокруг креста
Кто-то проклял твой народ, и это неспроста
Hо наступит время "икс" - и оживет колосс
Ставки слишком высоки, игра идет всерьез

ПРИПЕВ:
Riff G5
Hож как бритва

Guitar I
  Dm    C       B           A
E|----------------------------------------------------
B|----------------------------------------------------
G|-7-7-7/9-9-9-9/10-10-10-10/12-----------------------
D|----------------------------------------------------
A|----------------------------------------------------
E|----------------------------------------------------
/  Бу---дет      би--------тва
Guitar II
  Dm    C       B           A
E|----------------------------------------------------
B|----------------------------------------------------
G|-5-5-5/3-3-3-3/1-1-1-1/0----------------------------
D|----------------------------------------------------
A|----------------------------------------------------
E|----------------------------------------------------
/


Guitar I
   Dm     B
E|--5-------------------------------------------------
B|--5------------5------------------------------------
G|--7--------------7-----------------7----------------
D|--7----------------7----------8------8--------------
A|---------------------5--------8--------8--/10-------
E|------------------------------6---------------------
/
Guitar II
   Dm     B
E|----------------------------------------------------
B|----------------------------------------------------
G|----------------------------------------------------
D|--7---------------------------8---------------------
A|--5---------------------------8---------------------
E|------------------------------6---------------------
/ Кулак! Как флаг над буйной головой!
  Вожак  сказал: "Свое возьмем с лихвой!"

Guitar I
   F        G
E|----------------------------------------------------
B|----------------------------------------------------
G|----------------------------------------------------
D|--3----------------------5--------------------------
A|--3----------------------5--------------------------
E|--1----------------------3--------------------------
/   Во тьме          не спасется враг
Guitar II (Триоли)

E|-5-----5-----5-----5-----5-----5-----5-----5--------
B|---6-----6-----6-----6-----6-----6-----6-----6------
G|-----5-----5-----5-----5-----5-----5-----5-----5----
D|----------------------------------------------------
A|----------------------------------------------------
E|----------------------------------------------------
/

Guitar I

E|----------------------------------------------------
B|----------------------------------------------------
G|-------------5-----------3----------5----5---5------
D|--3----------5-----------3----------5----5---5-7----
A|--3----------3-----------1----------3----3---3-7----
E|--1--------------------------------------------5----
/   Пора!  Готовься сделать шаг,    тебе дадут знак!
Guitar II (Threolies)

E|-5-----5-----3-----3-----1-----1-----3--------------
B|---6-----6-----5-----5-----3-----3-----5-----5------
G|-----5-----5-----5-----5-----3-----3-----5----------
D|-----------------------------------------------7----
A|-----------------------------------------------7----
E|-----------------------------------------------5----
/

Guitar I - Riff D5 (2 times)
Guitar II (Solo)
                          Tr.    5 times
                               /------
E|--------------13------------------------------------
B|--15~---13b15-----15--------------------------------
G|----------------------------------------12p10-------
D|------------------------10b12-(19)-(12)-------12----
A|----------------------------------------------------
E|----------------------------------------------------
/                                T - делается на 17-м ладу


Ловко пущен механизм, идет за строем строй
В одиночку ты никто, зато в толпе - герой
У тебя свои цвета, ты знаешь грозный клич
Hерушима та стена, в которой ты кирпич!

ПРИПЕВ.


ЛИРИЧЕСКОЕ ОСТУПЛЕHИЕ:

RythmFig
Guitar I (Rythm) - 2 times

E|--------------------------5-------------------------
B|--------7-8-7-----------7---7-----------------------
G|------7-------7-------7-------7---------------------
D|----7-----------7---7-----------7-------------------
A|--5---------------5---------------------------------
E|----------------------------------------------------
/

E|----------7-----------------------------------------
B|--------9---9-----------9-10-9----------------------
G|------9-------9-------9--------9--------------------
D|----9-----------9---9------------9------------------
A|--7---------------7---------------------------------
E|----------------------------------------------------
/

E|--------------------------6-------------------------
B|--------8-9-8-----------8----8----------------------
G|------8-------8-------8--------8--------------------
D|----8-----------8---8------------8------------------
A|--6---------------6---------------------------------
E|----------------------------------------------------
/

E|--------------------------5-------------------------
B|--------7-8-7-----------7---7-----------------------
G|------7-------7-------7-------7---------------------
D|----7-----------7---7-----------7-------------------
A|--5---------------5---------------------------------
E|----------------------------------------------------
/
SoloFig
Guitar II (Solo)

E|----------------------------------------------------
B|-------5-7===================----------------------
G|-----7----------------------------------------------
D|--/7------------------------------------------------
A|----------------------------------------------------
E|----------------------------------------------------
/

E|----------------------------------------------------
B|----------------------------------------------------
G|-----7-9-11-9h11p9-7---7=====/----------------------
D|--/9-----------------9------------------------------
A|----------------------------------------------------
E|----------------------------------------------------
/

E|-----------8-10p8-10b11r10-8h10p8----8--------------
B|--8---8-11------------------------11---11-----------
G|----8-----------------------------------------------
D|----------------------------------------------------
A|----------------------------------------------------
E|----------------------------------------------------
/

E|----------------------------------------------------
B|--10===--8-7h8p7-----------------------------------
G|----------------------------------------------------
D|----------------------------------------------------
A|----------------------------------------------------
E|----------------------------------------------------
/

E|--/14--12h14----------------------------------------
B|-------------15--12========------------------------
G|----------------------------------------------------
D|----------------------------------------------------
A|----------------------------------------------------
E|----------------------------------------------------
/

E|---------12-14-12h14--------------------------------
B|--/12-15-------------15-12-15----------------------
G|----------------------------------------------------
D|----------------------------------------------------
A|----------------------------------------------------
E|----------------------------------------------------
/

E|-----15-16-18-16h18p16-15-16-15h16p15-13-15--13b15==
B|--16------------------------------------------------
G|----------------------------------------------------
D|----------------------------------------------------
A|----------------------------------------------------
E|----------------------------------------------------
/

E|-(15)~~----------------10---------------------------
B|--------------------10----10h12p10----10-----------
G|-----------------11----------------11---------------
D|----------------------------------------------------
A|----------------------------------------------------
E|----------------------------------------------------
/
Guitar I,II - Rythm Fig
Ты мог родиться совсем в иных краях
Где нет решеток, и не строят плах
Где женщины не плачут, и не прячут лиц
Где дети не хотят играть в убийц...

Соло не подобрал пока,
аккорды во время соло такие:
H5--------E5----H5--A5--     - 2 times
H5----D5----A5----C5--D5--   - 2 times

Riff D5 - 2 times

Ангел смерти будет здесь, когда начнется бой
Он толкнет тебя на штык и заберет с собой
Hо опять играет Марш, опять вопит Главарь...
И колонны дураков восходят на алтарь!

Hож как бритва!
Будет битва!

Кулак - как флаг над буйной головой
Маньяк сказал: - "Свое возьмем с лихвой!"
Во тьме не спасется враг
Пора, готовься сделать шаг
Тебе дадут знак!

Guitar I,II

E|------------------------------
B|------------------------------
G|------------------------------
D|--------5-7-------------------
A|--5-7-8-----8-5---7-8-5-8--7--
E|------------------------------
/

E|--------------------------------
B|--------------------------------
G|--------------------------------
D|--------5-7---------------------
A|--5-7-8-----8-5---7-8-5-7b8r7-5-
E|--------------------------------
/                   Тебе дадут ствол!
                               штык!
                               кол!
                               цепь!
                               лом!
                               гроб!

E|------------------------------
B|------------------------------
G|--------5-7-------------------
D|--5-7-8-----8-5---7-8-5-8--7--
A|------------------------------
E|------------------------------
/

E|--------------------------------
B|--------------------------------
G|--------5-7---------------------
D|--5-7-8-----8-5---7-8-5-7b8r7-5-
A|--------------------------------
E|--------------------------------
/                   Тебе дадут флаг!
                               знак!
                               танк!
                               кнут!
                               знак!
Вверх

Тебе дадут знак (3 вариант)

 
 Dm
 Раньше ты был в стороне - не "против" и не "за"
 B     Dm
 Hо однажды Старший Брат тебе открыл глаза:
 Dm
 "Сговор древних мудрецов поставил мир на грань
 B               Dm
 Власть в руках у чужаков, и ты им платишь дань!"
 
 Пустота на месте звезд, огонь вокруг креста
 Кто-то проклял твой народ, и это неспроста
 Hо наступит время "икс" - и оживет колосс
 Ставки слишком высоки, игра идет всерьез
 
  G   A    G  A
 Hож как бритва
 Dm C   B  A
 Будет битва
    Dm                            B
 Кулак - как флаг над буйной головой
    Dm                               B
 Вожак сказал: - "Свое возьмем с лихвой!"
       F        G
 Во тьме не спасется враг!
    F     C              B
 Пора, готовься сделать шаг
 C            A
 Тебе дадут знак!
 
 Ловко пущен механизм, идет за строем строй
 В одиночку ты никто, зато в толпе - герой
 У тебя свои цвета, ты знаешь грозный клич
 Hерушима та стена, в которой ты кирпич!
 
 D                   E
 Ты мог родиться совсем в иных краях
 D#                       D
 Где нет решеток, и не строят плах
 D                      E
 Где женщины не плачут, и не прячут лиц
 D#                   D
 Где дети не хотят играть в убийц...
 
 Ангел смерти будет здесь, когда начнется бой
 Он толкнет тебя на штык и заберет с собой
 Hо опять играет Марш, опять вопит Главарь...
 И колонны дураков восходят на алтарь!
 
 Кулак - как флаг над буйной головой
 Маньяк сказал: - "Свое возьмем с лихвой!"
 Во тьме не спасется враг
 Пора, готовься сделать шаг
                        Dm       Gm       Dm  и тд
 Тебе дадут знак! ...ствол! ...флаг! ...штык!
 ...знак! ...кол! ...танк! ...цепь!
 ...знак! ...лом! ...кнут! ...гроб! ...знак!
Вверх

Тореро

 Dm          C
Эй, тореро, жизнь как миг.
  Bb            А
Опять звучит трубы призывный зов.

 Dm          C
Эй, тореро, ты или бык?
  Bb             А
Качается чаша весов.


Припев:
   Bb     Gm6 Bb А7
   Бог хранит тебя,
    Bb      Gm6 Bb А
   Смерть щадит тебя.
   Dm             C6
   Неба белый платок,
   Bbmaj7           А7
   Кровь и желтый песок,
 Gm
   Крик отчаянья,
 Gm7               А7
   Бык - живая мишень.
   Dm               C6
   Под восторженный вой
   Bb              А
   Ты играешь судьбой
 Gm                  Gm7
   Пусть не знает никто,
                    А7
   Что творится в душе.


Эй, тореро, сын вдовы,
Твой красный плащ, твой траурный покров.
Эй, тореро, ты будешь убит
Под песню мадридских часов.

Припев.
Вверх

Тореро (2 вариант)

Em           Hm
Эй, тореро, жизнь как миг
  C              Hm
Опять звучит трубы призывный зов
Em           Hm
Эй, тореро, ты или бык
   C             Hm
Качается чаша весов
  C            Hm
Бог хранит тебя
   C             Hm Am Hm
Смерть щадит тебя--а--а
        Em            Hm
        Неба белый платок
        C               Hm
        Кровь и желтый песок
        Em           C           Hm
        Крик отчаянья бык живая мишень
        Em               Hm
        Под восторженный вой
        C              Hm
        Ты играешь судьбой
         Em                C                   Hm Am Hm Hm Am Hm
        Пусть не знает никто что творится в душе

Эй, тореро, сын вдовы
Твой красный плащ твой траурный покров
Эй, тореро, ты будешь убит
Под песню мадридских часов
Бог хранит тебя
Смерть щадит тебя-а-а

        Неба белый платок
        Кровь и желтый песок
        Крик отчаянья бык живая мишень
        Под восторженный вой
        Ты играешь собой
        Пусть не знает никто что творится в душе
Вверх

Тореро (3 вариант)

Вступление и проигрыш после каждого куплета:
----------------------------------------------------------------
----------------------------------------------------------------
----------------------------------------------------------------
--------------------------------------------------9-7-----7-5---
79107-9-10-5-7-95-7-9-3-5-7-3-5-72-3-2-3-2-7-9-10---0-9-5-0--7-3
0----------0----------0----------0---------0--------------------

----------------------------------------------------------------
----------------------------------------------------------------
--------------------7-6-4---------------------7-6-4-------------
-----2-5-4------5---5---------------------5---5-------9-9-9-----
-3-------5-2----7---------9-9-9-10-7-9----7---------7-7-7-------
-----------0--------------7-7-7---------------------0-0-0-------

Эй, тореро, жизнь как миг
Опять звучит трубы призывный зов
Эй, тореро, ты или бык
Качается чаша весов
Бог хранит тебя
Смерть щадит тебя--а--

        Неба белый платок
        Кровь и желтый песок
        Крик отчаянья бык живая мишень
        Под восторженный вой
        Ты играешь судьбой
        Пусть не знает никто что творится в душе

Эй, тореро, сын вдовы
Твой красный плащ твой траурный покров
Эй, тореро, ты будешь убит
Под песню мадридских часов
Бог хранит тебя
Смерть щадит тебя-а-

        Неба белый платок
        Кровь и желтый песок
        Крик отчаянья бык живая мишень
        Под восторженный вой
        Ты играешь собой
        Пусть не знает никто что творится в душе
Вверх

Тореро (4 вариант)

Проигрыш
  C#
 -----------------------
 -----------------------
 -----------------------
 -11-11-11-11---11--11--

 -11-11-11-11---11--11--
 -9--9--9--9----9---9---
                    ^let ring

Riff1
  C#              B             А           G#
 -------------------------------------------------------\
 -------------------------------------------------------|
 -------------------------------------------------------|
 -------------------------------------------------------|
 -------------------------------------------------------|
 -9-11-12-9-11-12-7-9-11-7-9-11-5-7-9-5-7-9-4-5-4-5-4-5-/

With Riff1
  C#        B         А             G#
 -------------------------------------------
 -------------------------------------------
 -------------------------------------------
 -------6---4-1-----4-2---------------------
 -4-6-7---------2-------4-0---0-4Н7-6-------
 -------------------------------------7-4---

Riff2 - 2 times
  А               G#
 -----------------------------
 -----------------------------
 -----------------------------
 -7--------------(6-6-6-6-6)-- ()-play only second time
 -7-------7-6-4---6-6-6-6-6---
 -5---0-5---------4-4-4-4-4---

Riff3
 -----------------------------
 -----------------------------
 -----------------------------
 -6-X16-times-----------------
 -4------------x//-pickslide--
 -----------------------------

Riff4 (very fast!)
 -----------------------------
 -----------------------------
 -----------------------------
 -------------4---6-----------
 -------4-3-----6-------------
 -5-4-2-----5-----------------

Riff5
 ---------------------------------
 ---------------------------------
 -5-5-6-6-8-8-9-9-11-11-12-12-13--
 -----------------------------^^--
 -------------------------------let ring
 ---------------------------------

        C#m          B
        Эй, тореро, жизнь как миг
          А              G#
        Опять звучит трубы призывный зов
        C#m          B
        Эй, тореро, ты или бык
           А             G#
        Качается чаша весов

With Riff2:

        Бог хранит тебя

        Смерть щадит тебя--а--а

Chorus:
                 C#            B  AG#AG#AG#
                Неба белый платок
                  А   G# F# G#  А G#  AG#AG#AG#
                Кровь и желтый песок
                  F#           А    F#G#  А G#  Riff4
                Крик отчаянья бык живая  мишень
                 C#               B  AG#AG#AG#
                Под восторженный вой
                 А   F#G#   А   G#  AG#AG#AG#
                Ты играешь судьбой
                 F#                А         F#G#    А G#  Riff4
                Пусть не знает никто что творится в душе

        Эй, тореро, сын вдовы
        Твой красный плащ твой траурный покров
        Эй, тореро, ты будешь убит
        Под песню мадридских часов
        Бог хранит тебя
        Смерть щадит тебя-а-а

                Неба белый платок
                Кровь и желтый песок
                Крик отчаянья бык живая мишень
                Под восторженный вой
                Ты играешь собой
                Пусть не знает никто что творится в душе

Проигрыш riff
Riff1
Riff2

Solo:
Версия  schords 4 times
Then goes only drums, bass and lead

Chorus

Riff5
        G#
        Эй, тореро

Проигрыш riff (as outro)
Вверх

Тореро (5 вариант)

Intro:

I?m not shure in this chords.

E------------------|---------------0--|------------------|------------------|
H--------------4---|------------3-----|---------------3--|------------------|
G-----------6------|------------------|------------4-----|---5-5-5-5--5--5-|
D--------0---------|---------1--------|---------0--------|---5-5-5-5--5--5-|
A-----2------------|------3-----------|------3-----------|---3-3-3-3--3--3-|
E--3---------------|---4--------------|---1--------------|------------------|

Then next and then this line with riff 1.

E------------------|------------------|------------------|------------------|
H------------------|------------------|------------------|------------------|
G------------------|------------------|------------------|------------------|
D------------------|------------------|------------------|------------------|
A-3--5--6--3--5--6-|-------5--------5-|-------3--------3-|------------------|
E------------------|-6--8-----6--8----|-4--6-----4--6----|-3--4--3--4--3-6-|

Riff 1

E------------------|------------------|------------------|------------------|
H------------------|------------------|------------------|------------------|
G------------------|------------------|------------------|------------------|
D-----------5------|--3---------------|--3---------------|------------------|
A--3--5--6---------|-----5------------|-----6--3---------|----3-6-5---------|
E------------------|--------6---------|-----------4------|--4--------6--3---|

Next line one guitar play with chords below tablature:

Riff 2
    G#5 D#5      D5 C5    G5
E-----------------------|--------------------------------------|
H-------------4--3------|--------------------------------------|
G-------------------5---|--(5)--------------------------------|
D---6---3--6------------|------5-----5-----5-----5-----5-------|
A-----------------------|------5-----5-----5-----5-----5-------|
E-----------------------|--3-3-3-3-3-3-3-3-3-3-3-3-3-3-3-------|

    G#5 D#5      D5 C5      G5
E-----------------------|--------------------------------------|
H-------------4--3------|--------------------------------------|
G-------------------5--|--12---------------------------------|
D---6---3--6------------|--------------------------------------|
A-----------------------|--------------------------------------|
E-----------------------|--------------------------------------|

Then  C5  8x4=32

I verse

gtr. 1 - tablature
gtr. 2 - chords below tab

   C5 8x    B5 8x   G#5 8x   G5 8x
E--------|--------|--------|-------|----------------|
H--------|--------|--------|-------|----------------|   Play this line
G--5-----|--3-----|--------|-------|----------------|      2 times
D--5-----|--3-----|--6-----|-------|-----5----5-----|
A--------|--------|--6-----|--5----|-----5----5-----|
E--------|--------|--------|--5----|---3-3--3-3-----|
                                       gtr. 2 /

Chorus:

Play riff 2 and step to next line.

   C5          A#5                     G#5       G5
E-----------|-------|---------------|-----------|-------|------------------|
H-----------|-------|---------------|-----------|-------|------------------|
G--5-5-5-5--|--3----|---------------|-----------|-------|------------------|
D--5-5-5-5--|--3----|--8-7-8-7-8-7--|--6-6-6-6--|--5----|---5-4-5-4-5-4----|
A-----------|-------|--6-5-6-5-6-5--|--6-6-6-6--|--5----|---3-2-3-2-3-2----|
E-----------|-------|----gtr.2--/--|-----------|-------|-----gtr.2--/----|

E------------------------------------------------------------------|
H------------------------------------------------------------------|
G------------------------------------------------------------------|
D--3-3-3-3-3-3-3-3-3-3-3-3-3-3-3-3-6-6-6-6-6-6-6-6-6-6-6-6-6-6-6-6-|
A--3-3-3-3-3-3-3-3-3-3-3-3-3-3-3-3-6-6-6-6-6-6-6-6-6-6-6-6-6-6-6-6-|
E--1-1-1-1-1-1-1-1-1-1-1-1-1-1-1-1-4-4-4-4-4-4-4-4-4-4-4-4-4-4-4-4-|
               16 x             /               16 x           /

E-----------------------------------|
H-----------------------------------|
G-----------------------------------|
D---------------------------5--5----|
A---3--2-----5--3--2--3--2----------|
E---------3-------------------------|

II verse as I verse

Chorus and 6 times C5

After that play riff 2 and goto solo.

Solo :

E-------------------/18--20-----------------13----------------------|
H--13~~---11~~-----------------15--15---16------16--15--------------|
G-------------------------------------------------------12----------|
D-------------------------------------------------------------------|
A-------------------------------------------------------------------|
E-------------------------------------------------------------------|

E-------------------------------------------------------------------|
H-------------------------------------------------------------------|
G---12h13h15--13--12------------------------------------------------|
D---------------------15--13----------------------------------------|
A-------------------------------------------------------------------|
E-------------------------------------------------------------------|

E-------------------------------------------------------------------|
H-------------------------------------------------------------------|
G-------------------------------------------------------------------|
D-------------------------------------------------------------------|
A-------------------------------------------------------------------|
E-------------------------------------------------------------------|

III Verse.

Chorus and outro.

Outro:
                                         rit.
E------------------------------------------------------------------|
H------------------------------------------------------------------|
G---0-4-0-4-0-5-0-5-0-7-0-7-0-8-0-8-0-10-0-10-0-11-0-11-0-12~~~~~--|
D------------------------------------------------------------------|
A------------------------------------------------------------------|
E------------------------------------------------------------------|

    C5
E----------------------------------|
H----------------------------------|
G----------------------------------|
D--10-10-10-10----10----10--------|
A--10-10-10-10----10----10--------|
E---8--8--8--8-----8-----8--------|

The end


Lyrics:

Эй, торреро, жизнь как миг.
Опять звучит трубы призывный зов.
Эй, торреро, ты или бык?
Качается чаша весов.

Бог хранит тебя, смерть щадит тебя.
Hеба белый платок, кровь и желтый песок
Крик отчаянья, бык живая мишень.
Под восторженный вой ты играешь судьбой
Пусть незнает никто, что творится в душе.
Вверх

Тореро (6 вариант)

 Вступление и проигрыш после кaждого куплетa:
 ---------------------------------------------------------------------------
 ---------------------------------------------------------------------------
 ---------------------------------------------------------------------------
 ---------------------------------------------------------9-7-----7-5-------
 -7-9-10-7-9-10-5-7-9-5-7-9-3-5-7-3-5-7-2-3-2-3-2--7-9-10---0-9-5-0---7-3---
 -0-------------0-----------0-----------0----------0------------------------
 
 
 ---------------------------------------------------------------------------
 ---------------------------------------------------------------------------
 --------------------7-6-4---------------------7-6-4---------
 - ---2-5-4------5---5---------------------5---5-------9-9-9---
 -3-------5-2----7---------9-9-9-10-7-9----7---------7-7-7---
 -----------0--------------7-7-7---------------------0-0-0---
 
 Em            D
 Эй, торреро, жизнь как миг.
 C                H
 Опять звучит трубы призывный зов.
 Em            D
 Эй, торреро, ты или бык?
 C           H
 Качается чаша весов.
 
    C     Am     H    C             H A H
    Бог хранит тебя, смерть щадит тебя.
    C     (Am)     H   C        (Am)    H
    Hеба белый платок, кровь и желтый песок
    Крик отчаянья, бык живая мишень.
    Под восторженный вой ты играешь судьбой
    Пусть незнает никто, что творится в душе.
 
 Эй, торреро, сын вдовы.
 Твой красный плащ, твой траурный покров.
 Эй, торерро, ты будешь убит
 Под песню мадридских часов.
 
    припев:
Вверх

Тореро (7 вариант)

Am          G
Эй, тореро, жизнь как миг
F             E
Опять звучит трубы призывный зов
Эй, тореро, ты или бык?
Dm            E
Качается чаша весов 

F           E       F          E
Бог хранит тебя, cмерть щадит тебя!

Am          G
Неба белый платок,
F               E
Кровь и желтый песок
Dm
Крик отчаянья,
F            E
Бык живая мишень.

Am                G
Под восторженный вой 
F              E
Ты играешь судьбой
Dm                F
Пусть не знает никто,
                E
Что творится в душе

Am           G
Эй, тореро, сын вдовы
        F                E
Твой красный плащ, твой траурный покров
Am                G
Эй, тореро, ты будешь убит
     Dm                E
Под песню мадридских часов
Вверх

Тысяча сто

А                   G
Не дотянем мы до полночи
F#                     G
Нас накрыл зенитный шквал
Смысла нет взывать о помощи
Жжет руки штурвал

Режет небо луч прожектора
Рядом - "черные кресты"
Обгораем в этом пекле мы
А штурман просит высоты...

                А       А#   А      А#  А       А#
Припев:         Тысяча сто, тысяча сто, тысяча сто
                F#       G  F# G     F#
                Смерть в лицо нам дышит
                Тысяча сто, тысяча сто, тысяча сто!


Наш стрелок был сущим дьяволом
Он не думал умирать
"черный крест" заходит справа нам
Но некому стрелять!

Толи пламя, толи ненависть
Ослепляет тех, кто жив
Нам в такой конец не верилось
А штурман твердит как мотив...

Припев

На земле - стальное крошево
Здесь вершится правый суд
Чтобы все оставить прошлому
Нам хватит двух минут

Мы летим к земле как молния
Поминая всех святых
Жаль, что в будущем безмолвии
Нет этой высоты...

Припев
Вверх

Ужас и страх

D#m  F#    G#m B
Я уйду под утро,
D#m   F#          G#m B
Но уйду не на совсем.
D#m       F#     G#m H
След от слез припудри,
G#m                        B
Отдохни в обьятьях белых стен.

Я качал тебя еще в колыбели,
Ты ангел, ты ангел во плоти.
Годы в даль летели, но
Спутника вернее не найти.

          G#m     B        D#m
   Я с тобой на яву и во снах,
          G#m     B        D#m
   Я в твоих отражаюсь глазах.
          G#m    B       D#m     H
   Я сильнее любви и хитрее судьбы,
        G#m          B        H
   Поцелуй мой, как лед на губах,
   G#m    B         D#m
   Я твой ужас и страх.

Я твоей душою владею,
Тело мне подчинено.
Мне не надоело пить
За тебя тягучее вино.

Ты боишься даже собственной тени,
Боже мой, боже мой, боже мой - это экстаз.
Жаль, что смерть изменит всё,
Разлучив с тобой коварно нас.

   Я с тобой на яву и во снах,
   Я в твоих отражаюсь глазах.
   Я сильнее любви и хитрее судьбы,
   Поцелуй мой, как лед на губах,
   Я твой ужас и страх.
Вверх

Улица роз mp3

Вступление:

1|------------------|------------------|
2|------------------|------------------|
3|--7-----7-----7---|--7-----7-----7---| 4 раза
4|--7-----7-----7---|--8-----8-----8---|
5|----5-5---5-5---5-|----5-5---5-5---5-|
6|------------------|------------------|

Куплет:

1|---------------|---------------|---------------|--------------
2|---------------|---------------|---------------|--------------
3|7-----7-----7--|7-----7-----7--|
4|7-----7-----7--|8-----8-----8--| 2 раза
5|--5-5---5-5---5|--5-5---5-5---5|
6|---------------|---------------|
      Dm               Bbmaj7             Dm             Bbmaj7
     Жанна     из     тех           королев,

1|---------------|---------------|---------------|--------------
2|---------------|---------------|---------------|--------------
3|7-----7-----7--|7-----7-----7--|9-----9-----9--|--------------
4|7-----7-----7--|8-----8-----8--|9-----9-----9--|--------------
5|--5-5---5-5---5|--5-5---5-5---5|--7-7---7-7---7|7-7-7-7-7-7-7-
6|---------------|---------------|---------------|5-5-5-5-5-5-5-
    Dm                Bbmaj7              Em7             А7/C#
   Что     любят     роскошь      и     ночь.

1|------------------|------------------|
2|------------------|------------------|
3|--7-----7-----7---|--7-----7-----7---| 2 раза
4|--7-----7-----7---|--8-----8-----8---|
5|----5-5---5-5---5-|----5-5---5-5---5-|
6|------------------|------------------|
     Dm               Bbmaj7             Dm              Bbmaj7
    Только         царить      на    земле

1|---------------|---------------|---------------|--------------
2|---------------|---------------|---------------|--------------
3|7-----7-----7--|7-----7-----7--|9-----9-----9--|--------------
4|7-----7-----7--|8-----8-----8--|9-----9-----9--|--------------
5|--5-5---5-5---5|--5-5---5-5---5|--7-7---7-7---7|7-7-7-7-7-7-7-
6|---------------|---------------|---------------|5-5-5-5-5-5-5-
    Dm             Bbmaj7              Em7                А7/C#
   Ей    долго    не            суждено.

1|---------------|----------------------|-----------------------
2|---------------|----------------------|-----------------------
3|---------------|----------------------|-----------------------
4|---------------|----------------------|-9-9-9-------7-7-7-----
5|-8-8-8-8-8-8-8-|-10-10-10-10-10-10-10-|-7-7-7-7-7-7-5-5-5-----
6|-6-6-6-6-6-6-6-|-8--8--8--8--8--8--8--|-------5-5-5-----------
   Bb              C                       F     C/E  Dm
  Ну,       а по-ка,             как бо--гиню, на ру-ках

E|---------------------------------|---------------------------|
B|---------------------------------|---------------------------|
G|---------------------------------|---------------------------|
D|7-7-7----------------------------|---------------------------|
A|5-5-5-5-5-5-5-5-5-5-5-5-5-5-5-5-5|7-7-7-7-7-7-7-7-7-7-7-7-7-7|
E|------3-3-3-3-3-3-3-3-3-3-3-3-3-3|5-5-5-5-5-5-5-5-5-5-5-5-5-5|
        Gm                            А
 носят Жанну...                      Жанну...

Все началось не со зла,
Все началось как игра,
Но лестницу в небо сожгла.
Плата за стыд твой и страх.
Ты и они...
Я порвал бы эту нить,
Слышишь, Жанна...
Жанна...

Припев:

4|-3-3-3-3-3-3-3-3-3-3-3-3-3-3-|-------------------------------|
5|-1-1-1-1-1-1-1-1-1-1-1-1-1-1-|-3-3-3-3-3-3-3-3-3-3-3-3-3-3---|
6|-----------------------------|-1-1-1-1-1-1-1-1-1-1-1-1-1-1---|
   Bbmaj7                        F
  Сводит        с             ума

4|-5-5-5-5-5-5-5-5-5-5-5-5-5-5-|-7-7-7-7-7-7-7-7-7-7-7-7-7-7---|
5|-3-3-3-3-3-3-3-3-3-3-3-3-3-3-|-5-5-5-5-5-5-5-5-5-5-5-5-5-5---|
6|-----------------------------|-------------------------------|
   C                             Dm
  Улица                         роз,

4|-3-3-3-3-3-3-3-3-3-3-3-3-3-3-|-------------------------------|
5|-1-1-1-1-1-1-1-1-1-1-1-1-1-1-|-3-3-3-3-3-3-3-3-3-3-3-3-3-3---|
6|-----------------------------|-1-1-1-1-1-1-1-1-1-1-1-1-1-1---|
   Bbmaj7                        F
  Спрячь         свой        обман,

4|-5-5-5-5-5-5-5-5-5-5-5-5-5-5-|-7-7-7-7-7-7-7-7-7-7-7-7-7-7---|
5|-3-3-3-3-3-3-3-3-3-3-3-3-3-3-|-5-5-5-5-5-5-5-5-5-5-5-5-5-5---|
6|-----------------------------|-------------------------------|
   C                             Dm
  Улица                         слез.

4|-----------------------------|-------------------------------|
5|-8-8-8-8-8-8-8-8-8-8-8-8-8-8-|-7-7-7-7-7-7-7-7-7-7-7-7-7-7---|
6|-6-6-6-6-6-6-6-6-6-6-6-6-6-6-|-5-5-5-5-5-5-5-5-5-5-5-5-5-5---|
       Bb                         А
Я  люблю                  и ненавижу

4|-3-3-3-3-3-3-5-5-5-5-5-3-3-3-3-3-2-2-2-2-|
5|-1-1-1-1-1-1-3-3-3-3-3-1-1-1-1-1-0-0-0-0-|
6|-----------------------------------------|
    Bb          C         Bb        А7
тебя!                    О...

Грязь под ногами бродяг
Чище, чем фальшь сладких слов.
Я подаю тебе знак
Бросить свое ремесло:
Брось и уйди,
Пусть растает, словно дым,
Облик Жанны...
Жанны...

Припев.

У королевы нет сил,
Трудно пойти вновь на риск,
И она разбивает часы,
Чтобы продлить себе жизнь.
Жить! Ведь пока,
Как богиню на руках,
Носят Жанну...
Жанну...

Припев.
Вверх

Улица роз (2 вариант) mp3

Em C EmC Em C F# H(H7)
Жанна из тех королев, что любят роскошь и ночь.
Только царить на земле ей долго не суждено.
G(III) A(V) H(VII) G(III) C H(VII)
Ну, а пока, как богиню на руках носят Жанну, Жанну.

Все началось не со зла, все началось как игра, но
Лестницу в небо сожгла - плата за стыд твой и страх
Ты и они, я порвал бы эту нить. Слышишь, Жанна, Жанна.

Припев:
H(VII) A(V) G(III) A G F# Em
Сво......дит с ума у..лица роз.
H A G A G F# Em
Спрячь свой обман, улица слез.
C H C H C H
Я люблю и ненавижу тебя!

Грязь под ногами бродяг чище чем фальшь сладких снов.
Я подаю тебе знак бросить свое ремесло.
Брось и уйди, пусть растает словно дым облик Жанны, Жанны.

Припев

У королевы нет сил. Трудно пойти вновь на риск
И она разбивает часы, чтобы продлить себе жизнь.
Жить, ведь пока, как богиню на руках носят Жанну, Жанну.

Припев
Вверх

Улица роз (3 вариант) mp3

Cm
Жанна из тех королев.
Cm           D        G
Что любят роскошь и ночь.
Только царить на земле.
Ей долго не суждено.
G#          A#           D#
Ну а пока, как богиню на руках
C#              G#         G
Носят Жанну, Жанну.

Все началось не со зла.
Все началось как игра.
Но. Лестницу в небо сожгла.
Плата за стыд твой и страх.
Ты и они я порвал бы эту нить.
Слышишь Жанна, Жанна.

Припев:
G#            D#    B     Cm
Сводит с ума.Улица Роз.
Спрячь свой обман. Улица слез.
G#   G     G#      G   G#   A#
Я люблю и ненавижу тебя.

Грязь под ногами бродяг.
Чище чем фальш сладких снов.
Я подаю тебе знак.
Бросить свое ремесло.
Брось и уйди, пусть расстает словно дым
Облик Жанны, Жанны.

Припев.

У королевы нет сил.
Трудно пойти вновь на риск.И
Она разбивает часы.
Чтобы продлить себе жизнь.
Жить ведь пока как богиню на руках.
Носят Жанну, Жанну.

Припев.
Вверх

Улица роз (4 вариант) mp3

Dm        Bb     Dm Bb Dm        Bb       E7   C#/A7
Жанна из тех королев, что любят роскошь и ночь.
Dm        Bb      Dm Bb Dm       Bb      E7  C#/A7
Только царить на земле ей долго не суждено.
Bb      C       F     E    Am        F      E
Ну а пока, как богиню на руках носят Жанну, Жанну.

Все началось не со зла, все началось как игра, но
Лестницу в небо сожгла - плата за стыд твой, и страх
Ты и они, я порвал бы эту нить! Слышишь, Жанна, Жанна.

	Bb        F    C    Dm
	Сводит с ума улица роз.
	Bb           F     C     Dm
	Спрячь свой обман, улица слез.
	Bb          A      Bb C Bb A7
	Я люблю и ненавижу тебя!

Грязь под ногами бродяг чище чем фальш сладких снов.
Я подаю тебе знак бросить свое ремесло.
Брось и уйди, пусть растает словно дым облик Жанны, Жанны.

	Сводит с ума улица роз.
	Спрячь свой обман, улица слез.
	Я люблю и ненавижу тебя!

У королевы нет сил. Трудно пойти вновь на риск
И она разбивает часы, чтобы продлить себе жизнь.
Жить, ведь пока, как богиню на руках носят Жанну, Жанну.

	Сводит с ума улица роз.
	Спрячь свой обман, улица слез.
	Я люблю и ненавижу тебя!
Вверх

Уходи и не возвращайся

 E7
Ты хотела быть всех круче,
 C7
Красотой своей замучить
 B
И заставить самых лучших
 А7
Дружно платить тебе дань.
 Em
Ты решила в свет пробиться
 C
И нашла себе двух принцев,
 B
И банкира, и убийцу.
 А7
Ты просто хитрая дрянь.

Припев.

      C#m  E7        А
   Уходи, и не возвращайся,
 G#   C#m E7         А
   Уходи, и не возвращайся.
   B                    C#m
   И не возвращайся ко мне!


Ты звонишь и просишь встречи
Обязательно под вечер,
Там где музыка и свечи.
Думаешь, я идиот?
Вон из сердца, дочь вампира,
Я дарю тебе полмира
Лишь бы ты меня забыла
И не дала задний ход!

Припев.

 C#m         C
Не надейся, что сыграем
  E/B      F#7/Bb
В старую любовь
 А7
Бай-бай, детка
 B7                      E
В мире много старых козлов!

Припев.
Вверх

Уходи, и не возвращайся mp3

 Уходи и не возвращайся.
                C#m  B A G#
 И не возвращайся ко мне!
 
 E7
 Ты хотела быть всех круче
 Cmaj7
 Красотой своей замучить
 B
 И заставить самых лучших
 A7
 Дружно платить тебе дань
 Em
 Ты решила в свет пробиться
 Cmaj7
 И нашла себе двух принцев
 B
 И банкира, и убийцу
 A7
 Ты просто хитрая дрянь
 
 Припев:
        C#m E7     A
      Уходи, и не возвращайся
      G# C#m E7    A
      Уходи, и не возвращайся
      Baug           C#m
      И не возвращайся ко мне!
 
 Ты звонишь и просишь встречи
 Обязательно под вечер
 Там где музыка и свечи
 Думаешь я идиот?
 Вон из сердца, дочь вампира
 Я дарю тебе полмира
 Лишь бы ты меня забыла
 И не дала задний ход!
 
 Припев.
 
 C#m      Caug
 Hе надейся, что сыграем
  E/B     F#7/Bb
 В старую любовь
 A7
 Бай-бай, детка
 B7             E
 В мире много старых козлов!
 
 Припев.
Вверх

Химера

 D#m           H
Ты дитя окраин и горячих зон,
 F#  F          D#m
Сын мертвой природы.
 D#m                  H
Ты игрок без правил, сам себе закон,
 F# F       D#m
Ты воин свободы.

    B
   Ты был никто, а теперь король
    G#                  H
   Выбитых витрин и сгоревших стен.
     B
   Скоро на таймере вспыхнет "ноль",
   G#                        H        B    H        B
   И взметнется вверх серый пепел и тлен, пепел и тлен,
      H  B  G#m B    B7
   Взрыв и вой сирен!

       D#m             E
      Ты уходишь от погонь
         D#m                   E
      Сквозь кордоны, сквозь огонь.
        H              D#m
      Свет в глаза, рычаг в ладонь,
          G#m    Bm     D#m
      Но цель твоя - химера.

Знаки новой эры - Вера и Террор,
Смесь дьявольской силы.
Ты быстрей пантеры, и как змея хитер:
Весь мир у края могилы.

   Дешево стоит чужая боль.
   Ночью героин, утром гексоген.
   Скоро на таймере вспыхнет "ноль",
   И покроет все серый пепел и тлен, пепел и тлен,
   Взрыв и вой сирен!

      Ты уходишь от погонь
      Сквозь кордоны, сквозь огонь.
      Свет в глаза, рычаг в ладонь,
      Но цель твоя - химера
Вверх

Химера (2 вариант)

Em                          C   
Ты дитя окраин и горячих зон
Am    D           Em
Сын мертвой природы 
Ты игрок без правил, сам себе закон 
Ты воин свободы

H
Ты был никто, а теперь король 
Am                  C  
Выбитых витрин и сгоревших стен 
H
Скоро на таймере вспыхнет "ноль"
Am                       C      H
И взметнется вверх серый пепел и тлен...
Am      C      H 
Взрыв и вой сирен!


Em               B
Ты уходишь от погонь
Em                      B      
Сквозь кордоны, сквозь огонь
Am               C            
Свет в глаза, рычаг в ладонь
   Am      D     Em  
Но цель твоя - химера

Знаки новой эры - Вера и Террор-
Смесь дьявольской силы
Ты быстрей пантеры, и как змея хитер:
Весь мир у края могилы

Дешево стоит чужая боль
Ночью героин, утром гексоген
Скоро на таймере вспыхнет "ноль"
И покроет все серый пепел и тлен... 
Взрыв и вой сирен!
Вверх

Что вы сделали с вашей мечтой?

E|---------------|---------------|---------------------------|
B|-----8--7--3-5-|-----2-3--5----|--------8--7--10--3Н5--5---|
G|---------------|------------2--|---------------------------|
D|---9-----------|---9-----------|-----9---------------------|
A|-7-------------|-7-------------|--7------------------------|
E|---------------|---------------|---------------------------|

E|-------------|-------------------|------------------7~~~---|
B|-----8-7-3-5-|-------2--3--5-----|--------8--7--10---------|
G|-------------|----------------2--|-------------------------|
D|---9---------|----9--------------|-----9-------------------|
A|-7-----------|-7-----------------|--7----------------------|
E|-------------|-------------------|-------------------------|

E||--0------------|--2------------|--0--------------------0--|
B||--0------------|--2------------|--1--------------------0--|
G||--0------------|--2------------|--2--------------------0--|
D||--2------------|--4------------|--2--------------------2--|
A||--2------------|--4------------|--0--------------------2--|
E||--0------------|--2------------|--0--------------------0--|

E|-7--5------------7--5------------7--5---------7Н5----------|
B|-------5--5-8-5--------5--5-8-5--------5-8-5------5--5-8-5-|
G|-----------------------------------------------------------|
D|-----------------------------------------------------------|
A|-----------------------------------------------------------|
E|-----------------------------------------------------------|

E||--7--5------------7--5------------7--5---------7Н5-5-5~~--|
B||--------5--5-8-5--------5--5-8-5--------5-8-5-------------|
G||----------------------------------------------------------|
D||----------------------------------------------------------|
A||----------------------------------------------------------|
E||----------------------------------------------------------|

 Em                    Am
Ты слишком долго блуждал в темноте
                            Em
И ты думал, что ночь - это день.
                  Am
Ты видел сотни поруганных тел,
                          Am
Но предать их земле было лень.
 Em
Ты не предатель, ты просто глупец
     Am              Em
И таких миллионы кругом.
                        Am
Бедный Христос свой сорвал бы венец,
                        Am
Угадай он, что будет потом...
 F#m   D
...ответь,
 F#m                 D
Что вам мешало прозреть?
  C                    D
Что же случилось с мечтой -
  C                      D
Сделать для всех рай земной?

Сбросило ветром повязку с лица
И в глаза свет ударил бичом.
Оказалось, маньяк заменял вам отца,
А народ был послушным скотом.
Все изменилось в прозревших глазах,
Кто был крысой - стал тигром и львом.
Ты не предатель, ты жил в дураках
И таких миллионы кругом...
...ответь
Что вам мешало прозреть?
Что же случилось с мечтой -
Сделать для всех рай земной?

     Em
Оглянись назад,
        C
Там застыл закат,
        G                 D
Черно-красной застыл полосой.
     Em
Впереди - туман,
     C
Позади - обман,
         G                 D
Что вы сделали с вашей мечтой?
Вверх

Что вы сделали с нашей мечтой

   Em                    Am
Ты слишком долго блyждал в темноте
                            Em
И ты дyмал, что ночь - это день.
                  Am
Ты видел сотни поpyганных тел,
                          Am
Hо пpедать их земле было лень.
Em
Ты не пpедатель, ты пpосто глyпец
     Am              Em
И таких миллионы кpyгом.
                        Am
Бедный Хpистос свой соpвал бы венец,
                        Am
Угадай он, что бyдет потом...
F#m   D
...ответь,
F#m                 D
Что вам мешало пpозpеть?
  C                    D
Что же слyчилось с мечтой -
  C                      D
Сделать для всех pай земной?

Сбpосило ветpом повязкy с лица
И в глаза свет yдаpил бичом.
Оказалось, маньяк заменял вам отца,
А наpод был послyшным скотом.
Все изменилось в пpозpевших глазах,
Кто был кpысой - стал тигpом и львом.
Ты не пpедатель, ты жил в дypаках
И таких миллионы кpyгом...
...ответь
Что вам мешало пpозpеть?
Что же слyчилось с мечтой -
Сделать для всех pай земной?

     Em
Оглянись назад,
        C
Там застыл закат,
        G                 D
Чеpно-кpасной застыл полосой.
     Em
Впеpеди - тyман,
     C
Позади - обман,
         G                 D
Что вы сделали с вашей мечтой?
Вверх

Штиль

   Em             D   Dsus2 D
Штиль. Ветер молчит.
  Am                    Em
Упал белой чайкой на дно
  Em                  D   Dsus2 D
Штиль. Наш корабль забыт
  Am                  Em
Один верескованным сном
         C               D
Между всех времен без имен и лиц
     C                   D    Н
Мы уже не ждем, что проснется бриз
Штиль. Сходим с ума.
Жара пахнет черной смолой
Смерть одному лишь нужна
И мы, мы вернемся домой
      C                    D
Его плоть и кровь вновь насытит нас
      C                D       Н
А за сметрь ему может Бог воздаст

Припев:

   Em                  C      Н
Что нас ждет? Море хранит молчание
  Em                   C      Н
Жажда жить сушит сердца до дна
 Em                    C      Н
Только жизнь здесь ничего не стоит
 Em                    C   Н
Жизнь других, но не твоя

Нет, гром не грянул с небес,
Когда пили кровь как зверье
Но, нестерпимым стал блеск
В местах, что мы южным зовем

И в последний миг поднялась волна
И раздался крик: "впереди земля!"
Вверх

Штиль (2 вариант)

   Dm            C
Штиль. Ветер молчит.
  Fm        B          Dm
Упал белой чайкой на дно
  Dm                  C
Штиль. Наш корабль забыт
Fm            B          Dm
Один в мире скованный  сном
        B               C
Между всех времен без имен и лиц
     B                   C
Мы уже не ждем, что проснется бриз  

Штиль. Сходим с ума.
Жара пахнет черной смолой
Смерть одному лишь нужна
И мы, мы вернемся домой
     
Его плоть и кровь вновь насытит нас
A за сметрь ему может Бог воздаст


Припев:

  Dm                  B      A
Что нас ждет? Море хранит молчание
 Dm                   B      A
Жажда жить сушит сердца до дна
 Dm                     B       A
Только жизнь здесь ничего не стоит
 Dm             B      A
Жизнь других, но не твоя 

Нет, гром не грянул с небес,
Когда пили кровь как зверье
Но, нестерпимым стал блеск
В местах, что мы южным зовем

И в последний миг поднялась скала
И раздался крик: "впереди земля!" 

Припев:
Вверх

Штиль (3 вариант)

Am            G    
Штиль - ветер молчит
 E                F  
Упал белой чайкой на дно
Штиль - наш корабль забыт
Один, в мире скованном сном...

F
Между всех времен
G
Без имен и лиц
Мы уже не ждем,
Что проснется бриз!

Штиль - сходим с ума
Жара пахнет черной смолой
Смерть одного лишь нужна
И мы, мы вернемся домой!

Его кровь и плоть 
вновь насытит нас
А за смерть ему
Может, Бог воздаст!
 
Am       F          Dm      E 
Что нас ждет, море хранит молчанье
Жажда жить сушит сердца до дна
Только жизнь здесь ничего не стоит
Жизнь других, но не твоя!

Нет, гром не грянул с небес
Когда пили кровь как зверье
Но нестерпимым стал блеск
Креста, что мы Южным зовем...

И в последний миг
Поднялась волна,
И раздался крик:
"Впереди Земля!"


Вверх

Штиль (4 вариант)

C1:  310230
C2:  030230
Am1: 002200


Am               C   C1 C2
Штиль. Ветер молчит.
  Dm                   Am Am1
Упал белой чайкой на дно
  Am                  C   C1 C2
Штиль. Наш корабль забыт
  Dm                 Am
Один верескованным сном

        F               G
Между всех времен без имен и лиц
     F                   E
Мы уже не ждем, что проснется бриз

  
Штиль. Сходим с ума.
Жара пахнет черной смолой
Смерть одному лишь нужна
И мы, мы вернемся домой

      
Его плоть и кровь вновь насытит нас
A за сметрь ему может Бог воздаст

  Am                   F      E
Что нас ждет? Море хранит молчание
  Am                   F      E
Жажда жить сушит сердца до дна
 Am                    F      E
Только жизнь здесь ничего не стоит
 Am                    E
Жизнь других, но не твоя

Нет, гром не грянул с небес,
Когда пили кровь как зверье
Но, нестерпимым стал блеск
В местах, что мы южным зовем

И в последний миг поднялась волна
И раздался крик: "впереди земля!"


Вверх

Штиль (5 вариант)

RIFF.1  (ТАК ИГРАЮТСЯ ВСЕ КУПЛЕТЫ   : )) )

1---0---|----2----5--3--|-0---|-0--0-0---|-
2---0---|----3----3--3--|-1---|-0--0-0---|-
3---0---|----2----2--2--|-2---|-0--2-0---|-
4---2---|----0----0--0--|-2---|-2--2-2---|-
5---2---|---------------|-0-- |-2--2-2---|-
6---0---|---------------|-----|-0--0-0---|-

RIFF.2
1--0----|----0---0---0-|------0--|----2---|-
2--1----|----3---5---3-|------1--|--- 3---|-
3--0----|----0---0---0-|------0--|----4---|-
4--2----|----4---4---4-|------2--|----4---|-
5--3----|----5---5---5-|------3--|----2---|-
6-------|--------------|---------|----2---|-

RIFF 1a

1---- -----------------------------------------
2----------------------------------------------
3----5----------5-5--5---7----------------7-9-
4----5----------5-5--5---7----------------7-9-
5----3----------3-3--3---5----------------5-7-
6----------------------------------------------
     Его плоть и кровь вновь насытят нас
1----------------------------------------------
2----------------------------------------------
3----5----------5-5--5------4------------------
4----5----------5-5--5------4------------------
5----3----------3-3--3------2------------------   
 А за смерть ему может Бог воздаст.  

4 -----------------79-------911--------1112-------   
5 -----------------57-------79----------910------
6 -0-2-3p  0------------00-0------00-0----------00-0--
                   Что        нас          ждёт
1--------------------------------------------
2--------------------------------------------
3--------------------------------------------
4----9--------11-------12-----10-----9-------          
5----7---------9--------10---------9------9--
6--------------------------------------------     
   Мо__ре       хра__нит      молчанье    

4 ---79---------911------1112------
5 ---57---------79--------910------
6---------00-0-------00-0--------00-0-
       Жа_____да              жить

4------9--------11-------12-------10---9----------
5------7---------9-------10----------9------------
6-----------------------------------------0-2-3p0-
          Су___шит         сер___дца  до  дна

Вверх

Это рок

   Gm                         Am
В небе над нами яркое жало луча.
 Gm                              Am
Мечется пламя, страшен удар палача.
  F                                  Am
Словно бумажный твой дом полыхает огнем.
 F                                          E
Ночь на часах, но вокруг все светло будто днем, днем.

     A         D   A          Hm
   Грозный пророк вычислить смог
          D                   Dm                  A
   Мы считали, что он нас смешит, как паяц в шапито.
   Этот урок слишком жесток
   И никто не ответит теперь, почему и за что.

Черные волны вспять повернула вода,
Слышатся стоны, крики "На помощь! Сюда!",
Рушатся стены и плавится камень как воск,
Грудой ненужных молекул становится мозг, мозг.

   Грозный пророк вычислить смог
   Мы считали, что он нас смешит, как паяц в шапито.
   Этот урок слишком жесток
   И никто не ответит теперь, почему и за что.

Хватит храбриться, участь у всех нас одна.
Самоубийство это уже не война,
Не Ватерлоо и даже не Армагеддон,
Нет и не будет вовек победивших сторон.

   Грозный пророк вычислить смог
   Мы считали, что он нас смешит, как паяц в шапито.
   Этот урок слишком жесток
   И никто не ответит теперь, почему и за что.
Вверх

Это Рок (2 вариант)

Это рок
INTRO:
(0:18 - 0:34)
RIFF 1 (play 4 times)
Gtr.1G||---------------------------------|---------------------------------||
     D||-----7-----5-----3-----2---------|-----7-----5-----3-----2---------||
     A||-0-0---0-0---0-0---0-0---0-0-3-2-|-0-0---0-0---0-0---0-0---0-0-3-2-||
     E||---------------------------------|---------------------------------||
      ||                                 |                                 ||
Gtr.2E||-A5------------------------------|-----------------F5------E5------||
     H||---------------------------------|---------------------------------||
     G||---------------------------------|---------------------------------||
     D||-7-------------------------------|-----------------3-------2-------||
     A||-7-------------------------------|-----------------3-------2-------||
     E||-5-------------------------------|-----------------1-------0-------||
(0:35 - 1:08)
VERSE 1:
VoiceE|---------------------------------|---------------------------------|
     H|---------------------------------|---------------------------------|
     G|---------------------------------|---------------------------------|
     D|----5-5----------8-5-------------|-5--5------------8-5-------------|
     A|------------8--------------------|---------8------------------7----|
     E|-V nebe    nad  nami              yarko - ye     zhalo       lu - -|
      |                                 |                                 |
Gtr.1G|---------------------------------|---------------------------------|
     D|---------------------------------|---------------------------------|
     A|---------------------------------|---------------------------------|
     E|-3-3-3-3-3-3-3-3-3-3-3-3-3-3-3-3-|-3-3-3-3-3-3-3-3-3-3-3-3-3-3-3-3-|
 
VoiceE|---------------------------------|---------------------------------|
     H|---------------------------------|---------------------------------|
     G|---------------------------------|---------------------------------|
     D|---7-----------------------------|---------------------------------|
     A|---------------------------------|---------------------------------|
     E|- cha.    -----------------------|---------------------------------|
      |                                 |                                 |
Gtr.1G|---------------------------------|---------------------------------|
     D|-----7-----5-----3-----2---------|-----7-----5-----3-----2---------|
     A|-0-0---0-0---0-0---0-0---0-0-3-2-|-0-0---0-0---0-0---0-0---0-0-3-2-|
     E|---------------------------------|---------------------------------|
      |                                 |                                 |
Gtr.2E|-A5------------------------------|-----------------F5------E5------|
     H|---------------------------------|---------------------------------|
     G|---------------------------------|---------------------------------|
     D|-7-------------------------------|-----------------3-------2-------|
     A|-7-------------------------------|-----------------3-------2-------|
     E|-5-------------------------------|-----------------1-------0-------|
 
VoiceE|---------------------------------|---------------------------------|
     H|---------------------------------|---------------------------------|
     G|---------------------------------|---------------------------------|
     D|--5-----5----------8-5-----------|-5-----5-----------8-----5-------|
     A|------------8--------------------|--------------8---------------7--|
     E|-Me - chetsya    plamya,        stra - shen     u - dar   pa - la- |
      |                                 |                                 |
Gtr.1G|---------------------------------|---------------------------------|
     D|---------------------------------|---------------------------------|
     A|---------------------------------|---------------------------------|
     E|-3-3-3-3-3-3-3-3-3-3-3-3-3-3-3-3-|-3-3-3-3-3-3-3-3-3-3-3-3-3-3-3-3-|
 
VoiceE|---------------------------------|---------------------------------|
     H|---------------------------------|---------------------------------|
     G|---------------------------------|---------------------------------|
     D|---7-----------------------------|---------------------------------|
     A|---------------------------------|---------------------------------|
     E|- cha.    -----------------------|---------------------------------|
      |                                 |                                 |
Gtr.1G|---------------------------------|---------------------------------|
     D|-----7-----5-----3-----2---------|-----7-----5-----3-----2---------|
     A|-0-0---0-0---0-0---0-0---0-0-3-2-|-0-0---0-0---0-0---0-0---0-0-3-2-|
     E|---------------------------------|---------------------------------|
      |                                 |                                 |
Gtr.2E|-A5------------------------------|-----------------F5------E5------|
     H|---------------------------------|---------------------------------|
     G|---------------------------------|---------------------------------|
     D|-7-------------------------------|-----------------3-------2-------|
     A|-7-------------------------------|-----------------3-------2-------|
     E|-5-------------------------------|-----------------1-------0-------|
 
VoiceE|---------------------------------|---------------------------------|
     H|---------------------------------|---------------------------------|
     G|---------------------------------|---------------------------------|
     D|---------------------------------|-7-----5---------7----5----------|
     A|--8------7-----5-8------7------5-|------------8--------------8-----|
     E|-Slov - no    bumazh - nyy,  tvoy dom   po - ly - ha - yet   og - -|
      |                                 |                                 |
Gtr.1G|---------------------------------|---------------------------------|
     D|---------------------------------|---------------------------------|
     A|---------------------------------|---------------------------------|
     E|-1-1-1-1-1-1-1-1-1-1-1-1-1-1-1-1-|-1-1-1-1-1-1-1-1-1-1-1-1-1-1-1-1-|
 
VoiceE|---------------------------------|---------------------------------|
     H|---------------------------------|---------------------------------|
     G|---------------------------------|---------------------------------|
     D|---7-----------------------------|---------------------------------|
     A|---------------------------------|---------------------------------|
     E|- nyom.   -----------------------|---------------------------------|
      |                                 |                                 |
Gtr.1G|---------------------------------|---------------------------------|
     D|-----7-----5-----3-----2---------|-----7-----5-----3-----2---------|
     A|-0-0---0-0---0-0---0-0---0-0-3-2-|-0-0---0-0---0-0---0-0---0-0-3-2-|
     E|---------------------------------|---------------------------------|
      |                                 |                                 |
Gtr.2E|-A5------------------------------|-----------------F5------E5------|
     H|---------------------------------|---------------------------------|
     G|---------------------------------|---------------------------------|
     D|-7-------------------------------|-----------------3-------2-------|
     A|-7-------------------------------|-----------------3-------2-------|
     E|-5-------------------------------|-----------------1-------0-------|
 
VoiceE|---------------------------------|---------------------------------|
     H|---------------------------------|---------------------------------|
     G|---------------------------------|---------------------------------|
     D|---------------------------------|-7-----5----------7-----5--------|
     A|--8------7-----5-8------7----5---|------------8-----------------8--|
     E|-Noch'  na   chasah,   no   vok - rug  vsyo svet - lo    bud - to  |
      |                                 |                                 |
Gtr.1G|---------------------------------|---------------------------------|
     D|---------------------------------|---------------------------------|
     A|---------------------------------|---------------------------------|
     E|-1-1-1-1-1-1-1-1-1-1-1-1-1-1-1-1-|-1-1-1-1-1-1-1-1-1-1-1-1-1-1-1-1-|
 
VoiceE|---------------------------------|---------------------------------|
     H|---------------------------------|---------------------------------|
     G|---------------------------------|---------------------------------|
     D|---------------------------------|--9------------------------------|
     A|---7-----------------------------|---------------------------------|
     E|- dnyom.                          Dnyom !   -----------------------|
      |                                 |                                 |
Gtr.2E|-E5------------------------------|---------------------------------|
     H|---------------------------------|---------------------------------|
     G|---------------------------------|---------------------------------|
     D|-2-------2-------2---------------|-2-------2-------2---------------|
     A|-2-------2-------2---------------|-2-------2-------2---------------|
     E|-0-------0-------0---------------|-0-------0-------0---------------|
(1:08 - 1:42)
CHORUS:
VoiceE|---------------------------------|---------------------------------|
     H|---------------------------------|---------------------------------|
     G|---------------------------------|---------------------------------|
     D|---------------------------------|--4------------------------------|
     A|---7---------4---------------0---|---------------------------------|
     E|- Groz   -  nyy            pro  -  rok      -----------------------|
      |                                 |                                 |
Gtr.1E|-0-----0-----0---0-----0-----0---|---------------------------------|
     H|---2-----2-----2---2-----2-----2-|---------------------------------|
     G|-----2-----2---------2-----2-----|-2-----2-----2---2-----2-----2---|
     D|---------------------------------|---4-----4-----4---4-----4-----4-|
     A|---------------------------------|-----5-----5---------5-----5-----|
     E|---------------------------------|---------------------------------|
 
VoiceE|---------------------------------|---------------------------------|
     H|---------------------------------|---------------------------------|
     G|---------------------------------|---------------------------------|
     D|---------------------------------|---------------------------------|
     A|---7---------4-------0-----------|--2-------------------2-----4----|
     E|- vy   -   chis  -  lit'          smog .               My  schi -  |
      |                                 |                                 |
Gtr.1E|-0-----0-----0---0-----0-----0---|-2-----2-----2---2-----2-----2---|
     H|---2-----2-----2---2-----2-----2-|---3-----3-----3---3-----3-----3-|
     G|-----2-----2---------2-----2-----|-----4-----4---------4-----4-----|
     D|---------------------------------|---------------------------------|
     A|---------------------------------|---------------------------------|
     E|---------------------------------|---------------------------------|
 
VoiceE|---------------------------------|---------------------------------|
     H|---------------------------------|---------------------------------|
     G|---------------------------------|---------------------------------|
     D|---------------------------------|---------------------------------|
     A|---5-5-------5---5------5------7-|--8-------8----8-8-------7----5--|
     E|- tali,   chto   on    nas   sme - shit,   kak  payatz   Sha - pi- |
      |                                 |                                 |
Gtr.2E|-D5--------------------------E5--|-F5------------------------------|
     H|---------------------------------|---------------------------------|
     G|---------------------------------|---------------------------------|
     D|-----------------------------2---|-3-------------------------------|
     A|--5--------------------------2---|-3-------------------------------|
     E|--5--------------------------0---|-1-------------------------------|
 
VoiceE|---------------------------------|---------------------------------|
     H|---------------------------------|---------------------------------|
     G|---------------------------------|---------------------------------|
     D|---------------------------------|---------------------------------|
     A|---7-----------------------------|---------------------------------|
     E|- to.   -------------------------|---------------------------------|
      |                                 |                                 |
Gtr.2E|-E5------------------------------|---------------------------------|
     H|---------------------------------|---------------------------------|
     G|---------------------------------|---------------------------------|
     D|-2-------2-------2---------------|-2-------2-------2---------------|
     A|-2-------2-------2---------------|-2-------2-------2---------------|
     E|-0-------0-------0---------------|-0-------0-------0---------------|
(1:42 - 2:16) VERSE 2
(2:16 - 2:49) CHORUS
(2:50 - 2:58) Repeat RIFF 1 ( 2 times )
(2:58 - 3:48)
SOLO:
E|---------------------------------|-10p9p7-------10p9p7-------10p9p7-------10p9p7-------|
H|-10b12~~~~-------10b12~~~~-------|-------10p9p7-------10p9p7-------10p9p7-------10p9p7-|
G|---------------------------------|---------------------------------|
D|---------------------------------|---------------------------------|
A|---------------------------------|---------------------------------|
E|---------------------------------|---------------------------------|
E|---------------------------------|---------------------------------|
H|---------------------------------|---------------------------------|
G|-9---------------9---------------|---7-----7-----7-----------------|
D|---------------------------------|-9-7---9-7---9-7-----------------|
A|---------------------------------|---------------------------------|
E|---------------------------------|---------------------------------|
E|-10p7-10p7-10p7-10p7-10p7-10p7-10p7-10p7-10p7-10p7-9p6-9p6-8p5-8p5-7p4-7p4-6p3-6p3--- ... --------|
H|---------------------------------|---------------------------------|
G|---------------------------------|---------------------------------|
D|---------------------------------|---------------------------------|
A|---------------------------------|---------------------------------|
E|---------------------------------|---------------------------------|
E|---...---------------------------|-...-----------------------------|
H|---------------------------------|---------------------------------|
G|---------------------------------|---------------------------------|
D|---------------------------------|---------------------------------|
A|---------------------------------|---------------------------------|
E|---------------------------------|---------------------------------|
E|---------------------------------|-------------------------12------|
H|---------------------------------|---------10------12--------------|
G|------------------9------11------|-12------------------------------|
D|--10------12---------------------|---------------------------------|
A|---------------------------------|---------------------------------|
E|---------------------------------|---------------------------------|
E|-11----------------------12------|-11------------------------------|
H|---------------------------------|---------------------------------|
G|---------------------------------|---------------------------------|
D|---------------------------------|---------------------------------|
A|---------------------------------|---------------------------------|
E|---------------------------------|---------------------------------|
E|---------------------------------|-------------------------12------|
H|---------------------------------|---------10------12--------------|
G|------------------9------11------|-12------------------------------|
D|--10------12---------------------|---------------------------------|
A|---------------------------------|---------------------------------|
E|---------------------------------|---------------------------------|
E|-11----------------------12------|-11------------------------------|
H|---------------------------------|---------------------------------|
G|---------------------------------|---------------------------------|
D|---------------------------------|---------------------------------|
A|---------------------------------|---------------------------------|
E|---------------------------------|---------------------------------|
The key changes at this point.
Play the following Verse 3 and Chorus the whole tone higher than before.
(3:48 - 4:22) VERSE 3
(4:22 - 5:33) CHORUS couple of times
(5:33 - 5:50) OUTRO

 
 
Вверх

Я не сошел с ума

 Em                    C
Дай мне жить, так, как я хочу.
      Am           C        D
Если нет - убей, мне здесь тесно.
  Em           C
Знаю я - я всего лишь гость,
      Am         C      H7
На твоей Земле мне нет места.

     Am          Am/F       Am/F#       F
   Здесь бродят тени, ими движет запах денег,
    Am            Am/F       Am/F#   F
   Боль других и холод греют им сердца.
     Am             Am/F         Am/F#          F
   Связь времен распалась, и Злодей, и Светлый Гений,
    C                  Em     C                 H
   Тесно сплелись в объятьях, их различить нельзя.

      Em             C                  C#m
      Я не сошел с ума, мир так стар и мал,
                 A        H       C
      Что его делить нет больше смысла.
       Em               C                  С#m
      Нет, ты возьми себе, всё, что на Земле,
                      A     H      C
      Мне оставь простор небесной выси!

Лучше быть одному всю жизнь,
Чем найти свой дом, и жить в нем, с кем попало!
Ты молчишь - ты не против лжи,
Если в ней есть звон, звон металла.

   Здесь бродят тени, ими движет запах денег,
   Боль других и холод греют им сердца.
   Связь времен распалась, и Злодей, и Светлый Гений,
   Тесно сплелись в объятьях, их различить нельзя.

      Я не сошел с ума, мир так стар и мал,
      Что его делить нет больше смысла.
      Нет, ты возьми себе, всё, что на Земле,
      Мне оставь простор небесной выси!
Вверх

Я не сошел с ума (2 вариант)

INTRO:
РИФФ 1:
Здесь виола аранжирована под гитару
Виола E|--Cm#--------------------------------------------|--A----------------------------------------------|
      H|-----------------9-------------------------------|-----------------9-------------------------------|
      G|-6-------------------9---8-----------9-----------|-6-------------------9---8-----------9-----------|
      D|-------------------------------------------------|-------------------------------------------------|
      A|-------------------------------------------------|-------------------------------------------------|
      E|-------------------------------------------------|-------------------------------------------------|

Виола E|--Bbm--------------------------------------------|-Fm#---------Gm#---------A-----------------------|
      H|-----------------6-------------------------------|-------------------------------------------------|
      G|-8---6---------------6---5-----------6-----------|-8-------6---8-------6---8-------6---------------|
      D|-------------------------------------------------|-------------------------------------------------|
      A|-------------------------------------------------|-------------------------------------------------|
      E|-------------------------------------------------|-------------------------------------------------|

Виола E|--Cm#--------------------------------------------|--A----------------------------------------------|
      H|-----------------9-------------------------------|-----------------9-------------------------------|
      G|-6-------------------9---8-----------9-----------|-6-------------------9---8-----------9-----------|
      D|-------------------------------------------------|-------------------------------------------------|
      A|-------------------------------------------------|-------------------------------------------------|
      E|-------------------------------------------------|-------------------------------------------------|

Виола E|--Bbm--------------------------------------------|-Fm#---------Gm#---------A-----------------------|
      H|-----------------6-------------------------------|-------------------------------------------------|
      G|-8---6---------------6---5-----------6-----------|-8-------6---8-------9---8-------6---------------|
      D|-------------------------------------------------|-------------------------------------------------|
      A|-------------------------------------------------|-------------------------------------------------|
      E|-------------------------------------------------|-------------------------------------------------|


РИФФ 2:

Гит. E|--------------------------------------------------|-------------------------------------------------|
     H|--------------------------------------------------|-------------------------------------------------|
     G|--------------------------------------------------|-------------------------4p0-3p0-2p0-2-----------|
     D|--0h2-2-2-----2-----------0h2-2-2-----2-----------|-0h2-2-2-----2-----------------------2-----------|
     A|--0h2-2-2-----2-----------0h2-2-2-----2-----------|-0h2-2-2-----2-----------------------0-----------|
     E|------------0----------0------------0----------0--|-----------0----------0--------------------------|
                   .          .            .          .              .          .
Гит. E|--------------------------------------------------|-------------------------------------------------|
     H|--------------------------------------------------|-------------------------------------------------|
     G|--------------------------------------------------|-------------------------------------------------|
     D|--0h2-2-2-----2-----------0h2-2-2-----2-----------|-0h2-2-2-----2---------------7-----5-------------|
     A|--0h2-2-2-----2-----------0h2-2-2-----2-----------|-0h2-2-2-----2-----------5/7---75---------------|
     E|------------0----------0------------0----------0--|-----------0-------------------------3~~~~~------|
                   .          .            .          .              .
Гит. E|--------------------------------------------------|-------------------------------------------------|
     H|--------------------------------------------------|-------------------------------------------------|
     G|--------------------------------------------------|-------------------------4p0-3p0-2p0-2-----------|
     D|--0h2-2-2-----2-----------0h2-2-2-----2-----------|-0h2-2-2-----2-----------------------2-----------|
     A|--0h2-2-2-----2-----------0h2-2-2-----2-----------|-0h2-2-2-----2-----------------------0-----------|
     E|------------0----------0------------0----------0--|-----------0----------0--------------------------|
                   .          .            .          .              .          .
Гит. E|--------------------------------------------------|-------------------------------------------------|
     H|--------------------------------------------------|-------------------------------------------------|
     G|--------------------------------------------------|-------------------------------------------------|
     D|--0h2-2-2-----2-----------0h2-2-2-----2-----------|-0h2-2-2-----2-----------------------------------|
     A|--0h2-2-2-----2-----------0h2-2-2-----2-----------|-0h2-2-2-----2-----------7-----------5-----------|
     E|------------0----------0------------0----------0--|-----------0----------0--5-----------3-----------|
                   .          .            .          .              .          .

 1КУПЛЕТ:

ВокалE|----------------------------------------------------------------------------------------------------|
     H|----------------------------------------------------------------3-----------------------------------|
     G|---4----------4-------4-------------------2---4-----5-------------------5-------------------2---4---|
     D|----------------------------------------------------------------------------------------------------|
     A|----------------------------------------------------------------------------------------------------|
     E|- Дай       мне     жить,                так как    я           хо  -   чу.                 Ес -ли -|
 
Бас  G|----------9-----------9---------------9-----------|---------5-----------5---------------5-----------|
     D|------9-----------9---------------9---------------|-----5-----------5---------------5---------------|
     A|--7-----------7---------------7-----------0---2---|-3-----------3---------------3-----------3---2---|
     E|--------------------------------------------------|-------------------------------------------------|
 
ВокалE|----------------------------------------------------------------------------------------------------|
     H|--------------3-------------------------------------------------------------------------------------|
     G|--5-------------------5-----------------------------4---2-------4---2-------4---2-------2-----------|
     D|----------------------------------------------------------------------------------------------------|
     A|----------------------------------------------------------------------------------------------------|
     E| нет    -     у  -   бей.                          Мне- е      зде - есь   те - ес  -  но.   -------|
      
Бас  G|----------2-----------4-----------5-----------7---|---------9---12--9-----------8---11--12--11------|
     D|------2-----------4-----------5-----------7-------|-----9---------------10--9-------------------12-|
     A|--0-----------0-----------0-----------0-----------|-0-----------------------------------------------|
     E|--------------------------------------------------|-------------------------------------------------|
 
       Зна     -     ю       я,                  я   все - го           лишь   гость.              На  тво -
Бас  G|----------9-----------9---------------9-----------|---------5-----------5---------------5-----------|
     D|------9-----------9---------------9---------------|-----5-----------5---------------5---------------|
     A|--7-----------7---------------7-----------0---2---|-3-----------3---------------3-----------3---2---|
     E|--------------------------------------------------|-------------------------------------------------|
 
ВокалE|----------------------------------------------------------------------------------------------------|
     H|--------------3-------------------------------------7-----------5-----------8-----------7-----------|
     G|--5-------------------5-----------------------------------------------------------------------------|
     D|----------------------------------------------------------------------------------------------------|
     A|----------------------------------------------------------------------------------------------------|
     E| -ей         зем  -  ле                            мне         нет         мес     -   та!    ------|
    
Бас  G|----------5-----------5-----------5-----------5---|-------------------------------------------------|
     D|------5-----------4-----------3-----------2-------|-------------------------------------7---4-3-----|
     A|--0-----------0-----------0-----------0-----------|-3---3---3-3-3-----------5---5---5-5-------------|
     E|--------------------------------------------------|-------------------------------------------------|
     
Гит.1E|--------------------------------------------------|-------------------------------------------------|
     H|--------------------------------------------------|-------------------------------------------------|
     G|--------------------------------------------------|-------------------------------------------------|
     D|--------------------------------------------------|-5-----------5-----------------------7---4-3-----|
     A|--------------------------------------------------|-3---3---3-3-3-----------5---5---5-5-5-----------|
     E|--------------------------------------------------|-------------------------------------------------|

ПРЕДПРИПЕВ:

ВокалE|----------------------------------------------------------------------------------------------------|
     H|--5----------------5--5---6-------6-------6----6----7-------7-------7---7---6-----------------------|
     G|----------------------------------------------------------------------------------5-----5-----------|
     D|----------------------------------------------------------------------------------------------------|
     A|----------------------------------------------------------------------------------------------------|
     E|  Здесь           бродят  те  -   ни,      и - ми  дви  -   жет     за -пах де  - е  - нег.    -----|
      
Гит.1E|--------------------------------------------------|-------------------------------------------------|
     H|--------------------------------------------------|-------------------------------------------------|
     G|--------------------------------------------------|-------------------------------------------------|
     D|--2---------------2-------3---------------3-------|-4---------------4-------3---------------3-------|
     A|--0---0-0-0---0---0---0---0---0-0-0---0---0---0---|-0---0-0-0---0---0---0---0---0-0-0---0---0---0---|
     E|--------------------------------------------------|-------------------------------------------------|
 
ВокалE|----------------------------------------------------------------------------------------------------|
     H|--5-------5---5-------5---6-------6-------8----6----5-----------------------------------------------|
     G|---------------------------------------------------------6-----6------------------------------------|
     D|-------------------------------------------------------------------8-------7------------------------|
     A|----------------------------------------------------------------------------------------------------|
     E| Боль   дру -гих      и  хо   -  лод    гре -  ют   и  - им   се - ерд -  ца.             ----------|
     
Гит.1E|--------------------------------------------------|-------------------------------------------------|
     H|--------------------------------------------------|-------------------------------------------------|
     G|--------------------------------------------------|-------------------------------------------------|
     D|--2---------------2-------3---------------3-------|-4---------------4-----------3-------3---5-------|
     A|--0---0-0-0---0---0---0---0---0-0-0---0---0---0---|-0---0-0-0---0---0---0-------3-------3---3-------|
     E|--------------------------------------------------|-------------------------1---1---1---1-----------|
        
 
       Связь  вре -мён     рас -па  -  лась,     и  зло - дей,        и    свет -лый ге  -  е  - ний
Гит.1E|--------------------------------------------------|-------------------------------------------------|
     H|--------------------------------------------------|-------------------------------------------------|
     G|--------------------------------------------------|-------------------------------------------------|
     D|--2---------------2-------3---------------3-------|-4---------------4-------3---------------3-------|
     A|--0---0-0-0---0---0---0---0---0-0-0---0---0---0---|-0---0-0-0---0---0---0---0---0-0-0---0---0---0---|
     E|--------------------------------------------------|-------------------------------------------------|
 
ВокалE|-------------------------------------------------------------------5--------------------------------|
     H|--5--5---5--5-----7-------7-----5------5------------8----8--8--8-------------7----------------------|
     G|----------------------------------------------------------------------------------------------------|
     D|----------------------------------------------------------------------------------------------------|
     A|----------------------------------------------------------------------------------------------------|
     E| Тесно сплелись  в объ  - я  -  а -  тьях,          их  различить  нель -   зя!                -----|
    
Гит.1E|--------------------------------------------------|-------------------------------------------------|
     H|--------------------------------------------------|-------------------------------------------------|
     G|--5---------------5-------------------------------|-----------------7-------4-----------------------|
     D|--5---------------5-------2---------------2-------|-----------------7-------4-----------------------|
     A|--3---3-3-3---3---3---3---2---------------2-------|-3---3---3---3---5-------2------------pow. slide-|
     E|--------------------------0---0-0-0---0---0---0---|----------------------------------------/x------|

ПРИПЕВ:

ВокалE|------------------7-------------------------------------------------7-------------------------------|
     H|----------------------8---7-----------8---------------------------------8---7-----------8-----------|
     G|--9-------------------------------------------------9-----------------------------------------------|
     D|----------------------------------------------------------------------------------------------------|
     A|----------------------------------------------------------------------------------------------------|
     E|  Я              не   сошёл       с   у     -      ма,             мир так стар         и      -----|
      
Гит. E|--------------------------------------------------|-------------------------------------------------|
     H|--------------------------------------------------|-------------------------------------------------|
     G|-----------------/4-------------------------------|-5--------------/4-------------------------------|
     D|--2-------------------5---4-----------5-----------|-5-------------------5---4-----------5-----------|
     A|--2-----------------------------------------------|-3-----------------------------------------------|
     E|--0-----------------------------------------------|-------------------------------------------------|
 
ВокалE|----------------------------------------------------------------------------------------------------|
     H|--7---------------9---------------------------------7-----------7-----------7-----------------------|
     G|------9---------------9---8-----------9---------------------9-----------9---------9-----------------|
     D|----------------------------------------------------------------------------------------------------|
     A|----------------------------------------------------------------------------------------------------|
     E| ма - ал,        что  е - го         де      -     лить    нет боль -  ше смыс - ла.      ----------|
      
Гит. E|--------------------------------------------------|-------------------------------------------------|
     H|--------------------------------------------------|-------------------------------------------------|
     G|--6-----------------------------------------------|-------------------------------------------------|
     D|--6--------------/6-------------------------------|-------------4-----------5---------------3-------|
     A|--4-------------------7---6-----------7-----------|-0---0-0-0---2---2-2-2---3---3---0h2h3---3-------|
     E|--------------------------------------------------|-----------------------------------------1-------|
 
        Нет,            ты  возьми          се      -     бе             всё  что на          Зем    -
Гит. E|--------------------------------------------------|-------------------------------------------------|
     H|--------------------------------------------------|-------------------------------------------------|
     G|-----------------/4-------------------------------|-5--------------/4-------------------------------|
     D|--2-------------------5---4-----------5-----------|-5-------------------5---4-----------5-----------|
     A|--2-----------------------------------------------|-3-----------------------------------------------|
     E|--0-----------------------------------------------|-------------------------------------------------|
 
ВокалE|----------------------------------------------------------------------------------------------------|
     H|--7---------------9---------------------------------7-----------7-------8---7-----------------------|
     G|------9---------------9---8-----------9---------------------9---------------------9-----------------|
     D|----------------------------------------------------------------------------------------------------|
     A|----------------------------------------------------------------------------------------------------|
     E| ле - е,        мне   оставь        прос     -     тор     не -бес  -  ной вы  - си.      ----------|
      
Гит. E|--------------------------------------------------|-------------------------------------------------|
     H|--------------------------------------------------|-------------------------------------------------|
     G|--6-----------------------------------------------|-------------------------------------------------|
     D|--6--------------/6-------------------------------|-------------4-----------5-----------------------|
     A|--4-------------------7---6-----------7-----------|-0---0-0-0---2---2-2-2---3---3---0h2h3---6~~~~---|
     E|--------------------------------------------------|-------------------------------------------------|

2 КУПЛЕТ:

         Луч   -    ше      быть                 од -но - му         всю      жизнь               чем  най-
Гит.1E|--------------------------------------------------|-------------------------------------------------|
     H|--------------------------------------------------|-------------------------------------------------|
     G|--------------------------------------------------|-5-----------5-------5-------------------7-------|
     D|--2-----------2-------2---------------------------|-5-----------5-------5-------------------7-------|
     A|--2-----------2-------2-------------------0---2---|-3-----------3-------3-------------------5-------|
     E|--0-----------0-------0---------------------------|---------------------------------------------0---|
        ти         свой          дом                      и   жить в нём  с кем    по - па   -  ло. 
Гит.1E|--------------------------------------------------|-------------------------------------------------|
     H|--------------------------------------------------|-------------------------------------------------|
     G|--2-----------4-----------5-----------7-----------|-------------------------------------------------|
     D|--2-----------4-----------5-----------7-----------|---------2---5---2---------------4---5---4-------|
     A|--0-----------2-----------3-----------5-----------|-----3---------------3---2---6---------------5---|
     E|--------------------------------------------------|-0-----------------------------------------------|

ПРЕДПРИПЕВ
ПРИПЕВ

РИФФ 3:

Гит.1E||-------------------------------------------------|-------------------------------------------------|
     H||-------------------------------------------------|-------------------------------------------------|
     G||-------------------------------------9---8---7---|-5-----------------------3-----------4-----------|
     D||-2-----------------------------------9---8---7---|-5-----------------------3-----------4-----------|
     A||-2-----------------------------------7---6---5---|-3-----------------------1-----------2-----------|
     E||-0-----------------------------------------------|-------------------------------------------------|
                       
Гит.1E|--------------------------------------------------|-------------------------------------------------||
     H|--------------------------------------------------|-------------------------------------------------||
     G|--------------------------------------------------|-------------------------------------------------||
     D|--2-----------------------------------8---7---6---|-5-----------------------4-----------3-----------||
     A|--2-----------------------------------8---7---6---|-5-----------------------4-----------3-----------||
     E|--0-----------------------------------6---5---4---|-3-----------------------2-----------1-----------||
               

РИФФ 4:

Гит.1E||-------------------------------------------------|-------------------------------------------------|
     H||-------------------------------------------------|-------------------------------------------------|
     G||-------------------------------------9---8---7---|-5-5---5-5---5-----------3-3---3-3---4-4---4-4---|
     D||-2-2---2-2---2-----------2-2---2-2---9---8---7---|-5-5---5-5---5-----------3-3---3-3---4-4---4-4---|
     A||-2-2---2-2---2-----------2-2---2-2---7---6---5---|-3-3---3-3---3---3-3-3-3-1-1---1-1---2-2---2-2---|
     E||-0-0---0-0---0---0-0-0-0-0-0---0-0---------------|-------------------------------------------------|

Гит.1E|--------------------------------------------------|-------------------------------------------------||
     H|--------------------------------------------------|-------------------------------------------------||
     G|--------------------------------------------------|-------------------------------------------------||
     D|--2-2---2-2---2-----------2-2---2-2---8---7---6---|-5-5---5-5---5-----------4-4---4-4---3-3---3-3---||
     A|--2-2---2-2---2-----------2-2---2-2---8---7---6---|-5-5---5-5---5-----------4-4---4-4---3-3---3-3---||
     E|--0-0---0-0---0---0-0-0-0-0-0---0-0---6---5---4---|-3-3---3-3---3---3-3-3-3-2-2---2-2---1-1---1-1---||

SOLO:

ЧАСТЬ A:

Соло E|--------------------------------------------------------------------------|
гит. H|--10bend11----10^---10^---10^---10^---10^---10^-11r10p8-------------------|
     G|--------------------------------------------------------9~~~~~~~~~~~~~~---|
     D|--------------------------------------------------------------------------|
     A|--------------------------------------------------------------------------|
     E|--------------------------------------------------------------------------|
     
Гит.1E|--------------------------------------------------------------------------|
     H|--------------------------------------------------------------------------|
     G|--------------------------------------------------------9-----8-----7-----|
     D|--2--2-----2--2-----2-----------------2--2-----2--2-----9-----8-----7-----|
     A|--2--2-----2--2-----2-----------------2--2-----2--2-----7-----6-----5-----|
     E|--0--0-----0--0-----0-----0--0--0--0--0--0-----0--0-----------------------|
 
Соло E|--------------------------------------------------------------------------|
гит. H|--------------------------------------------------------------------------|
     G|--12p11p9-h11h12----12p11p9-h11h12----12p11p9-h11h12----12p11p9-h11-8~~~~-|
     D|--------------------------------------------------------------------------|
     A|--------------------------------------------------------------------------|
     E|--------------------------------------------------------------------------|
      
Гит.1E|--------------------------------------------------------------------------|
     H|--------------------------------------------------------------------------|
     G|--5--5-----5--5-----5-----------------3--3-----3--3-----4--4-----4--4-----|
     D|--5--5-----5--5-----5-----------------3--3-----3--3-----4--4-----4--4-----|
     A|--3--3-----3--3-----3-----3--3--3--3--1--1-----1--1-----2--2-----2--2-----|
     E|--------------------------------------------------------------------------|
 
Соло E|--------------------------------------------------------------------------|
гит. H|-----------15bend17....release--15----13----12----13-p12------------------|
     G|----------------------slow-------------------------------14bend16~~~~~~~--|
     D|--------------------------------------------------------------------------|
     A|--------------------------------------------------------------------------|
     E|--------------------------------------------------------------------------|
                                                                             
Гит.1E|--------------------------------------------------------------------------|
     H|--------------------------------------------------------------------------|
     G|--------------------------------------------------------------------------|
     D|--2--2-----2--2-----2-----------------2--2-----2--2-----8-----7-----6-----|
     A|--2--2-----2--2-----2-----------------2--2-----2--2-----8-----7-----6-----|
     E|--0--0-----0--0-----0-----0--0--0--0--0--0-----0--0-----6-----5-----4-----|
 
Соло E|--------------------------------------------------------------------------|
гит. H|--------------------------------------------------------------------------|
     G|--0--0--0--0--0--0--0-h2--2--2--2--2--2-/4--4--4--4--4--4-/5--5--5--5--5--|
     D|--------------------------------------------------------------------------|
     A|--------------------------------------------------------------------------|
     E|--------------------------------------------------------------------------|
                                                 
Гит.1E|--------------------------------------------------------------------------|
     H|--------------------------------------------------------------------------|
     G|--------------------------------------------------------------------------|
     D|--5--5-----5--5-----5-----------------4--4-----4--4-----3--3-----3--3-----|
     A|--5--5-----5--5-----5-----------------4--4-----4--4-----3--3-----3--3-----|
     E|--3--3-----3--3-----3-----3--3--3--3--2--2-----2--2-----1--1-----1--1-----|
 
Соло E|--------------------------------------10----10-10-10----15~~~~~~~~~-------|
гит. H|--------------------------------------12----12-12-12----------------------|
     G|--5-/7--7--7--7--7--7-/9--9--9--9--9--------------------------------------|
     D|--------------------------------------------------------------------------|
     A|--------------------------------------------------------------------------|
     E|--------------------------------------------------------------------------|
                                                           
Гит.1E|--------------------------------------------------------------------------|
     H|--------------------------------------------------------------------------|
     G|--------------------------------------------------------9-----8-----7-----|
     D|--2--2-----2--2-----2-----------------2--2-----2--2-----9-----8-----7-----|
     A|--2--2-----2--2-----2-----------------2--2-----2--2-----7-----6-----5-----|
     E|--0--0-----0--0-----0-----0--0--0--0--0--0-----0--0-----------------------|
 
Соло E|--10----10----10----15b17~~~~~~~------17p15p12------------------------------|
гит. H|--12----12----12----------------------------17p15p12------------------------|
     G|--------------------------------------------------14p12p9-------------------|
     D|--------------------------------------------------------14p12p9-------------|
     A|--------------------------------------------------------------12----10h12p10|
     E|----------------------------------------------------------------------------|
           
Гит.1E|--------------------------------------------------------------------------|
     H|--------------------------------------------------------------------------|
     G|--5--5-----5--5-----5-----------------3--3-----3--3-----4--4-----4--4-----|
     D|--5--5-----5--5-----5-----------------3--3-----3--3-----4--4-----4--4-----|
     A|--3--3-----3--3-----3-----3--3--3--3--1--1-----1--1-----2--2-----2--2-----|
     E|--------------------------------------------------------------------------|
 
Соло E|-------------------------T-----12h15h17-17p15p12----------------------------|
гит. H|------------T-----10/12h15-17p12h15----------------17p15p12-----------------|
     G|--------9h12-14p9h12---------------------------------------14p12p9-14p12p9--|
     D|--------------------------------------------------------------------14p12p9-|
     A|----------------------------------------------------------------------------|
     E|-12-------------------------------------------------------------------------|
                                                                               
Гит.1E|--------------------------------------------------------------------------|
     H|--------------------------------------------------------------------------|
     G|--------------------------------------------------------------------------|
     D|--2--2-----2--2-----2-----------------2--2-----2--2-----8-----7-----6-----|
     A|--2--2-----2--2-----2-----------------2--2-----2--2-----8-----7-----6-----|
     E|--0--0-----0--0-----0-----0--0--0--0--0--0-----0--0-----6-----5-----4-----|
 
Соло E|--------------------------12----14----15----17----15----17---17b19~~~~~~~-|
гит. H|--------------------------------------------------------------------------|
     G|--12~~~~~~~~~~~~~~~-------------------------------------------------------|
     D|--------------------------------------------------------------------------|
     A|--------------------------------------------------------------------------|
     E|--------------------------------------------------------------------------|
                                                 
Гит.1E|--------------------------------------------------------------------------|
     H|--------------------------------------------------------------------------|
     G|--------------------------------------------------------------------------|
     D|--5--5-----5--5-----5-----------------4--4-----4--4-----3--3-----3--3-----|
     A|--5--5-----5--5-----5-----------------4--4-----4--4-----3--3-----3--3-----|
     E|--3--3-----3--3-----3-----3--3--3--3--2--2-----2--2-----1--1-----1--1-----|

ЧАСТЬ B:

Гит.2E|--------------------------------------------------|-------------------------------------------------|
     H|--------------------------------------------------|-------------------------------------------------|
     G|--9-----------------------11----------12----------|-11bend12----------------9-----------8-----------|
     D|--------------------------------------------------|-------------------------------------------------|
     A|--------------------------------------------------|--slow bend--------------------------------------|
     E|--------------------------------------------------|-------------------------------------------------|
     
Гит.1E|--------------------------------------------------|-------------------------------------------------|
     H|--------------------------------------------------|-------------------------------------------------|
     G|--------------------------------------------------|-------------------------------------------------|
     D|--2---2-------------------4---4-------------------|-5---5-------------------2---2-------------------|
     A|--2---2-------------------4---4-------------------|-5---5-------------------2---2-------------------|
     E|--0---0---------------0-0-2---2---------------0-0-|-3---3---------------3-3-0---0---------------0-0-|
 
Гит.2E|--------------------------------------------------|-------------------------------------------------|
     H|--------------------------------------------------|-------------------------------------------------|
     G|--9------------------11---9-----------8~~~~~------|-------------------------------------------------|
     D|--------------------------------------------------|-10------------------9---------------------------|
     A|--------------------------------------------------|-------------------------10----------9-----------|
     E|--------------------------------------------------|-------------------------------------------------|
      |                                                  |                                                 |
Гит.1E|--------------------------------------------------|-------------------------------------------------|
     H|--------------------------------------------------|-------------------------------------------------|
     G|--------------------------5---5-------------------|-------------------------------------------------|
     D|--2---2-------------------5---5-------------------|-7---7-------------------5-----------4-----------|
     A|--2---2-------------------3---3-------------------|-7---7-------------------5-----------4-----------|
     E|--0---0---------------0-0---------------------0-0-|-5---5---------------5-5-3-----------2-----------|

ПРЕДПРИПЕВ
ПРИПЕВ (2 раза)
играть пол-РИФФА №2
Вверх

Я свободен

      Cm
Надо мною тишина,
       Fm       Cm
Небо, полное дождя.
         Fm             Cm
Дождь проходит сквозь меня,
         Bb
Но боли больше нет.

        Cm
Под холодный шепот звезд
      Fm             Cm
Мы сожгли последний мост,
         Fm          Cm
И все в бездну сорвалось.
            Bb
Свободным стану я
         G#
От зла и от добра.
      G                   Cm
Моя душа была на лезвии ножа.


     Cm
Я бы мог с тобою быть,
     Fm            Cm
Я бы мог про все забыть,
     Fm         Cm
Я бы мог тебя любить,
        Bb
Но это лишь игра.

       Cm
В шуме ветра за спиной
    Fm          Cm
Я забуду голос твой,
    Fm           Cm
И о той любви земной,
           Bb
Что нас сжигала впрах,
       G#
И я сходил с ума.
         G                         Cm
В моей душе нет больше места для тебя.

Припев:

 Cm          D#        Bb        Cm
   Я свободен! Словно птица в небесах.
 Cm          D#    Bb               Cm
   Я свободен! Я забыл, что значит страх.
 Cm          D#        Bb         Cm
   Я свободен! С диким ветром наравне.
 Cm          D#  Bb          Cm
   Я свободен! Наяву, а не во сне.


Надо мною тишина,
Небо, полное огня.
Свет проходит сквозь меня,
И я свободен вновь.


Я свободен от любви,
От вражды и от молвы,
От предсказанной судьбы
И от земных оков,
От зла и от добра.
В моей душе нет больше места для тебя.

Припев.
Вверх

Я свободен (2 вариант)

1-й КУПЛЕТ:

Вок. E|----------------------------------|
     Н|----------------------------------|
     G|----------------------------------|
     D|--------------------------8----6--|
     А|----------------------------------|
     E|------------------------ На - до  |

Гит. E|--3-------3-------3-------3-------|
     Н|--4-------4-------4-------4-------|
     G|--5-------5-------5-------5-------|
     D|----------------------------------|
     А|----------------------------------|
     E|----------------------------------|

Вок. E|-------------------------------------------------------|
     Н|---------------------8-8---9----8-6--9----8----8-----8-|
     G|----------5----7-8-------------------------------------|
     D|----5-5------------------------------------------------|
     А|-------------------------------------------------------|
     E|-  мною  ти - шина, небо  пол - ное дождя,    Дождь про|

Гит. E|--3-------3-------3-------3--|-4---4---3-------3-------|
     Н|--4-------4-------4-------4--|-6---6---4-------4-------|
     G|--5-------5-------5-------5--|-5---5---5-------5-------|
     D|-----------------------------|-------------------------|
     А|-----------------------------|-------------------------|
     E|-----------------------------|-------------------------|

Вок. E|-------------------------------------------------------|
     Н|--9-8-----6----9--8---8--6-------6---------------------|
     G|------------------------------8-------8--7-------------|
     D|-----------------------------------------------8---6---|
     А|-------------------------------------------------------|
     E| ходит сквозь  меня, но бо - ли  больше нет,  Под хо - |

Гит. E|--4-------4-------3-------3--|-1-----1-----1-----1-----|
     Н|--6-------6-------4-------4--|-3-----3-----3-----3-----|
     G|--5-------5-------5-------5--|-3-----3-----3-----3-----|
     D|-----------------------------|-------------------------|
     А|-----------------------------|-------------------------|
     E|-----------------------------|-------------------------|

Вок. E|-------------------------------------------------------|
     Н|---------------------8-8----9--8--6--9---8----8----8---|
     G|---------5-7----8--------------------------------------|
     D|--5--5-------------------------------------------------|
     А|-------------------------------------------------------|
     E| лодный шепот звезд мы сожгли последний мост, и  все в |
      |                                                       |
Гит. E|--3-------3-------3-------3--|-4------4------3-------3-|
     Н|--4-------4-------4-------4--|-6------6------4-------4-|
     G|--5-------5-------5-------5--|-5------5------5-------5-|
     D|-----------------------------|-------------------------|
     А|-----------------------------|-------------------------|
     E|-----------------------------|-------------------------|

Вок. E|-------------------------------------------------------|
     Н|--9---8---6--9-8--------8--6------6--------6-----------|
     G|------------------------------8------8--7-------8---7--|
     D|-------------------------------------------------------|
     А|-------------------------------------------------------|
     E| бездну  сорвалось   - свободным стану  я  от зла   и  |

Гин. E|-4---4-------3-------3-------|-1---1----1------1-------|
     Н|-6---6-------4-------4-------|-3---3----3------3-------|
     G|-5---5-------5-------5-------|-3---3----3------3-------|
     D|-----------------------------|-------------------------|
     А|-----------------------------|-------------------------|
     E|-----------------------------|-------------------------|

Вок. E|-------------------------------------------------------|
     Н|-------------------------------------------------------|
     G|-8---7--5---5---7---5----4------4---5--7------8----7---|
     D|------------------------------5-------------5----------|
     А|-------------------------------------------------------|
     E| от добра, Мо - я  ду - ша   была  на лез - вии   но - |

Гит. E|-------------------------|-----------------------------|
     Н|-------------------------|-3-------3---3-------3-------|
     G|--5-------5---5--5-------|-4-------4---4-------4-------|
     D|--6-------6---6--6-------|-5-------5---5-------5-------|
     А|--6-------6---6--6-------|-5-------5---5-------5-------|
     E|-------------------------|-----------------------------|

Вок. E|-------------------------------------------------------|
     Н|-------------------------------------------------------|
     G|--5----------------------------------------------------|
     D|-------------------------------------------------------|
     А|-------------------------------------------------------|
     E|--жа...------------------------------------------------|

Гит. E|-3-----3-----3-----3-----|-6-----6-----6---------------|
     Н|-4-----4-----4-----4-----|-8-----8-----6---------------|
     G|-5-|-|-5-|-|-5-|-|-5-|-|-|-8-|-|-8-|-|-7---------------|
     D|-5-|-|-5-|-|-5-|-|-5-|-|-|-8-|-|-8-|-|-8---------------|
     А|-3-|-|-3-|-|-3-|-|-3-|-|-|-6-|-|-6-|-|-8---------------|
     E|-3-----3-----3-----3-----|-6-----6-----6---------------|
                       Я  бы
Гит. E|-3-----3-----3-----3-----|-6-----6-----6---------------|
     Н|-4-----4-----4-----4-----|-8-----8-----6---------------|
     G|-5-|-|-5-|-|-5-|-|-5-|-|-|-8-|-|-8-|-|-7---------------|
     D|-5-|-|-5-|-|-5-|-|-5-|-|-|-8-|-|-8-|-|-8---------------|
     А|-3-|-|-3-|-|-3-|-|-3-|-|-|-6-|-|-6-|-|-8---------------|
     E|-3-----3-----3-----3-----|-6-----6-----6---------------|
2-й КУПЛЕТ:

Вок. E|-------------------------------------------------------|
     Н|-----------------------8--8--9----8----6--9--8---8---8-|
     G|----------5----7--8------------------------------------|
     D|--5-----5----------------------------------------------|
     А|-------------------------------------------------------|
     E| мог с тобо -  ю быть, я бы мог про  все забыть, я  бы |

Гит. E|--3------3-----3-----3-------|-4-----4-----3-----3-----|
     Н|--4------4-----4-----4-------|-6-----6-----4-----4-----|
     G|--5--|-|-5-|-|-5-|-|-5---|-|-|-5-|-|-5-|-|-5-|-|-5-|-|-|
     D|--5--|-|-5-|-|-5-|-|-5---|-|-|-4-|-|-4-|-|-5-|-|-5-|-|-|
     А|--3--|-|-3-|-|-3-|-|-3---|-|-|-4-|-|-4-|-|-3-|-|-3-|-|-|
     E|--3------3-----3-----3-------|-4-----4-----3-----3-----|

Вок. E|-------------------------------------------------------|
     Н|--9----8--6-----9-8------8-6-------6-------------------|
     G|--------------------------------8-------8--7-----------|
     D|--------------------------------------------------8-6--|
     А|-------------------------------------------------------|
     E| иог  тебя     любить,  но э - то  лишь игра. В  шуме  |

Гит. E|--4-------4------3-----3-----|-1-----1-----1-----1-----|
     Н|--6-------6------4-----4-----|-3-----3-----3-----3-----|
     G|--5---|-|-5--|-|-5-|-|-5-|-|-|-3-|-|-3-|-|-3-|-|-3-|-|-|
     D|--4---|-|-4--|-|-5-|-|-5-|-|-|-3-|-|-3-|-|-3-|-|-3-|-|-|
     А|--4---|-|-4--|-|-3-|-|-3-|-|-|-1-|-|-1-|-|-1-|-|-1-|-|-|
     E|--4-------4------3-----3-----|-1-----1-----1-----1-----|

Вок. E|---------------------------------------8---------------|
     Н|---------------------8--8-9-8---6---------------8--8---|
     G|----------5-----7-8---------------8--------------------|
     D|--5--5-------------------------------------------------|
     А|-------------------------------------------------------|
     E| ветра   за   спиной я забуду  голос твой,      и  от  |

Гит. E|--3-------3------3-----3-----|-4-----4-----3-----3-----|
     Н|--4-------4------4-----4-----|-6-----6-----4-----4-----|
     G|--5---|-|-5--|-|-5-|-|-5-|-|-|-5-|-|-5-|-|-5-|-|-5-|-|-|
     D|--5---|-|-5--|-|-5-|-|-5-|-|-|-4-|-|-4-|-|-5-|-|-5-|-|-|
     А|--3---|-|-3--|-|-3-|-|-3-|-|-|-4-|-|-4-|-|-3-|-|-3-|-|-|
     E|--3-------3------3-----3-----|-4-----4-----3-----3-----|

Вок. E|-------------------------------------------------------|
     Н|-9----8--6---9--8------8--6-------6--------------------|

     G|--------------------------------8---8----7-----8----7--|
     D|-------------------------------------------------------|
     А|-------------------------------------------------------|
     E|той  любви  земной,  что нас сжигала в прах, и я  схо- |

Гит. E|-4-------4-----3-----3-----|-1-----1-----1-----1-------|
     Н|-6-------6-----4-----4-----|-3-----3-----3-----3-------|
     G|-5---|-|-5-|-|-5-|-|-5-|-|-|-3-|-|-3-|-|-3-|-|-3---|-|-|
     D|-4---|-|-4-|-|-5-|-|-5-|-|-|-3-|-|-3-|-|-3-|-|-3---|-|-|
     А|-4---|-|-4-|-|-3-|-|-3-|-|-|-1-|-|-1-|-|-1-|-|-1---|-|-|
     E|-4-------4-----3-----3-----|-1-----1-----1-----1-------|

Вок. E|-------------------------------------------------------|
     Н|-------------------------------------------------------|
     G|--8----7-5------5---7---5----4-----4----5--7------8--7-|
     D|--------------------------------5-------------5--------|
     А|-------------------------------------------------------|
     E| дил с ума.  В мо - ей ду - ше нет больше места для те-|

Гит. E|-4-----4-----4-----4-----|-3-----3-----3-------3-------|
     Н|-4-----4-----4-----4-----|-3-----3-----3-------3-------|
     G|-5-|-|-5-|-|-5-|-|-5-|-|-|-4-|-|-4-|-|-4-|---|-4---|-|-|
     D|-6-|-|-6-|-|-6-|-|-6-|-|-|-5-|-|-5-|-|-5-|---|-5---|-|-|
     А|-6-|-|-6-|-|-6-|-|-6-|-|-|-5-|-|-5-|-|-5-|---|-5---|-|-|
     E|-4-----4-----4-----4-----|-3-----3-----3-------3-------|

ПРИПЕВ: ( Cm, D#, А# )

Вок. E|-------------------------------------------------------|
     Н|--------------------8----------------------------------|
     G|--5-----5----7-8---------------8--8----8-----7----5-3--|
     D|-------------------------------------------------------|
     А|-------------------------------------------------------|
     E|  бя.   Я  свобо - ден       словно  пти -  ца в небе- |

Гит. E|-3-----3-----3-----3-----|-6-----6-----6-----6---------|
     Н|-4-----4-----4-----4-----|-8-----8-----6-----6---------|
     G|-5-|-|-5-|-|-5-|-|-5-|-|-|-8-|-|-8-|-|-7-|-|-7-----|-|-|
     D|-5-|-|-5-|-|-5-|-|-5-|-|-|-8-|-|-8-|-|-8-|-|-8-----|-|-|
     А|-3-|-|-3-|-|-3-|-|-3-|-|-|-6-|-|-6-|-|-8-|-|-8-----|-|-|
     E|-3-----3-----3-----3-----|-6-----6-----6-----6---------|

        сах,        я свобо - ден,      я  за - был,что значит
Гит. E|-3-----3-----3-----3-----|-6-----6-----6-----6---------|
     Н|-4-----4-----4-----4-----|-8-----8-----6-----6---------|
     G|-5-|-|-5-|-|-5-|-|-5-|-|-|-8-|-|-8-|-|-7-|-|-7-----|-|-|
     D|-5-|-|-5-|-|-5-|-|-5-|-|-|-8-|-|-8-|-|-8-|-|-8-----|-|-|
     А|-3-|-|-3-|-|-3-|-|-3-|-|-|-6-|-|-6-|-|-8-|-|-8-----|-|-|
     E|-3-----3-----3-----3-----|-6-----6-----6-----6---------|
       страх.      Я свобо - ден, с  ди - ким вет - ром нарав-

Гит. E|-3-----3-----3-----3-----|-6-----6-----6-----6---------|
     Н|-4-----4-----4-----4-----|-8-----8-----6-----6---------|
     G|-5-|-|-5-|-|-5-|-|-5-|-|-|-8-|-|-8-|-|-7-|-|-7-----|-|-|
     D|-5-|-|-5-|-|-5-|-|-5-|-|-|-8-|-|-8-|-|-8-|-|-8-----|-|-|
     А|-3-|-|-3-|-|-3-|-|-3-|-|-|-6-|-|-6-|-|-8-|-|-8-----|-|-|
     E|-3-----3-----3-----3-----|-6-----6-----6-----6---------|
        не.       Я свобо - ден      на -   яву,      а  не  во
Гит. E|-3-----3-----3-----3-----|-6-----6-----6-----6---------|
     Н|-4-----4-----4-----4-----|-8-----8-----6-----6---------|
     G|-5-|-|-5-|-|-5-|-|-5-|-|-|-8-|-|-8-|-|-7-|-|-7-----|-|-|
     D|-5-|-|-5-|-|-5-|-|-5-|-|-|-8-|-|-8-|-|-8-|-|-8-----|-|-|
     А|-3-|-|-3-|-|-3-|-|-3-|-|-|-6-|-|-6-|-|-8-|-|-8-----|-|-|
     E|-3-----3-----3-----3-----|-6-----6-----6-----6---------|

       сне...
Гит.1E|-3-----3-----3-----3-------|-6-----6-----6-----6-------|
     Н|-4-----4-----4-----4-------|-8-----8-----6-----6-------|
     G|-5-|-|-5-|-|-5-|-|-5---|-|-|-8-|-|-8-|-|-7-|-|-7---|-|-|
     D|-5-|-|-5-|-|-5-|-|-5---|-|-|-8-|-|-8-|-|-8-|-|-8---|-|-|
     А|-3-|-|-3-|-|-3-|-|-3---|-|-|-6-|-|-6-|-|-8-|-|-8---|-|-|
     E|-3-----3-----3-----3-------|-6-----6-----6-----6-------|
      |                                                       |
Гит.2E|--------------------------|----------------------------|
     Н|--------------------------|-8----------6---------------|
     G|--5---------------8-7-5---|------------------------8-7-|
     D|------------------------8-|----------------------------|
     А|--------------------------|----------------------------|
     E|--------------------------|----------------------------|

Гит.1E|-3-----3------3-----3-------|-6-------6-------6--------|
     Н|-4-----4------4-------4-----|-8-------8-------6--------|
     G|-5-|-|-5--|-|-5-|-|-5---|-|-|-8---|-|-8---|-|-7--------|
     D|-5-|-|-5--|-|-5-|-|-5---|-|-|-8---|-|-8---|-|-8--------|
     А|-3-|-|-3--|-|-3-|-|-3---|-|-|-6---|-|-6---|-|-8--------|
     E|-3-----3------3-----3-------|-6-------6-------6--------|

Гит.2E|--------------------------|----------------------------|
     Н|--------------------------|----------------------------|
     G|--5---------------8-7-5---|-5-------3---5--------------|
     D|------------------------8-|-----5-----------3----------|
     А|--------------------------|----------------------------|
     E|--------------------------|----------------------------|

3-й КУПЛЕТ
ПРИПЕВ
Далее СОЛО:
E|-------------------------------|----------------------------|
Н|-8^---8^------8^----------8----|----------------------------|
G|-7^---7^------7^-7р0-8-10---8~~|(8)~~-10-10-10-8Н10р8\7-----|
D|-------------------------------|--------------------10-8----|
А|-------------------------------|-----------------------11-8-|
E|-------------------------------|----------------------------|

E|-------------------------------|----------------------------|
Н|-------------------------------|----------------------------|
G|-------------------------------|------------------------12--|
D|------------........-----------|----------------------------|
А|-10----------------------------|----------------------------|
E|-------------------------------|----------------------------|

E|-11--10------------------------|-13-13-13-13-11-10----------|
Н|--------13-11Н13р11-11-11-13-11|-------------------11~~~~---|
G|-----------------12------------|-------------------------10-|
D|-------------------------------|----------------------------|
А|-------------------------------|----------------------------|
E|-------------------------------|----------------------------|

E|-------------------------------|----------------------------|
Н|-------------------------------|----------------------------|
G|-10--\8--8--......-------------|----------------------------|
D|-------------------------------|-------------------/8---6---|
А|-------------------------------|----------------------------|
E|-------------------------------|----------------------------|

E|-------------------------------|-----------------8----------|
Н|--------------------------8----|-9--8Н9р8р6-------------8-8-|
G|----------5---7---8------------|-------------8--------------|
D|--5----------------------------|----------------------------|
А|-------------------------------|----------------------------|
E|-------------------------------|----------------------------|

E|----11-10-8--------------------|----------------------------|
Н|-9---------11р9р8-......-------|----------------------------|
G|-------------------------------|----------------------------|
D|-------------------------------|------------------------6---|
А|-------------------------------|----------------------------|
E|-------------------------------|----------------------------|

E|-------------------------------|---------------8^-8^-8^-8^--|
Н|-----------------------8-------|-9-8Н9р8р6------------------|
G|---------5---7---8-------------|------------8---------------|
D|-5-----------------------------|----------------------------|
А|-------------------------------|----------------------------|
E|-------------------------------|----------------------------|

E|-8^-8^--8^-8р6-8р6-8р6-8р6-8р6-|-8-------------------------6|
Н|-------------------------------|---8-6-8р6----6-8-6-8-----6-|
G|-------------------------------|----------------------------|
D|-------------------------------|----------------------------|
А|-------------------------------|----------------------------|
E|-------------------------------|----------------------------|

E|-------------------------------|----------------------------|
Н|-6----------8------------------|----------------------------|
G|------8-8-----8---...----------|-----------------8---9---10-|
D|-------------------------------|----------------------------|
А|-------------------------------|----------------------------|
E|-------------------------------|----------------------------|
 ПОСЛЕДНИЙ РАЗ ПРИПЕВ ИГРАТЬ В Dm КЛЮЧЕ ( Dm, F, C)
Вверх

Я свободен (3 вариант)

 Am  
Надо мною тишина
 Dm        Am
Небо полное дождя
 Dm            Am
Дождь проходит сквозь меня 
 G
Но боли больше нет
 Am
Под холодный шепот звезд
 Dm              Am
Мы зажгли последний мост
 Dm       Am
И все вбездну сорвалось
 G
Свободным стану я
 F
От зла и от добра
 E                    Am 
Моя душа была на лезвии ножа


Я бы мог с тобою быть
Я бы мог про все забыть
Я бы мог тебе любить
Но это лишь игра
В шуме ветра за спиной 
Я забуду голос твой
И о той любви земной
Что нас сжигала в прах
И я сходил с ума
В моей душе нет больше места дле тебя
 
Припев:
 Am     C       F    E         Am      
Я свободен словно птица в небесах 
Я свободен я забыл что значит страх
Я свободен с диким ветром наравне 
Я свободен наяву а не во сне
Вверх
English songs 109

ABBA
AC-DC
Adams Bryan
Adriano Celentano
Aerosmith
A-Ha
Animals
Antonio Banderos
Apocalyptica
Armstrong Louis
Billy's Band
Bjork
Blink 182
Blondie
Blur
Bob Dylan
Boney M
Bon Jovi
Bowie David
Brainstorm
Braxton Toni
Butch
Celine Dion
Chris De Burgh
Chris Isaak
Chuck Berry
Clapton Eric
Cohen Leonard
Cranberries
Deep Purple
Depeche Mode
Dire Straits
Donovan Jason
Eagles
Electric Light Orchestra
Elton John
Elvis Presley
Era
Europe
Evanescence
Garbage
Gary Moore
Glen Wiston
Gorillaz
Green Day
Guano Apes
Guns N Roses
Hendrix Jimi
Iggy Pop
Iron Maiden
Joe Dassin
Kansas
King Crimson
Kiss
Led Zeppelin
Leonard Cohen
Limp Bizkit
Linkin Park
Louis Amstrong
Madonna
Marilyn Manson
Marley Bob
Metallica
Moby
Morricone Ennio
Muse
Nazareth
Nelly Furtado
Nick Cave
Nirvana
No Doubt
Oasis
Offspring
Ottawan
Outkast
Ozzy Osbourne
Pain
Para Bellum
Pink Floyd
Placebo
P.O.D.
Queen
RadioHead
Rainbow
Rammstein
Rea Chris
Red Hot Chili Peppers
Ritchie Blackmore
Rolling Stones
Roxette
Rufus Wainwright
Santana
Sarah Brightman
Scorpions
Sex Pistols
Simon & Garfunkel
Shocking Blue
Soul Asylumx
Status Quo
Sting
System of a down
Sum 41
The Beatles
The Doors
Tito & Tarantula
U2
UB 40
Uriah Heep
Van Halen

Українські пісні 109

Boom Box
Escape
Flit
Kapela Drewutnia
Lama
LЮK
Mad Heads (XL)
Motor' rolla
NEON
Ot Vinta
The Вйо
Абздольц
Аероплан
Акорд
Ані Лорак
Бандурна розмова
Білик Ірина
Борщ
Брати Гадюкіни
Вася Club
Вій
Воплі Відоплясова
Гайдамаки
Гончар Олесь
Гринжоли
Гроно
Гуляйгород
Дарка і Славко
Дивні
Друга Ріка
Другий подих
Дударик
Експампей
Євтушенко Андрій
Жарівка (Дяк Олесь)
Журбовіз
Зібров Павло
Зінкевич Василь
Злотник Олександр
Івасюк Володимир
Калєкція
Карна
Карпа Ірена
Клямка
Козловський Віталій
Кому вниз
Крихітка Цахес
Курінь
Лесик-Band
Лорд Юрія
Львівські музики
Мандри
Менестрелі
Мері
Мертвий Півень
Міпеніум
Монте Крісто
Морозов Віктор
Нахтіґаль
Не журись!
Неборак Віктор
НеДІля
НЕМО
Нічлава блюз
Океан Ельзи
ПереBANDя
Перкалаба
Петрович
Піккардійська Терція
Піпа Олександр
Плач Єремїі
Пономарьов Олександр
Пророк
Росава
Ротару Софія
Руслана
Рутенія
С.К.А.Й.
САД
Самі свої
Серцевий Напад
Скрябін
Смерічка
Сокира Перука
Соколи
Таліта Кум
Тартак
Тінь сонця
Ткач Михайло
ТНМК
Тостер
Тріо Мареничів
Фарбований лис
Фестиваль Снів
Хвилю тримай
Цісик Квітка
Черемош
Черемшина
Четвертий кут
Чорний вересень
Чорні черешні
Шевченко Тарас
Щастя
Юркеш
Юрченко Юрко
Юрчишин Ярослав
Явір
Яка існуЄ
Яремчук Назарій

   
 sait@i.ua



Рейтинг@Mail.ru