accordS-land.ru Аккорды и табулатуры к гитаре.
Главная | Песенник | Аккорды | Учебник
Руссике песни 180
5nizza
7Б
9-й Район
Animal ДжаZ
Billy's Band
Butch
Para Bellum
TequilaJazzz
Worms
Zdob Si Zdub
Автоматические удовлетворители
Агата Кристи
Агузарова Жанна
Агутин Леонид
Адо
Аквариум
Алиса
Алсу
Амирамов Е.
Антонов Ю.
Арефьева Ольга
Ария
АукцЫон
Барыкин
Башаков Михаил
Башлачев Александр
БекХан
Бернес М.
Би - 2
Бони неМ
Борзов Найк
Боярский Михаил
Браво
Братья Грим
Ва-Банкъ
Вертинский Александр
Визбор Юрий
Високосный год
Воскресенье
Восьмая Марта
Высоцкий В.С.
Високосный год
Газманов О.
Галич Александр
Герман А.
Городницкий Александр
Глызин А.
Градский Александр
Гражданская Оборона
Гребещенков
Данко
ДДТ
Дидюля
Диоды
Дискотека Авария
Дягилева Янка
Ёлка
Жуки
Заблудовский Андрей
Запрещенные Барабанщики
Звери
Земляне
Земфира
Зинчук Виктор
Зоопарк
Иван Кайф
Иванов А.
Иваси
ИЗ КИНО И МУЛЬТФИЛЬМОВ
Империя
Калинов мост
Кашин Павел
Кельми К.
КИНО
Кипелов
Конец Фильма
Контингент
Корни
Король и Шут
Коррозия металла
Крематорий
Крупнов Анатолий
Кузьмин Владимир
Куликов Е.
Кукрыниксы
Курехин Сергей
Лаэртский Александр
Ласковый май
Ленинград
Леонидов Максим
Лесоповал
Лещенко Л.
Линда
Лицей
Лоза Юрий
Любэ
Люмен
Ляпис Трубецкой
Мальчишник
Манго-манго
Мара
Маркин В.
Маршал Александр
Маша и медведи
Машина времени
Мечтать
Мистер Кредо
Митяев Олег
Многоточье
Монгол Шуудан
Моральный Кодекс
Мультfильмы
Мумий Тролль
Настя
Науменко Майк
Наутилус Помпилиус
Непара
Неприкасаемые
Несчастный случай
Никоваев И.
Никольский Константин
Ногу свело
Ноль
Носков Николай
Ночные Снайперы
Окуджава Булат
Оркрист
Осин Е.
Оскар
Отиева И.
Паперный Т.А.М.
Парк Горького (Gorky Park)
Пикник
Пилот
Пламя
Полковник и однополчане
Пугачева А.
ПЭХ
Приключения Электроников
Просто прикольные песни
Рада и Терновник
Римский-Корсаков
Розенбаум Александр
Рок-Острова
Рондо
Сансара
Саруханов
Сегодня Ночью
Секрет
Сектор газа
Сенчина Л.
СерьГа
Смысловые Галлюцинации
Сплин
Солодуха А.
Старые блатные песни
Сукачев Гарик
Сурганова и Оркестр
Сюткин Валерий
Тальков Игорь
Танцы минус
Тараканы
Тату
Технология
УмаТурман
Умка и Броневичок
Ундервудъ
Фабрика звезд
Х.З. (Хуй Забей)
Центр
ЧайФ
Черный кофе
Черный Лукич
Чиж и Ко
Чистяков Федор
Шанхай
Щербаков Михаил
Ю-Питер

Классика 22

Албениз Исаак
Албениз Матео
Бах Иоган Себостьян
Бетховен Людвиг ван
Бизе Жорж
Брамс Иоганнес
Вивальди Антонио
Гендель Георг Фридрих
Гершвин Джордж
Григ Эдвард
Дебюсси Клод
Камиль Сен-Санс
Мендельсон
Моцарт Вольфгант Амадей
Мусоргский Модест Пертрович
Норис Крис
Огинский Михал Клеофас
Паганини Никколо
Рахманинов Сергей Васильевич
Римский-Корсаков
Чайковский Пётр Ильич
Шуберт Франц
 

TequilaJazzz

I.f.l.
Бай Бай Бай
Бай Бай Бай (2 вариант)
За хлебом
Зимнее солнце
Зимнее солнце (2 вариант)
Книги
Книги (2 вариант)
Кокаин
Кроме звезд
Маленькая ложь
М
Миллионы медленных лилий
Пароль
Педро
Пиратская
Последняя (Кофеек)
Последняя (Кофеек) (2 вариант)
Самолет
Самолет (2 вариант)
Склянка запасного огня (Солнце)
Стратосфера
Укрощая змей
Улитка
Черная и белая
Я вышел
Вверх

I.f.l.

G|-------------------------------------------------------------|
D|-----0-x-x--0--------0---x-0---------0-x-x--0--------0---x-0-|
A|-2---2-x-x--0--0-0---0---x-0-2-------2-x-x--0--0-0---0---x-0-|
E|-0---0-x-x--2--2-2---2---x---0-------0-x-x--2--2-2---2---x---|

G|-------------------------------------------------------------|
D|-----0-x-x--0--------0---x-0---------0-x-x--0--------0---x-0-|
A|-2---2-x-x--0--0-0---0---x-0-2-------2-x-x--0--0-0---0---x-0-|
E|-0---0-x-x--2--2-2---2---x---0-------0-x-x--2--2-2---2---x---|

E|-------------------------------------------------------------|
B|-------------------------7----7----------7-----------7-----7-|
G|---------7---------------7----7----------------------7-----7-|
D|-------------------------7----7----------------------7-----7-|
A|-7--------------5--------5----5--7------------5------5-----5-|
E|-------------------------------------------------------------|

Меж-Куплетный Проигрыш:

G|-------------------------------------------------------------|
D|---------0-x-x--0--------0---x-0-----0-x-x--0--------0---x-0-|
A|-2-------2-x-x--0--0-0---0---x-0-2---2-x-x--0--0-0---0---x-0-|
E|-0-------0-x-x--2--2-2---2---x---0---0-x-x--2--2-2---2---x---|

E|---------------------------------------------------------|
B|---------------------------------------------------------|
G|----------------11------------------------11--11--11--11-|
3 струна/зкстра)                              12  12  12
D|---------------------------------------------------------|
A|-9-------------------------------------------------------|
E|---------------------------------------------------------|

G|-------------------------------------------------------------|
D|---------0-x-x--0--------0---x-0-----0-x-x--0--------0---x-0-|
A|-2-------2-x-x--0--0-0---0---x-0-2---2-x-x--0--0-0---0---x-0-|
E|-0-------0-x-x--2--2-2---2---x---0---0-x-x--2--2-2---2---x---|

E|-------------------------------------------------------------|
B|-------------------------------------------10-10-10----7-7-7-|
G|----------------11-------------------------11-11-11----7-7-7-|
D|-------------------------------------------------------------|
A|-9-----------------------------------------------------------|
E|-------------------------------------------------------------|

Конечный Бас Рифф:

G|-------------------------------------------------------------|
D|------0-x-x--0--------0---x-0--------------------------------|
A|-2----2-x-x--0--0-0---0---x-0-2------------------------------|
E|-0----0-x-x--2--2-2---2---x---0----12-12-12-12----10-10----0-|

Em d

Когда задумаешь уйти,
Повремени-ка пять минут,
Зайди к кому-нибудь из нас,
И мы нальЈм тебе глотнуть
Потише сделав звук,
Закурим табака,
И через пять минут
Ты скажешь:всЈ, пока

Бай-бай-бай

Случайным ветром унесЈн,
Уйти успеешь, а сперва
Налей себе ещЈ стакан
Давно знакмого вина,
Скажи кому из нас
Раздать твои долги
И можешь не скрывать
Дрожание руки

Бай-бай-бай

Ну вобщем ты наверно прав,
Хотя никто не скажет да,
Она поплачет, ну так что ж,
Она не знала никогда,
Зачем в твоих глазах осенняя вода,
Мутнее с каждым днЈм, застыла в холода

Бай-бай-бай

Мы за тобою уберЈм,
чишь тень останется мокра,
А твой стакан, что не допил,
Осушит кто-нибудь с утра,
Потом ещЈ нальЈт и скажет всЈ, пора,
И он уже забыт, как снег позавчера

Бай-бай-бай

Вверх

Бай Бай Бай

Intro : Asus2 Em Asus2 Em несколько раз.

Asus2   Em     Asus2      Em     Asus2
 Когда задумаешь уйти, повремени-ка пять минут.
     Em   Asus2       Em    Asus2
 Зайди к кому-нибудь из нас, и мы нальем тебе глотнуть.
   Em     Asus2     Em    Asus2
 Потише сделав звук, закурим табака,
   Em    Asus2    Em
 И через пять минут ты скажешь: "все, пора".

Asus2 Dsus2 Em
 Бай, бай,  бай.
Asus2 Dsus2  Em
 Бай, бай,  бай.

Случайным ветром унесен, уйди успеешь, а сперва
Налей себе еще стакан давно знакомого вина.
Скажи кому из нас раздать твои долги.
И можешь не скрывать дрожание руки.

Бай, бай, бай.
Бай, бай, бай.

Ну вобщем, ты, наверное, прав, хотя никто не скажет: "да".
Она поплачет, ну так чтож, она не знала никогда,
Зачем в твоих глазах осенняя вода,
Мутнеет с каждым днем, застыла в холода.

Бай, бай, бай.
Бай, бай, бай.
Бай, бай, бай.
Бай, бай, бай.

Мы за тобою уберем, лишь тень останется мокра,
А твой стакан, что не допил, осушит кто-нибудь с утра.
Потом еще нальет и скажет: "все, пора".
И он уже забыт, как снег позавчера.

Бай, бай, бай.
Бай, бай, бай.
Бай, бай, бай.
Бай, бай, бай.

ауттро: Asus2 Em Asus2 Em несколько раз, потом 6|--3-3-2-0--|

Asus2(I)  Em(I)  Dsus2(I)
6|--0-------0------0---|
5|--0-------2------0---|
4|--2-------2------0---|
3|--2-------0------2---|
2|--0-------0------3---|
1|--0-------0------0---|

Вверх

Бай Бай Бай (2 вариант)

G5|D5

Когда задумаешь уйти, повремени-ка 5 минут
Зайди к кому-нибудь из нас
И мы нальем тебе глотнуть
Потише сделав звук, закурим табака
И через 5 минут ты скажешь все, пока

Припев:
   Бай-Бай-Бай

E|-------------------|-----------|
B|-------------------|-----7/----|
G|-------------------|-----------|
D|-------------------|-----------|
A|-------------------|-----------|
E|---7-----9---10----|-----------|
     Бай-Бай-Бай

Случайным ветром унесет
Уйти успеешь, а сперва
Налей еще себе стакан
Давно знакомого вина
Скажи кому из нас
Раздать твои долги
И можешь не скрывать
Дрожание руки

Припев.

Ну в общем, ты наверное прав
Хотя никто не скажет "да"
Она поплачет - ну так что ж,
Она не знала никогда
Зачем в твоих глазах
Осенняя вода,
Мутнея с каждым днем,
Застыла в холодах

Припев.

Мы за тобою уберем, лишь тень останется мокра
А твой стакан, что не допил,
Осушит кто-нибудь с утра
Потом еще нальет и скажет - все, пора
И он уже забыт как снег позавчера

Припев.

Вверх

За хлебом

D           Am7
 Ищи меня бродящим под дождём
                Am7
 Среди седых дворов
D              Am7
 Ищи меня в экранных новостях
D              Am7
 И в цифрах номеров
D             Am7
 Ищи меня, когда пройдёт полдня,
D                  Am7
 Как завтрак был готов

Припев:
      D                            Am7
   Я вышел за хлебом, я вышел за хлебом
        D                       Am7
   Под тёмное небо, под низкое небо
      D                           Am7
   Туда, где я был и туда, где я не был
      D                            Am7
   Я вышел за хлебом, я вышел за хлебом

D             Am7
 Ищи меня с утра и до утра
D              Am7
 И если не найти...
D               Am7
 Ищи меня в других цветных мирах
D                 Am7
 Стой не на том пути
D              Am7
 Ищи меня, попробуй быть не той,
D                     Am7
 Кто ждёт, но не простит

Припев:
      D                            Am7
   Я вышел за хлебом, я вышел за хлебом
        D                       Am7
   Под тёмное небо, балтийское небо
      D                           Am7
   Туда, где я был и туда, где я не был
      D                            Am7
   Я вышел за хлебом, я вышел за хлебом

D              Am7
 Ищи меня в туманах городов
D                Am7
 Ищи мой слабый след
D               Am7
 Ищи меня, мой смех, мою печаль
D            Am7
 И мой велосипед
D                        Am7
 Ищи меня, и если не найдёшь,
D                           Am7
 Я верный дам совет...

Припев:
      D                            Am7
   Я вышел за хлебом, я вышел за хлебом
        D                       Am7
   Под тёмное небо, балтийское небо
      D                           Am7
   Туда, где я был и туда, где я не был
      D                            Am7
   Я вышел за хлебом, я вышел за хлебом
        Am7
   За хлебом...

Вверх

Зимнее солнце

C7
Агенты лета всё наглей -
Им нужно море, море, море
Свежих новостей
          D7
Из Ленинграда
  C7
Один ответ на это есть:
Когда-то, может, будет здесь
      D7
Олимпиада.

Кто оденет зимнее солнце,
В небе, как на флаге японцев,
Желтые лучи,
Дымом от печи?
Солнце дышит, падая с крыши,
Вот скрипят за городом лыжи,
Ближе, у реки -
Быстрые коньки,
Но кто оденет зимнее солнце?

В трамвае зябнет пассажир,
Уже не тает сливочный пломбир
В руках у Кати.
Темно на верхних этажах,
Велосипеды дремлют в гаражах,
На них - печати.

Кто оденет зимнее солнце?..

Сок из винограда -
Так тебе и надо -
Ты стал вином.
Плитки шоколада,
Белые ограды -
Все подо льдом.

Кто оденет зимнее солнце?..

Вверх

Зимнее солнце (2 вариант)

0             2
           0             0
           0             2
Cmai=2      H7=1
           3             2
           0             0
Cmai
Агенты лета всё наглей –
H7
Им нужно много, много, много
свежих новостей
Из Ленинграда
Один ответ на это есть:
Когда-то, может, будет здесь
Олимпиада.

Кто оденет зимнее солнце,
В небе, как на флаге японцев,
Желтые лучи,
Дымом от печи
Солнце дышит, падая с крыши,
Вот скрипят за городом лыжи,
Ближе, у реки –
Быстрые коньки,
Но кто оденет зимнее солнце?

В трамвае зябнет пассажир,
Уже не тает сливочный пломбир
В руках у Кати.
Темно на верхних этажах,
Велосипеды дремлют в гаражах,
На них – печати.

Кто оденет зимнее солнце?..

Сок из винограда –
Так тебе и надо –
Ты стал вином.
Плитки шоколада,
Белые ограды –
Все подо льдом.

Кто оденет зимнее солнце?..

Вверх

Книги

D                    C
Бросай книгу в огонь,
Огонь целует ладонь.
Я раздуваю угли,
Теперь попробуй-ка, тронь.

D                     C
Там среди этих страниц
Сгорят принцесса и принц
И много сотен других,
В толпе мелькающих лиц.

Припев:
   G
   Сгорай, бумага, прочь,
   Hm
   Тобой согреет ночь
   D
   На целых восемь часов
  B
   Меня под знаком весов.

   Пока луна полна
   Горите, имена,
   Инициалы тех,
   С кем было не до сна.

Сжигает книгу костер
Под искр радостный хор,
Перебирая листы
Шумит как старый суфлер.

Из этих библиотек
Я совершаю побег,
А между букв и строк
Теперь уляжется снег.

Припев.

Бросаю книгу огню
Ну что ж, такое меню,
Две половины моста
Играют ночью вничью

В конец последней главы
Плесну свинцом из Невы,
Чтобы узнали о нем
Мои чугунные львы

Припев.

Вверх

Книги (2 вариант)

D                A#
Бросаю книгу в огонь,
Огонь целует ладонь,
И раздуваю угли,
Теперь попробуй-ка тронь!

Там, среди этих страниц,
Сгорят принцесса и принц
И много сотен других,
в толпе мелькающих лиц.

                  Bm
        Сгорай бумага, прочь!
                  D
        Тобой согреет ночь
                  A#
        На челых восемь часов
                  G
        И я под знаком весов

        Пока Луна полна,
        Горите, имена
        И лица алы те,
                           D
        С кем было не до сна!

Сжигает книгу костёр,
Под искр радостный хор,
Перебирая листы,
Шипит как старый суфлёр.

Из этих библиотек
Я совершаю побег.
А между букв и строк
Теперь уляжется снег.

Припев.

Бросаю книгу в огню
Ну что-ж такое меню ###(или что он там говорит)###
Две полвины моста
Играют ночью в речью

В конец последней главы
Плесну свинцом из Невы
Чтобы узнали о нём
Мои чугунные львы

Припев *2 и много было

Соло на молоточках

1:|---05-575-57520-0-025-520-020---|
2:|3-3------------3-------------303|

Вверх

Кокаин

G
                 Bm G
Это маленький обман
                Bm
Он впадает в океан
  C      D#
Вместе с яблоками снов
           D     C
Туда, где ветер как всегда готов

Это маленькая ложь
Я придумал - ты поймешь
Если станешь у воды
Она воскреснет и собьет следы G D# G D#

                 G              D#
        Все это разговоры не к ночи
               G               D#
        Той, что могла быть короче
              G   A#          D#
        Твой телефон, между прочим
           G   A#         D#
        Я запишу, если хочешь

Этот пряный аромат
Мой бедный ангел снова рад
Стержень, что внутри меня
Опять, как прежде, тает у огня

Эту маленькую ложь
Я придумал - ты не трожь
Вместе станем у воды
Тот самый ветер заметет следы

        Все это разговоры не к ночи
        Той, что могла быть короче
        Твой телефон, между прочим
        Я запишу, если хочешь

        Но это разговоры не к ночи
        Той, что могла быть короче
        Твой телефон, если хочешь
        Я запишу между строчек...

Вверх

Кроме звезд

INTRO 4.5X
G|-------------------------------------------------------------|
D|0s2-2-2-2--2-2--3--3---3-2---0---0-0-0---0-0---0-0---0-0---0-|
A|-------------------------------------------------------------|
E|-------------------------------------------------------------|

VERSE part1 x2
G|-------------------------------------------------------------|
D|0---0-0-0---0-0---0-0---0-0---0-2--2-2-2---2-2---2-2--2-2--2-|
A|-------------------------------------------------------------|
E|-------------------------------------------------------------|

G|-------------------------------------------------------------|
D|4---4-4-4---4-4---4-4---4-4--4-3---3-3-3---3-3-7-7---7---7-7-|
A|-------------------------------------------------------------|
E|-------------------------------------------------------------|

VERSE part2 x1
G|-------------------------------------------------------------|
D|-------------------------------------------------------------|
A|5---5-5-5---5-5---5-5---5-5---5-4--4-4-4---4-4-4-4---4---4-4-|
E|-------------------------------------------------------------|

G|-------------------------------------------------------------|
D|-------------------------------------------------------------|
A|3---3-3-3---3-3---3-3---3-3---3-2---2-2-2--2-2-1-1---1---1-1-|
E|-------------------------------------------------------------|

G|-------------------------------------------------------------|
D|0--0-0-0--0-0--0-0---0-0---0-2---2-2-2---2-2---2-2---2-2---2-|
A|-------------------------------------------------------------|
E|-------------------------------------------------------------|

G|-------------------------------------------------------------|
D|4--4-4-4--4-4--4-4---4-4---4-5---5-5-5---5-5---5-5---5-5---5-|
A|-------------------------------------------------------------|
E|-------------------------------------------------------------|

CHORUS x4
G|-------------------------------------------------------------|
D|0--0-0-0---0-0---0-0---0-0---0-2---2-2-2---2-2-3-3---3---3-3-|
A|-------------------------------------------------------------|
E|-------------------------------------------------------------|

Слева - берег, справа - ночь,
Под ногами - ворохи огня.
Дым не может мне помочь,
Он и сам зависит от меня.
Он зависит от того,
Сколько дней и для чего
Мы потратили на этот мост.
После долгого дождя
Нам осталось все,
Но кроме звезд

Сверху - небо, снизу - тень
И по-прежнему не греет дым
Солнцу вмешиваться лень,
Вот и птицы улетят за ним.
И под каждым их крылом
Ветер, посланный огнем,
Будет петь о перемене гнезд.
После долгого пути
Им оставит все,
Но кроме звезд

То ли было, то ли нет -
Это дело предрассветных туч.
Бесполезный лунный свет
Будет прятать в них свой сонный луч.
Он запутаться бы рад
В ста осях координат
И оставить надоевший пост.
За обветренным стеклом -
Песни обо всем,
Но кроме звезд.

Вверх

Маленькая ложь

G
                 Bm G
Это маленький обман
                Bm
Он впадает в океан
  C      D#
Вместе с яблоками снов
           D     C
Туда, где ветер как всегда готов

Это маленькая ложь
Я придумал - ты поймешь
Если станешь у воды
Она воскреснет и собьет следы G D# G D#

            G              D#
   Все это разговоры не к ночи
          G               D#
   Той, что могла быть короче
         G   A#          D#
   Твой телефон, между прочим
      G   A#         D#
   Я запишу, если хочешь

Этот пряный аромат
Мой бедный ангел снова рад
Стержень, что внутри меня
Опять, как прежде, тает у огня

Эту маленькую ложь
Я придумал - ты не трожь
Вместе станем у воды
Тот самый ветер заметет следы

   Все это разговоры не к ночи
   Той, что могла быть короче
   Твой телефон, между прочим
   Я запишу, если хочешь

   Но это разговоры не к ночи
   Той, что могла быть короче
   Твой телефон, если хочешь
   Я запишу между строчек...

Вверх

М

Bm

                  Asus Bm
И октябрю благодаря,
                       Asus
И ветру, солнцу, и дождям,
И дней неточным номерам
Без календаря
И утром мутная заря
И теплый сумеречный дым
Свинцом напомнили своим
Что звезды говорят
 Bm Asus  G Esus
Ночью в эфире.

И желтый тлеющий букет
И в нем - участники игры
И рыжей осени костры,
Дама и валет.
Да и сияние монет,
Как будто бледное пятно
От шара, льющего в окно
Свой осторожный свет
Ночью в эфире.

Вверх

Миллионы медленных лилий

G
Навык:
  Em
В молоко – ложка мёда
    G
И – набок,
Em
Напоследок –
        G
Пара закладок,
Em
Красный чай несвеж
    G
И несладок,
Em
Стрелки у пяти
    G  Em   G  Em
А пока... пока...

Мили.
Миллионы медленных лилий,
Слёзы этих телефонных линий,
Взгляд из темноты тёмно-синий,
Звук издалека…

      Am
После третьего звонка,
      C
После грома в тишине,
       Em
Ты расскажешь облакам
        D
Всё что знаешь обо мне.
Я от пачки сигарет
И рисунка на окне
Передам тебе привет,
Мальчик, плачущий во сне

Надо
Знать тебе – я для той, с кем ты рядом,
Стал тридцать третьим кругом ада,
Медленным и утончённым ядом,
Ложью маяка…

После третьего звонка,
После грома в тишине,
Ты расскажешь облакам
Всё что знаешь обо мне.
Я от пачки сигарет
И рисунка на окне
Передам тебе привет,
Мальчик, плачущий во сне

Знаешь,
Ничего уже не поправишь,
В телефонную книгу добавишь,
Позвонишь, и, быть может, узнаешь
Голос этот издалека…
Пока.

После третьего звонка,
После грома в тишине,
Ты расскажешь облакам
Всё что знаешь обо мне.
Я от пачки сигарет
И рисунка на окне
Передам тебе привет,
Мальчик, плачущий во сне

Вверх

Пароль

Fmaj7
И вот тогда бы взять –
И изломать карандаш
      C
Об отутюженный день,
И утро, вечер, и пляж
         Fmaj7
На месте сада камней –
Туда расставить слова,
         C
Укрыть неловкую суть,
Упрятать лань ото льва.
      Fmaj7
Ещё одна деталь:
Налить вина на весы
          C
И сделать басом февраль,
И ритм–боксом – часы,
         Fmaj7
Найти достойный бекар
На каждый первый бемоль
      C
И не учить избитую роль,
          Fmaj7
Забыть от почты пароль…

Вверх

Педро

Am
Полковые трубы оттрубили вечер
  A7                Dm
Празднуя багровый закат
Расскажи мне мама
F
Что это за птицы
     H7(II)                E  (6:|-0-2-4-|)
И зачем они так громко кричат
 Am
Черный Джек пришел в наш порт
  A7         Dm
Йо-хо-хо привел свой флот
           F
Йо-хо-хо его фрегат
 H7          E
Йо-хо-хо звенит в набат
Был он парень храбрый
И во всех борделях
Знали про его быстрый нож
Золотые трюмы каменное сердце
Паруса из человеческих кож
На десяти морях
Он сеял кровь и страх
Но был мечтой для молоденьких вдов
Поют кто выжил пил
Текиллу грог и ром
Кто умер Йо-хо-хо
В желудках рыб нашел
Могилу ...
Йо-хо-хо труба отбой
Йо-хо-хо идет конвой
Йо-хо-хо сложить живот
Йо-хо-хо на эшафот
Мама встречала его корабли
Долго он плавал
Вдали от земли
Солдатами схачен смолою облит
Больше чем мертвый на рее висит ...
Черный Джек...

Вверх

Пиратская

Intro:
   Db-Bb
   C (целый такт)
   все это 8 раз

A-Bb  C             Db-Bb C
      Полковые трубы      оттрубили вечер,
Db-Bb C                     C-Bb  G
      Празднуя багровый закат
Db-Bb C                 Db-Bb C
      Расскажи мне, мама,     что это за птицы
Db-Bb C                         C-Bb   G
      И зачем они так долго кричат

С
Черный Джек пришел в наш порт
C                             Db
Йо-Хо-Хо! Привел свой флот
C
Йо-Хо-Хо! Его фрегат
C
Йо-Хо-Хо! Звенит в набат

Db (два такта)

G - Bb - A - Eb (два раза)

Db-Bb         
C (целый такт)/ 4 раза

Db-Bb С                   Db-Bb С
      Был он парень храбрый,    и во всех борделях
Db-Bb С                    С-Bb G
      Знали про его быстрый нож
Db-Bb C             Db-Bb C
      Золотые трюмы,      каменное сердце,
Db-Bb C                    C-Bb G
      Паруса из человеческих кож
C
На десяти морях он сеял кровь и страх
                                   G
Он был мечтой для молоденьких вдов.
C                             F
В бою кто выжил - пил текилу, грог и ром
          Eb                      D
Кто умер (Йо-Хо-Хо!) - в желудках рыб нашел могилу

C
Йо-Хо-Хо! Труба отбой
C                      Db
Йо-Хо-Хо! Ведет конвой
C
Йо-Хо-Хо! Сложив живот
C
Йо-Хо-Хо! На эшафот...

Db(два такта)

G - Bb - A - Eb (два раза)

G           Bb    A      Eb
Мама встречала его корабли
G           Bb     A         Eb
Долго он плавал вдали от земли
G             Bb      A       Eb
Солдатами схвачен, смолою облит
G             Bb       A      Eb
Больше, чем мертвый, на рее висит
Черный Джек...

Db-C (8 раза с затакта), но после 4 раза идет это,

Db-Bb         
C (целый такт)/ 4 раза

С (целый такт)    
С-B-Bb-A-G-A-Bb-B / 4 раза

С

Вверх

Последняя (Кофеек)

C          Dm7
Волнам не стоит молчать,
Если знают, где ветра искать -
Он уходит с ключами в руке,
Напевая на чужом языке.

На песке не осталось
Ничего, что казалось,
Будто в чашке плескалась
Кофе самая малость,
И -  пролилась.

Вверх

Последняя (Кофеек) (2 вариант)

D          E9
Волнам не стоит молчать,
Если знают, где ветра искать -
Он уходит с ключами в руке,
Напевая на чужом языке.

На песке не осталось
Ничего, что казалось,
Будто в чашке плескалась
Кофе самая малость,
И -  пролилась.

   D E9
E: 2 2
B: 3 3
G: 2 0
D: 0 2
A: 0 2
E: 2 0

Вверх

Самолет

E                     G#                  A
лайнер готов, подан трап, и контроль позади,
    E                       G#                    A
но сердце как бомба, даже пластик возле сердца кипит,
         E                          G#                A
не торопись, дыши спокойно, летным полем к самолету иди,
  E              G#                     A
кресло 16, место А, иллюминатор, и пристегнут ремень,
и сосед уже спит
 G#  A G# E       G#A   G# E        B       H   G# F F#
только луна провожает в полет этот мой самолет,
только луна и кивание звезд, ослепительных звезд,
темная ночь, и нескоро рассвет - через 100 сигарет,
 G# A  G#  E           G#A G# E            B     H G# G#  F F#
время пришло, здесь меня уже нет, здесь осталась одна лишь луна
G#    G#   F F# G#    G#    F F# G#    G#   F F#
     лишь луна,       лишь луна       лишь луна
вызова кнопка, звонок, стюардесса бледна,
но дети и женщины смогут покинуть салон,
пластик у сердца: в закипающем эфире война,
у соседа инсульт, второй пилот истерит, а командир - молодец,
дисплей, штурвал, микрофон
только луна провожает в полет зтот мой самолет,
только луна и кивание звезд - ослепительных звезд,
темная ночь, и нескоро рассвет, через 100 сигарет,
время пришло, здесь меня уже нет, здесь осталась одна лишь луна
раннее утро, туман, холодный северный порт,
но никакой не Стокгольм, а ленинградская военная часть,
холодный ветер в проем,
за черной маской глаза, и для него это спорт,
я для него только цель, за первым залпом - второй,
его я слышал еще, затем была тишина
только луна провожает в полет зтот мой самолет,
только луна и кивание звезд - ослепительных звезд,
темная ночь, и нескоро рассвет, через 100 сигарет,
время пришло, здесь меня уже нет, здесь осталась одна лишь луна

Вверх

Самолет (2 вариант)

Intro:
E|---------|
B|---------|
G|---------|
D|---------|5 раз
A|---7/8---|
E|---5/6---|



Куплет:
     E      G#    A
E|--------------|--5--|
B|--------------|--5--|
G|--------------|--6--|
D|---2-------6--|--7--|
A|---2-------6--|--7--|
E|---0-------4--|--5--|

E|-5-----5-------5-|
B|-5-----5--5----5-|
G|----6--------6---|
D|-----------------|
A|-----------------|
E|-----------------|

Припев:
E|-------------------------------------------------------------|
B|-------------------------------------------------------------|
G|----------9-9-9-9--------9--9--9--9-----------------10-11-11-|
D|-6--7--6--9-9-9-9--6--7--9--9--9--9--8--9--9--6666--10-11-11-|
A|-6--7--6--7-7-7-7--6--7--7--7--7--7--8--9--9--6666--8--9--9--|
E|-4--5--4-----------4--5--------------6--7--7--4444-----------|

     Только луна   провожает в полет    этот мой самолет

E|----------------------------         -----
B|----------------------------         -----
G|-10--11-11--11-11-11-11-11--         -----
D|-10--11-11--11-11-11-11-11-- - 8 раз -----  дальше идет интро
A|-8---9--9---9--9--9--9--9---         -----
E|------------9--9--9--9--9---         -----
                 |_____________ (palm muted)
      лишь луна  лишь луна

лайнер готов, подан трап, и контроль позади,
но сердце как бомба, даже пластик возле сердца кипит,
не торопись, дыши спокойно, лётным полем к самолёту иди,
кресло 16, место А, иллюминатор, и пристёгнут ремень,
и сосед уже спит

только луна провожает в полёт этот мой самолёт,
только луна и кивание звёзд - ослепительных звёзд,
тёмная ночь, и нескоро рассвет, через 100 сигарет,
время пришло, здесь меня уже нет, здесь осталась одна лишь луна

вызова кнопка, звонок, стюардесса бледна,
но дети и женщины смогут покинуть салон,
пластик у сердца, в закипающем эфире война,
у соседа инсульт, второй пилот истерит, а командир - молодец,
дисплей, штурвал, микрофон

только луна провожает в полёт этот мой самолёт,
только луна и кивание звёзд - ослепительных звёзд,
тёмная ночь, и нескоро рассвет, через 100 сигарет,
время пришло, здесь меня уже нет, здесь осталась одна лишь луна

раннее утро, туман, холодный северный порт,
но никакой не Стокгольм, а Ленинградская военная часть,
холодный ветер в проём, за чёрной маской глаза,
                                           и для него это спорт,
я для него только цель, за первым залпом - второй,
его я слышал ещё, затем была тишина

только луна провожает в полёт этот мой самолёт,
только луна и кивание звёзд - ослепительных звёзд,
тёмная ночь, и нескоро рассвет, через 100 сигарет,
время пришло, здесь меня уже нет, здесь осталась одна лишь луна

Вверх

Склянка запасного огня (Солнце)

INTRO & VERSE
1:|------------------------------------------------|
2:|------------------------------------------------|
3:|------------------------------------------------|
4:|------------------------------------------------|
5:|9-9-9-9---9---7-9-109-7-9-9-9-9---9---7-7-9-9-7-|
6:|7-7-7-7---7---7-7-7-7-7-6-6-6-6---6---6-6-6-6-6-|

1:|------------------------------------------------|
2:|------------------------------------------------|
3:|2-2-2-2---2---2-2-2-2-2-1-1-1-1---1---1-1-1-1-1-|
4:|------------------------------------------------|

(INTRO & VERSE) END
1:|------------------------------------------------|
2:|------------------------------------------------|
3:|------------------------------------------------|
4:|------------------------------------------------|
5:|9-9-9-9---9---7-9-109-7-9-9-9-9~~~~~~~~~~~~~~~~~|
6:|7-7-7-7---7---7-7-7-7-7-6-6-6-6~~~~~~~~~~~~~~~~~|

1:|------------------------------------------------|
2:|------------------------------------------------|
3:|2-2-2-2---2---2-2-2-2-2-1-1-1-1~~~~~~~~~~~~~~~~~|
4:|------------------------------------------------|

CHORUS
1:|------------------------------------------------|
2:|------------------------------------------------|
3:|------------------------------------------------|
4:|4-----4-----4-----4-----4-----4-----4-----4-----|
5:|--1-----1-----1-----1-----1-----1-----1-----1---|
6:|----0-----0-----0-----0-----0-----0-----0-----0-|

1:|------------------------------------------------|
2:|------------------------------------------------|
3:|2-2-2-5---5-------0-0-1-2-2-2-5---5-------0-0-1-|
4:|--------------2-2---------------------2-2-------|

SOLO
1:|------------------------------------------------|
2:|------------------------------------------------|
3:|------------------------------------------------|
4:|4-4-4-7---7---6-6-5-5-5-4-4-4-7---7---6-6-5-5-5-|
5:|2-2-2-5---5---4-4-3-3-3-2-2-2-5---5---4-4-3-3-3-|
6:|------------------------------------------------|

1:|------------------------------------------------|
2:|------------------------------------------------|
3:|2-2-2-5---5-------0-0-1-2-2-2-5---5-------0-0-1-|
4:|--------------2-2---------------------2-2-------|

END
1:|------------------------------------------------|
2:|------------------------------------------------|
3:|------------------------------------------------|
4:|4-4-4-4-4-4-4-4-4-4-4-4-4-4-4-4-4-4-4-4-4-4-4-4-|
5:|2-2-2-2-2-2-2-2-2-2-2-2-2-2-2-2-2-2-2-2-2-2-2-2-|
6:|------------------------------------------------|

1:|------------------------------------------------|
2:|------------------------------------------------|
3:|2-2-2-5---5-------0-0-1-2-2-2-5---5-------0-0-1-|
4:|--------------2-2---------------------2-2-------|




PLAY ORDER

INTRO  x3 -> INTRO END
VERSE  x5 -> VERSE END
CHORUS x2
VERSE  x5 -> VERSE END
CHORUS x4
VERSE  x5 -> VERSE END
CHORUS x4
SOLO   x4
END    x4

Кто из нас прав
знают лишь окна в доме,
где никогда не спал,
чтоб ни облиться потом
и там где просто был
и никогда не пел

Но Солнце ждет, чтобы я горел...

Кто из нас мертв
это не знают
даже собаки на местах
в глаза смотреть, пугаясь
я с ними бы бродил
и свет Луны воззрел

Но Солнце ждет, чтобы я горел...

Кто из нас пьян
никто не знает
где бы он ни был
стоит ли пить
никто не знает
где бы он ни был
есть ли предел
никто не знает
знаю лишь я, что

Солнце ждет, чтобы я горел...

Солнце...

Никто не знает...

Вверх

Стратосфера

C
Как темна вода
       Em
На глупейшей из планет...
Спят чужие города,
Бредит город-секонд-хенд
Там, где ангел пролетел
Высоко, не надо мною,
След остался в пустоте,
Только тень, а остальное -
        E C
Стратосфера...

Все, что я хотел -
Это пряный аромат
Мой бедный ангел побледнел,
Изучая компромат,
Тем, чем ночь меня добьет,
Будет маленькая сплетня
Раз - и все наоборот
Между первой и последней -
Стратосфера...

Мой ангел, закурив,
Слезы льет на тротуар,
В том либо солнечный мотив,
Либо солнечный удар,
Либо долгая любовь,
Либо маленькая вера,
После рифмы к слову "кровь"
Остальное - тишина и
Стратосфера...

Вверх

Укрощая змей

Вступление:  D5 F#5 (x4)
F#5                    D5
Яблоко проспорило ножу.
   F#5                                 D5
Подними мне веки, я на это дело погляжу,
 F#5                        D5
Расскажи об этом своему пажу,
 F#5                             D5
Белому калению, миллениуму-миражу.
Припев:
         D5                            F#5
        Но, бросая в воду пару орхидей,
                         D5                    F#5
        Не забывай мою природу жить без батарей,
                      D5                       F#5
        Купи мою свободу, яду в кофе мне налей,
                             G#5  A5
        Яду не жалей, яду не жалей
Припев2:
        A5       G#5
        Укрощая змей...
Я бы мог уйти - я это пил...
Сволочью на блюде и богом на бумаге - был,
Пеплы и алмазы хоронил,
Над вонючей пепельницей выл...
Припев:
        Но, бросая в воду пару орхидей,
        Не забывай мою природу жить без батарей,
        Купи мою свободу, яду в кофе мне налей,
        Яду не жалей...
Припев2:
        Укрощая змей...
A5
Я войду
                     G#5
Серебром живых колец.
   F#5                        C#5
В поводу - с вереницею сердец,
A5
Как беглец
                    G#5
Этих людных площадей
F#5
Утону
                      C#5
В полумраке алтарей...
Припев2:
        Укрощая змей...
Проигрыш:  F#5 D5 (x4)

Припев:
        Но, бросая в воду пару орхидей,
        Не забывай мою природу жить без батарей,
        Купи мою свободу, яду в кофе мне налей,
        Яду не жалей...
Припев2:
        Укрощая змей...

Вверх

Улитка

Am

Полковые трубы оттрубили вечер

  A7                Dm

Празднуя багровый закат



Расскажи мне мама

Am

Что это за птицы

     E                     Am

И зачем они так громко кричат



 Dm             Am

Черный Джек пришел в наш порт

 Dm          Am

Йо-хо-хо привел свой флот

 Dm        Am

Йо-хо-хо его фрегат

 E

Йо-хо-хо звенит в набат



 Am

Был он парень храбрый



И во всех борделях

 A7                    Dm

Знали про его быстрый нож

               Am

Золотые трюмы каменное сердце

     E

Паруса из человеческих кож



На десяти морях

Он сеял кровь и страх

Но был мечтой для молоденьких вдов

Поют кто выжил пил

Текиллу грог и ром

Кто умер Йо-хо-хо

В желудках рыб нашел



Могилу ...

Йо-хо-хо труба отбой

Йо-хо-хо идет конвой

Йо-хо-хо сложить живот

Йо-хо-хо на эшафот



Мама встречала его корабли

Долго он плавал

Вдали от земли

Солдатами схачен смолою облит

Больше чем мертвый на рее висит ...



Черный Джек...

Вверх

Черная и белая

|--0--|
|--1--|
|--1--| = C+5*
|--2--|
|--3--|
|--0--|
С              С+5*
Писать стихи - что лодку тащить на берег
Ее засыплет песком, стихам никто не поверит
В небе останутся кружится
Только две одинокие птицы

С       С+5*
Белая - вверх,
Am         F
А черная - вниз.
Может быть - страх,
А может - каприз...
F
Либо то и другое, либо просто так

Писать на песке - это лучше, чем жечь бумагу
Волна благодарит, вместо букв оставляя влагу
Я на магнитофон запишу тебе шум прибоя
И как летают там летают в небе эти двое

Белая - вверх,
А черная - вниз.
Может быть - страх,
А может - каприз...
Либо то и другое, либо просто так

Но белая - вниз,
А черная - вверх.
Может - каприз,
А может быть - грех...
Либо то и другое, либо просто так

Вверх

Я вышел

D7+          C7+
Ищи меня бродящим под дождем
Среди седых дворов
Ищи меня в экранных новостях
И в цифрах номеров
Ищи меня, когда пройдет полдня,
Как завтрак был готов
   D7+                          C7+
Я вышел за хлебом, я вышел за хлебом
Под темное небо, под низкое небо
Туда, где я был, и туда, где я не был
Я вышел за хлебом, я вышел за хлебом

Ищи меня с утра и до утра -
И если не найти -
Ищи меня в других цветных мирах,
Стой не на том пути
Ищи меня, попробуй быть не той
Кто ждет, но не простит

Я вышел за хлебом, я вышел за хлебом
Под темное небо, под низкое небо
Туда, где я был, и туда, где я не был
Я вышел за хлебом, я вышел за хлебом

Ищи меня в туманах городов
Ищи мой слабый след
Ищи меня, мой смех, мою печаль
И мой велосипед
Ищи меня, и если не найдешь -
Я верный дам совет :

Я вышел за хлебом, я вышел за хлебом
Под темное небо, под низкое небо
Туда, где я был, и туда, где я не был
Я вышел за хлебом, я вышел за хлебом

Вверх
English songs 109

ABBA
AC-DC
Adams Bryan
Adriano Celentano
Aerosmith
A-Ha
Animals
Antonio Banderos
Apocalyptica
Armstrong Louis
Billy's Band
Bjork
Blink 182
Blondie
Blur
Bob Dylan
Boney M
Bon Jovi
Bowie David
Brainstorm
Braxton Toni
Butch
Celine Dion
Chris De Burgh
Chris Isaak
Chuck Berry
Clapton Eric
Cohen Leonard
Cranberries
Deep Purple
Depeche Mode
Dire Straits
Donovan Jason
Eagles
Electric Light Orchestra
Elton John
Elvis Presley
Era
Europe
Evanescence
Garbage
Gary Moore
Glen Wiston
Gorillaz
Green Day
Guano Apes
Guns N Roses
Hendrix Jimi
Iggy Pop
Iron Maiden
Joe Dassin
Kansas
King Crimson
Kiss
Led Zeppelin
Leonard Cohen
Limp Bizkit
Linkin Park
Louis Amstrong
Madonna
Marilyn Manson
Marley Bob
Metallica
Moby
Morricone Ennio
Muse
Nazareth
Nelly Furtado
Nick Cave
Nirvana
No Doubt
Oasis
Offspring
Ottawan
Outkast
Ozzy Osbourne
Pain
Para Bellum
Pink Floyd
Placebo
P.O.D.
Queen
RadioHead
Rainbow
Rammstein
Rea Chris
Red Hot Chili Peppers
Ritchie Blackmore
Rolling Stones
Roxette
Rufus Wainwright
Santana
Sarah Brightman
Scorpions
Sex Pistols
Simon & Garfunkel
Shocking Blue
Soul Asylumx
Status Quo
Sting
System of a down
Sum 41
The Beatles
The Doors
Tito & Tarantula
U2
UB 40
Uriah Heep
Van Halen

Українські пісні 109

Boom Box
Escape
Flit
Kapela Drewutnia
Lama
LЮK
Mad Heads (XL)
Motor' rolla
NEON
Ot Vinta
The Вйо
Абздольц
Аероплан
Акорд
Ані Лорак
Бандурна розмова
Білик Ірина
Борщ
Брати Гадюкіни
Вася Club
Вій
Воплі Відоплясова
Гайдамаки
Гончар Олесь
Гринжоли
Гроно
Гуляйгород
Дарка і Славко
Дивні
Друга Ріка
Другий подих
Дударик
Експампей
Євтушенко Андрій
Жарівка (Дяк Олесь)
Журбовіз
Зібров Павло
Зінкевич Василь
Злотник Олександр
Івасюк Володимир
Калєкція
Карна
Карпа Ірена
Клямка
Козловський Віталій
Кому вниз
Крихітка Цахес
Курінь
Лесик-Band
Лорд Юрія
Львівські музики
Мандри
Менестрелі
Мері
Мертвий Півень
Міпеніум
Монте Крісто
Морозов Віктор
Нахтіґаль
Не журись!
Неборак Віктор
НеДІля
НЕМО
Нічлава блюз
Океан Ельзи
ПереBANDя
Перкалаба
Петрович
Піккардійська Терція
Піпа Олександр
Плач Єремїі
Пономарьов Олександр
Пророк
Росава
Ротару Софія
Руслана
Рутенія
С.К.А.Й.
САД
Самі свої
Серцевий Напад
Скрябін
Смерічка
Сокира Перука
Соколи
Таліта Кум
Тартак
Тінь сонця
Ткач Михайло
ТНМК
Тостер
Тріо Мареничів
Фарбований лис
Фестиваль Снів
Хвилю тримай
Цісик Квітка
Черемош
Черемшина
Четвертий кут
Чорний вересень
Чорні черешні
Шевченко Тарас
Щастя
Юркеш
Юрченко Юрко
Юрчишин Ярослав
Явір
Яка існуЄ
Яремчук Назарій

   
 sait@i.ua



Рейтинг@Mail.ru