Дебюсси Клод


2-ая аребеска



Девушка с льнеными
волосами



Картинки



Лунный свет


Вверх


2-ая аребеска

обозначения:

h - хаммер
p - пулл
~ - вибратто

E|-------------17h19p17----------------17h19p17-----|
B|-17h19p17----------------17h19p17-----------------|
G|----------------------19----------------------19--|
D|----------19----------------------19--------------|
A|--------------------------------------------------|
E|--------------------------------------------------|

E|-------------19h20p19----------------19h20p19-----|
B|-17h19p17----------------17h19p17-----------------|
G|----------------------19----------------------19--|
D|----------21----------------------21--------------|
A|--------------------------------------------------|
E|--------------------------------------------------|

E|-------------20h22p20----------------20h22p20---|
B|-17h19p17----------------17h19p17---------------|
G|----------17----------19----------17----------19|
D|------------------------------------------------|
A|------------------------------------------------|
E|------------------------------------------------|

E|-------------------------------------------------|
B|-17h19p17----15h17p15----12h13p12----10h12p10----|
G|-------------------------------------------------|
D|----------21----------17----------12----------14-|
A|-------------------------------------------------|
E|-------------------------------------------------|

E|-15h17p15--------------------------14-15h17p15----|
B|----------17--13-------------12h16-------------17-|
G|-----------------12-------------------------------|
D|--------------------14p13-16----------------------|
A|--------------------------------------------------|
E|--------------------------------------------------|

E|-------------------------12h14p12-------------|-------------|
B|-13----------------15h19----------13----------|------12-15~-|
G|----12-------------------------------14-------|---13--------|
D|-------14----16h19----------------------14----|12-----------|
A|----------17-------------------------------15-|-------------|
E|----------------------------------------------|-------------|

Вверх


Девушка с льнеными
волосами

E||-10------7---------7-|-10---7---------7-----3p0-|-3---2-0---|
B||-----------8-----8---|--------8-----8---8---1---|-0-------3-|
G||-------------9-------|----------9-----------0---|-0---------|
D||---------------------|----------------------2---|-0---------|
A||---------------------|----------------------3---|-----------|
E||---------------------|--------------------------|-3---------|

E|--------------|-5----------10---7-----7-|-----10---7------12-|
B|--------------|-7-----------7---8---8---|-10-------7-------9-|
G|----------H12-|-7-----------7---9---9---|-11-------8-------9-|
D|--------------|-0------------------10---|-12-------9-------9-|
A|-------H7-----|-----------------7-------|--------------------|
E|--------------|-------------7-----------|-10-------7-------0-|

E|-------8-|-10-------7----0-----7-|-10---7----0-----7-----3p0-|
B|-12------|--0---------8------8---|--0-----8------8---8---1---|
G|---------|--0------------0-------|--0--------0-------7---2---|
D|---------|--------------11-------|----------11-------9---0---|
A|---------|--8-----------12-------|--8-------12-------7-------|
E|---------|-----------------------|---------------------------|

E|-3---2-0-----------------|-------------------------|
B|-0-------3---------1-0---|---------------------0-3-|
G|-0---------------------2-|-0-----------------------|
D|-0-----------------------|-----4-2-0---------------|
A|-------------------------|-------------------3-2-0-|
E|-3-----------------------|-------------------------|

E|-0--------8-----H12-----|------H12---------------|
B|-3---8s10---------------|-0--H7------------1-0---|
G|-2-----------H7------H5-|---------H7-----------2-|
D|-0----------------------|-0----------------------|
A|------------------------|------------------------|
E|-3----------------------|-3--------------3-------|

E|-------------------------|-----------------------5-|
B|-----0-------------------|---------------------6---|
G|-0h2-------2-0-----------|---------------2-5-7-----|
D|-2-----4-2-----0---4-2---|---0-------0-3-----------|
A|-3-----5-3-------3-----2-|-0---3-------------------|
E|-3-----5-3-----2-0-----3-|-1-------3---------------|

E|--8--------------------|-7---5---0---------------|
B|--8--12-10-8-----------|-5-----8-5-----------3-1-|
G|--9--------------------|-5-------5---------------|
D|-10--------------------|-5-------4---------------|
A|-----------------------|-0-------5---------------|
E|--8--------------------|-------------------------|

E|---------------------0---|-0-----------------0---|
B|-0-----------0---------2-|-0--------------0------|
G|-0---2-0-----2-----------|-1------------4-6----6-|
D|-2-------2---------------|--------2-4-6---7------|
A|-0---------------2-------|----2-4----------------|
E|-------------------------|-0---------------------|

E|-0-------0-2-4-7-9--12-9-|-12------------------12-|
B|-0---0-2-------0-0-------|--9-------------9-12----|
G|-1---------------6-------|--9--------9-11------12-|
D|-2-------2-4-6---7-------|--9---9-11--------------|
A|-----2-4---------0-------|------------------------|
E|-0-----------------------|--0-------------------8-|

E|-10h12p10--------5------3-2-0-|-0--------------------------5-|
B|----------H12----2------------|-1----3h5p3-0-------------8-7-|
G|-11-------H12----2------------|-0----------0-------------5---|
D|--0--------------2------------|-2----4-----2----7--------0---|
A|----------------------0-------|-3----5----------4------------|
E|----------H12-----------------|-----------------5------------|

E|-7-----3-0---3---7--10--|-7---3---0-------3------|
B|-5-----3-0---3---5---8--|-5---3---0-------1------|
G|-7-----0-0---0---7---9--|-7---0---0-------2------|
D|-5-----2-0---2---5---9--|-5---2-----------0------|
A|------------------------|---------3--------------|
E|------------------------|------------------------|

E|-----------------0---3-|-7---3---7--------------|
B|-0-------0---3---3---5-|-8---5---5-------3------|
G|-0-----0-0---4---0---4-|-7---4---5--------------|
D|-0-----2-0---2---------|---------5-------4------|
A|-------2---------------|---------0-------5------|
E|-3---------------------|------------------------|

E|-------------------|------------------------------|
B|-8-----------------|------------H12-----------H12-|
G|-------------------|---------------H12-----H12----|
D|------------H5-----|------------------H7----------|
A|-7-----------------|------------------------------|
E|-8-----------------|------------------------------|

E|----------------------------3p0-|-3-----2-----0-----|
B|-----H12----------H12-----------|-0-----------------|
G|--------H12----H12---H12--------|-0-----------------|
D|-H5--------H7-------------------|-2-----------------|
A|-----------------------0--------|-------------------|
E|--------------------------------|-0-----------------|

E|------------------|-------------------------|
B|-3-----------0----|-----0-------------------|
G|-4--------5-----2-|-0h2-------2-0-----------|
D|-5----------------|-2-----4-2-----0---4-2---|
A|-5----------------|-3-----5-3-------3-----2-|
E|-3----------------|-3-----5-3-----2-0-----3-|

E|-------------------------|-------------3-5-8-10-12-|
B|-------------------------|-----------5-3-5-8-10-13-|
G|-------------------------|---0-2-5-7-5-------------|
D|---0-2-----0-2-----0-2---|---0-2-5-7---------------|
A|-0-----2-3-----2-0-----2-|-3-----------------------|
E|-2-----3-5-----3-2-----3-|-5-----------------------|

E|-----A3--------------|-------------------|---3-|
B|-----3---------------|--3----------------|-----|
G|----4----------------|-------------------|-----|
D|---5-----------------|-------------------|--5--|
A|--5------------------|-5-----------------|-----|
E|-3-------------------|-------------------|-3---|

Вверх


Картинки

E|------------------------------------|
B|-------------------10-----------10--|
G|----------------10-----------10-----|
D|-------7-----11-----------11--------|
A|-----8----14-----------14-----------|
E|-7-9--------------------------------|

E|-------------19--------------------------|
B|-------18-22----22-18--------10----------|
G|----18----------------18--------10-------|
D|-21----------------------21--------11----|
A|--------------------------------------14-|
E|-----------------------------------------|

E|------------------------|
B|-10---------------------|
G|----10------------------|
D|-------11---------------|
A|----------14-12-9-------|
E|------------------9-----|

E|-----------------------------------------------|
B|-------------------10-----------10-------18-22-|
G|----------------10-----------10-------18-------|
D|-------7-----11-----------11-------21----------|
A|-----8----14-----------14----------------------|
E|-7-9-------------------------------------------|


E|-19---------------------------------------------------|
B|----22-18--------10------------10---------------------|
G|----------18--------10------------10------------------|
D|-------------21--------11------------11---------------|
A|--------------------------14------------14-12-9-------|
E|------------------------------------------------9-----|


E|-------------------------------------------|
B|-------------------10-12-10----------------|
G|----------------10----------10-------------|
D|-------7-----11----------------11-9--------|
A|-----8----14------------------------12-9---|
E|-7-9-------------------------------------9-|

E|---------------------------------------------|
B|-------------------10-12-10------------------|
G|----------------10----------10---------------|
D|-------7-----11-----------------11-9---------|
A|-----8----14-------------------------12-9----|
E|-7-9--------------------------------------9--|


E|-----------------------------14-17----17-14------------------|
B|-----------------------14-16-------14-------16-14------------|
G|-----------------11-14----------------------------14-11------|
D|-----------11-13----------------------------------------13-11|
A|------9-12---------------------------------------------------|
E|-7-11--------------------------------------------------------|


E|----------|
B|----------|
G|----------|
D|----------|
A|-12-9-----|
E|------11--|

E|-----------------------------14-17----17-14------------------|
B|-----------------------14-16-------14-------16-14------------|
G|-----------------11-14----------------------------14-11------|
D|-----------11-13----------------------------------------13-11|
A|------9-12---------------------------------------------------|
E|-7-11--------------------------------------------------------|


E|----------|---------------------------------------|
B|----------|-------------------10------------------|
G|----------|--------------7-11----11-7-------------|
D|----------|---------7-10--------------10-7--------|
A|-12-9-----|-----5-9------------------------9-5----|
E|------11--|-5-8--------------------------------8--|

E|---------------------------------------|
B|-------------------10------------------|
G|--------------8-11----11--8------------|
D|---------7-10---------------10-7-------|
A|-----6-9-------------------------9-6---|
E|-4-8---------------------------------8-|

Вверх


Лунный свет

Это наверное одно из самых известных произведений, к тому же
оно довольно простое. Играется в размере 3/4 в тональности G.

Обозначения:
| сверху    - четверть.
с    - нота тянется с прошлого раза, не надо снова
играть эту ноту.
cresc.    - крещендо,  означает,  что надо  играя  постепенно
наращивать
громкость звучания.
dim.    - диминуэндо, играя уменьшать громкость.
Sforzando   - играть данную ноту или аккорд реско и очень громко
Agiatato   - играть легко, взволнованно
A tempo   - играть в том же темпе, что и вначале
molto rall. - очень сильно уменьшать скорость
rit. - замедлять
Fermatta - тянуть ноту сколько душе угодно.

Andante espressivo

1 |   |   |     |   |   |     |   |   |     |   |   |
E|-----3-------|c3-----------|-0-----------|c0---------|
B|-----5-------|c5-----------|-1-----------|c1---3---5-|
G|-0-----------|-------------|-------------|-1---4---5-|
D|-2-----------|-------------|-------------|-----------|
A|-------------|-------------|-------------|-----------|
E|-------------|-------------|-------------|-----------|
p                           sf

5 |   |   |     |   |   |     |   |   |     |   |   |
E|-------------|-------------|-------------|-------0-|
B|-3-----------|c3-----------|-----1---3---|-1-----1-|
G|-4-----------|c4-----------|-0---2---4---|-2-------|
D|-------------|-------------|-2-----------|---------|
A|-------------|-------------|-------------|---------|
E|-------------|-------------|-------------|---------|
sf

9 |   |   |     |   |   |     |   |   |     |   |   |
E|c0-----------|-------------|-------------|---|
B|c1-----1-----|-----0---1---|-0-----------|c0-|
G|-------2-----|-----0---2---|-0-----------|c0-|
D|-------------|-3-----------|-------------|---|
A|-------------|-5-----------|-------------|---|
E|-------------|-------------|-------------|---|

13 |   |   |     |   |   |     |   |   |     |   |   |
E|-------------|-------------|-------------|-----------|
B|---------0---|-----3-------|-------------|-----------|
G|-----2-------|-2-------2---|-0---2---0---|c0-------0-|
D|-3-----------|c3-----------|-3-----------|-----3-----|
A|-------------|-------------|-------------|-3---------|
E|-------------|-------------|-------------|-5---------|

17 |   |   |     |   |   |     |   |   |     |   |   |
E|-------------|-------------|-------------|-----5-----|
B|-------------|-------------|-----5---6---|-5-------5-|
G|-------------|-------------|-------------|-----------|
D|-3-----------|-2-----------|-------------|-----------|
A|-5-----------|-------------|-3-----------|c3---------|
E|-------------|-------------|-------------|-----------|
sf            agiatato

21 |   |   |     |   |   |     |   |   |     |   |   |
E|-------------|-------------|-------------|---------|
B|-3---5---3---|c3---1---3---|-1-----------|-0-------|
G|-------------|-0-----------|c0-----------|-0-----0-|
D|-------------|-2-----------|c2-----------|---------|
A|-------------|-------------|-------------|---------|
E|-------------|-------------|-------------|---------|
molto rall.

25 |   |   |     |   |   |     |   |   |     |   |   |
E|-------------|-3-----------|-0-----------|---------0-|
B|-------------|-1-----------|-1-----------|-----3-----|
G|-----0---0---|-------------|-------------|-----2-----|
D|-----2---2---|-------------|-------------|-----3-----|
A|-3-----------|-------------|-------------|-----------|
E|-------------|-------------|-------------|-1---------|
a tempo

29 |   |   |     |   |   |     |   |   |     |   |   |
E|-------------|-------------|-------------|-3-|
B|-3-----------|c3-----------|-----1---3---|-1-|
G|-2-----------|c2-----------|-----0-------|---|
D|-3-----------|c3-----------|-----2-------|---|
A|-------------|-------------|-------------|---|
E|c1-----------|c1-----------|-0-----------|c0-|

33 |   |   |     |   |   |     |   |   |     |   |   |
E|-0-----------|c0-------0---|-------------|---|
B|-1-----------|c1---3-------|-3-----------|-1-|
G|-------------|-----2-------|c2-----------|---|
D|-------------|-----3-------|c3-----------|---|
A|-------------|-------------|-------------|---|
E|c0-----------|-1-----------|c1-----------|---|

37 |   |   |     |   |   |     |   |   |     |   |   |
E|-------------|-5-----3-----|c3-----0-----|-0-------0-|
B|c1---1---3---|-5-----------|c5-----------|-----3-----|
G|-----0-------|-------------|-------------|-----2-----|
D|-------------|-------------|-------------|-----3-----|
A|-------------|-------------|-------------|-0---------|
E|-3-----------|-------------|-------------|-----------|
cresc....... dim.......................
fermatta
41 |   |   |     |   |   |     |   |   |     |   |   |
E|-------------|-------------|-------------|-8-|
B|-3-----1-----|-1-----------|-1-----------|-8-|
G|-2-----------|-2-----2-----|-0-----------|-9-|
D|-------------|-------------|-2-----------|---|
A|c0-----------|c0-----------|-------------|---|
E|-------------|-------------|-------------|---|
rit.

Вверх