Чайковский Пётр Ильич


Лебединое озеро
Опера № 20



Симфония №5 в Em,
главная тема. Ор. 64



Щелкунчик, Вальс
цветов, Ор.71



Щелкунчик, Танец феи
Драже. Ор. 71



Щелкунчик, Танец феи
Драже. Ор. 71 (2
вариант)



Щелкунчик, Танец феи
Драже. Ор. 71 (3
вариант)



Щелкунчик,
Танец феи Драже.
Ор. 71 (для 2-ух
гитар)


Вверх


Лебединое озеро
Опера № 20

/-3-
1 |   .   |   .     |   .     |   .
E|-0---------------|-0---------0-------|
B|-1---------0-1-3-|---------1-------1-|
G|---------2-------|-------------------|
D|---------3-------|-------0-2-----2---|
A|-0---------------|-0---3-----0-------|
E|-----------------|-------------------|

3 |   .   |   .     |   .   |   .
E|-0---------------|-----------------|
B|---------1-----1-|-----------0---0-|
G|-------2---2-----|-2-----------2---|
D|---------0---3---|-2-------0-------|
A|-0---------------|-0---------------|
E|-----------------|-----------------|

Повторить такты с 1 по 3 и заменить 4-ый на 5-ый

/-3- /-3- /-3- /-3-
5 |     .     |     .
E|--------------------------|
B|--------------------------|
G|-2-----------------2------|
D|---------0-2-3-2-0--------|
A|-0-2-3-3-----------3-2-0--|
E|--------------------------|

далее...

6 |   .   |   .     |   .   |   .
E|-------------0-1-|-3-----1-0---1-3-|
B|-0---1---3-------|-----------------|
G|-----------------|-----------------|
D|-----------------|-----------------|
A|-----------------|-----------------|
E|-3-------1-------|-0---------------|

8 |   .   |   .     |   .   |   .
E|-5-----3-1---3-5-|/7-----5-0-------|
B|-6---------------|-----------------|
G|---------2-------|-8-------1---2---|
D|-0---------------|-----------------|
A|---------3-------|-------------0---|
E|-----------------|-7-------0-------|

Повторить такты с 6 по 8 и заменить 9-ый на 10-ый

/-3-     /-3-
10 |     .   |     .
E|-6---6-5---4---4-5---|
B|---6---6-----5---6---|
G|-7-------------------|
D|-------0---------0---|
A|---------------------|
E|-6---------0---------|

далее...

/-3-     /-3-       /-3- /-3-
11 |     .   |     .     |     .     |   .
E|-6---6-5---4---4-5---|-6---6-6---6-------0-|
B|---6---6-----5---6---|---6-----6---6-------|
G|-7-------------------|-7-----------4-------|
D|-------0---------0---|-------------6-------|
A|---------------------|---------------------|
E|-6---------0---------|-6-----------0-------|

/-3- /-3-           /-3- /-3- /-3- /-3-
13 |     .     |   .     |     .     |     .
E|-6---6-6---6-------0-|-3-0-2-2-0-2-3-0-3-3-0-3-|
B|---6-----6---6-------|-1-----------0-----------|
G|-7-----------4-------|-------------------------|
D|-------------6-------|-------------------------|
A|---------------------|-0-----------2-----------|
E|-6-----------0-------|-------------------------|

/-3- /-3- /-3- /-3-
15 |     .     |     .       |       .       |       .
E|-4-0-4-4-0-4-4---4-4---4-|-----------------------0-2-0-2-4-|
B|-3-----------0-3-----3---|---------0---0-1-3-1-3-----------|
G|-------------------------|-----1-2---2---------------------|
D|-------------0-----------|-2-4-----------------------------|
A|-------------------------|---------------------------------|
E|-0-----------------------|-0-------------------------------|

17 | . |   .     | .   |  .     |  .   |   .     |  .  |   .
E|-5-----------|-0-----0------|-0--------------|----0----------|
B|-5-----0-2-3-|-2---2-2----2-|-2------2-----2-|----2----0---0-|
G|-6---2-------|--------------|------2---1-----|-2---------2---|
D|-----0-------|--------------|------------3---|-------0-------|
A|-0-----------|-0-----0------|-0--------------|-0-------------|
E|-------------|--------------|--------0-------|---------------|

21 | .  |   .     |  .  |   .     |   .   |   .     |   .   |
E|-0------------|-0-----0-------|-0---------------|---------5-|
B|-2------0-2-3-|-2---2-2-----2-|-2-------2-----2-|-----------|
G|------2-------|---------------|-------2---1-----|-2---2---2-|
D|------0-------|---------------|-------------3---|-----------|
A|-0------------|-0-----0-------|-0---------------|-0---0---0-|
E|--------------|---------------|---------0-------|-----------|
rit.

fermata
25 |   .   |   .
E|-----------------||
B|-----------------||
G|-2---------------||
D|-----------------||
A|-0---------------||
E|-----------------||

Вверх


Симфония №5 в Em,
главная тема. Ор. 64

6/8

1
E|-------------|-------------|-------------|---------|
B|-1-----0-----|-1-----0-----|(0)--------0-|-3-----1-|
G|-----------2-|-------0-----|-------0-2---|-------0-|
D|-------------|-0-----------|-------0-----|-------2-|
A|-------------|-------------|-------2-----|---------|
E|-------------|-------------|-1-----------|-0-------|

5
E|-----------0-|-1-----1---1-|-1----(1)--1-|-1-----0-|
B|(1)----1-3---|-------1-----|-------0-----|-------1-|
G|-------0-----|-------2-----|-------0-----|-------0-|
D|-------2-----|-------------|-------------|-------2-|
A|-3-----------|-0-----------|-2-----------|-3-------|
E|-------------|-------------|-------------|---------|

9
E|-(0)---------|-------------|-------------|---------|
B|-------1-0---|-1-----0-----|(0)--------0-|-3-----1-|
G|-------0---2-|-------0-----|-------0-2---|-------0-|
D|-------2-----|-0-----------|-------0-----|-------2-|
A|-------------|-------------|-------2-----|---------|
E|--0----------|-------------|-1-----------|-0-------|

13
E|-----------0-|-2-----2---2-|-2----(2)--2-|-2-5-3-3-|
B|(1)----1-3---|-------------|-------0-----|-0-----0-|
G|-------0-----|-------------|-------2-----|-0-----0-|
D|-------2-----|-------1-----|-------0-----|---------|
A|-2-----------|-3-----------|-2-----------|---------|
E|-------------|-------------|-------------|-0-------|

17
E|(3)----0-1-3-|-3-----------|---------0-1-|-1-------|
B|-------0-----|-------------|-------3-----|---------|
G|-------0-----|-------2-----|(2)----2-----|-------0-|
D|-0-----------|-------2-----|-0-----3-----|-------0-|
A|-------------|-4-----------|-------------|-2-------|
E|-------------|-------------|-------------|---------|

21
E|-----------0-|-0-----0---0-|-0-----0-----|-5-----3-----|
B|-------1-3---|-1-----1-----|-1-----0---3-|-------------|
G|(0)----0-----|-2-----2-----|-2-----0-----|-0-------0-2-|
D|-------2-----|-------------|-------------|-------------|
A|-3-----------|-0-----------|-------------|-3-----------|
E|-------------|-------3-----|-2-----1-----|-0-----------|

25
E|-------0-1-3-|-3-----------|---------0-1-|-1-------|
B|-0-1-3-------|-------------|-------3-----|---------|
G|-------3-----|-------2-----|-(2)---2-----|-------0-|
D|-------0-----|-------2-----|--0----3-----|-------0-|
A|-------------|-4-----------|-------------|-2-------|
E|-------------|-------------|-------------|---------|

29
E|-----------0-|-0-----0---0-|-0-----0-----|-5-----5---5-|
B|-------1-3---|-1-----1-----|-1-----0-----|-8-----7-----|
G|-(0)---0-----|-2-----0-----|-2-----0---7-|-------5-----|
D|-------2-----|-------------|-4-----------|-------------|
A|--3----------|-------------|-------8-----|-7-----6-----|
E|-------------|-------------|-------------|-------------|

33
E|-5---3-------|-------------|-------------|--------------|
B|-6-----1-0---|-1-----0--(0)|(0)--------0-|-3-----1--(1)-|
G|-5---------2-|-----0-----0-|-------0-2---|--------------|
D|-0-----2-----|-0-----------|-----0(0)----|-----2-2---2--|
A|-------------|-------------|-------------|--------------|
E|-------------|-------------|-1-----------|-0------------|

37
E|-----------0-|-1-----1---1-|-1-----1-----|-1---0-5---3-|
B|-(1)---1-3---|-1-----------|-0-----0-----|-------------|
G|-------0-----|-2-----------|-------------|-------0---0-|
D|-----0-2-----|-----0-0-0---|-----0-0---0-|-----2-------|
A|-------------|-0-----------|-------------|-3-----------|
E|--3----------|-------------|-3-----------|-------------|

41
E|-1-0---------|-------------|-------------|-------------|
B|-----3-1-0---|-1-----0--(0)|(0)--------0-|-3-----1-----|
G|-----------2-|-----0-0---0-|-----0-2-----|-------------|
D|-------------|-0-----------|---0(0)--0---|-----2-2---2-|
A|-------------|-------------|-------------|-------------|
E|-------------|-------------|-1-----------|-0-----------|

45
E|-----------0-|-2-----2---2-|-2---------0-|-2-----2---2-|
B|-1-----1-3---|-5-----5-----|-5-----2-3---|-5-----5-----|
G|-------0-----|-5-----4-----|-2-----------|-5-----4-----|
D|-----2-2-----|-------------|-------------|-------------|
A|-3-----------|-0-----2-----|-3-----------|-0-----2-----|
E|-------------|-------------|-------------|-------------|

49
E|-2-----2-3-5-|-5-----5---5-|-5-----2-3-5-|-5-----5---5-|
B|-5-----------|-7-----5-----|-4-----------|-4-----5-----|
G|-2-----------|-5-----5-----|-5-----------|-5-----5-----|
D|-------------|-------------|-4-----------|-4-----------|
A|-3-----------|-6-----7-----|-------------|-------7-----|
E|-------------|-------------|-------------|-------------|

53
E|-5-----5---5-|-5---5(5)--5-|-5---5(5)--3-|---|
B|-7-----------|-6-----------|-6-----------|-1-|
G|-5-----------|-5-----------|-4-----------|-0-|
D|-------------|-0-----------|-0-----------|-2-|
A|-6-----------|-------------|-------4-----|-3-|
E|-------------|-------------|-------------|---|

Вверх


Щелкунчик, Вальс
цветов, Ор.71

|--3--| - триоль
3/4
|     |     |      |     |     |      |     |     |
E|------------------|------------------|--------------|
B|------------0-----|1---------------0-|0-------------|
G|------0-----------|2-----------------|0-------------|
D|0-----------------|1-----------------|0-------------|
A|------------------|------------------|------------2-|
E|------------------|------------------|------3-------|

|     |     |      |     |     |      |     |     |
E|------------------|------------------|------------------|
B|------------0-----|------------0-----|1-----0-----------|
G|------0-----------|------0-----------|2---------------2-|
D|0-----------------|0-----------------|1-----------------|
A|------------------|------------------|------------------|
E|------------------|------------------|------------------|

|     |     |      |     |     |      |     |     |
E|------------------|------------------|--------------|
B|3-----------------|------------------|---0-----0----|
G|0-----------0-----|---------------0--|1-----1-----2-|
D|0-----------------|------0--2--3-----|--------------|
A|------------------|------------------|--------------|
E|------------------|3-----------------|--------------|

|     |     |      |     |     |      |     |     |
E|------------------|------------------|-----------------|
B|------------------|0--3--0--3--1-----|---------0--1--3-|
G|---------0--1--2--|------------2-----|------2----------|
D|------3-----------|------------2-----|-----------------|
A|0-----------------|------------------|3----------------|
E|------------------|------------------|-----------------|

|     |     |      |     |     |      |     |     |
E|---2--0-----0--2--|5--3--2--3--0-----|--------------|
B|4--------4--------|---------------1--|0-------------|
G|------------------|------------------|------------2-|
D|------------------|------------------|--------------|
A|------------------|------------------|--------------|
E|------------------|------------------|--------------|

|     |     |      |     |     |      |     |     |
E|------------------|------------------|------------------|
B|------------------|------------0-----|1---------------0-|
G|---1--0-----------|------0-----------|2-----------------|
D|---------4--2--1--|0-----------------|1-----------------|
A|------------------|------------------|------------------|
E|------------------|------------------|------------------|

|     |     |      |     |     |      |     |     |
E|------------------|------------------|--------------|
B|0-----------------|------------0-----|------------0-|
G|0-----------------|------0-----------|------0-------|
D|0-----------------|0-----------------|0-------------|
A|------------2-----|------------------|--------------|
E|------3-----------|------------------|--------------|

|      |     |     |     |     |      |     |     |
E|------------------|------------------|-----------------|
B|1------0----------|3-----------------|------------0--2-|
G|2---------------2-|0-----------0-----|------0--2-------|
D|1-----------------|0-----------------|-----------------|
A|------------------|------------------|-----------------|
E|------------------|------------------|3----------------|

|     |     |      |     |     |      |     |     |
E|---0-----0--------|---------------0--|2--3--1--3--2-|
B|3-----2-----3-----|------1--2--3-----|------------3-|
G|------------------|------------------|------------4-|
D|------------------|------------------|--------------|
A|------------------|1-----------------|--------------|
E|------------------|------------------|--------------|

|     |     |      |     |     |      |     |     |
E|---------------6--|7--9--10-6--9--7--|10-6--9--7--10-7-|
B|------6--7--8-----|------------------|-----------------|
G|------------------|------------------|-----------------|
D|------------------|------------------|-----------------|
A|4-----------------|------------------|-----------------|
E|------------------|------------------|-----------------|

|     |     |      |     |     |      |     |     |
E|10-7--10-7--10-6--|7-----------------|7-------------|
B|------------------|7--------7--8--10-|8-----------7-|
G|------------------|7--7--9-----------|7-------------|
D|------------------|------------------|--------------|
A|------------------|------------------|--------------|
E|------------------|------------------|--------------|

|--3--|
|     |     |      |     |     |      |     |     |
E|5-----------0-----|3-----------------|2-3-2-1-----2-|
B|3-----------------|1-----------1-----|1-------------|
G|4-----------------|2-----------------|2-------------|
D|5-----------------|2-----------------|--------------|
A|------------------|------------------|--------------|
E|------------------|------------------|--------------|

|     |     |      |     |     |      |     |     |
E|8-----------------|7-----------------|5-------------|
B|5-----------8-----|5-----------7-----|3-----------3-|
G|5-----------------|5-----------------|4-------------|
D|5-----------------|4-----------------|5-------------|
A|------------------|------------------|--------------|
E|------------------|------------------|--------------|

|--3--|
|     |     |      |     |     |      |     |     |
E|3-5-3-2-----3-----|7-----------------|5-----------0-|
B|------------------|8-----------7-----|3-------------|
G|------------------|7-----------------|4-------------|
D|------------------|------------------|5-------------|
A|------------------|------------------|--------------|
E|------------------|------------------|--------------|

|--3--|
|     |     |      |     |     |      |     |     |
E|3-----------------|2-3-2-1-----2-----|8-------------|
B|1-----------1-----|1-----------------|8-----------8-|
G|2-----------------|2-----------------|8-------------|
D|2-----------------|------------------|--------------|
A|------------------|------------------|--------------|
E|------------------|------------------|--------------|

|     |     |      |     |     |      |     |     |
E|8-----------------|8-----------5-----|10----------------|
B|5-----------9-----|6-----------------|7--------7--8--10-|
G|5-----------------|5-----------------|---7--9-----------|
D|6-----------------|7-----------------|------------------|
A|------------------|------------------|------------------|
E|------------------|------------------|------------------|

|     |     |      |     |     |      |     |     |
E|7-----------------|5-----------0-----|3-------------|
B|8-----------7-----|3-----------------|1-----------1-|
G|7-----------------|4-----------------|2-------------|
D|------------------|5-----------------|2-------------|
A|------------------|------------------|--------------|
E|------------------|------------------|--------------|

|--3--|
|     |     |      |     |     |      |     |     |
E|2-3-2-1-----2-----|8-----------------|7-------------|
B|1-----------------|5-----------8-----|5-----------7-|
G|2-----------------|5-----------------|5-------------|
D|------------------|5-----------------|4-------------|
A|------------------|------------------|--------------|
E|------------------|------------------|--------------|

|--3--|
|     |     |      |     |     |      |     |     |
E|5-----------------|3-5-3-2-----3-----|7-------------|
B|3-----------3-----|------------------|8-----------7-|
G|4-----------------|------------------|7-------------|
D|5-----------------|------------------|--------------|
A|------------------|------------------|--------------|
E|------------------|------------------|--------------|

|--3--|
|     |     |      |     |     |      |     |     |
E|5-----------0-----|3-----------------|2-3-2-1-----2-|
B|3-----------------|1-----------1-----|1-------------|
G|4-----------------|2-----------------|2-------------|
D|5-----------------|2-----------------|--------------|
A|------------------|------------------|--------------|
E|------------------|------------------|--------------|

|     |     |      |     |     |      |     |     |
E|0-----------------|0-----------------|2----------------|
B|0-----------3-----|2-----------3-----|1----------------|
G|0-----------------|4-----------------|2----------------|
D|------------------|------------------|------0--1--2--4-|
A|------------------|------------------|-----------------|
E|------------------|------------------|-----------------|

|     |     |
E|------------3-|
B|------------0-|
G|0-----------0-|
D|------------0-|
A|------------2-|
E|------------3-|

Вверх


Щелкунчик, Танец феи
Драже. Ор. 71

Размер: 4/4

Dm           Gm6  C#o  Do   Co        Bo        Bbo
e|--------1-----1------|------------------|--------------------|
b|-----------3------5--|--2---3---4--4--4-|-3--3--3---2--2--2--|
g|@-------2------------|--3---4---5--5--5-|-4--4--4---3--3--3--|
D|@---0---------0------|--2---3---4--4--4-|-3--3--3---2--2--2--|
A|---------------------|------------------|--------------------|
E|------------------3--|------------------|--------------------|

Dm    Gm    Dm            Bb7               Bbo Dm  Fo
e|-------------------------|----------------0-|-6--5---1--1--1-|
b|----3-----3--------------|-----6---3---6----|-5--6---0--0--0-|
g|-2-----3-----2-----------|------------------|-6--7---1--1--1-|
D|-0-----------0-----------|------------------|-5--7---0--0--0-|
A|-----------------5-3-----|------------------|----5-----------|
E|-------3-------------6-5-|-4---4-------4----|----------------|

Am        E7          A     Bb    A
e|-0--0--0------------|-----0-----0----------------|
b|-1--1--1---3--3--3--|--2-----3-----2-------------|
g|-2--2--2---1--1--1--|--2-----3-----2--2-p0-------|
D|-2--2--2------------|--2-----3-----2--------3-p2-|
A|-----------2--2--2--|----------------------------|
E|-----------0--0--0--|----------------------------|

Dm           Gm6  C#o  Do   Co        Bo        Bbo
e|-----1-----1------|------------------|--------------------|
b|--------3------5--|--2---3---4--4--4-|-3--3--3---2--2--2--|
g|-----2------------|--3---4---5--5--5-|-4--4--4---3--3--3--|
D|-0---------0------|--2---3---4--4--4-|-3--3--3---2--2--2--|
A|------------------|------------------|--------------------|
E|---------------3--|------------------|--------------------|

Dm    Gm    Dm        E7             A   D7            G
e|-----------------1---|------------------|-----------------|
b|----3-----3------3---|------3--0--3---2-|-----1-----1---0-|
g|-2-----3-----2---2---|----------------2-|--------2------0-|
D|-0-----------0---0---|----------------2-|-0---0-----0---0-|
A|---------------------|----------------0-|-----------------|
E|-------3-------------|--0---0-----0-----|---------------3-|

C7            F    Dm       A            Dm    A      Dm
e|------------------|----------------5-|------------5-|-----|
b|------------------|--------6-----5---|----------5---|-----|
g|-----3--0--3---2--|[email protected]|----7-----6---|--7--|
D|-----2-----2---3--|[email protected]|----7-----7---|--7--|
A|-3---3-----3---3--|--5---------------|----5-----7---|--5--|
E|---------------1--|----------5-------|--------------|-----|

Вверх


Щелкунчик, Танец феи
Драже. Ор. 71 (2
вариант)

(Повторить)
E|---0-----2-----3----------||----3-0-3--2-|-----0--------|
B|---------------------4----||-------------|--4-----3-3-3-|
G|---0-----2-----3-----2---*||*------------|--------------|
D|-------------------------*||*------------|--------------|
A|--------------------------||----2------0-|------------2-|
E|0-----0-----0-----0-------||-0------0----|--2--3--0-----|

E|--------------|---0---0---------|--------------|-------3-3-3-|
B|-2-2-2--1-1-1-|-0---1----0------|--------------|-1--0--------|
G|--------------|-----------------|----0----0----|-------------|
D|--------------|-----------------|------2-----4-|----2------2-|
A|-----1------0-|-----0-------3-2-|-1-------0----|-------1-----|
E|-0------0-----|-0--------0------|--------------|-3-----------|

E|-2-2-2--0-0-0-|---2---2---------|----3-0-3--2--|----0--------|
B|--------------|-4---5---4-------|----0---------|-4-----3-3-3-|
G|--------------|-----------------|-----------2--|----0------4-|
D|-----4------4-|-----------------|--------------|-4-----2-----|
A|-2------4-----|-2---3---2-------|--------------|-------------|
E|--------------|------------3-2--|-0------0-----|-------------|

E|---------------|---0---0--------|----0---0-----|-------------|
B|-2-2-2--1-1-1--|-0---1---0------|------2----4--|----3-0-3--2-|
G|-----3------2--|-----2----------|--------------|-------------|
D|-2------2------|-2-------2--2-0-|--------4-----|-------------|
A|---------------|----------------|-4------------|-2-----------|
E|---------------|----------------|--------------|--------0----|

E|-------------|----------------------|
B|----1---1--0-|------0---------------|
G|------2------|--------------------*-|
D|--------0----|----1---2-(Пауза1/8)*-|
A|-0-----------|----------------------|
E|-------------|-3--2---0-------------|

Вверх


Щелкунчик, Танец феи
Драже. Ор. 71 (3
вариант)

E|-----0-------2-------3---------------0------2------3---------|
B|-----0-------1-------2-------4-------0------1------2-------4-|
G|-----0-------2-------3-------5-------0------2------3-------5-|
D|-2-------2-------2-------2---4---2------2------2-------2---4-|
A|-------------------------------------------------------------|
E|-------------------------------------------------------------|

E|--------------------------------------------0---0------------|
B|----8---8--7--4--5------------------------0---1---0----------|
G|------9-------------7-7-7--6-6-6--5-5-5---0---2---0----------|
D|----9---9--7--4--5--6-6-6--5-5-5--4-4-4--------------2-0-----|
A|-7------7-----7-----7------7------7----------------------3-2-|
E|-------------------------------------------------------------|

E|--------------------3-3-3--1-1-1--0-0-0-----2---2------------|
B|-----------------0--2-2-2--0-0-0--1-1-1---4---5---4----------|
G|----5-2-5--4--5--0--3-3-3--1-1-1--2-2-2---4---3---4----------|
D|----3---3--3--4--2--2-2-2--0-0-0--4-4-4----------------------|
A|-1------------6--------------------------------------2-0-----|
E|---------------------------------------------------------3-2-|

E|--------------------------------------------0---0------------|
B|----8---8--7--4--5------------------------0---1---0----------|
G|------9-------------7-7-7--6-6-6--5-5-5---0---2---0--0-------|
D|----9---9--7--4--5--6-6-6--5-5-5--4-4-4----------------4-2-0-|
A|--------7-----7-----7------7------7--------------------------|
E|-0-----------------------------------------------------------|

E|-----------------------------------------------------------|
B|-----------------------------------------------------------|
G|--------------------------------------------------------4--|
D|-------------4---------------20--------------0---------4---|
A|-4---7-4-7---6764----5-2-5---4-420---3-0-3---2320-----6--7-|
E|-----6---6---5---7---4---4---3-------2---2---3---3---7-----|

E|--------------------------------------------0---0------------|
B|----8---8--7--4--5------------------------0---1---0----------|
G|------9-------------7-7-7--6-6-6--5-5-5---0---2---0----------|
D|----9---9--7--4--5--6-6-6--5-5-5--4-4-4--------------2-0-----|
A|-7------7-----7-----7------7------7----------------------3-2-|
E|-------------------------------------------------------------|

E|--------------------3-3-3--1-1-1--0-0-0-----2---2------------|
B|-----------------0--2-2-2--0-0-0--1-1-1---4---5---4----------|
G|----5-2-5--4--5--0--3-3-3--1-1-1--2-2-2---4---3---4----------|
D|----3---3--3--4--2--2-2-2--0-0-0--4-4-4----------------------|
A|-1------------6--------------------------------------2-0-----|
E|---------------------------------------------------------3-2-|

E|--------------------------------------------0---0------------|
B|----8---8--7--4--5------------------------0---1---0--8-7-5---|
G|------9-------------7-7-7--6-6-6--5-5-5---0---2---0--------7-|
D|----9---9--7--4--5--6-6-6--5-5-5--4-4-4----------------------|
A|--------7-----7-----7------7------7--------------------------|
E|-0-----------------------------------------------------------|

E|--------------------------------------------------------7--|
B|-------------7---------------5---------------3---------7---|
G|-6---9-6-9---8986----7-4-7---6765----5-2-5---4542-----8--9-|
D|-----8---8---7---9---6---6---5---7---4---4---5---5---9-----|
A|-----------------------------------------------------------|
E|-----------------------------------------------------------|

E|--------------------------------------------0---0------------|
B|----8---8--7--4--5------------------------0---1---0----------|
G|------9-------------7-7-7--6-6-6--5-5-5---0---2---0----------|
D|----9---9--7--4--5--6-6-6--5-5-5--4-4-4--------------2-0-----|
A|-7------7-----7-----7------7------7----------------------3-2-|
E|-------------------------------------------------------------|

E|--------------------3-3-3--1-1-1--0-0-0-----2---2------------|
B|-----------------0--2-2-2--0-0-0--1-1-1---4---5---4----------|
G|----5-2-5--4--5--0--3-3-3--1-1-1--2-2-2---4---3---4----------|
D|----3---3--3--4--2--2-2-2--0-0-0--4-4-4----------------------|
A|-1------------6--------------------------------------2-0-----|
E|---------------------------------------------------------3-2-|

E|-----------------------------------------------------0--(12)-|
B|----------------------------------------------------0---(12)-|
G|-------------------------------------------------4-0----(12)-|
D|-----------4-------------20------------0--------4-2----------|
A|----7-4-7--6764---5-2-5--4-420--3-0-3--2320----6-------------|
E|-0--6---6--5---7--4---4--3------2---2--3---3--7--------------|

Вверх


Щелкунчик,
Танец феи Драже.
Ор. 71 (для 2-ух
гитар)

E|-------------------------------|----|
B|-----0-------1-------2-------1-|----|
G|-----0-------2-------3-------2-|-0/-|
D|-2-------2-------2-------2-----|-/0-|
A|-------------------------------|----|
E|-------------------------------|----|

E|-0-------2-------3---------|----|
B|-------------------------4-|----|
G|---------------------------|-0/-|
D|---------------------------|-/0-|
A|---------------------------|----|
E|---------------------------|----|

E|-------------------------------0-------2---0---2---3---------|
B|----0-----1-----2------3-------2-------4---5---5---5---------|
G|----0-----2-----3------4-------------------------------------|
D|-2-----2-----2-----2-------2-------2-------------------20----|
A|---------------------------------------------------------321-|
E|-------------------------------------------------------------|

E|-----------------------------------------------0---0---|
B|-8---8---7---4---5---------------------------0---1---0-|
G|---9-----------------7-7-7---6-6-6---5-5-5---0---2---0-|
D|-9---9---7---4---5---6-6-6---5-5-5---4-4-4-------------|
A|-------------------------------------------------------|
E|-------------------------------------------------------|

E|-------------------------------------------------------------|
B|-------------------------------------------------------------|
G|-------------------------------------------------------------|
D|---------------------------4-------------------4---4---------|
A|-1---0-------------------------------------2---3---2---20----|
E|-----------3-------2---------------2-------6-------------320-|

E|---------------------3-3-3---1-1-1---0-0-0-----2---2---|
B|-----------------0---2-2-2---0-0-0---1-1-1---4---5---4-|
G|-5-2-5---4---5---0---3-3-3---1-1-1---2-2-2---4---3---4-|
D|-3---3---3---4---2---2-2-2---0-0-0---4-4-4-------------|
A|-------------6-----------------------------------------|
E|-------------------------------------------------------|

E|-------------------------------0-------2---0---2---3---------|
B|---0-----1-----2-------3-------2-------4---5---5---5---------|
G|---0-----2-----3-------4-------------------------------------|
D|------2-----2------2-------2-------2-------------------5420--|
A|-----------------------------------------------------------4-|
E|-0-----------------------------------------------------------|

E|-----------------------------------------------0---0---|
B|-8---8---7---4---5---------------------------0---1---0-|
G|---9-----------------7-7-7---6-6-6---5-5-5---0---2---0-|
D|-9---9---7---4---5---6-6-6---5-5-5---4-4-4-------------|
A|-------------------------------------------------------|
E|-------------------------------------------------------|

E|-----------------------------------------------------------2-|
B|-----------------------------------------------------------1-|
G|-----------------------------------------------------------2-|
D|-----4-------421-----2-------20------0-------0-------------0-|
A|-4--------------42-------------420------------320------------|
E|-------------------------------------------------3---2--0----|

E|-------------------------------------------------------------|
B|-----------------------------------------------------------1-|
G|---------------------------------------------------4------2--|
D|--------------------------------------------------4-----04---|
A|-7-4-7---6------5-2-5---4-------3-0-3---2--------6--7--------|
E|-6---6---5------4---4---3-------2---2---3-------7------------|

E|----------------------------0---------------0-|
B|----0-------1-------0------1-------04------1--|
G|---2-------2-------2------2-------2-------2---|
D|-04------04------14------3-------4-------3----|
A|----------------------------------------------|
E|----------------------------------------------|

E|----------------------------0---------------0-|
B|----0-------1-------0------1-------04------1--|
G|---2-------2-------2------2-------2-------2---|
D|-14------04------14------3-------4-------3----|
A|----------------------------------------------|
E|----------------------------------------------|

E|------------3-------2-------3-------2-|
B|---04------4-------4-------4-------4--|
G|--2------25------24------25------24---|
D|-4------------------------------------|
A|--------------------------------------|
E|--------------------------------------|

E|------------3-------2-------3-------2-|
B|---04------4-------4-------4-------4--|
G|--2------25------24------25------24---|
D|-4------------------------------------|
A|--------------------------------------|
E|--------------------------------------|

E|----2-------2-------2-------2----------|
B|---3-------4-------3-------4-----------|
G|-25------24------25------24------------|
D|-------------------------------------2-|
A|---------------------------------20----|
E|-----------------------------------32--|

E|--25-------57------5-------57-|
B|-3-------47-------7------47---|
G|-----------------7------------|
D|------------------------------|
A|------------------------------|
E|------------------------------|

E|-------------------------------0-------2---0---2---3---------|
B|----0-----1-----2------3-------2-------4---5---5---5---------|
G|----0-----2-----3------4-------------------------------------|
D|-2-----2-----2-----2-------2-------2-------------------20----|
A|---------------------------------------------------------321-|
E|-------------------------------------------------------------|

E|-----------------------------------------------0---0---|
B|-8---8---7---4---5---------------------------0---1---0-|
G|---9-----------------7-7-7---6-6-6---5-5-5---0---2---0-|
D|-9---9---7---4---6---6-6-6---5-5-5---4-4-4-------------|
A|-------------------------------------------------------|
E|-------------------------------------------------------|

E|-------------------------------------------------------------|
B|-------------------------------------------------------------|
G|-------------------------------------------------------------|
D|---------------------------4-------------------4---4---------|
A|-1-----0-----------------------------------2---3---2---20----|
E|-------------3-----2---------------2-------6-------------320-|

E|-----------------------3-3-3---1-1-1---0-0-0-----2---2---|
B|-------------------0---2-2-2---0-0-0---1-1-1---4---5---4-|
G|---5-2-5---4---5---0---3-3-3---1-1-1---2-2-2---4---3---4-|
D|---3---3---3---4---2---2-2-2---0-0-0---4-4-4-------------|
A|---------------6-----------------------------------------|
E|---------------------------------------------------------|

E|----------------------------------0-----2---0---2---3--------|
B|---0-------1-------2-------3------2-----4---5---5---5--------|
G|---0-------2-------3-------4---------------------------------|
D|-------2-------2-------2-------2-----2------------------5420-|
A|-------------------------------------------------------------|
E|-0-----------------------------------------------------------|

E|------------------------------------------------0---0---|
B|-8---8---7---4---5---------------------------0----1---0-|
G|---9-----------------7-7-7---6-6-6---5-5-5---0----2---0-|
D|-9---9---7---4---5---6-6-6---5-5-5---4-4-4--------------|
A|--------------------------------------------------------|
E|--------------------------------------------------------|

E|-----------------------------------------------------------0-|
B|----------------------------------------------------------0--|
G|---------------------------------------------------------0---|
D|-----4---421-----2------20------0-------0---------------2----|
A|-4----------42------------420------------320-----------------|
E|--------------------------------------------3---2---0--------|

E|----------------------------------------------------------12-|
B|---------------------------------------------------------12--|
G|-----------------------------------------------4--------12---|
D|----------------------------------------------4--------------|
A|-7-4-7---6----5-2-5---4-----3-0-3---2--------6--7------------|
E|-6---6---5----4---4---3-----2---2---3-------7----------------|

Вверх