Гендель Георг Фридрих


Air of bass (из
«Мессии» №311)



Бурре



Воздух в Bb



Ларго из арии (опера
«Ксеркс»)



Минуэт в D из
«Водной музыкальной
сюиты»



Сарабанда в Dm



Сарабанда в Dm
(2 вариант)



Сонатина в A —
Аллегретто


Вверх


Air of bass (из
«Мессии» №311)

Строй: стандартный
Тональность: Dm
Размер: 3/4

Ария

Allegro larghetto
1
E||---|----------1--0----|----6--5----------|------------------|
B||---|-3--------------3-|-2--------------1-|------------------|
G||-2-|------------------|------------------|-3--2--0--------3-|
D||---|-0-----0----------|------------------|----------3--2----|
A||---|-------------1----|-0----------------|-------1-----3----|
E||---|------------------|----------3--2----|-3----------------|

4
E|----3--1-------10-|-9-----7--8--------8-|-7--3-5--6--------6-|
B|------------------|----10----------7----|-3----------3--5----|
G|-2-------------10-|-9-----------9--7----|-0-------------5----|
D|-3-------2--0-----|----------------0----|--------------------|
A|------------------|-0-------------------|--------------------|
E|------------------|---------------------|--------------------|

7
E|-5--6-5-3---------------|------------------------|----3-1--0-|
B|----------6-5-3-5-3-2-0-|------------------------|----2-3----|
G|--------3-------0-------|-2--3-2-0---------------|-2--2-2----|
D|-3----------------------|----------3-2-0-2-0-----|-5----0----|
A|------------------------|-0------------------4-2-|-4--0------|
E|------------------------|--------0-------3-------|-----------|

10
E|----------------------|--------------------|----------------|
B|----------------------|--------------------|----------------|
G|----------------2-----|--------------0-----|--2-----------2-|
D|----------------------|--0---2--3----------|----------------|
A|----------------------|--------------------|----------------|
E|----------------------|--------------------|----------------|

E|--------------------|--------------------|-------------------|
B|-6-5--3--2--------3-|--3-----------------|-------------------|
G|-3-------2----------|--------------3-----|--2-----------2----|
D|-5-------2----------|--3-----------5--3--|--2-----------2----|
A|---------0-----0----|--5-----------5-----|--3-----3--5--3--3-|
E|-3------------------|--------------------|-------------------|

13
E|--------------------|----|
B|--------3--------5--|--2-|
G|--3--2--------------|----|
D|--------------------|----|
A|--------------------|----|
E|--------------------|----|

E|--------------------|--------------------|--------------0----|
B|--------------------|-----0--2-----0--2--|--3--------6-----3-|
G|--2-----0-----------|--2-----2--2--0--2--|--2--0-------------|
D|--0-----------0--2--|--------------------|--3-----3----------|
A|--1-----------1-----|--0-----0-----------|--------5-----1----|
E|--------------------|--------------3-----|-------------------|

16
E|--------------------|--------------------|-------------------|
B|--------------------|--1-----1-----3--1--|-------------------|
G|--------------2--3--|-----3--------------|--3--2--0-----0--2-|
D|--------------------|--------------------|-------------------|
A|--------------------|--------------------|-------------------|
E|--------------------|--------------------|-------------------|

E|-----6--5-----------|--------------------|-----2--3----------|
B|--2-----------2-----|--1-----------------|--3----------------|
G|--2--------3--2--0--|-----3--2--0--------|--3-----------3----|
D|--------------------|--3-----------4--2--|--0-----------0----|
A|--0-----------------|--------------5-----|-----------0-------|
E|--------------------|--------------------|--3-----------3--1-|

19
E|--------------------|--------------------|-------------------|
B|--------------1-----|-----------------3--|--2-----1--------3-|
G|--3--2--3--------3--|--2--0--------2-----|-----2-------------|
D|--------------------|--------3-----------|-------------------|
A|--------------------|--------------------|-------------------|
E|--------------------|--------------------|-------------------|

E|--------------------|--------------------|----------------|
B|--------------------|--1--------------3--|--2-----1-------|
G|--3--2--0-----------|--2-----------2--2--|--2-----2--0--2-|
D|-----------3--2--0--|--3-----3-----3--0--|--2-----0-----4-|
A|--3-----------3-----|--------------------|--0-----------5-|
E|--0-----------------|-----------0--1-----|--------2-------|

22
E|--------------------|--------------------|------------------|
B|--0--------------1--|--------------------|------------------|
G|-----0--3-----------|--2-----0-----------|--2---------------|
D|--------------------|-----------3--2--0--|----------------0-|
A|--------------------|--------------------|------------------|
E|--------------------|--------------------|------------------|

E|------------------|--------------------|------------------10-|
B|--0---------------|-----1--------------|-----------3--10-----|
G|--0-----3--2--0---|--2-----3--2--0-----|--2-----------10-----|
D|--0-----------2---|--3-----------2--0--|--------3-----0------|
A|--------3-----3---|--------------1-----|--0------------------|
E|--3-----0---------|--------1-----------|---------------------|

25
E|-------------------|------------------|----------------------|
B|-------------------|------------------|----------------------|
G|--2----------------|--0---------------|--------------0--2--3-|
D|-----------------0-|------------------|--3-------------------|
A|-------------------|----------------3-|----------------------|
E|-------------------|------------------|----------------------|

E|-9----7-8------8-|-7-3-5-6--------6-|-5--6-5-6-5-3-1-3-1-0---|
B|---10--------7---|-3--------3--5----|----------------------3-|
G|-9--------9--7---|-0-----------5----|------------0---2---3---|
D|-------------0---|------------------|-3----------------------|
A|-0---------------|------------------|------------------------|
E|-----------------|------------------|------------------------|

28
E|-----------------------|--------------------|----------------|
B|--1--------------------|--------------1-----|----------------|
G|-----------------------|--------------------|--------------3-|
D|-----------------------|--------------------|--0-------------|
A|-----------------3--3--|--------------------|----------------|
E|-----------------------|--------------------|----------------|

E|------------------------|-----------------|-5--1--3--5--6--3-|
B|-1----------------------|-1----1-----1----|-6--3--5--6--8--6-|
G|----3-2-3-2-0---0-------|-2----2-----2----|------------------|
D|--------------3---3-2-0-|-2----2-----3----|-0-----0-----0----|
A|-3--------------3---1---|-0----0-----3----|------------------|
E|------------------------|---------3--1--0-|------------------|

31
E|--------------------|--------------------|----|
B|-----------1--------|--------1-----------|----|
G|--3-----------2-----|--0-----------------|----|
D|--------------------|-----3--------------|--3-|
A|--------------------|--------------3-----|----|
E|--------------------|--------------------|----|

E|--------------------|--------------------|-----------------1-|
B|--------------------|--------1-----------|--------------1----|
G|--3--------0--2--0--|--0--------3--2--0--|--2-----------2----|
D|--2--2--3--2--3-----|--0--3-----------2--|-----------3--3----|
A|-----3--5-----------|--1-----3-----------|--------0----------|
E|--------------------|--------------------|--1----------------|

34
E|-0----------------1-|----------------3-|--2----0--1--------3-|
B|----1-3--4----------|-3--------3-------|-----3----------0----|
G|-0----------0--2----|-------3-----0----|--2----------2-------|
D|---------------3----|----3--------1----|--0------------------|
A|-3------------------|-1-----------3----|---------------------|
E|--------------------|------------------|----------------3----|

37
E|--------------------|--------------------|----------------|
B|--------------------|--------------------|----------------|
G|--------------------|---------------0----|--1-----------1-|
D|--------------------|--2-----2-----------|----------------|
A|--------------------|--------------------|----------------|
E|--------------------|--------------------|----------------|

E|--0--------------0--|--1-----5-----7-----|--8----------------|
B|-----0--1--------1--|--1-----5-----6-----|--5--------0--1----|
G|--0--------1--2--3--|--2-----5-----7-----|--5--------------2-|
D|-----3--2--0--------|--3-----------0-----|--------7-----2----|
A|--3-----------3-----|--------7-----------|--0-----------0----|
E|--------------------|--------------------|-------------------|

40
E|--------------------|--------------------|----------------|
B|--0--------1--------|--------------------|----------------|
G|--------------2-----|--1-----------------|--------2-------|
D|--------------------|--------2-----------|--2-----------2-|
A|--------------------|--------------------|----------------|
E|--------------------|--------------------|----------------|

E|--------------------|--------------------|----------------|
B|--0--------1-----3--|--------------------|----------------|
G|--------------2-----|--1-----1--------1--|--2--------4--5-|
D|--3-----2-----3-----|--2--4-----2--4--2--|--2-----------2-|
A|--5-----------------|--------------5-----|--3-----------0-|
E|--------------------|--0-----------------|----------------|

43
E|--------------------|--------------------|-------------------|
B|--------------------|--3--1--0-----------|-------------------|
G|--------------------|-----------2--0-----|-----------2--0--2-|
D|--3-----------3-----|-----------------3--|--2----------------|
A|--------------------|--------------------|-------------------|
E|--------------------|--------------------|-------------------|

E|--------------------|--------------------|----------------|
B|--------------------|--------------3-----|--3-----1-------|
G|--5-----3-----2-----|--0-----------------|--------------2-|
D|--3-----3-----3-----|--3-----------3-----|--2-----------2-|
A|--5-----------5-----|--2-----------2-----|--3-----0-----3-|
E|--------------------|--------3-----------|----------------|

46
E|--------------------|--------------------|-------------------|
B|--------------------|-----------1--0--1--|-----------1--0----|
G|-----------4--2--4--|--1-----------------|--2--1--2--------2-|
D|--4-----------------|--------------------|-------------------|
A|--------------------|--------------------|-------------------|
E|--------------------|--------------------|-------------------|

E|--------------------|--------0-----------|-------------------|
B|--------3-----0-----|--0-----------3-----|--1-----------3--1-|
G|--2-----------------|--1-----------1-----|--2----------------|
D|--4-----------4-----|--2-----------2-----|--3--------2--0----|
A|--5-----2-----5-----|--------------------|-------------------|
E|--------------------|--------0-----------|-------------------|

49
E|--------------------|----------------------|----------|
B|--------------------|----------------------|----------|
G|--1--------1--2-----|----------------------|--2-----2-|
D|-----2--4-----------|--0-----2----------2--|----------|
A|--------------------|----------------------|----------|
E|--------------------|----------------------|----------|

E|-----------1--0-----|----------------------|----|
B|--0--------------3--|--1-0-----------------|----|
G|--1--------0--2-----|-------2--1--------2--|--2-|
D|--2--------0--------|--0-------2-----0-----|--2-|
A|--------------3-----|----------------------|--3-|
E|--------------------|----------------0-----|--5-|

Вверх


Бурре

0
E||-------|------------------------|--0----3---------2--0--|
B||--3----|--3----0----1--0--------|-------1----0----1-----|
G||--0----|-------0----------2--0--|-----------------------|
D||-------|--4---------0-----2-----|-----------------------|
A||-------|------------------------|--3--------------------|
E||-------|------------------------|-----------------------|

3
E|-----------------------|------------|-------------------0----|
B|-3----1--0-----0--1----|-0----------|-0--2--3--0--2--3-----2-|
G|------0-----2--------2-|------0---2-|-0-----------------2----|
D|-4----------------0----|----------0-|-------4-----2----------|
A|------------3----------|------------|------------------------|
E|-----------------------|-3----------|------------------------|

6
E|----0--2-----0--2--3--0-|-2--3--5-----------|----------------|
B|-3-----3--3--2----------|-3---------------2-|-3------------3-|
G|-------------------2----|------------2------|--------------0-|
D|-4----------------------|-------4-----------|-0--------------|
A|------------------------|-----------------0-|-----5--3--5----|
E|------------------------|-------------------|----------------|

9
E|----------------------|-0----3---------2--0-|----------------|
B|-3----0----1--0-------|------1----0----1----|-3--1-0---0-1---|
G|------0----------2--0-|---------------------|----0---2-----2-|
D|-4---------0-----2----|---------------------|-4----------0---|
A|----------------------|-3-------------------|--------3-------|
E|----------------------|---------------------|----------------|

12
E|-----------|-------------------0----|----0--2-----0--2--3--0-|
B|-0---------|-0--2--3--0--2--3-----2-|-3-----3--3--2----------|
G|-----0---2-|-0-----------------2----|-------------------2----|
D|---------0-|-------4-----2----------|-4----------------------|
A|-----------|------------------------|------------------------|
E|-3---------|------------------------|------------------------|

15
E|-2--3--5-----------|------------------5-|-5----2---3--2------|
B|-3---------------2-|-3------------------|-3--------3-----5-3-|
G|------------2------|--------------------|------2---------6---|
D|-------4-----------|-0----------------0-|--------------------|
A|-----------------0-|------5--3--5-------|--------------------|
E|-------------------|--------------------|--------------------|

18
E|-3----7----------0-|------0----2----3--5-|-3----0------------|
B|-0----------0----2-|-4-------------------|---------------3---|
G|------0------------|-4---------2----4----|---------------4---|
D|---------7---------|---------------------|-2-----------------|
A|-------------------|------3--------------|-------------------|
E|-------------------|---------------------|-------------------|

21
E|------------------|-----------------|-0--2--3--0--2--3--5--2-|
B|-3----1--0--1---1-|-1---0-----0---3-|------------------------|
G|------1-----2-----|--------2--0-----|------------------------|
D|------------------|-0---4-----------|-------------0----------|
A|-2--------------0-|---------------2-|-3-----0-----------3----|
E|------------------|-----------------|------------------------|

24
E|-3-5-7---5-7-8-5-|-7----5--3--2--3--5--2-|-3--5--7-----5-----|
B|-------8---------|------0-----3----------|----------8------1-|
G|-----0-----------|-0---------------------|-------0-----------|
D|---------4---0---|------------------0----|-2-----------4---0-|
A|-2---------------|-----------------------|-------------------|
E|-----------------|-----------------------|-------------------|

27
E|-----------------------|-------------------|-----------------|
B|-0---------------------|-----0-----0--1----|-0--1--3--0------|
G|------2--0-----0--2----|-0-2---0-2-------2-|-0-----------2-0-|
D|------------4--------4-|--------------0----|----------0--0---|
A|------2-----5-----3----|-2-----------------|-------2---------|
E|-3---------------------|-----3---2---------|-----------------|

30
E|----------------5-|-5----2----3--2-------|-3----7----------0-|
B|------------------|-3---------3-----5--3-|-0----------0----2-|
G|-0----------------|------2----------6----|------0------------|
D|----------------0-|----------------------|---------7---------|
A|------------------|----------------------|-------------------|
E|-3----------------|----------------------|-------------------|

33
E|------0----2----3--5-|-3----0----------|---------------------|
B|-4-------------------|---------------3-|--3----1--0--1----1--|
G|-4---------2----4----|---------------4-|-------1-----2-------|
D|---------------------|-2---------------|---------------------|
A|------3--------------|-----------------|--2---------------0--|
E|---------------------|-----------------|---------------------|

36
E|------------------|-0--2--3--0--2--3--5--2-|-3-5-7---5-7-8-5-|
B|-1----0-----0---3-|------------------------|-------8---------|
G|---------2--0-----|------------------------|-----0-----------|
D|-0----4-----------|-------------0----------|---------4---0---|
A|----------------2-|-3-----0-----------3----|-2---------------|
E|------------------|------------------------|-----------------|

39
E|-7--5--3--2--3--5--2-|-3--5--7-----5---|---------------------|
B|----0-----3----------|----------8----1-|-0-------------------|
G|-0-------------------|-------0---------|----2--0-----0--2----|
D|----------------0----|-2-----------4-0-|----------4--------4-|
A|---------------------|-----------------|----2-----5-----3----|
E|---------------------|-----------------|-3-------------------|

42
E|--------------------------|------------------------|--------||
B|--------0--------0--1-----|--0--1--3----0----------|--------||
G|--0--2-----0--2--------2--|--0---------------2--0--|--0-----||
D|--------------------0-----|-------------0----0-----|--------||
A|--2-----------------------|--------2---------------|--------||
E|--------3-----2-----------|------------------------|--3-----||

Вверх


Воздух в Bb

Тональность: G
Строй: E A D G B E
Размер: 3/4

E|3-------2---0---------|------------------------|
B|----------------3---1-|0---------------1-------|
G|----------------------|0-----------------------|
D|----------------------|--------4---2---0-------|
A|----------------------|--------------------3---|
E|3---------------------|------------------------|

E|----------------------|----------------------|
B|3-------1---0---------|----------------------|
G|----------------2---0-|----------------0-----|
D|----------------------|4---------------------|
A|2---------------3-----|5-------3---2---0-----|
E|----------------------|--------------------3-|

E|------------------------|----------------------|
B|------------0---1-------|0-------0-------------|
G|2---0---2-----------2---|------------2---0-----|
D|----------------0-------|--------------------4-|
A|------------------------|----------------------|
E|2-----------------------|3---------------------|

E|0---------------------|----------------0-------|
B|--------0---2---3---0-|2-----------------------|
G|----------------0-----|2---------------0-------|
D|2---------------------|--------2---4-------2---|
A|----------------------|------------------------|
E|----------------------|------------------------|

E|5-------0---2---3---0-|2---------------------|
B|----------------------|----------------3-----|
G|--------0-------2-----|--------2-------------|
D|4---------------------|0---------------------|
A|----------------------|--------4-------2-----|
E|----------------------|----------------------|

E|0---2-------------------|------------------|
B|--------2-3-2-------3---|3-----------------|
G|0-----------------------|2-----------------|
D|--------2---------------|--------4-------0-|
A|------------------------|------------------|
E|------------------------|------------------|

E|3-------2---0---------|------------------------|
B|----------------3---1-|0---------------1-------|
G|----------------------|0-----------------------|
D|----------------------|--------4---2---0-------|
A|----------------------|--------------------3---|
E|3---------------------|------------------------|

E|----------------------|----------------------|
B|3-------1---0---------|----------------------|
G|----------------2---0-|----------------0-----|
D|----------------------|4---------------------|
A|2---------------3-----|5-------3---2---0-----|
E|----------------------|--------------------3-|

E|------------------------|----------------------|
B|------------0---1-------|0-------0-------------|
G|2---0---2-----------2---|------------2---0-----|
D|----------------0-------|--------------------4-|
A|------------------------|----------------------|
E|2-----------------------|3---------------------|

E|0---------------------|----------------0------|5--0--2--3--0-|
B|--------0---2---3---0-|2----------------------|--------------|
G|----------------0-----|2---------------0------|---0-----2----|
D|2---------------------|--------2---4-------2--|4-------------|
A|----------------------|-----------------------|--------------|
E|----------------------|-----------------------|--------------|

E|2-----------------|0---2-----------------|------------------|
B|----------------3-|--------2-3-2-------3-|3-----------------|
G|--------2---------|0---------------------|2-----------------|
D|0-----------------|--------2-------------|--------4-------0-|
A|--------4-------2-|----------------------|------------------|
E|------------------|----------------------|------------------|

E|------------------------|------------------------|
B|3-------2---0-----------|------------------------|
G|----------------2---0---|----------------0-------|
D|0-----------------------|4-----------------------|
A|------------------------|5-------4---2---0-------|
E|------------------------|--------------------3---|

E|----------------------|------------------------|
B|------------0---1-----|0-------0---------------|
G|2---0---2-----------2-|------------2---0-------|
D|----------------0-----|--------------------4---|
A|----------------------|------------------------|
E|2---------------------|3-----------------------|

E|3-------2---0-----------|--------0---------|
B|----------------4---2---|0---------------4-|
G|----------------2-------|0-----------------|
D|2-----------------------|----------------4-|
A|------------------------|------------------|
E|------------------------|------------------|

E|3---2---2-3-2-------0---|0-----------------------|
B|--------4-------0-------|------------------------|
G|------------------------|--------0---------------|
D|2-----------------------|2-----------4---2---0---|
A|------------------------|------------------------|
E|------------------------|------------------------|

E|0---------------------|------------------------|
B|----3---1---0---------|------------------------|
G|----------------2---0-|----------------0-------|
D|--------0-------2-----|4-------4---2---0-------|
A|3---------------------|5-------------------3---|
E|----------------------|------------------------|

E|------------------------|0---------------2-|
B|3-------0---1---3---0---|------------------|
G|------------------------|------------------|
D|------------------------|------------------|
A|2---------------2-------|3-------3---2---0-|
E|--------3---------------|------------------|

E|3---2---0---------------|0----------------------|5--2-3-2--3-|
B|------------3---1---0---|----3---1---0----------|------------|
G|------------------------|----------------2---0--|------------|
D|------------------------|--------0-------2------|---0--------|
A|2---------------2-------|3----------------------|3-----------|
E|--------3---------------|-----------------------|------------|

E|------------------------|------------------------|
B|0-----------------------|3-------2---0-----------|
G|------------------------|----------------2---0---|
D|----------------0-------|0-----------------------|
A|--------2---------------|------------------------|
E|3-----------------------|------------------------|

E|----------------------|------------------------|
B|----------------------|------------0---1-------|
G|----------------0-----|2---0---2-----------2---|
D|4---------------------|----------------0-------|
A|5-------4---2---0-----|------------------------|
E|--------------------3-|2-----------------------|

E|------------------------|3-------2---0---------|
B|0-------0---------------|----------------4---2-|
G|------------2---0-------|----------------2-----|
D|--------------------4---|2---------------------|
A|------------------------|----------------------|
E|3-----------------------|----------------------|

E|--------0---------------|3---2---2-3-2-------0---|
B|0---------------4-------|--------4-------0-------|
G|0-----------------------|------------------------|
D|----------------4-------|2-----------------------|
A|------------------------|------------------------|
E|------------------------|------------------------|

E|0---------------------|0-----------------------|
B|----------------------|----3---1---0-----------|
G|--------0-------------|----------------2---0---|
D|2-----------4---2---0-|--------0-------2-------|
A|----------------------|3-----------------------|
E|----------------------|------------------------|

E|------------------------|----------------------|
B|------------------------|3-------0---1---3---0-|
G|----------------0-------|----------------------|
D|4-------4---2---0-------|----------------------|
A|5-------------------3---|2---------------2-----|
E|------------------------|--------3-------------|

E|0---------------2-------|3---2---0---------------|
B|------------------------|------------3---1---0---|
G|------------------------|------------------------|
D|------------------------|------------------------|
A|3-------3---2---0-------|2---------------2-------|
E|------------------------|--------3---------------|

E|0---------------------|5-------2-3-2---3-------|--|
B|----3---1---0---------|------------------------|0-|
G|----------------2---0-|------------------------|--|
D|--------0-------2-----|--------0---------------|--|
A|3---------------------|3-----------------------|--|
E|----------------------|------------------------|3-|

Вверх


Ларго из арии (опера
«Ксеркс»)

Строй: DADGBE

E|-----------|------------|-----------|------------|---------|
B|-3---------|------------|-----------|------------|---------|
G|-0---0--0--|-4--2--2--0-|-0---0--0--|-0----------|---------|
D|-0---0--0--|-4--4--4----|-2---2--2--|-0--4--2--0-|-0--0--0-|
A|-2---2--2--|-5--5--5----|-2---2--2--|-2--5--3----|-2--2--2-|
D|-5---5--5--|-0--0--0----|-2---2--2--|----4--2----|-5--5--5-|

E|-------------|-----------|-0--0--2--|-3---------|------------|
B|-------------|-----------|-------3--|-3----3-3--|---5-1------|
G|-------0-2-4-|-2----0-2--|-2--2--2--|-0--0---0--|-0---0----4-|
D|-2--4--------|-4--4-2-4--|-4--4-----|-----------|-2---2--4---|
A|-3--3--2-----|-5--5---5--|-3--3--3--|-2--2---2--|-3---0--5---|
D|-5--4--5-----|-0------0--|----------|-----------|--------0---|

E|---------|-------------|----------|----------|----------|
B|---------|-------------|----------|-1--1-----|----------|
G|-0--0--0-|-0-----------|----------|-0--2--4--|-2----0-0-|
D|-0--0--0-|-----4--2--0-|-0--0--0--|-2--0--0--|-2--0---0-|
A|-2--2--2-|-3---3--3----|-2--2--2--|----------|-3--3---2-|
D|---------|-5---4--2----|-5--5--5--|-2--4--5--|----------|

E|-2--2-----|------0-----|------------|----------|----------|
B|-------5--|-4------4-5-|------------|----1-----|-1--------|
G|-5--5--4--|-2--2-----0-|-5-2--------|----2--0--|----4-2-4-|
D|-4--4--2--|-1--1-----2-|-2---4--1-2-|-2--2--2--|-4--0---0-|
A|-0--0-----|----2-----3-|-0---7--2---|-2--0--0--|----5---5-|
D|-------5--|-4----------|-----4--4---|-2--------|-0--5---5-|

E|---------0--|-(0)----------|---------|-3--3--2--|-----------|
B|------------|------3--1--0-|-------3-|-3--3--3--|-7--5--3-3-|
G|-2--0-2--2--|-(2)--0--2----|-4--0----|-0--0--0--|-5--5------|
D|-4--2-4--4--|-(4)--0--4----|----0--4-|-0--0--0--|-5--5----4-|
A|-5----5--3--|-(3)--2-------|-5-----0-|-2--2--2--|-3--3----0-|
D|-0----------|---------0----|-5-----0-|----------|---------0-|

E|------------|-----------|-----------2-|-3--(3)-(3)-(3)-|
B|-3-2-2----2-|-3----5-3--|-1-0-------3-|-3---1---0---1--|
G|-----0--0---|--------0--|-0---2-----2-|-0--(0)-(0)-(0)-|
D|-5---2--2---|-4--4------|-2---0--4----|-2--(2)-(2)-(2)-|
A|-0---0--0---|-0--3---2--|--------5----|----------------|
D|------------|-0---------|-2---4--0----|-2--(2)-(2)-(2)-|

E|-(3)------|---------------|---------|-----|
B|-(1)------|---------------|---------|-----|
G|-(0)------|-2-4-5-4--2--0-|-0-------|-(0)-|
D|-(2)------|-2-----4--4----|---------|-----|
A|----------|-3-----5--0----|-2-------|-(2)-|
D|-(2)------|-------0--0----|-5-------|-(5)-|

Вверх


Минуэт в D из
«Водной музыкальной
сюиты»

Размер: 3/4

E|-2--2--2-|-2--2-3-2-3-|-5--5--5--|-------------7--|--3--3--3-|
B|-3--3--3-|-3--3-5-3---|-3--3--3--|--10--8--10-----|--0--0--0-|
G|---------|------------|----------|---7------------|----------|
D|----0----|-0----------|----------|----------------|----------|
A|-------4-|----0---2---|----------|----------------|----------|
D|-0-------|------------|-4--4--4--|---9------------|--2--5--2-|

E|-------------5--|--2--2-2-2-2--|--2---------||-----------|
B|-8-----7--8-----|--3--3-3-3-3--|--3--------.||.----------|
G|-6--------------|--------------|-----------.||.--2--2--2-|
D|----7-----------|--0--0-0-0-0--|-----------.||.--4--4--4-|
A|-0-----------0--|--------------|--------0---||---5-----5-|
D|----------------|--------------|--0--4------||------0----|

E|----------|--------------|-----------|-----------|----------|
B|----0--2--|--3--3-3-3-3--|--3--------|--0--------|----------|
G|-2--------|-----------0--|--2-----2--|--0--2--0--|----------|
D|-2--2--2--|--4--4-4-4----|--------4--|-----4--2--|--4--2--0-|
A|-4--4--4--|--2--2---2----|-----------|-----2--4--|--5--4--2-|
D|----------|--------------|--4-----0--|--5--------|----------|

E|------------|-----------|--2--3--5--3--2--|--0--2--3--2--0-|
B|------------|-----------|--3--------------|----------------|
G|------------|-----------|-----------------|----------------|
D|-2----------|-----------|--0--------4-----|--2-------------|
A|-0--0-0-0-0-|--0--4--0--|-----------------|--------0-------|
D|------------|-----------|--------0--------|----------------|

E|-2--3--5--3--2-|-0--2--3--2--0--|--2--3--5--3--|--2--3-2-0-2-|
B|-3-------------|----------------|--3--5--7--5--|--3----------|
G|---------------|----------------|--------------|-------------|
D|-0--------4----|-2--------------|--0-----------|--0----------|
A|---------------|-------0--------|-----------0--|---------0---|
D|-------0-------|----------------|--------0-----|-----4-------|

E|-------------|-------------|
B|-3--3-3-3-3--|--3--------.-|
G|-------------|-----------.-|
D|-4--4-4-4-4--|--4--------.-|
A|-------------|-------------|
D|-0--0-0-0-0--|--0----------|

Вверх


Сарабанда в Dm

1
E||-1---1---3-|-0----0----------|-5----5----6-|-3---3--------5-|
B||-3---3---5-|-2----2----------|-6----6----8-|-5---5--------7-|
G||-2---2-----|-2----2----------|-5----5------|-5---5----------|
D||-0---------|-----------------|------3------|----------------|
A||-----------|-0-------1--0----|-------------|-3------3--1--0-|
D||-----0-----|---------------5-|-3-----------|----------------|

5
E|-6----6------8---|--5----5----------|--10----10------12--|
B|-8----8------10--|--6----6------10--|--10----8-----------|
G|-7----7----------|--7----7----------|--------------------|
D|------5----------|--0---------------|--------------------|
A|-----------------|------------------|--------------------|
E|-5---------------|-------0------10--|--8-----8-----------|

8
E|-9---9-----------|-1----1----3-|-0----0--------|-5----5----6-|
B|-10--10----------|-3----3----5-|-2----2--------|-6----6----8-|
G|-9---9---0-------|-2----2------|-2----2--------|-5----5------|
D|------------3--2-|-0-----------|---------------|------3------|
A|-0---------------|-------------|---------1-0---|-------------|
E|-----------------|------0------|-------------5-|-3-----------|

12
E|--3----3--------5--|--6-----6--------8--|--5----------10--9--|
B|--5----5--------7--|--8-----8-----------|--6------10---------|
G|--5----5-----------|--7-----5-----------|--5-----------------|
D|-------------------|-----5-----5--------|-------------8------|
A|--3-------3--1--0--|--------7-----3--7--|--8-----------------|
E|-------------------|--5-----------------|--------------------|

15
E|--10--12--13------12h13h12-10-|-10----10-|-1--------5--------|
B|--------------10--------------|-10----10-|-------3-----8--6--|
G|--0---------------12----------|-10----10-|----2--------------|
D|------------------------------|-0-----0--|-------3-----0-----|
A|----------0-------0-----------|-------0--|-------------------|
E|------------------------------|-------0--|-0-----------------|

18
E|--0-----------------|--5--------8--6--5--|--3--------------5-|
B|-----0--------------|--------6-----------|-----3--5-----5----|
G|--------6-----------|-----5--------------|--5--------4--5----|
D|--7--------5--7-----|--------7-----3-----|-----------------4-|
A|--------0--------7--|--8-----------------|--------3----------|
E|--------------------|--------------------|-------------------|

21
E|-6--------10--8--6-|-5-------------5-|-10---------13--12--10-|
B|-------8-----------|----8--6--5----5-|-----10--8-------------|
G|----7---------0----|-------7-----7-5-|----------------0------|
D|-5-----8-----------|-0---------------|-8---------------------|
A|-------------------|-----------------|-----------------------|
E|-------------------|-----------------|---------8-------------|

24
E|--9--12------9--0--3--|--1--------5-------|-0----------------|
B|---------10-----------|--------3-----8--6-|----0-------------|
G|-------------0--------|-----2-------------|-------6----------|
D|----------------3--2--|--------3-----0----|-7--------5--7----|
A|--0-------------------|-------------------|-------0--------7-|
E|----------------------|--0----------------|------------------|

27
E|--5--------8--6--5--|--3--------------5--|-6--------10--8--6-|
B|--------6-----------|-----3--5-----5-----|-------8-----------|
G|-----5--------------|--5--------4--5-----|----7---------0----|
D|--------7-----3-----|-----------------4--|-5-----8-----------|
A|--8-----------------|--------3-----------|-------------------|
E|--------------------|--------------------|-------------------|

30
E|-5-------5-10-9-|-10-12-13----12h13h12-10-|-10-------------0-|
B|---8--6--5------|----------10-------------|-10-11-10---------|
G|------7--5------|----0--------12----------|-10-------12-10---|
D|-0---------8--7-|-8-----------------------|-0----------------|
A|----------------|-------0-----0-----------|-------------0----|
E|----------------|-------------------------|------------------|

33
E|--1-----1-----------|--0-----0-----------|--5-----5----------|
B|--3-----3-----------|--2-----2-----------|--6-----6----------|
G|--2-----2--------0--|--2--0--2-----------|-------------------|
D|--0-----0--2--3-----|-----------2--------|-----------5--7--8-|
A|-----4--------------|--------------4--0--|--8--7--8----------|
E|--0-----------------|--------------------|-------------------|

36
E|--0------3-----------|--6-----6-----------|-5-----5----------|
B|--8------1-----------|--8-----8-----------|-6-----6----------|
G|------0--0--0--------|--0-----0--------5--|-7----------------|
D|--10-----2--------2--|-----------7--8-----|----7-----7--0----|
A|---------------3-----|-----9--------------|-------8--------8-|
E|---------------------|--------------------|------------------|

39
E|--10-----12--------10-|--9----------------|-1-----1----------|
B|--10------------------|-------------------|-3-----3----------|
G|----------------0--10-|--9--------0-------|-2-----2----------|
D|---------8---7--------|-----8--7-----3--2-|-0----------------|
A|------8---------------|--0----------------|----0-----0-------|
E|--8----------------8--|-------------------|-------3-----0--3-|

42
E|--0-----0-----------|--5-----5-----------|--3-----3----------|
B|--2-----2-----------|--6-----6-----------|--5-----5----------|
G|--2-----2--0--------|--------------------|-------------------|
D|-----2--------3--2--|--3-----------------|-----------0--2--3-|
A|--0-----------------|-----3--0--3-----0--|--3--2--3----------|
E|--------------------|--------------3-----|-------------------|

45
E|--6-----6-----------|----------------10--9--|
B|--8-----8-----------|--10--------10---------|
G|--0-----------------|--10-------------------|
D|-----0-----0--------|--0------0-------------|
A|--------------------|------7-------------0--|
E|--------8-----5--8--|------------10--8------|

47
E|-10--12--13------12h13h12-10-|--10-------------|
B|-------------10--------------|--10-------------|
G|-----------------12----------|--10-------------|
D|-----------------------------|--0--------------|
A|-----10--0-------0-----------|------0-----0----|
E|-8---------------------------|---------3-----0-|

Вверх


Сарабанда в Dm
(2 вариант)

E|-1-----1-----3-|-0----0-----------|-5----5--------6-|-3----3-|
B|-3-----3-----5-|-2----2-----------|-6----6--------8-|-5----5-|
G|-2-----2-------|-2----------------|-5----5----------|-5----3-|
D|-0-------------|------------------|------3----------|--------|
A|---------------|-0--------1--0----|-----------------|-3------|
D|-------0-------|----------------5-|-3---------------|--------|

E|-------5-|--6----6---------8--|--5----5----------|--10----10-|
B|-------7-|--8----8--------10--|--6----6------10--|--10-----8-|
G|---------|--7----7------------|--7----7----------|-----------|
D|---------|-------5------------|--0---------------|-----------|
A|-3--1--0-|--------------------|------------------|-----------|
D|---------|--5-----------------|-------0------10--|---8-----8-|

E|-12-|--9-----9----------|-1--------1------3-|-0--0-----------|
B|----|-10----10----------|-3--------3------5-|-2--2-----------|
G|----|--9-----9--0-------|-2--------2--------|-2--------------|
D|----|--------------3--2-|-0-----------------|----------------|
A|----|--0----------------|-------------------|-0------1--0----|
D|----|-------------------|----------0--------|--------------5-|

E|-5----5--------6-|-3----3----------5-|-6-----6--------8-|--5-|
B|-6----6--------8-|-5----5----------7-|-8-----8----------|--6-|
G|-5----5----------|-5----3------------|-7-----5----------|--5-|
D|------3----------|-------------------|----5-----5-------|----|
A|-----------------|-3---------3--1--0-|-------7-----3--7-|--8-|
D|-3---------------|-------------------|-5----------------|----|

E|-----10--9-|-10--12--13------12--10-|-10----10-||--1-------|
B|-10--------|-------------10---------|-10----10-||--------3-|
G|-----------|--0--------------12-----|-10----10-||-----2----|
D|------8----|----------0-------------|--------0-||--------3-|
A|-----------|------------------------|--------0-||----------|
D|-----------|------------------------|--------0-||--0-------|

E|-5-------|-0----------------|-5--------8--6--5-|-3---------5-|
B|----8--6-|----0-------------|-------6----------|---3-5---5---|
G|---------|-------6----------|----5-------------|-5-----4-5---|
D|----0----|-7--------5--7----|-------7-----3----|-----------4-|
A|---------|-------0--------7-|-8----------------|-----3-------|
D|---------|------------------|------------------|-------------|

E|-6--------10--8--6-|-5--------------5-|-10---------13--12-10-|
B|-------8-----------|----8--6--5-----5-|-----10--8------------|
G|----7---------0----|-------7-----7--5-|-----------------0----|
D|-5-----8-----------|-0--------------7-|--8-------------------|
A|-------------------|------------------|----------------------|
D|-------------------|------------------|---------8------------|

E|-9-12----9--0--3-|-1-------5-------|-0----------------|-5----|
B|------10---------|------3-----8--6-|----0-------------|------|
G|---------0-------|---2-------------|-------6----------|----5-|
D|------------3--2-|------3-----0----|-7--------5--7----|------|
A|-0---------------|-----------------|-------0--------7-|-8----|
D|-----------------|-0---------------|------------------|------|

E|----8--6--5-|-3--------------5-|-6--------10--8--6-|-5-----5-|
B|-6----------|----3--5-----5----|-------8-----------|---8-6-5-|
G|------------|-5--------4--5----|----7---------0----|-----7-5-|
D|-7-----3----|----------------4-|-5-----8-----------|-0-------|
A|------------|-------3----------|-------------------|---------|
D|------------|------------------|-------------------|---------|

E|-10--9-|-10-12--13------12--10-|-10----------------0-|-1---1-|
B|-------|------------10---------|-10--11--10----------|-3---3-|
G|-------|-----0----------12-----|-10----------12-10---|-2---2-|
D|--8--7-|--8--------------------|---------------------|-0---0-|
A|-------|---------0-------0-----|-----------------0---|---4---|
D|-------|-----------------------|---------------------|-0-----|

E|---------|-0-----0---------|-5-----5--------|--0-----3-------|
B|---------|-2-----2---------|-6-----6--------|--8-----1-------|
G|-------0-|-2--0--2---------|----------------|-----0--0--0----|
D|-2--3----|----------2------|----------5-7-8-|-10-----2-------|
A|---------|-------------4-0-|-8--7--8--------|--------------3-|
D|---------|-----------------|----------------|----------------|

E|---|-6-----6----------|-5-----5----------|-10-----12------10-|
B|---|-8-----8----------|-6-----6----------|-10----------------|
G|---|-0-----0--------5-|-7----------------|--------------0-10-|
D|-2-|----------7--8----|----7-----7--0----|---------8--7------|
A|---|----9-------------|-------8--------8-|-----8-------------|
D|---|------------------|------------------|--8--------------8-|

E|-9----------------|-1-----1----------|-0-----0-------|-5---5-|
B|------------------|-3-----3----------|-2-----2-------|-6---6-|
G|-9--------0-------|-2-----2----------|-2-----2-0-----|-------|
D|----8--7-----3--2-|-0--0-------------|----2------3-2-|-3-----|
A|-0----------------|----------0-------|-0-------------|---3-0-|
D|------------------|-------3-----3--0-|---------------|-------|

E|---------|-3-----3----------|-6-----6--------|------------10-|
B|---------|-5-----5----------|-8-----8--------|-10-----10-----|
G|---------|------------------|-0--------------|-10------------|
D|---------|----------0--2--3-|----0-----0-----|--0---0--------|
A|-3-----0-|-3--2--3----------|----------------|----7----------|
D|----3----|------------------|-------8----5-8-|--------10---8-|

E|--9--|--10--12--13------12--10--|--10--------------|
B|-----|--------------10----------|--10--------------|
G|-----|------------------12------|--10--------------|
D|-----|--------------------------|---0--------------|
A|--0--|------10---0-------0------|------0-----0-----|
D|-----|---8----------------------|---------3-----0--|

Вверх


Сонатина в A —
Аллегретто

Размер: 4/4
Allegretto.

E|-------0---------|-------0-------------|-----------0-2-------|
B|---------2-0-2---|-0-----------------0-|---------------3---3-|
G|---2-1---------2-|---------2h4p2-1-2---|-1h2p1-----------4---|
D|-------2---------|---------------------|-2-----0-2---0-------|
A|-0-------0-------|-------------------2-|-----------4-------2-|
E|---------------2-|-4-2-4-0-2-----------|---------------------|

E|-0---------------|---0---0---0---0-|---0---0-----------|
B|---2---2-3-0---0-|-2---0-----------|-------------------|
G|-----2-------1---|-----1---2---1---|-------------------|
D|-----------------|---------4---2---|-4---2---4h6-7---6-|
A|-4-----0-2-------|-0---------------|-5---4---5-----7---|
E|---------------4-|-----------------|---------------0---|

E|---------------0-|-------0-5-2---7-|-------7---7---7-|
B|-----------------|-2-----------0---|-9---------------|
G|-------6-7-------|---2-------------|---------6---8---|
D|-7---------9-----|-----2-----------|-----6-----------|
A|-----4-------7---|-0-4-----------6-|-7-9-----0-------|
E|-5-7---5-7-----4-|-------4-2-------|-------4-----7---|

E|---5-4-2-4---5-2h4p2-----|-0---------------|-----------------|
B|-5---------------------5-|-------------2---|---------0-2-3-0-|
G|-----------2---4---------|-----1---2-4---2-|-----------------|
D|-------------------------|-2-4---2---------|-4---4-0-------0-|
A|-4-----0-2-----------2---|---------4-----4-|-5-7-----2-------|
E|-------------------------|-----------------|-----------------|

E|-------------0---|-----------2-0---------|-------0-2-----4-|
B|---------2-3---2-|---------3-----3-2-0---|-----------3-----|
G|-1-----1---------|-2-----2-------------2-|-1-----------4---|
D|---------------2-|-------------------0---|-2-0-2---0-----2-|
A|---------4-------|-----0---2-------------|-------4---------|
E|-0-2-4-0---------|-2-4---2---------------|-----------------|

E|-5-----------------------|-----------------|
B|-------3-2-0-------------|-----------------|
G|---2-2-------2-1h2p1---2-|-2-----1---2---2-|
D|-4---------0---2---------|---------4---2---|
A|---------0---------------|-0-2-4-0-5---4---|
E|-------4-------------0---|-----------------|

E|-------------------|---|
B|-------3-2---0-----|---|
G|---1-2-----------2-|-2-|
D|-0-----4-2-0-2-----|-2-|
A|-2---0-------------|-4-|
E|---------------0---|-5-|

Вверх