Bon Jovi

Always
Bed Of Roses
Cold Hard Heart
I’d Die For You
I wish every day could
Janie dont acoustic
Janie please dont take your love to town
Lie to me
Little City
Midnight in chelsea
Real Life
Real Life
Thank You For Loving Me
Thank You For Loving Me (2 вариант)
Wanted Dead or Alive
Вверх

Always

Intro
E        A
E        A
C#m
This romeo is bleeding
B
but you can't see his blood
A
it's nothing but some feelings
F#m            B
that this old dog kicked up

C#m
it's been raining since you left me
B
now I'm drowning in the flood
A
you see I've always been a fighter
F#m            B
but without you I give up

C#m
now I can't sing a love song
B
like the way it's meant to be
A                  B
well, I guess I'm not that good anymore
A                 B
but baby, that's just me

E           B
yeah, I will love you
A    C#m B
baby -  Al--ways
E                B           A
and I'll be there forever and a day -
C#m B
Al--ways
E
I'll be there till the stars don't shine
B
till the heavens burst and
A
the words don't rhyme
A
and I know when I die, you'll be on my mind
B         A  B  C#m
and I'll love you - Al---ways

C#m
now you're pictures that you left behind
B
are just memories of a different life
A
some that made us laugh, some that made us cry
F#m              B
one that made you have to say goodbye

C#m
what I'd give to run my fingers through

your hair
B
to touch your lips, to hold you near
A
when you say your prayers

try to understand
F#m                B
I've made mistakes, I'm just a man

C#m
when he holds you close, when he pulls you near
B
when he says the words you've been
needing to hear
A
I'll wish I was him cause those words are mine
B                  A       B
to say to you till the end of time

E       B
yeah, I will love you
A   C#m B
baby - Al--ways
E                B           A
and I'll be there forever and a day -
C#m B
Alw-ays

D                      G
if you told me to cry for you
A  D
I could
G
if you told me to die for you
Bm
I would


take a look at my face
G                            A
there's no price I won't pay

to say these words to you

Guitar solo

E  B  A
C#m B
E  A
B  A
A  B
A
well, there ain't no luck

in these loaded dice
B
but baby if you give me just one more try
A
we can pack up our old dreams

and our old lives
B                      A          B
we'll find a place where the sun still shines


E       B
yeah, I will love you
A   C#m B
baby - Al-ways
E                B           A
and I'll be there forever and a day -
C#m B
Alw-ays

E
I'll be there till the stars don't shine
B
till the heavens burst and
A
the words don't rhyme
A
and I know when I die, you'll be on my mind
B         A  B  E
and I'll love you - Al---ways

E  B
C#m  B   A

Вверх

Bed Of Roses

Bb                                            F
Sitting here wasted and wounded with this old piano.

Bb                                         F
Trying hard to capture the moment, this morning I don?t know.

Am                    Bb                       F
'cause a bottle of vodka still lies in my head and some blonde

Bb
gave me nightmares, I think that she?s still in my bed.

Bb                      C                         F
As I dream about movies they won?t make of me when I?m dead.

Bb                                          F
With an iron-clad fist I wake up to french-kiss the morning.

Bb
While a marching band keeps it?s own beat in my head while
F
we?re talking

Am                  Bb
about all of the things that  I longed to believe, about
F
love, the truth,

Bb
what you mean to me and the truth is...

Bb          C          F
Baby you?re all that I need.


Chorus:
------

Dm      C         Bb     F
I wanna lay you down in a bed of roses.

Dm        C          Bb     F
Tonight I sleep on a bed of nails.

Bb         F            Bb   F
I wanna be just as close as the Holy Ghost is.

Dm  C   Bb                F
Lay you down, on a bed of roses.

I?m so far away, each step that I take?s on my way home.
A king?s ransom in dimes I?d give each night to see through
this payphone.
But I?d run out of time or it?s hard to get through till
the bird on the
wire
flies me back to you. I?ll just close my eyes.
And whisper "baby it probably is true".

Bridge:
------

Bb                  C
The hotel bars hangover whiskey?s gone dry.

F
The bartender?s wig?s crooked, she?s giving me the eye.

Bb                       Bb              C         F
might?ve said yes, but I laughed so hard I think I died.

Now as you close your eyes you know I?ll be thinking about you.
My mistress she calls me to stand in her spotlight again.
Tonight
I won?t be alone, you know that don?t mean I?m not lonely.
I?ve got nothing to prove, for its you I?d die to defend.

Вверх

Cold Hard Heart

Проигрыш:

E|-5-5-5-5-7-7-7-7-|-8-8-8-8-10-10-10-10-|
B|-5-5-5-5-5-5-5-5-|-5-5-5-5-10-10-10-10-|
G|-5---------------|-5-------10----------|
D|-7---------------|---------------------|
A|-7---------------|-7-------------------|
E|-5-------5-------|--------10-----------|

F			       Am
You said you loved to watch me sleep
F			     Am
You put your head down on my chest
G
To hear me breathe

^Проигрыш (x2)

F				Am
Go on, take my last breath from me
F			Am
I don?t want to live no more
F			   G
And cut my eyes so I can?t see
F				Am		 G
I can?t see you looking back as you walk out the door

F
Cold, hard heart
C
Cold, cruel heart
G
What?s it gonna take
Am
To break your cold hard heart

Проигрыш

I was a lover lost that seek
You found me washed up on the beach
You took me home, you gave me breakfast
I said I?d offer you protection, but you didn?t charge a fee

F
Cold, hard heart
C
Cold, cruel heart
G
What?s it gonna take
Am
To break your cold hard heart
F
Cold, cold heart
C
You cold, cruel heart
G
What?s it gonna take
Am
To break your cold hard heart


C	G	F

Dm				    C
What are you hiding underneath that shirt
Dm
If you?re the one to run babe
G
Then you don?t feel the hurt

The hair so brown, and eyes so green
You used to say I made a good company
She?d bring me wine and sip her tea
Then you?d give yourself what you could give to me

F
Cold, hard heart
C
Cold, cruel heart
G
What?s it gonna take
Am
To break your cold hard heart
F
Cold, cold heart
C
You cold, cruel heart
G
What?s it gonna take
Am
To break your cold hard heart
G
What?s it gonna take
Am
mmmm...

^Проигрыш (x2)

Вверх

I’d Die For You

Written by: Jon Bon Jovi, Richie Sambora & Desmond ChildIntro
=====
E||-------------------|--------------------|-------------------|
B||-------------------|--------------------|-------------------|
G||*------------------|--------------------|-------------------|
D||*--2-------2-------|--------------------|-------------------|
A||---0-------0----3--|----------------x-x-|--5----------------|
E||----------------1--|----------------x-x-|--3----------------|
Riff 1
E|--------------------||-------------------|-------------------|
B|--------------------||-------------------|-------------------|
G|--14----14----12---*||-------------------|-------------------|
D|--14----14----12---*||-------------------|-------------------|
A|--------------------||--0----2----3------|-------0---------0-|
E|--------------------||-----------------1-|--3---------3------|

E|---------------------|----------------------|----------------|
B|---------------------|----------------------|----------------|
G|---------------------|----------------------|----------------|
D|---------------------|----------------------|----------------|
A|-2--------------2----|--0----2----3---------|-------0----5---|
E|------0----3---------|-----------------1----|--3---------3---|
Verse:                        ======
If you could see inside my heart
E|-----------------|------------------|
B|-----------------|------------------|
G|-14----14----12--|------------------|
D|-14----14----12--|------------------|
A|-----------------|--0--0--0--0------|
E|-----------------|------------------|then you would understand
I¦d never mean to hurt you
Baby I¦m not that kind of manI might not say
D|----------------------------|--------------------------------|
A|----------------------------|------------7-------------------|
E|----------4--7--------------|---5----------------------------|

I¦m sorry Yeah  I  might talk tough sometimes            And
E|-------------------|-------------------|---------------------|
B|-------------------|-------------------|---------------------|
G|-------------------|-------------------|---------------------|
D|-------------------|-------------------|---------------------|
A|-------------------|--3----------------|------------x-x-3----|
E|-------------------|--1----------------|------------x-x-1----|
I might forget the little things    Or keep you hanging
E|-------------------|-------------------|---------------------|
B|-------------------|-------------------|---------------------|
G|-------------------|-------------------|---------------------|
D|-----------5-------|-------------------|---------------------|
A|-----2--5----------|-------------------|--2------------------|
E|--3----------------|-------------------|--0------------------|
Bridge                  ======
on the line  In a  world that dont know Romeo and Juliet
E|------------------|--------------------|---------------------|
B|------------------|--------------------|---------------------|
G|------------------|--------------------|---------------------|
D|------------------|--------------------|---------------------|
A|------------------|--3------------3----|--7-------5----------|
E|------------------|--1------------1----|--5----3--3----------|
Boy meets girl and   promises we can¦t forget We are cast from
E|------------------|---------------------|--------------------|
B|------------------|---------------------|--------------------|
G|------------------|---------------------|--------------------|
D|-------------5----|--5------------------|--------------------|
A|-3-----------3----|--3---------5--------|--3------------3----|
E|-1----------------|---------3--3--------|--1------------1----|
Edens gate with no regrets Into the fire we cry
E|---------------------|-------------------|-------------------|
B|---------------------|-------------------|-------------------|
G|---------------------|-------------------|-------------------|
D|---------------------|-------------------|-------------------|
A|--7---------5--------|--3----------------|--2----------------|
E|--5------3--3--------|--1----------------|--0----------------|
Chorus - use Riff 1===================Verse 2=======
I might not be a savior     And I¦ll
E|-------------------------|-----------------------------------|
B|-------------------------|-----------------------------------|
G|-------------------------|-----------------------------------|
D|------------7------------|-----------------------------------|
A|------4--7---------------|-----------------------------------|
E|---5---------------------|-----------------------------------|
never be a king                     I might not send you roses
E|-------------------|------------------|----------------------|
B|-------------------|------------------|----------------------|
G|-------------------|------------------|----------------------|
D|-------------------|------------------|-----------5----------|
A|--3----------------|------------------|-----2--5-------------|
E|--1----------------|------------------|--3-------------------|
Or buy your diamond rings   -harmonics----)      But if
E|----------------|-------------------|--------------5---------|
B|----------------|-------------------|--7---7-----5-----------|
G|----------------|-------------------|----7---7-5-------------|
D|----------------|-------------------|------------------------|
A|-------x--------|--2----------------|------------------x-x-x-|
E|-------x--------|--0----------------|------------------x-x-x-|
I could see inside you Maybe         I¦d know just who we are
E|--------------------|-------------------|--------------------|
B|--------------------|-------------------|--------------------|
G|--------------------|-------------------|--------------------|
D|-2------------------|--2----------------|--------------------|
A|-0----0--0--0----0--|--0--0--0----0--0--|--3-----------------|
E|--------------------|-------------------|--1----1--1---1--1--|
cause our love is like a hunger                Without it
E|--------------------|----------------------|-----------------|
B|--------------------|----------------------|-----------------|
G|--------------------|----------------------|-----------------|
D|--------------------|----------------------|-----------------|
A|-3------------------|--5-------------------|--5--------------|
E|-1--1--1----1----1--|--3----3--3---3----3--|--3--3--3--3--3--|
we will starve
E|--------------------------|------------------------|
B|--------------------------|------------------------|
G|--------------------------|------------------------|to bridge
D|--------------------------|--0-dive----------------|
A|--2-----------------------|-(2)--------------------|
E|--0-----------------------|--(0)-------------------|

Solo====

D|--------------------------|----------------------------------|
A|-----------4----5---------|---7------------------------------|
E|--------------------------|----------------------------------|

E|----------------------------|--------------------------------|
B|----------------------------|--------------------------------|
G|----------------4----5------|----------------4----5----------|
D|--7----7-7-7----------------|--5----5-5-5--------------------|
A|----------------------------|--------------------------------|
E|----------------------------|--------------------------------|

E|-----------------------------|-----------5----7----8---------|
B|-----------------------------|-----------5-------------------|
G|----7----5~---4--------------|-------------------------------|
D|-------------------5---------|-------------------------------|
A|------------------------5----|--7----------------------------|
E|-----------------------------|-------------------------------|

E|-------5----7--8-|------8-------10----8-------10-------12----|
B|-6-----5---------|-8/10---10/12----12---10/12----12/13----13/|
G|-----------------|-------------------------------------------|
D|-----------------|-------------------------------------------|
A|-----------------|-------------------------------------------|
E|-----------------|-------------------------------------------|

E|-----10-----8-----7-7--------|-------------------------------|
B|--12----12----10----8--------|-------------------------------|
G|-----------------------------|--------5--------5----------5--|
D|-----------------------------|--7-5-7---7--5-7---7--7-5-7----|
A|-----------------------------|-------------------------------|
E|-----------------------------|-------------------------------|

E|------------------|------------------------------------------|
B|------------------|------------------------------------------|
G|-------5----------|-------17---------------17-------------17-|
D|-7-5-7---7--19-19-|-17-19----19---19-17-19----19-19-17-19----|
A|------------------|------------------------------------------|
E|------------------|------------------------------------------|

E|--------------------------------------17----17---------------|
B|----------------------17--17-20-17-17----17------------------|
G|--------------17--19-----------------------------------------|
D|--19--17--19-------------------------------------------------|
A|-------------------------------------------------------------|
E|-------------------------------------------------------------|

E|-20b-20-20-17-------17-------|------17-----------------------|
B|--------------20-17----20-17-|--20b----20-17-----------------|
G|-----------------------------|---------------19-17----19--17-|
D|-----------------------------|---------------------19--------|
A|-----------------------------|-------------------------------|
E|-----------------------------|-------------------------------|

E|------------------------------|-----------------5--/12-------|
B|------------3--6--8--8~-------|-----------5--8---------------|
G|------3--5--------------------|-----5--7---------------------|
D|---5--------------------------|--7---------------------------|
A|------------------------------|------------------------------|
E|------------------------------|------------------------------|
I¦d die for you   I¦d cry for you I¦d do   anything    I¦d
E|----------------------|-------------------|------------------|
B|----------------------|-------------------|------------------|
G|----------------------|-------------------|------------------|
D|--2--2--2--2----------|-------------------|------------------|
A|--0--0--0--0----------|--3----------------|--5--5--5--5------|
E|----------------------|--1----------------|--3--3--3--3------|
lie for you    You  know it¦s true        Baby I¦d die for
E|------------------|----------------------|-------------------|
B|------------------|----------------------|-------------------|
G|------------------|----------------------|-------------------|
D|------------------|--2--2--2--2----------|--3----------------|
A|-2----------------|--0--0--0--0----------|--3----------------|
E|-0----------------|----------------------|--1----------------|
you                        -harmonics--)

E|--------------------------|-----------5----------|
B|--------------------------|--7------5------------|
G|--------------------------|-------5--------------|to chorus
D|--------------------------|----------------------|
A|--5--5--5--5--5--5--5--5--|----------------------|
E|--3--3--3--3--3--3--3--3--|----------------------|Ending====

E|-------------------|------------------------|---------------||
B|-------------------|------------------------|---------------||
G|-------------------|------------------------|--2------------||
D|--7-------9--------|----10--------12--------|--2------------||
A|--5-------7--------|----8---------10--------|--0------------||
E|-------------------|------------------------|---------------||

Вверх

I wish every day could

This is not real transcription, 'cause this is NOT what the guitar
Really
Plays, but I transcribed all the important parts for guitar, so that you
Can play the whole song on one guitar. Bon Jovi goes christmas, and
Pretty
Good too, agreed? Enjoy, e-mail me for any requests,comments or stuff
And
Most importantly have a very, very merry christmas!!

6/8 rhythm, dots equal eights.

Rhy.Fig.1
A       A/G#    A/F#    A/E     D           E
E|---------------|----------------|--------------|-0-----|
B|-2-------2-----|--2-------2-----|------3-----2-|-0-----|
G|-2-2-------2---|----2-------2---|----2---2/4---|-1-----|
D|-2---2-------2-|------2-------2-|--0-----------|-2-----|
A|-0-------------|----------------|--------------|-2-----|
E|---------4-----|--2-------0-----|--------------|-0-----|

Rhy.Fig.2
A             Asus4
E|--------------|-------------|
B|-2-----2------|-3-----------|
G|-2-------2----|-2-----------|
D|-2---------2--|-2-----------|
A|-0------------|-------------|
E|--------------|-------------|

Rhy.Fig.3
A       A/G#    A/F#    A/E      E       D
E|---------------|----------------|-0-----|-2-----|
B|-2-------2-----|--2-------2-----|-0-----|-3-----|
G|---2-------2---|----2-------2---|-1-----|-2-----|
D|-----2-------2-|------2-------2-|-2-----|-0-----|
A|-0-------------|----------------|-2-----|-------|
E|---------4-----|--2-------0-----|-0-----|-------|

Rhy.Fig.4
F#m     F#m     D       D
E|-2-----|-2-----|-2-----|-2-----|
B|-2-----|-2-----|-3-----|-3-----|
G|-2-----|-2-----|-2-----|-2-----|
D|-4-----|-4-----|-0-----|-0-----|
A|-4-----|-4-----|-------|-------|
E|-2-----|-2-----|-------|-------|

F#m     F#m     D       E
E|-2-----|-2-----|-2-----|-0-----|
B|-2-----|-2-----|-3-----|-0-----|
G|-2-----|-2-----|-2-----|-1-----|
D|-4-----|-4-----|-0-----|-2-----|
A|-4-----|-4-----|-------|-2-----|
E|-2-----|-2-----|-------|-0-----|

Rhy.Fig.5
D              D               Dm            Dm
E|-------2-----|--------2------|--------1-----|-------1------|
B|-----3---3---|------3---3----|------3---3---|-----3---3----|
G|---2-------2-|----2-------2--|----2-------2-|---2-------2--|
D|-0-----------|--0------------|--0-----------|-0------------|
A|-------------|---------------|--------------|--------------|
E|-------------|---------------|--------------|--------------|

A              A              A7            A7
E|-------------|--------------|--------------|-------------|
B|-------2-----|--------2-----|--------2-----|-------2-----|
G|-----2---2---|------2---2---|------0---0---|-----0---0---|
D|---2-------2-|----2-------2-|----2-------2-|---2-------2-|
A|-0-----------|--0-----------|--0-----------|-0-----------|
E|-------------|--------------|--------------|-------------|

B              B               D             D
E|-------------|---------------|--------2-----|-------2------|
B|-------4-----|--------4------|------3---3---|-----3---3----|
G|-----4---4---|------4---4----|----2-------2-|---2-------2--|
D|---4-------4-|----4-------4--|--0-----------|-0------------|
A|-2-----------|--2------------|--------------|--------------|
E|-------------|---------------|--------------|--------------|

E              E              E              E
E|-------------|---------------|-----------0--|-0-----------|
B|-------------|---------------|---------0----|---0---------|
G|-------1-----|--------1------|-------1------|-----1-------|
D|-----2---2---|------2---2----|-----2--------|-------2-----|
A|---2-------2-|----2-------2--|---2----------|---------2---|
E|-0-----------|--0------------|-0------------|-----------0-|


I Wish Every Day Could Be Like Christmas - Bon Jovi
[Rhy.Fig.1] x2

[Rhy.Fig.2]
What time is it baby?
Is it that time again,
When snow will be falling, friends will be callin' [Rhy.Fig.1]
You know it's time when
There'll be carolers singing                       [Rhy.Fig.2]
Silent Night
I love it when they sing, the feeling it brings    [Rhy.Fig.3]
It's as warm as the fire is bright

[Rhy.Fig.4]
Soon there'll be toys for the good girls and boys
And reindeer are heading our way
Yes and Santa will come down the chimeney above
There's one thing I wanted to say

I wish every day could be like christmas            [Rhy.Fig.1]
And if I could have one wish come true
I wish every day could be full of peace and harmony [Rhy.Fig.2]
I wish every day could be like christmas, I do      [Rhy.Fig.1]

I saw a child sit with old mr. Claus
Looked him in the eye and he asked old Santa
What peace on earth was
Now the old man grew cautious on how he would say
That it's the greatest gift what you could give
Every Day

CHORUS

[Rhy.Fig.5]
Now there's mistle-toes at the house of Lords
All the world seems at ease tonight
And all that I ask when these precious moments pass
Is why can't every day be so bright

CHORUS
Honest I do
Yes I do now
Very merry Christmas

Вверх

Janie dont acoustic

         C         G            Am
Sitting here just watching you sleep,
F              C
Wish I could slip inside and be
F            C        G
In some technicolour dream.
C                   G                      Am
But the air's too thick for one of us to breathe,
F               C
I'm not fool enough to think
F                C      G
You couldn't live life without me.

F                   G                C
I didn't come this far to throw the towel in
F               G            C
And I didn't fight this hard to walk away.
Am              E        F
If I ain't smart enough to say I'm sorry,
F                G                C
It's just because the words got in the way.

*Chorus*
F         G       C
Jaine don't you take your love to town,
F         G       C
Jaine don't you take your love to town.
Am         E    F
If I've got to beg, I'll beg, just don't walk away
F                G                 C
Jaine don't you take your love to town.

C		G	  Am
You deserve a shooter, a saint
F                C
Someone to give it to you straight
F                  C         G
To find the soul through flesh and bone.
C			       G
My life's a treasure, full of sunny weather
Am		  F
But it's left me feeling cold
F		    G		   C
Now all you want to do is take me home

F		  G		     C
I hated you, the night you said you loved me
F		  G		 C
And I hated you 'cause I couldn't love myself
Am		      E		       F
I'm begging you now, baby please just hold me
F	       G		C
I got one foot in and one foot of the ground


*Chorus*



*Chorus*

F         G       C
Jaine don't you take your love to town,
F         G       C
Jaine don't you take your love to town.
Am         E    F
If I've got to beg, I'll beg, just don't walk away
F                G                 C
Jaine don't you take your love to town
F                G         C
Jaine don't you take your love...

Вверх

Janie please dont take your love to town

        C         G            Am
Sitting here just watching you sleep,

F               C
Wish I could slip inside and be,

F            C        G
In some technicolour dream,

C                 G                      Am
But the air's too thick for one of us to breathe,

F              C
I'm not fool enough to think,

F                 C      G
You couldn't live life without me,

F                  G                C
I didn't come this far to throw the towel in,

F               G           C
I didn't fight this hard to walk away,

Am              E       F
If I ain't smart enough to say I'm sorry,

F                G                C
It's just because the words got in the way,

I remember how it used to be,
I was you and you were me,
We were more than just the same,
Now these shoes don't fit, My skin's too tight,
When you want a kiss, I take a bite,
Let your heart call up the cops, read me my rights,
Last night I drank enough to drown,
Raise a toast to your good looks and to my health,
Look, we both know how much I've let you down,
Jaine don't take your love to town,

Chorus:

F         G       C
Jaine don't you take your love to town,

F         G       C
Jaine don't you take your love to town,

Am        E    F
If I've got to beg, I'll beg, just don't walk away

F               G         C
Jaine don't you take your love to town,

Peace, God Bless C'ya

Вверх

Lie to me

Intro E | A

Verse 1
E
Rumour has it that your daddy's coming down - he's gonna pay the rent
A
Tell me baby, is this as good as life is gonna get
F#m                                  A
It feels like there's a stranger standing in these shoes
F#m
But, I know I can't lose me, 'cause then I'd be losing you

Intro (yea yea yea yea yea yea yea)

Verse 2
I know I promised you baby, I would be the one to make our dreams come true
I ain't too proud of all the struggles and the hard times we've been through
When this cold world comes between us, please tell me you'll be brave
'Cause I can realize the danger when forgiveness fades away

Chorus
E
If you don't love me lie to me,
C#m
'Cause baby you're the one thing I believe
F#m                                     A
Let it all fall down around us, if that's what's meant to be
F#m
Right now if you don't love me baby - lie to me

Intro (yea yea yea yea yea yea yea)

Verse 3
Pour another cup of coffee, babe I got something to say to you
I ain't got the winning ticket, not the one that's gonna pull us through
No one said it'd be easy, let your old man take you home
But know if you walk out on me that darling, I'd be gone

Chorus

Solo D | G | D | G | D | bm| em - G | em - G

Bridge
C#m
It's a bitch, but life's a roller coaster ride
F#m
The ups and downs will make you scream sometimes
A
It's hard believing that the thrill is gone
G#m                             B
But we got to go around again, so let's hold on

Chorus

End
E  A  f#m  A
Baby, I can take it c'mon lie to me.
E  A (repeat til' fade)

Вверх

Little City

Em
I got my call light on. Gimme one more fare tonight.
Just get me over the bridge. I can see those shiny bay lights.
You know I'm never alone. But I'm feeling lonely tonight.
Damn, I got my last cigarette. But I ain't got not light.

Chorus:

C
God let these wheels roll. To where the girls are pretty
G
When the nights explode. And life is still living
D
Down this open road. The arms of pity
Am                                Em
Wait to greet me tonight in little city.

In my rear view mirror I see someone else's hairline.

I hear that fire in your yes Is on the rock
and doing hard time
And the grapes of wrath, they're on the vine There's
wine in this dirt.
Here love ain't love It's just another four letter word

Chorus.

D  C  G  D     C  G  D  Am

Chorus.

Now that cold gray fog's. Just a rolling down the highway
He's come to carry me home. It's put a little smile on my face.

Как играть Em:
E|-----------------------------------------------|
B|-0---------------------------------------------|
G|--0---------0--------------------------0-------|
D|---2-----2-----2--0-----0^2---------2-----2--0-|
A|----2----------------2--------2----------------|
E|-----0---------------------------0-------------|

Вверх

Midnight in chelsea

F
The kids 'round here look just like sticks,
F
They trade old licks with a beat up six,
Bb
I smile and catch the groove,
Gm
Gothic girls all dress in black, Serious as heart attacks,
C
It takes a little bit of getting used to,
F
The old man with the whiskey stains,
F
Lost the night forgot his name,
Bb
His poor wife will sleep alone again,
Dm				Bb
And it ain't hard to understand,
C					Bb
Why she's holding on to her own hand,
F
It's midnight in Chelsea  sha la la la
Bb
Midnight in Chelsea sha la la la
Gm
No one's asking me for favours, No one's looking for a saviour,
C
They're too busy saving me

Bridge: It's morning when I go to sleep: is as follows
Dm-F/C-Gm-C

Intermission: Keyboards
Bb-F/A-Gm-F-C

F/A+F/C mean F chord with an A base and a C base

I find that bar chords for the
F(133211), Gm(355333), Bb(113331), C(335553) etc

Вверх

Real Life

CHORDS:
D    xx0232
A    x02220
A/G# 402220
F#m  244222
G    320033
E    022100
Bm   x24432

Riff 1:
-------

e|-------------------|----------------------|------------------|
B|-------------------|----------------------|------------------|
G|-------------------|----------------------|------------------|
D|--7----7/---9/-11--|--9--2--2-------4/6---|--4-----7/--9/-11-|
A|-------------------|----------------------|------------------|
E|--5----5/---7/-9---|--7--0--0-------2/4---|--2-----5/--7/-9--|


e|-----------------------||
B|-----------------------||
G|-----------------------||
D|----9----7----7--------||
A|-----------------------||
E|----7----5----5--------||


Intro:
------
D

Rhythm Fig 1:
-------------
A A/G# F#m D

Rhythm Fig 2:
-------------
A A/G# G D

Chorus 1:
---------
A E F#m D
A E D E
D

Chorus 2:
---------
A E F#m D
A E D E
A E F#m D
Bm E

Bridge:
-------
Bm F#m D A
E F#m G
D E


[Intro]
[Chorus 1]

[Rhythm Fig. 1]
I wish that life was like it is in the movies
‘Cause the hero always gets his way
No matter how hard it gets on that dark, lonely road
At the end he's got a smile on his face

[Rhythm Fig. 2]
But when they threw me out to the lions
No one saved me as I fell from your grace
And no one wrote me new lines for what I said wrong

And what I did wrong I could not erase

[Chorus 1]
This is real life, this is real love
This is real pain, that much I'm sure of
These are real tears, these are real fears inside that
I can't hide

[Rhythm Fig. 1]
I wish that I could be a white knight in armor
With an army just to bring you back home

[Rhythm Fig. 2]
But I'll admit I'm scared of dialing your number
And someone else is gonna answer the phone
Why can't it be like it is on TV
When the orchestra plays and you come back to me

[Chorus 2]
This is real life, this is real love
This is real pain that much I'm sure of
These are real tears, these are real fears inside that
I can't hide
This is real life, this is real love
These are real wounds that I'm bleeding from
And I realize this is real

[Bridge]
I always thought that our love was a story book tale
God knows that I'd never dream in the end it would fail

[Chorus 2]
‘Cause this is real life, this is real love
This is real pain that much I'm sure of
These are real tears, these are real fears
inside that I can't hide
This is real life, this is real love
These are real wounds that I'm bleeding from
And I realize this is real
This is real life, this is real love
This is real pain, that much I’m sure of

Вверх

Real Life

CHORDS:
D xx0232
A x02220
A/G# 402220
F#m 244222
G 320033
E 022100
Bm x24432

Riff 1:

e|-----------------------|-----------------------|---------------------|
B|-----------------------|-----------------------|---------------------|
G|-----------------------|-----------------------|---------------------|
D|--7--------7/---9/-11--|--9--2--2--------4/6---|--4--------7/--9/-11-|
A|-----------------------|-----------------------|---------------------|
E|--5--------5/---7/-9---|--7--0--0--------2/4---|--2--------5/--7/-9--|


e|-----------------------||
B|-----------------------||
G|-----------------------||
D|----9----7----7--------||
A|-----------------------||
E|----7----5----5--------||

Intro:
D

Rhythm Fig 1:
-------------
A A/G# F#m D

Rhythm Fig 2:
-------------
A A/G# G D

Chorus 1:
---------
A E F#m D
A E D E
D

Chorus 2:
---------
A E F#m D
A E D E
A E F#m D
Bm E

Bridge:
-------
Bm F#m D A
E F#m G
D E


Real Life
---------
(Jon Bon Jovi / Desmond Child)

[Intro]
[Chorus 1]

[Rhythm Fig. 1]
I wish that life was like it is in the movies
‘Cause the hero always gets his way
No matter how hard it gets on that dark, lonely road
At the end he's got a smile on his face

[Rhythm Fig. 2]
But when they threw me out to the lions
No one saved me as I fell from your grace
And no one wrote me new lines for what I said wrong
And what I did wrong I could not erase

[Chorus 1]
This is real life, this is real love
This is real pain, that much I'm sure of
These are real tears, these are real fears inside that I can't hide

[Rhythm Fig. 1]
I wish that I could be a white knight in armor
With an army just to bring you back home

[Rhythm Fig. 2]
But I'll admit I'm scared of dialing your number
And someone else is gonna answer the phone
Why can't it be like it is on TV
When the orchestra plays and you come back to me

[Chorus 2]
This is real life, this is real love
This is real pain that much I'm sure of
These are real tears, these are real fears inside that I can't hide
This is real life, this is real love
These are real wounds that I'm bleeding from
And I realize this is real

[Bridge]
I always thought that our love was a story book tale
God knows that I'd never dream in the end it would fail

[Chorus 2]
‘Cause this is real life, this is real love
This is real pain that much I'm sure of
These are real tears, these are real fears inside that I can't hide
This is real life, this is real love
These are real wounds that I'm bleeding from
And I realize this is real
This is real life, this is real love
This is real pain, that much I’m sure of

Вверх

Thank You For Loving Me

Hm G Hm A x2

G
It?s hard for me to say the things
Hm
I want to say sometimes
G
There?s no one here but you and me
A
And that broken old street light
Hm
Lock the doors
G
We?ll leave the world outside
Hm                       G                        A
All I?ve got to give to you Are these five words when I

Chorus:
Hm                     G
Thank you for loving me
A
For being my eyes
Hm
When I couldn?t see
G
For parting my lips
A
When I couldn?t breathe
Hm           G          A
Thank you for loving me
Thank you for loving me

I never knew I had a dream
Until that dream was you
When I look into your eyes
The sky?s a different blue
Cross my heart I wear no disguise
If I tried, you?d make believe
That you believed my lies

Chorus

You pick me up when I fall down
You ring the bell before they count me out
If I was drowning you would part the sea
And risk your own life to rescue me

Solo

Lock the doors
We?ll leave the world outside
All I?ve got to give to you
Are these five words when I

Chorus

Вверх

Thank You For Loving Me (2 вариант)

 G
It?s hard for me to say the things
D
I want to say sometimes
G
There?s no one here but you and me
D
And that broken old street light
Hm
Lock the doors
G			   A
We?ll leave the world outside
G*                                A*
All I?ve got to give to you are these five words when I

Припев:
D                     G
Thank you for loving me
A
For being my eyes
D
When I couldn?t see
Hm
For parting my lips
A*
When I couldn?t breathe
D           G          A
Thank you for loving me
D	     G		A
Thank you for loving me

I never knew I had a dream
Until that dream was you
When I look into your eyes
The sky?s a different blue
Cross my heart I wear no disguise
If I tried, you?d make believe
That you believed my lies

Припев

G*
You pick me up when I fall down
A*
You ring the bell before they count me out
G*
If I was drowning you would part the sea
A
And risk your own life to rescue me
A*
Yeah, yeah, yeah...

Проигрыш (там соляк вообще-то)
D G A D

Hm
Lock the doors
G       		   A
We?ll leave the world outside

G*
All I?ve got to give to you
A*
Are these five words when I

Припев

G*, A* - барре на 3-м и 5-м ладах.

Вверх

Wanted Dead or Alive

 INTRO RIFF (after keyboards):

e|----------13-------------12------|--------10-----------8-----|
B|---------------------------------|---------------------------|
G|------14------14-----12------12--|-----10----10-----9-----9--|
D|---0--------------0--------------|--0------------0-----------|
A|---------------------------------|---------------------------|
E|---------------------------------|---------------------------|

E|---------5--------7-----7-|---7p5-5--------------------------|
B|--------------------------|-------6--------------------------|
G|------5-----5--------7----|----------------------------------|
D|---0------------0---------|----------------------------------|
A|--------------------------|----------------------------------|
E|--------------------------|----------------------------------|

e|---------13-------------12------|---------10------------8----|
B|--------------------------------|----------------------------|
G|-----14------14-----12------12--|-----10------10-----9-----9-|
D|--0--------------0--------------|--0--------------0----------|
A|--------------------------------|----------------------------|
E|--------------------------------|----------------------------|

E|---------5----------7-------7--|-----7p5----5----------------|
B|-------------------------------|------------6----------------|
G|------5-----5-----------7------|-----------------------------|
D|--0-------------0--------------|-----------------------------|
A|-------------------------------|-------------------------0-0-|
E|-------------------------------|-----------------------------|

Intro continues with this:    microtone bends

Dsus2                            Dsus2
e|-----------------|-0-------------|-----------|-0-------------|
B|-----------------|-----3---------|-----------|-----3---------|
G|-----------------|-------2-------|-----------|-------2-------|
D|-----0---3^--0---|---------------|----0-3^-0-|---------------|
A|-3^--------------|-----------0-0-|-3^--------|-----------0-0-|
E|-----------------|---------------|-----------|---------------|

Dsus2                   C   F       D
e|-----------------|---0-------------|-----1-------2---|-------|
B|-----------------|-------3---------|-1---1-------3---|-------|
G|-----------------|---------2-------|-0---2-------2---|-------|
D|-----0---3^--0---|-----------------|-2---3-------0---|-------|
A|-3^--------------|-------------0-0-|-3---------------|-------|
E|-----------------|-----------------|-----------------|-------|

This is the verse part.  Play twice during the verse.
It's all the same                      only the... change

D                                   C           G
e|-2-------2-----2-|-3p2p0---0h2-----|-------0-----3-|-3-------|
B|-3-------3-----3-|-3-------3-------|-------1-----0-|-0-------|
G|-2-------2-----2-|-2-------2-------|-0-----0-----0-|-0-------|
D|-0-------0-----0-|-0-------0-------|-2-----------0-|-------0-|
A|-----------------|-----------------|-3-----------2-|---0h2---|
E|-----------------|-----------------|-------------3-|---------|
Everyday             it seems we're wasting    away

C           G                       C   F       D
e|-----0-------3---|-------3---------|-0---1-------2---|-------|
B|-----1-------0---|-------0---------|-1---1-------3---|-------|
G|-0---0-------0---|-------0---------|-0---2-------2---|-------|
D|-2-----------0---|-------------0---|-2---3-------0---|-------|
A|-3-----------2---|---------0h2-----|-3---------------|-------|
E|-------------3---|-----------------|-----------------|-------|

This is the chorus: a cowboy on a steel horse I ride

C       G                  F          D             Dsus2
e|-0---0---3--|--3--3-------|-1----1-----2---|---2---2-0-------|
B|-1---1---0--|--0--0-------|-1----1-----3---|---3---3---3-----|
G|-0---0---0--|--0--0-------|-2----2-----2---|-------------2---|
D|-2---2---0--|--0--0-----0-|-3----3-----0---|-----------------|
A|-3---3---2--|-------0h2---|----------------|-----------------|
E|---------3--|-------------|----------------|-----------------|
I'm wanted                             dead or a - live

C           G                       C D   F   D   Dsus2
e|-0-----0-----3---|---3---3---------|-------1---2-|-0-0-------|
B|-1-----1-----0---|---0---0---------|-1-3---1---3-|-----3-----|
G|-0-----0-----0---|---0---0---------|-0-2---2---2-|-------2---|
D|-2-----2-----0---|---0---0-----0---|-----------0-|---------0-|
A|-3-----3-----2---|---------0h2-----|-------------|-----------|
E|-------------3---|-----------------|-------------|-----------|
Wanted                              dead or a - live

C           G                       C   D   F   D
e|-0-----0-----3---|---3---3---------|---------1---2---|-------|
B|-1-----1-----0---|---0---0---------|-1---3---1---3---|-------|
G|-0-----0-----0---|---0---0---------|-0---2---2---2---|-------|
D|-2-----2-----0---|---0---0-----0---|-------------0---|-------|
A|-3-----3-----2---|---------0h2-----|-----------------|-------|
E|-------------3---|-----------------|-----------------|-------|

LYRICS:

Play intro riffIt's all the same; only the names will change
Everyday it seems we're wasting awayAnother place where the
faces are so cold
I'd drive all night just to get back homeCHORUS
I'm a cowboy, on a steel horse I rideI'm wanted dead or alive
Wanted dead or alive

Play intro riffSometimes I sleep, sometimes it's not for days
And the people I meet always go their separate waysSometimes
you tell the day
By the bottle that you drinkAnd times when you're alone
all you do is think
CHORUSI'm a cowboy, on a steel horse I rideI'm wanted dead
or alive
Wanted dead or alive

Play intro riffGUITAR SOLOPlay verse chords

CHORUSI'm a cowboy, on a steel horse I rideI'm wanted dead or
alive
Wanted dead or alive

I walk these streets; a loaded six string on my back
I play for keeps 'cause I might not make it back
I been everywhere; still I'm standing tallI've seen a million
faces
And I've rocked them allCHORUS (2x)I'm a cowboy, on a
steel horse I ride
I'm wanted dead or aliveI'm a cowboy, I got the night on my side
I'm wanted dead or aliveWanted dead or alive

CHORDS:

Dsus2 xx0230

Вверх