Moby

Beautiful
Bodyrock
Extreme 1Ways
Extreme Ways
Flower
Lift Me Up
Natural Blues
Porcelain
Slipping Away
Southside
Where You End

Вверх

Beautiful

Verse------

A (xO2220)
Come on baby, Come on girl (x2)

F (133211)
I love you baby, I love you now (x2)

Chorus------

C (x32010)
Look at us we're beautiful
G (3x0003)
All the people push and pull but
D (xx0232)
Let's just go out and ride, talk about the things we've tried
C (x32010)
Look at us we're beautiful
G (3x0003)
All the people push and pull but
D (xx0232)
They'll never get inside, We've got too much to hide

Вверх

Bodyrock

You will need a wah and phaser pedal for this song because some riffs are
repeated with these
effects. It's not much of a guitar song, and it's very easy to play.

KEY:

~ - vibrato
h - hammer on
x - dead note

------------------------------------------------------------------------------------------------


Main Riff

E:-----------------
B:-----------------
G:-----------------
D:-----------------
A:-----------------
E:-0h2-2-x-x-x-x---


Guitar Fill (comes in every now-and-then. with wah)

E:-6~~~~~-----
B:------------
G:------------
D:------------
A:------------
E:------------


Chorus (strum these)

Bm
We rock the body, rock the body come on
A
We rock the body, rock the body come on
Bm
We rock the body, rock the body ..... etc.



Вверх

Extreme 1Ways

First Intro (After that pretty siren sound)

Bmin7            B7sus
e:--2----2----2--2---2--2--|
b:--3----3----3--3---5--5--|
g:--2----2----2--2---2--2--|
d:--4----4----4--4---4--4--|
a:--2----2----2--2---2--2--|
E:-------------------------|

Repeat four times then drums enter
Second intro/Chorus (Repeat two times each bar)

Bmin7            B7sus       A7               A
e:--2----2----2--2---2--2--2--|--0----0----0--0---0--0--0--|
b:--3----3----3--3---5--5--3--|--2----2----2--2---2--2--2--|
g:--2----2----2--2---2--2--2--|--0----0----0--0---2--2--0--|
d:--4----4----4--4---4--4--4--|--2----2----2--2---2--2--2--|
a:--2----2----2--2---2--2--2--|--0----0----0--0---0--0--0--|
E:----------------------------|----------------------------|

Emin7            E7sus
e:--7----7----7--7---7--7--7--|--2----2----2--2---2--2--2--|
b:--8----8----8--8---10-10-8--|--3----3----3--3---5--5--3--|
g:--7----7----7--7---7--7--7--|--2----2----2--2---2--2--2--|
d:--9----9----9--9---9--9--9--|--4----4----4--4---4--4--4--|
a:--7----7----7--7---7--7--7--|--2----2----2--2---2--2--2--|
E:----------------------------|----------------------------|

Verse (Repeat two times each bar)

Bmin                     A
e:--7-----7----7----7--7--|--5-----5----5----5--5--|
b:--7-x-x-7-x--7-x--7--7--|--5-x-x-5-x--5-x--5--5--|
g:--7-x-x-7-x--7-x--7--7--|--6-x-x-6-x--6-x--6--6--|
d:--9-x-x-9-x--9-x--9--9--|--7-x-x-7-x--7-x--7--7--|
a:--9-x-x-9-x--9-x--9--9--|--7-x-x-7-x--7-x--7--7--|
E:--7-----7----7----7--7--|--5-----5----5----5--5--|

Emin
e:--7-----7----7----7--7--|--7-----7----7----7--7--|
b:--8-x-x-8-x--8-x--8--8--|--7-x-x-7-x--7-x--7--7--|
g:--9-x-x-9-x--9-x--9--9--|--7-x-x-7-x--7-x--7--7--|
d:--9-x-x-9-x--9-x--9--9--|--9-x-x-9-x--9-x--9--9--|
a:--7-x-x-7-x--7-x--7--7--|--9-x-x-9-x--9-x--9--9--|
E:------------------------|--7-----7----7----7--7--|

Prechorus: Just hit a Bmin chord (x24432) four times.
In the verse and chorus a second guitar with overdrive distortion
(and a lower volume), plays the first chord of each bar.

End:

e:-------------------------|--------------------|
b:-------------------------|----------------3---|
g:-------------3--3--3-3-5-|-------------3------|
d:-------3-4-5-------------|-------3-4-5------5-|
a:-3-4-5-------------------|-3-4-5--------------|
E:-------------------------|--------------------|

e:-------------------------|--------------------|
b:-------------------------|--------------------|
g:-------------3--3--3-3-5-|-------------3--3---|
d:-------3-4-5-------------|-------3-4-5------5-|
a:-3-4-5-------------------|-3-4-5--------------|
E:-------------------------|--------------------|

Вверх

Extreme
Ways

Bm
Extreme ways are back again
Extreme places I didn't know

A
I broke everything new again
Everything that I'd owned

Em
I threw it out the windows, came along
Extreme ways I know apart

Bm
The colors of my sea
Perfect color me

Bm
Extreme ways that help me
That help me out late at night

A
Extreme places I had gone
But never seen any light

Em
Dirty basements, dirty noise
Dirty places coming through

Bm
Extreme worlds alone
Did you ever like it planned

--------------Estribillo---------------------

I would stand in line for this
There's always room in life for this

Bm
Oh baby, oh baby
A
Then it fell apart, fell apart

Em
Oh baby, oh baby
Bm
Then it fell apart, it fell apart


Bm
Oh baby, oh baby
A
Then it fell apart, fell apart

Em
Oh baby, oh baby
Bm
Like it always does, always does



Bm
Extreme songs that told me
They helped me down every night

A
I didn't have much to say
I didn't get above the light

Em
I closed my eyes and closed myself
And closed my world and never opened

Bm
Up to anything
That could get me along


Bm
I had to close down everything
I had to close down my mind

A
Too many things to cover me
Too much can make me blind

Em
I've seen so much in so many places
So many heartaches, so many faces

Bm
So many dirty things
You couldn't even believe

---------------------------------------------

Strings melody:

Bm B  .  .  .  .  .  .  C#
A A  .  .  .  .  .  .  G
Em F# .  .  .  E  .  .  .
Bm A  .  B  .  .  .  .  .

Вверх



Flower

Tunning: Standard (EBGDAE)
Key: C
------------------------

(Vocals only) 2X:
Green Sally up
And green Sally down
Lift and squat
Gotta tear the ground

(Play 5X):
C5          D5
Green Sally up
D5
And green Sally down
C5         D5
Lift and squat
D5
Gotta tear the ground

F5
Green Sally up
F5
And green Sally down
G5
Lift and squat
G5
Gotta tear the ground

(Vocals only):
Old miss Lucy's dead and gone
Left me here to weep and moan

(Play 4X):
C5          D5
Green Sally up
D5
And green Sally down
C5         D5
Lift and squat
D5
Gotta tear the ground

F5
Green Sally up
F5
And green Sally down
G5
Lift and squat
G5
Gotta tear the ground

(Vocals only):
Old miss Lucy's dead and gone
Left me here to weep and moan

(Play 4X):
C5          D5
Green Sally up
D5
And green Sally down
C5         D5
Lift and squat
D5
Gotta tear the ground

F5
Green Sally up
F5
And green Sally down
G5
Lift and squat
G5
Gotta tear the ground

(Vocals only):
Old miss Lucy's dead and gone
Left me here to weep and moan

(Vocals only):
Green Sally up
And green Sally down
Lift and squat
Gotta tear the ground

(Play 5X):
C5          D5
Green Sally up
D5
And green Sally down
C5         D5
Lift and squat
D5
Gotta tear the ground

F5
Green Sally up
F5
And green Sally down
G5
Lift and squat
G5
Gotta tear the ground

(Play 4X):
C5          D5
Green Sally up
D5
And green Sally down
C5         D5
Lift and squat
D5
Gotta tear the ground

F5
Green Sally up
F5
And green Sally down
G5
Lift and squat
G5
Gotta tear the ground

(Vocals only):
Old miss Lucy's dead and gone
Left me here to weep and moan

 

Вверх


Lift Me Up
Intro: Bm : Bm : A : G

Bm             A       G
e|-----0-2----0--------0-------------:
b|--0-------0---0----3---0---/3---/3-:
G|-----------------2-------0----0----:
D|-----------------------------------:
A|-----------------------------------:
E|-----------------------------------:

Bm             A
Plain talking
G               Bm      A
Take us so far
G             Bm           A
Broken down cars
G            Bm
Like strong and old start

Bm      A
Plain talking
G       Bm            A
Saved a soul world
G         Bm          A
We travel through hell
G          Bm         A
Now I wish hell

Bm     A  G

Bm
Lift me up, lift me up  :
A         G            :  4x
Higher now am I         :

Bm       A
Plain talking
G             Bm     A
Making us spoilt
G        Bm         A
So stronger and cold
G           Bm         A
Feeling so old

Bm       A
Plain talking
G          Bm        A
As you in the snow
G     Bm             A
You never know how
G      Bm          A
Sweeter than down

Bm     A  G

Bm
Lift me up, lift me up  :
A         G            :   8x
Higher now am I         :

Pont: Bm  D  F#m  A

Bm
Lift me up, lift me up  :
A        G              :   8x
La la la la la          :

Вверх
Natural Blues
A#m
oh lordy, trouble so hard
G#
oh lordy, trouble so hard,
C#
don't nobody know my troubles but God
D#m
don't nobody know my troubles but God

A#m
went down the hill, the other day
A#m
my soul got happy and stayed all day
F#
went down the hill, the other day
G#
my soul got happy and stayed all day

A#m
went in the room, didn't stay long,
A#m
looked on the bed and brother was dead
F#
went in the room, didn't stay long,
G#
looked on the bed and brother was dead

Вверх
 Porcelain
e|----10-8------|
B|-10-------11?-|
A  D  C  Bb?


A D   C Bb
in my dreams i'm dying all the [1:00]
time
then i wake it's kaliedascopic
mind
i never ment to hurt you
i never ment to lie
so this is good
bye this is good
bye

A   D     C   Bb
tell the truth you never wanted [2:01]
me tell me

A D   C  Bb
in my dreams i'm jealous all the [2:31]
time
then i wake i'm going out of my
mind going out of my
mind
Вверх
 Slipping Away

Bm           A         G
All that we needed was right
Bm             A          G
A threshold is breaking tonight

D                            A
Open to everything happy and sad
Em
Seeing the good when it's all going bad
Seeing the sun when I can't really see
D
Hoping the sun will at least look at me
D                            A
Focus on everything better today
Em
All that I needed I never could say
Hold on to people, they're slipping away
Bm
Hold on to this while it's slipping away



All that we needed tonight
Are people who love us and like
I know how it feels to need
Oh, when we leave here you'll see

Open to everything happy and sad
Seeing the good when it's all going bad
Seeing the sun when I can't really see
Hoping the sun will at least look at me

Focus on everything better today
All that I needed I never could say
Hold on to people, they're slipping away
C          Em
Hold on to this while it's slipping away
C                   Em
So long (so long, so long)
C                   Em
So long (so long, so long)

Open to everything happy and sad
Seeing the good when it's all going bad
Seeing the sun when I can't really see
Hoping the sun will at least look at me

Focus on everything better today
All that I needed I never could say
Hold on to people, they're slipping away
Bm
Hold on to people, they're slipping away




Вверх
Southside
intro: B5, Db5

verse 1:  B5, Db5

see myself in the pouring home
see the light come over now
see myself in the pouring rain
i watch hope come over me

chorus 1:  E, Abm, A

here we are now, going to the east side
i pick up my friends and we start to ride
ride all night, we ride all day
some may come and some may stay

verse 2:  B5, Db5

here we are in the pouring home
i watch the light man fall the comb
i watch a light move across the screen
i watch the light come over me

chorus 2:  E, Abm, A

here we are now going to the west side
weapons in hand as we go for a ride
some may come and some may stay
watching out for a sunny day where there's

bridge:  B5, A5, e5

love and darkness and my sidearm
hey, elan

chorus 3 & 4:  E, Abm, A

here we are now going to the north side
i look at my friends as they start to ride
ride at night we ride all day
looking out for a sunny day

here we are now going to the south side
i pick up my friends and we hope we won't die
ride at night, ride through heaven and hell
come back and feel so well.

****

chords:
EADGBe
B5  x244xx
Db5 x466xx
E   022100
Abm 466444
A   577655
A5  x022xx
e5  x799xx


Вверх
Where You End
Intro: Bm D D Bm D D 

Bm D
Some things fall apart
Bm D
Some things make you hold
Bm D
Some things that you find
Bm D
Are beyond your control

G Em
I love you and you're beautiful
G Em
You write your own songs
G Em
But if the right part is leaving
Bm A G
Turned out to be wrong

Bm A G
If I could kiss you now
Bm A G
Oh I'd kiss you now again and again
Bm A G
Till I don't know where I begin

And where you end


Bm D D Bm D D

Bm D
Thought I fell in love the other day
Bm D
With an old friend of mine
Bm D
I was running kisses
Bm D
Down every inch of the spine
G Em
We had the roof down 
G Em
The sun came shinning in
G Em
The black fact is...
Bm A G 
That I was thinking of you

Bm A G
If I could kiss you now
Bm A G
Oh I'd kiss you now again and again
Bm A G
Till I don't know where I begin

And where you end


Bm D D Bm D D


Bm D 
I slept in the sun the other day
Bm D
I thought I was fine
Bm D
Everything seemed perfect
Bm D
Till I had you on my mind

G Em
I tried to love you
G Em
I did all that I could
G Em
I wish that the bad now
Bm A G
And finally turned into good

Bm A G
If I could kiss you now
Bm A G
Oh I'd kiss you now again and again
Bm A G
Till I don't know where I begin

And where you end

Bm D
If I could kiss you now
Bm D
If I could kiss you now
Bm D
If I could kiss you now
Bm D 
Oh where you end

Bm D
Is where I begin
Bm D 
Oh where you end

Oh where you end

Oh where you end


Вверх