Morandi

Angels
Angels2
Falling Asleep

Вверх

Angels
Intro:
e|---------------------------------------------------------|
B|-----------------------------6-5-------------------------|
G|------5--4---5--4---7--4--0-------2-4-5-5-4--7-4-0---2---|
D|---2-------(2)--------------------------------------0----|
A|---------------------------------------------------------|
E|---------------------------------------------------------|

Chrous:
Am     C
People stop fighting
G          F
Angels are crying
Am     C
We can be better
G          F
Love is the answer

Verse1:
Am
Search inside
C                           G
Are there any more tears to cry
F
( Don't you wonder why? )
Am              C
Why you feel so alone
G
All against the world
F
(World... World...)
Am
Search back time
C                     G
When you used to sing alone
F
(To the music of your soul)
Am                   C
Song of faith you can change
G       F
It's not too late

Chrous:
People stop fighting
Angels are crying
We can be better
Love is the answer

Verse2:
Search inside
Are there any more tears to cry
( Don't you wonder why? )
Why you feel so alone
All against the world
( World... World... )
Search back time
When you used to sing alone
( To the music of your soul )
Song of faith you can change
It's not too late

4x Chrous:
People stop fighting
Angels are crying
We can be better
Love is the answer
Вверх
 Angels2

Am       F
People! Stop fighting!
G         Dm
Angels are crying
Am       F
We can be better
G          Dm
Love is the answer

Am
Search inside
F                   G
Are there any more tears to cry
Dm
(Don’t you wonder why?)
Am               F
Why you feel so alone
G
All against the world
Dm
(World… World…)

Вверх
 Falling Asleep
табулатура
INTRO:

e----------------------------------------------|
B-----13-12-10-12-10-12---13-12-10-12-10-12----|
G----------------------------------------------|
D----------------------------------------------|
A----------------------------------------------|
E----------------------------------------------|


e----------------------------------------------|
B-----13-12-10-12-10-12---13-12-10-15-12-13----|
G----------------------------------------------|
D----------------------------------------------|
A----------------------------------------------|
E----------------------------------------------|


e----------------------------------------------|
B-----15-13-12-13-12-13---13-12-10-12-10-12----|
G----------------------------------------------|
D----------------------------------------------|
A----------------------------------------------|
E----------------------------------------------|
Вверх