Prodigy

Breathe
Fuel My Fire
Narayan

Вверх

Breathe

Intro:
1|--------------------------------------------------------------------------|
2|--------------------------------------------------------------------------|
3|--------------------------------------------------------------------------|
4|--------------------------------------------------------------------------|
5|---0--0--3-0-3-2-0-2--------0--0--3-0-3-2-0-2-----------------------------|
6|--------------------4--4--4------------------4--4--4----------------------|

With speech:
1|-------------------------------------------------|
2|-------------------------------------------------|
3|-------------------------------------------------|
4|----4-4-4-4-4-4-4-4-4-4-4------------------------|
5|----4-4-4-4-4-4-4-4-4-4-4------------------------|
6|----4-4-4-4-4-4-4-4-4-4-4------------------------|
Breathe the preassure
1|----------------------------------------------------------------|
2|----------------------------------------------------------------|
3|----------------------------------------------------------------|
4|-----3--3--3--3---|----2--2--2--2----|---0--0--0----------------|
5|-----3--3--3--3---|----2--2--2--2----|---0--0--0----------------|
6|-----3--3--3--3---|----2--2--2--2----|---0--0--0----------------|
Come play my      game I’ll test      ya…
1|-----------------------------------------------------|
2|-----------------------------------------------------|
3|-----------------------------------------------------|
4|-----5--5--5------|---6--6--6---|---7--7-------------|
5|-----5--5--5------|---6--6--6---|---7--7-------------|
6|-----5--5--5------|---6--6--6---|---7--7-------------|
Psychosomatic        addict,     Insane
Breathe preassure,
Come play my game I’ll test ya.
Psycho,-somatic addict, insane
Come…play…my…game
Inhale, inhale, you’re the victim.
Come…play…my…game
Exhale, exhale, exhale.

Acoustic play:
1|----4--4---4-4----4----|----3----3----|----1----1-0----1----------------------|
2|----6--6---6-6----6----|----5----5----|----3----3-3----3----------------------|
3|----5--5---5-5----5----|----4----4----|----2----2-2----2----------------------|
4|------------------------------------------------------------------------------|
5|------------------------------------------------------------------------------|
6|------------------------------------------------------------------------------|


Вверх

Fuel My Fire

Intro:
4 |--3-3-3-3---7-7-7-7---4-4-4-4---4-х-х-4-х-х-4--|
5 |--3-3-3-3---7-7-7-7---4-4-4-4---4-х-х-4-х-х-4--|
6 |--1-1-1-1---5-5-5-5---2-2-2-2---2-х-х-2-х-х-2--|

4 |--4--4--4--4-----|
5 |--4--4--4--4-----|
6 |--2--2--2--2-----|
I?ve got word of thanks
4 |--7--7--7--7------------3--3--3--3--|
5 |--7--7--7--7------------3--3--3--3--|
6 |--5--5--5--5------------1--1--1--1--|
Thanks that I?d like to say
For the rage that I feel
The rage that I feel today
Gotta stack, gotta stack
Stack of chips on my shoulder
In everything I do ?cause I made, I made
I made the mistake of trusting you
Chorus:
4 |--3-3-3-3---7-7-7-7---|
5 |--3-3-3-3---7-7-7-7---|
6 |--1-1-1-1---5-5-5-5---|

4 |---4--4--4--4--4--4--4--|
5 |---4--4--4--4--4--4--4--|
6 |---2--2--2--2--2--2--2--|
People like you just fuel my fire
People like you just fuel my fire
People like you just fuel my fire
4 |---4--4--4--4--4--4---4-х-х-4-х-х-4--|
5 |---4--4--4--4--4--4---4-х-х-4-х-х-4--|
6 |---2--2--2--2--2--2---2-х-х-2-х-х-2--|
People like you just burn...
4 |---4--4--4--7-7-7-7--3-3-3-3--|
5 |---4--4--4--7-7-7-7--3-3-3-3--|
6 |---2--2--2--5-5-5-5--1-1-1-1--|
You liаr...
You liаr...
You liаr...
You liаr...

Yeah, my layers are thick
And I got a bad attitude
Yeah, that knife in my back
Has fingerprints that belong to you
Got a grudge, got a grudge
Got a grudge that I?m holding for as long as I live
?Cause you lied, you lied, you lied to my face
And that?s something that I can?t forgive

Yeah, people like you just fuel my fire
Yeah, people like you just fuel my fire
Yeah, people like you just fuel my fire
People like you just burn!
You liar...
you liar...
you liar...
you liar...
Yeah, people like you just fuel my fire
Yeah, people like you just fuel my fire
People like you just fuel my fire
While people like you just burn!

You liar...
you liar...
you liar...
you liar...

Вверх

Narayan

intro:
F G#
A# G#
F
If you believe the western sun is falling down on everyone
G#
If you break it free and the morning’s come
F
If you would now your time has come
If you believe the western sun is falling down on everyone
G#
And you feel it burn, don’t try to run
A#
And you feel it burn, your time has come
F
And I feel it
F
You feel another energy and I feel a power growing
F                                            G#
You feel another energy and I feel a power grow
You feel another energy and I feel a power grow
If you believe the western sun is falling down on everyone
If you break it free and the morning’s come
If you would now your time has come
If you believe the western sun is falling down on everyone
And you feel it burn, don’t try to run
And you feel it burn, your time has come
I feel it!
You feel another energy and I feel a power growing
You feel another energy and I feel a power grow
You feel another energy and I feel a power grow
F
Om Namah Narayana
Om Namah Narayana
Om Namah Narayana
Om Namah Narayana
Om Namah Narayana
I feel it
I feel it
You feel another energy...

Вверх