Scooter

Back In The Uk
Break It Up
Fire
Maria Believe Me

Summer Wine

Вверх

Back In The Uk

табулатура
Q=180
4/4
Gtr I


|---5-8---5-8---5-|-3-7-10---7-10---7-|-5---5---5----5-|---5---5-5---5----*|
|-6-----6-----6---|--------8------8---|----------------|------------------*|
|-----------------|-------------------|----------------|------------------*|
|-----------------|-------------------|----------------|------------------*|
|-----------------|-------------------|----------------|------------------*|
|-----------------|-------------------|----------------|------------------*|


Play it fast, it sounds cool...

Вверх


Break It Up

This is a nice ballad with acoustic guitars from the German group Scooter!
You can play this song in two ways. Scooter plays with a capo on the first fret, but you
can also play without a capo. If you wish to play with a capo, play the chords listed in
version 1 below, if you want to play without one, use the chords is section 2. It really
doesn't matter which method you use, but personally I prefer to play with a capo
since you have to jump around so much on the fretboard if you play normally. But anyway,
let me know what you think!


VERSION I - With a capo on 1st fret:

D#  (xx0232)
Cm  (x24432)
Gm  (244222)
A#  (x02220)
G#  (320003)

VERSION II - Without a capo:

D#  (x68886)
Cm  (x35543)
Gm  (355333)
A#  (x13331)
G#  (466544)

Intro:
======

D# Cm Gm A#   (play twice)


Verse: (Same chords in second verse)
======
D#
Where in the world, where in the world
Cm
Where in the world did I get this hurt?
Gm                 A#
I don't mind, yeah I don't mind
D#
If you call me bad, call me wrong
Cm
Call me anything but your own
Gm                 A#
I don't mind, yeah I don't mind

Bridge: (Same chords in second bridge)
=======

G#
I don't care if you leave me
Cm
I don't care if you go away
G#
I don't care if you wanted this
Gm              A#
I don't mind


Chorus: (Same chords in second and third chorus)
=======
D#                                              Cm
Break it up, break it up, break it up, break it up my love
D#                                                 Cm
If you think that you can stay with me, break it up my love
G#
Oh, break it up
Cm
Yeah, oh break it up
G#
Oh oh oh, break it up
Gm         A#
Yeah, just break it up

Scratch Solo:
=============
(Play verse chords here)

Ending:
=======
G# Cm G# Gm      A#

Вверх

Fire

табулатура

Any comments can be e-mailed to [email protected]

Main Riff ( with Fuzz Distortion )

E --------------------------------------
B --------------------------------------
G --------------------------------------
D --------------------------------------
A -0000--3--5--0000--3--5----------3-3-2
E -------------------------3-3-3-3------



Вверх


Maria Believe Me

табулатура

Just so you guys know this is my first tab, so email me if there is anything wrong. I
it is pretty acurate though

e------------------------------------------------------------------------|
B------------------------------------------------------------------------|
G------------------------------------------------------------------------|
D-------2------2-0----------2---2----2-0---------------------------------|
A----0-----0---------3-3-3---3----3-------0--0--0------------------------|
E------------------------------------------------------------------------|


Вверх


Summer Wine

[Am]I walked in town on silver [G]spurs that jingled to
[Am]A song that I had only sang to [G] just a few
[Dm]She saw my silver spurs and [Am]said let's pass some time
[Dm]And I will give to you [Am]summer wine
[Dm]Ohh-[G]oh-oh[Am]summer wine

R.: [Am]Strawberries, cherries  and an [G]angel?s kissing spring
[Am]My summer wine is really [G]made from all these things
[Dm]Take off your silver spurs and [Am]help me pass the time
[Dm]And I will give to you [Am]summer wine
[Dm]Ohh-[G]oh[Am]summer wine

[Am]My eye grew heavy and my [G]lips they could not speak
[Am]I tried to get up but I [G]couldn't find my feet
[Dm]She reassured me with an [Am]unfamiliar line
[Dm]And then she gave to me [Am]more summer wine
[Dm]Ohh-[G]oh-oh[Am]summer wine

R.: [Am]Strawberries, cherries  and an [G]angel?s kissing spring
[Am]My summer wine is really [G]made from all these things
[Dm]Take off your silver spurs and [Am]help me pass the time
[Dm]And I will give to you [Am]summer wine
[Dm]Mmm-[G]mm[Am]summer wine

[Am]When I woke up, the sun was [G]shining in my eyes
[Am]My silver spurs were gone, my [G]head felt twice it's size
[Dm]She took my silver spurs, [Am]a dollar and a dime
[Dm]And left me cravin? for [Am]more summer wine
[Dm]Ohh-[G]oh-oh[Am]summer wine

R.: [Am]Strawberries, cherries  and an [G]angel?s kissing spring
[Am]My summer wine is really [G]made from all these things
[Dm]Take off your silver spurs and [Am]help me pass the time
[Dm]And I will give to you [Am]summer wine
[Dm]Mmm-[G]mm[Am]summer wine

Вверх