Chuck Berry

12 Bar Blues
Almost Grown
Back In The Usa
Brown Eyed Handsome Man
Bye Bye Johnny
Carol
C Est La Vie
Johnny B Goode
Johnny B Goode (2 вариант)
Johnny B Goode (3 вариант)
Little Queenie
Maybellene
Memphis Tennessee
Nadine
No Money Down
Rock N Roll Music
Roll Over Beethoven
Run Run Rudolph
School Day
Вверх

12 Bar Blues

               E
E|-0-0-0-0-0-0-0-0-0-0-0-0-0-0-0-0-0-0-0-0-0-0-0-0-0-0-0-0-0-0-|
A|-2-2-4-2-2-2-4-2-2-2-4-2-2-2-4-2-2-2-4-2-2-2-4-2-2-2-4-2-2-2-|
D|-------------------------------------------------------------|
G|-------------------------------------------------------------|
B|-------------------------------------------------------------|
E|-------------------------------------------------------------|

E|-0-0-|
B|-4-2-|
G|-----|
D|-----|
A|-----|
E|-----|

A                             E
E|-----------------------------------0-0-0-0-0-0-0-0-0-0-0-0-0-|
A|-0-0-0-0-0-0-0-0-0-0-0-0-0-0-0-0-2-2-4-2-2-2-4-2-2-2-4-2-2-2-|
D|-2-2-4-2-2-2-4-2-2-2-4-2-2-2-4-2-----------------------------|
G|-------------------------------------------------------------|
B|-------------------------------------------------------------|
E|-------------------------------------------------------------|

E|-0-0-0-|
B|-4-2---|
G|-------|
D|-------|
A|-------|
E|-------|

B                 A             E                   A
E|---------------------------------0-0-0-0-0-0-0-0-------------|
A|-2-2-2-2-2-2-2-2-0-0-0-0-0-0-0-0-2-2-4-2-2-2-4-2-0-0-0-0-0-0-|
D|-4-4-6-4-4-4-6-4-2-2-4-2-2-2-4-2-----------------2-2-4-2-2-2-|
G|-------------------------------------------------------------|
B|-------------------------------------------------------------|
E|-------------------------------------------------------------|

E|-----|
B|-0-0-|
G|-4-2-|
D|-----|
A|-----|
E|-----|

Вверх

Almost Grown

D7                                   G
Yeah 'n' I'm doin' all right in school.
G
They ain't said I broke no rule.
G                     C
I ant never been in Dutch.
C                         G
I don't browse around too much

REFRAIN
G                          D
Don't bother me, leave me alone
D                 G
Anyway I'm almost grown

I don't run around with no mob.
Got myself a little job
I'm gonna buy me a little car,
Drive my girl in the park

REFRAIN

INSTRUMENTAL

Got my eye on a little girl.
Ah, she's really out of this world.
When I take her to the dance,
She's got to talk about romance.

REFRAIN

INSTRUMENTAL

You know I'm still livin' in town.
But I done married and settled down.
Now I really have a ball
So I don't browse around at all

Вверх

Back In The Usa

             D
e|---------|-10-10-10-10-10-10-10-10-|-10---------------------|
B|---10-12-|-10-10-10-10-10-10-10-10-|-10-13-12-10-10---------|
G|11-------|-------------------------|----13-12-10-11---------|
D|---------|-------------------------|----------------12-10---|
A|---------|-------------------------|----------------------12|
E|---------|-------------------------|------------------------|

e|------------------------|---------------|
B|------------------------|---s-----s---s-|
G|------------------------|-119---97-75-5-|
D|-12-12-12-12-12-12-12---|-1210-109-97-7-|
A|-12-12-12-12-12-12-12---|---------------|
E|------------------------|---------------|

G x 2 bars
D x 2 bars
A x 2 bars
D x 2 bars

Oh well, oh well, I feel so good today,
We touched ground on an international runway
Jet propelled back home, from over the seas to the U. S. A.

New York, Los Angeles, oh, how I yearned for you
Detroit, Chicago, Chattanooga, Baton Rouge
Let alone just to be at my home back in ol' St. Lou.

e|----10-10-10-10-------------|-10-10-10-10-10-------------|
B|----10-10-10-10-12-10-------|-10-10-10-10-10-12-10-------|
G|----------------12-10h11-12-|----------------12-10h11-12-|
D|----------------------------|----------------------------|
A|----------------------------|----------------------------|
E|----------------------------|----------------------------|

e|-10---------10------10-|------10---10------12b(13)|
B|-10---------10------10-|------10---10---10-12b(13)|
G|-----------------------|--------------------------|
D|------12---------12----|---12---------------------|
A|-----------------------|--------------------------|
E|-----------------------|--------------------------|

G
e|--10-12-10---------|-----------------------------------------|
B|--10-12-10-10-12-10|12b(13)(12)-10-12b(13)(12)-10-12b(13)(12)|
G|--------------12-10|12b(13)(12)-10-12b(13)(12)-10-12b(13)(12)|
D|-------------------|-----------------------------------------|
A|-------------------|-----------------------------------------|
E|-------------------|-----------------------------------------|

D
e|--------------------------|-------------------------------|
B|-10-12b(13)(12)-10-12b(13)|(12)-10-12b(13)(12)-12-10---10-|
G|-10-12b(13)(12)-10-12b(13)|(12)-10-12b(13)(12)-12-10---11-|
D|--------------------------|-------------------------------|
A|--------------------------|-------------------------------|
E|--------------------------|-------------------------------|

A
e|-----------------------|-------------------------|
B|-----------------------|-------------------------|
G|-10------10------10----|-10-12-13-12-10----10-12-|
D|-10---12-10---12-10-12-|-10-12-13-12-10-12-10-12-|
A|------12------12----12-|----------------12-------|
E|-----------------------|-------------------------|

D
e|-10-10-10-10-------------|-------------||
B|-10-10-10-10-12-10-------|-------------||
G|-------------12-10h11-11-|-11----------||
D|----------------------12-|-12-10-12-12-||
A|-------------------------|-------12-12-||
E|-------------------------|-------------||

Did I miss the skyscrapers, did I miss the long freeway?
From the coast of California to the shores of Delaware Bay
You can bet your life I did, till I got back to the U. S. A.

Looking hard for a drive-in, searching for a corner caf?
Where hamburgers sizzle on an open grill night and day
Yeah, and a juke-box jumping with records like in the U.S.A.

Well, I'm so glad I'm livin' in the U.S.A.
Yes. I'm so glad I'm livin' in the U.S.A.
Anything you want, we got right here in the U.S.A.

Вверх

Brown Eyed Handsome Man

E
Arrested on charges of unemployment,
E
he was sitting in the witness stand
A
The judge's wife called up the district attorney
B                    E
Said you free that brown eyed man
E                            D                    E
You want your job you better free that brown eyed man

Flying across the desert in a TWA,
I saw a woman walking across the sand
She been a-walkin' thirty miles en route to Bombay.
To get a brown eyed handsome man
Her destination was a brown eyed handsome man

Way back in history three thousand years
Back every since the world began
There's been a whole lot of good women shed a tear
For a brown eyed handsome man
That's what the trouble was brown eyed handsome man

GUITAR BREAK

Beautiful daughter couldn't make up her mind
Between a doctor and a lawyer man
Her mother told her daughter go out and find yourself
A brown eyed handsome man
That's what your daddy is a brown eyed handsome man

Milo Venus was a beautiful lass
She had the world in the palm of her hand
But she lost both her arms in a wrestling match
To get brown eyed handsome man
She fought and won herself a brown eyed handsome man

GUITAR BREAK

Two, three count with nobody on
He hit a high fly into the stand
Rounding third he was headed for home
It was a brown eyed handsome man
That won the game; it was a brown eyed handsome man

Вверх

Bye Bye Johnny

C
She drew out all her money at the Southern Trust

And put her little boy upon a Greyhound bus
F
Leaving Louisiana for the golden west
C
Down came the tears from her happiness
G
Her own little son named Johnny B Goode
C
Was going to make some motion pictures out in Holliwood

C                F           C
Bye bye bye bye, Bye bye bye bye
G               F                C
Bye-bye Johnny, Goodbye Johnny B Goode

C
She remembered taking money earnt from gathering crop

And buying Johnny's guitar at a broker's shop
F
As long as he would play it by the railroad side
C
He wouldn't get in trouble, he was satisfied
G
But never thought there'd ever come a day like this
C
When she would have to give her son a goodbye kiss

C                F           C
Bye bye bye bye, Bye bye bye bye
G               F                C
Bye-bye Johnny, Goodbye Johnny B Goode

[GUITAR SOLO]

C
She finally got the letter she'd been dreaming of

Johnny wrote and told her he had fell in love
F
As soon as he was married he would bring her back
C
And build a mansion for them by the railroad track
G
So every time they heard the locomotive roar
C
They'd be standing and waving in the kitchen door

C                F           C
Bye bye bye bye, Bye bye bye bye
G               F                C
Bye-bye Johnny, Goodbye Johnny B Goode

Repeat ad lib to fade

Вверх

Carol

Intro

Gtr I
E|--------|8-8-8-8-8--------|8-8-8-8-8--------|8-8-8-8-8-8-8-8|
B|----8-10|8-8-8-8-8----8-10|8-8-8-8-8----8-10|8-8-8-8-8-8-8-8|
G|-/9-----|9---------/9-----|8-8-8-8-8-/9-----|9--------------|
D|--------|-----------------|-----------------|---------------|
A|--------|-----------------|-----------------|---------------|
E|--------|-----------------|-----------------|---------------|

Pre-Verse
E|-8-----------------||-----------------|
B|-8-10b11-(10)------||-/11-(11)----/11-|
G|---10b12-(10)------||-/12-(12)----/12-|
D|-------------------||-----------------|
A|-------------------||-----------------|
E|-------------------||-----------------|

E|--------------8-|
B|-(11)--10-----8-|
G|-(12)--10-8h9---|
D|----------------|
A|----------------|
E|----------------|

E|-----------------|-----------------||
B|-/11-(11)----/11-|-(11)--10-8------||
G|-/12-(12)----/12-|-(12)--10-8h9--9-||
D|-----------------|--------------10-||
A|-----------------|-----------------||
E|-----------------|-----------------||

1st & 2nd Verse
E||----|-------|-----------------------|-----------|
B||o---|--8----|-----------------------|-----------|
G||----|-10b12-|-(10)-10--10-8h9-------|-------8h9-|
D||----|-------|-----------------10----|-10-10-----|
A||o---|-------|--------------------10-|-----------|
E||----|-------|-----------------------|-----------|

E|---------------------------|
B|---------------------------|
G|-10b12==(10)r(10)b12==(10)r|
D|---------------------------|
A|---------------------------|
E|---------------------------|

E|-----------------------------|------------|
B|-----------------------------|------------|
G|-(10)b12==(10)r(10)-8-----8--|-10-8-------|
D|----------------------10-----|------10-10-|
A|-----------------------------|------------|
E|-----------------------------|------------|

E|------|
B|------|
G|-8-10-|
D|------|
A|------|
E|------|

E|------8-10b11-(10)-8--------------8-|-10-8----8-|
B|-8-10----------------8-10b11-(10)---|------11---|
G|------------------------------------|-----------|
D|------------------------------------|-----------|
A|------------------------------------|-----------|
E|------------------------------------|-----------|

E|--------------8-|
B|------------8---|
G|-10b12-(10)-----|
D|----------------|
A|----------------|
E|----------------|

E|------------8-------------------------|------------|
B|-11b12-(11)---10-8--------------------|------------|
G|-------------------10b11-(10)-10-8----|-10-8-------|
D|-----------------------------------10-|------10-10-|
A|--------------------------------------|------------|
E|--------------------------------------|------------|

E|-11-|-8--------------8-10-8-------|----------------|
B|----|---8-10b11-(10)--------11-10-|-8------------8-|
G|----|-----------------------------|---10b12-(10)---|
D|----|-----------------------------|----------------|
A|----|-----------------------------|----------------|
E|----|-----------------------------|----------------|

E|----------------|
B|------------8-8-|
G|-11b12-(11)-----|
D|----------------|
A|----------------|
E|----------------|

E|-----------------------------------------------------|
B|------------8------------8------------8------------8-|
G|-11b12-(11)---11b12-(11)---11b12-(11)---11b12-(11)---|
D|-----------------------------------------------------|
A|-----------------------------------------------------|
E|-----------------------------------------------------|

E|------------------------||
B|-------------------8-10-||
G|-10-8h9---------/9------||
D|--------10-10-----------||
A|------------------------||
E|------------------------||

1st & 2nd Chorus
E|-8-8-8-8-8---------|-8-8-8-8-8---------|
B|-8-8-8-8-8----8-10-|-8-8-8-8-8----8-10-|
G|-9---------/9------|-8---------/9------|
D|-------------------|-------------------|
A|-------------------|-------------------|
E|-------------------|-------------------|

E|-8-8-8-8-8-8-8-8-|-8--------------------------------|
B|-8-8-8-8-8-8-8-8-|-8--------------------------------|
G|-9---------------|---10b11==(10)r(10)b11==(10)r(10)-|
D|-----------------|---10b12==(10)r(10)b12==(10)r(10)-|
A|-----------------|----------------------------------|
E|-----------------|----------------------------------|

E|-10p8-|-5p3-(3)-|-5-3-3-|
B|-10p8-|-5p3-(3)-|-------|
G|-10p8-|-5p3-(3)-|-5-3-3-|
D|------|---------|-------|
A|------|---------|-------|
E|------|---------|-------|

E|---------------------|-----------------||
B|-/11--/11-(11)--10-8-|----8--8---------||
G|-/12--/12-(12)--10-8h|==9----8h9-------||
D|---------------------|-10--------10-10-||
A|---------------------|-----------------||
E|---------------------|-----------------||

Guitar Break
1.
E|-8-8-8-8-8-----------|    E|-8-----------8-----------|
B|-8-8-8-8-8-10-8------|    B|-8-10-8------8-10-8------|
G|-9---------10-8h9----| X2 G|-9-10-8h9------10-8h9----|
D|------------------10-|    D|----------10----------10-|
A|---------------------|    A|-------------------------|
E|---------------------|    E|-------------------------|

E|-------------------------------------------------------|
B|-8-10b11==(10)r(10)b11==(10)r(10)b11-(10)--------------|
G|-9-10b12==(10)r(10)b12==(10)r(10)b12-(10)-10b12==(10)r=|
D|-------------------------------------------------------|
A|-------------------------------------------------------|
E|-------------------------------------------------------|

E|-------------------|------8-11b12-(11)-8--------------8-|
B|------8-----8-8----|-8-10----------------8-11b12-(11)---|
G|-(10)-8-----8-8-10-|------------------------------------|
D|--------10---------|------------------------------------|
A|-------------------|------------------------------------|
E|-------------------|------------------------------------|

E|-10-8-------------------|-8-8-8---------------|
B|------11-10-8---------8-|---8-8-10-8------/17-|
G|--------------10-/9-9---|-------10-8h9--------|
D|------------------------|--------------10-----|
A|------------------------|---------------------|
E|------------------------|---------------------|

E|15-13-11-10-|--8-6-5-3-|-------------------8-|(8)--------8--||
B|17-15-13-11-|-10-8-6-4-|--------------8-10-8-|(8)-10-8---8-o||
G|------------|----------|-5-5-5-5-5-/9--------|----10-8h9----||
D|------------|----------|-5-------------------|--------------||
A|------------|----------|---------------------|-------------o||
E|------------|----------|---------------------|--------------||

Chorus
2.
E|-8-8-8-8-8---------|-8-8-8-8-8---------|
B|-8-8-8-8-8----8-10-|-8-8-8-8-8----8-10-|
G|-9---------/9------|-8---------/9------|
D|-------------------|-------------------|
A|-------------------|-------------------|
E|-------------------|-------------------|

E|-8-8-8-8-8-8-8-8-|-8--------------------------------|
B|-8-8-8-8-8-8-8-8-|-8--------------------------------|
G|-9---------------|---10b11==(10)r(10)b11==(10)r(10)-|
D|-----------------|---10b12==(10)r(10)b12==(10)r(10)-|
A|-----------------|----------------------------------|
E|-----------------|----------------------------------|

E|-10p8-|-5p3-(3)-|-5-3--3-|
B|-10p8-|-5p3-(3)-|--------|
G|-10p8-|-5p3-(3)-|-5-3--3-|
D|------|---------|--------|
A|------|---------|--------|
E|------|---------|--------|

E|---------------------|------------------*|
B|-/11--/11-(11)--10-8-|----8---8---------*|
G|-/12--/12-(12)--10-8h|==9-----8h9-------*|
D|---------------------|-10---------10-10-*|
A|---------------------|------------------*|
E|---------------------|------------------*|

Oh Carol, don't let him steal your heart away
I'm gonna learn to dance if it takes me all night and day

Climb into my machine so we can cruise on out
I know a swingin' little joint where we can jump and shout
It's not too far back off the highway, not so long a ride
You park your car out in the open, you can walk inside
A little cutie takes your hat and you can thank her, ma'am
Every time you make the scene you find the joint is jammed

Oh Carol, don't let him steal your heart away
I'm gonna learn to dance if it takes me all night and day

And if you wanna hear some music like the boys are playin'
Hold tight, pat your foot, don't let 'em carry it away
Don't let the heat overcome you when they play so loud
Oh, don't the music intrigue you when they get a crowd
You can't dance, I know you wish you could
I got my eyes on you baby, 'cause you dance so good

Oh Carol, don't let him steal your heart away
I'm gonna learn to dance if it takes me all night and day

Don't let him steal your heart away
I've got to learn to dance if it takes you all night and day
Oh Carol

Вверх

C Est La Vie

Intro:

E|---------14--13-------------12--10------12--12--12-|
B|----------------------------------------14--14--14-|
G|-13--14----------13--12-----------------14--14--14-|
D|----------------------------------------14--14--14-|
A|----------------------------------------12--12--12-|
E|---------------------------------------------------|

D
It was a teen-aged wedding
D
And the old folks wished them well
D
You could see that Pierre
A
Truly loved the mademoiselle
A
And now the young Monsieur and Madame
A
Have rung the chapel bell
A
C'est La Vie say the old folks
D
It goes to show you never can tell

They furnished off the apartment
With a two room tag-end sale
The coolerator was crammed
With TV dinners and Ginger Ale
But when Pierre found work
The little money come in, worked out well
C'est La Vie say the old folks
It goes to show you never can tell

They had a hi-fi phono
Boy, did they let it blast
700 little records
All rock and rhythm and jazz
But when the sun went down
The rapid tempo of the music fell
C'est La Vie say the old folks
It goes to show you never can tell

They bought a souped up chitney
Was cherry red fifty-three
Drove it down to Orleans
To celebrate their anniversary
It was their where Pierre was wedded
To the lovely mademoiselle
C'est La Vie say the old folks
It goes to show you never can tell

It was a teen-aged wedding
And the old folks wished them well
You could see that Pierre
Truly loved the mademoiselle
And now the young Monsieur and Madame
Have rung the chapel bell
C'est La Vie say the old folks
It goes to show you never can tell

Вверх

Johnny B Goode

     A
Deep down in Louisiana, close to New Orleans,
A
Way back up in the woods among the evergreens,
D
There stood a log cabin made of earth and wood
A
Where lived a country boy named Johnny B. Goode
E
Who never ever learned to read or write so well,
A
But he could play the guitar just like a ringin' a bell.

CHORUS:

A
Go! Go! Go, Johnny, go! Go!
D
Go, Johnny, go! Go!
A
Go, Johnny, go! Go!
A                   E
Go, Johnny, go! Go! Johnny B. Goode

He used to carry his guitar in a gunny sack,
Go sit beneath the tree by the railroad track.
Old engineers would see him sittin' in the shade,
Strummin' with the rhythm that the drivers made.
When people passed him by they would stop and say,
'oh, my but that little country boy could play'

CHORUS

His mother told him, 'someday you will be a man,
You will be the leader of a big ol' band.
Many people comin' from miles around
Will hear you play your music when the sun go down.
Maybe someday your name'll be in lights,
Sayin' 'Johnny B. Goode tonight''

CHORUS

Вверх

Johnny B Goode (2 вариант)

INTRO:
e|------------|6--6--6--6--6--6--6--6-|-6----------------------|
b|-------6--8-|6--6--6--6--6--6--6--6-|-6--9--8--6-------------|
g|-6--7-------|-----------------------|-------------6--7-------|
d|------------|-----------------------|-------------------8--8-|
a|------------|-----------------------|------------------------|
e|------------|-----------------------|------------------------|

e|----------------|---------------------|----------------------|
b|----------------|--6-8--6-------------|-----6-------6--------|
g|7-7-7-7-7-7-7-7-|7-7-7--7--7--5--3----|8-b10---8-b10---8-b10-|
d|8-8-8-8-8-8-8-8-|8------------------5-|----------------------|
a|----------------|---------------------|----------------------|
e|----------------|---------------------|----------------------|

e|6-----------------|----------------------|6------------------|
b|6-------6-------6-|-----6-------6--------|6-------6-------6--|
g|---8-b10---8-b10--|8-b10---8-b10---8-b10-|---8-b10---8-b10---|
d|------------------|----------------------|-------------------|
a|------------------|----------------------|-------------------|
e|------------------|----------------------|-------------------|

e|-----6--------8-6-|-------------6---|---------6-----6--------|
b|--------9-8-6-----|9-8-6--------6-9-|8--6-----6-----6--8--6--|
g|8-b10-------------|------8-6-h7-7---|------b8----b8----8-6h7-|
d|------------------|-----------------|------------------------|
a|------------------|-----------------|------------------------|
e|------------------|-----------------|------------------------|
*  b8 means 8 b up to 10

e|---||
b|---||
g|---||
d|-8-||
a|---||
e|---||

FIRST BREAK:
e|------------|6--6--6--6--6----------|6--6--6--6--6-----------|
b|-------6--8-|6--6--6--6--6----------|6--6--6--6--6-----------|
g|-6--7-------|---------------8-6h7---|---------------8-6h7----|
d|------------|---------------------8-|---------------------8--|
a|------------|-----------------------|------------------------|
e|------------|-----------------------|------------------------|

e|6---------6---------|6-r--6--r--6--r--6--r-|-------6-----8-6-|
b|6---------6---------|6-r--6--r--6--r--6--r-|---------9-r-----|
g|--8-6h7-----8-6h7---|----------------------|r-b8-r-----------|
d|--------8---------8-|----------------------|-----------------|
a|--------------------|----------------------|-----------------|
e|--------------------|----------------------|-----------------|
* r -rest

e|----6----------6-6-|6----------6-6-6-6-|6---------6----------|
b|9-8-6----------6-6-|6-8--6-----6-6-6-6-|6--8--6---6--8--6----|
g|------8--6-h7--7---|--------7----------|--------7----------7-|
d|-------------------|-------------------|---------------------|
a|-------------------|-------------------|---------------------|
e|-------------------|-------------------|---------------------|

e|6-6-6-6-6--------|------------------------|------------------|
b|6-6-6-6-6--------|8-b9--8-b9--8-b9--8-b9--|8-------8--6------|
g|----------8-6h7--|8-b10-8-b10-8-b10-8-b10-|8-6-----8-6h7-----|
d|----------------8|------------------------|----8-r-------8-r-|
a|-----------------|------------------------|------------------|
e|-----------------|------------------------|------------------|

e|-----------||
b|-----------||
g|-----------||
d|8----------||
a|---8--10-8-||
e|-----------||

Вверх

Johnny B Goode (3 вариант)

E|-------5s6-6-6-5s6-6-6-5s6-6-6---------------|
B|---6-8-5s6-6-6-5s6-6-6-5s6-6-6-9-6-----------|
G|-7---------------------------------8-6h7-----|
D|-----------------------------------------8-8-|
A|---------------------------------------------|
E|---------------------------------------------|

E|-----------------------|
B|-----------------------|
G|-6s7-7-7-6s7-7-7-6s7-7-|
D|-7s8-8-8-7s8-8-8-7s8-8-|
A|-----------------------|
E|-----------------------|

10 times
E|---------------------||---------||
B|-----6-8-6-----------||------6--||
G|-5s7-7-7-7-5s7-5-----||-8b10----||
D|-----------------8-5-||---------||
A|---------------------||---------||
E|---------------------||---------||

|rake|
E|------6-------8-6-----------------6-|
B|--------9-8-6-----9-8-6---------6---|
G|-8b10-------------------8-6h7-7-----|
D|------------------------------------|
A|------------------------------------|
E|------------------------------------|

E|-----------------------------|
B|-9-8-6------6------6---------|
G|-------8b10---8b10---8-6h7---|
D|---------------------------8-|
A|-----------------------------|
E|-----------------------------|

Chords

Walking Bass

| Bb7 | === | === | === | Eb7 | === |
| Bb7 | === | F7  | === | Bb7 | Bb7 | (chorus) or
| F7  | (verse)

Вверх

Little Queenie

Intro
Gtr I
E|----|-8-8-8-8-8-----------|
B|-5/-|-8-8-8-8-8-10-8------|
G|-5/-|-----------10-8h9----|
D|----|------------------10-|
A|----|---------------------|
E|----|---------------------|

E|-8-8-8-8-8-----------|-8-----------8-------8-|
B|-8-8-8-8-8-10-8------|-8-10-8------8-------8-|
G|-----------10-8h9----|---10-8h9-------9--9---|
D|------------------10-|----------10---10-10---|
A|---------------------|-----------------------|
E|---------------------|-----------------------|

Verse
E|-------8----8-11-----(11)--||-----------------|
B|-------8----8-10b12==(10)r-||-----------------|
G|--9--9----9----------------||-----------------|
D|-10-10---10----------------||-----------------|
A|---------------------------||-3-3-5-3-3-3-5-3-|
E|---------------------------||-1-1-1-1-1-1-1-1-|

E|-----------------|-----------------|
B|-----------------|-----------------|
G|-----------------|---5-7---5---7---|
D|-----------------|-5-5-7-5-5-5-7-5-|
A|-3-3-5-3-3-3-5-3-|-3-3-3-3-3-3-3-3-|
E|-1-1-1-1-1-1-1-1-|-----------------|

E|-----------------|-----------------|-----------------|
B|-----------------|-----------------|-----------------|
G|---5-7---5---7---|-----------------|-----------------|
D|-5-5-7-5-5-5-7-5-|-----------------|-----------------|
A|-3-3-3-3-3-3-3-3-|-5-5-7-5-5-5-7-5-|-5-5-7-5-5-5-7-5-|
E|-----------------|-3-3-3-3-3-3-3-3-|-3-3-3-3-3-3-3-3-|

E||-------------------||
B||o-----------------o||
G||----5-7---5---7----||
D||--5-5-7-5-5-5-7-5--||
A||o-3-3-3-3-3-3-3-3-o||
E||-------------------||

E||------------------|-----------------|-----------------|
B||o-----------------|-----------------|-----------------|
G||----5-7---5---7---|-----------------|---5-7---5---7---|
D||--5-5-7-5-5-5-7-5-|-----------------|-5-5-7-5-5-5-7-5-|
A||o-3-3-3-3-3-3-3-3-|-3-3-5-3-3-3-5-3-|-3-3-3-3-3-3-3-3-|
E||------------------|-1-1-1-1-1-1-1-1-|-----------------|

E|------------------|
B|------------------|
G|---5-7---5---7----|
D|-5-5-7-5-5-5-7-5--|
A|-3-3-3-3-3-3-3-3--|
E|------------------|

E|-----------------|-----------------|-----------------|
B|-----------------|-----------------|-----------------|
G|-----------------|-----------------|---5-7---5---7---|
D|-----------------|-----------------|-5-5-7-5-5-5-7-5-|
A|-3-3-5-3-3-3-5-3-|-3-3-5-3-3-3-5-3-|-3-3-3-3-3-3-3-3-|
E|-1-1-1-1-1-1-1-1-|-1-1-1-1-1-1-1-1-|-----------------|

E|-----------------|
B|-----------------|
G|---5-7---5---7---|
D|-5-5-7-5-5-5-7-5-|
A|-3-3-3-3-3-3-3-3-|
E|-----------------|

E|-----------------|-----------------|-----------------|
B|-----------------|-----------------|-----------------|
G|-----------------|-----------------|---5-7---5---7---|
D|-----------------|-----------------|-5-5-7-5-5-5-7-5-|
A|-5-5-7-5-5-5-7-5-|-5-5-7-5-5-5-7-5-|-3-3-3-3-3-3-3-3-|
E|-3-3-3-3-3-3-3-3-|-3-3-3-3-3-3-3-3-|-----------------|

E|-----------------|
B|-----------------|
G|---5-7---5---7---|
D|-5-5-7-5-5-5-7-5-|
A|-3-3-3-3-3-3-3-3-|
E|-----------------|

E|-----------------|-----------------|-----------------|
B|-----------------|-----------------|-----------------|
G|---5-7---5---7---|---5-7---5---7---|---5-7---5---7---|
D|-5-5-7-5-5-5-7-5-|-5-5-7-5-5-5-7-5-|-5-5-7-5-5-5-7-5-|
A|-3-3-3-3-3-3-3-3-|-3-3-3-3-3-3-3-3-|-3-3-3-3-3-3-3-3-|
E|-----------------|-----------------|-----------------|

E|-----------------|
B|-----------------|
G|---5-7---5---7---|
D|-5-5-7-5-5-5-7-5-|
A|-3-3-3-3-3-3-3-3-|
E|-----------------|

E|----------------------|---------------------|
B|----------------------|---------------------|
G|----------------------|---------------------|
D|---10-12---10-10-12---|-13---12---10-10-10--|
A|-8--8--8-8--8--8--8-8-|--8-8--8-8--8--8-10--|
E|----------------------|---------------------|

E|-------------------------|-------------------------|
B|-------------------------|-------------------------|
G|-------------------------|-------------------------|
D|-------------------------|-------------------------|
A|-10-10-12-10-10-10-12-10-|-13-10-12-10-10-10-12-10-|
E|--8--8--8--8--8--8--8--8-|--8--8--8--8--8--8--8--8-|

E|-----------------|-----------------|
B|-----------------|-----------------|
G|-----------------|-----------------|
D|-----------------|-----------------|
A|-5-5-7-5-8-5-7-5-|-5-5-7-5-5-5-7-5-|
E|-3-3-3-3-3-3-3-3-|-3-3-3-3-3-3-3-3-|

E|-------------------------|-------------------------||
B|-------------------------|-------------------------||
G|-------------------------|-------------------------||
D|-------------------------|-----------------------8-||
A|-10-10-12-10-13-10-12-10-|-10-10-12-10-10-10-12-10-||
E|--8--8--8--8--8--8--8--8-|--8--8--8--8--8--8--8--8-||

Chorus
E|-----------------------|-----------------------|
B|-----------------------|-----------------------|
G|-----------------------|-----------------------|
D|--(8)----------------8-|--(8)----------------8-|
A|-(10)--12--10-10-12-10-|-(10)--12--10-10-12-10-|
E|--(8)---8---8--8--8--8-|--(8)---8---8--8--8--8-|

E|-----------------------|-----------------------|
B|-----------------------|-----------------------|
G|-----------------------|---------------------8-|
D|--(8)----------------8-|--(8)---------------10-|
A|-(10)--12--10-10-12-10-|-(10)--12--10-10-12--8-|
E|--(8)---8---8--8--8--8-|--(8)---8---8--8--8----|

E|-----------------------|-----------------------|
B|-----------------------|-----------------------|
G|--(8)----------------8-|--(8)------------------|
D|-(10)--12--10-10-12-10-|-(10)--12--10-10-12--8-|
A|--(8)---8---8--8--8--8-|--(8)---8---8--8--8-10-|
E|-----------------------|---------------------8-|

E|-----------------------|----------------------|
B|-----------------------|----------------------|
G|-----------------------|----------------------|
D|--(8)----------------8-|--(8)-----------------|
A|-(10)--12--10-10-12-10-|-(10)--12--10-10-12-5-|
E|--(8)---8---8--8--8--8-|--(8)---8---8--8--8-3-|

E|-------------|----------------|
B|-------------|----------------|
G|-------------|----------------|
D|--------3--3-|-(3)------------|
A|-5--7-5-5--5-|-(5)--7-5-5-5-7-|
E|-3--3-3-3--3-|-(3)--3-3-3-3-3-|

1.
E|-------------------------|------------------------||
B|-------------------------|-----------------------o||
G|-------------------------|------------------------||
D|-----------------------8-|--(8)-------------------||
A|-10-10-12-10-10-10-12-10-|-(10)--12-10-10-10-12--o||
E|--8--8--8--8--8--8--8--8-|--(8)---8--8--8--8--8---||

2.
E|-------------------------|-----------------------|
B|-------------------------|-------------------8---|
G|-------------------------|-------------------8h9-|
D|-----------------------8-|--(8)------------------|
A|-10-10-12-10-10-10-12-10-|-(10)--12-10-10--------|
E|--8--8--8--8--8--8--8--8-|--(8)---8--8--8--------|

Guitar Solo
E||-----8----8---------|----8----8-----------||
B||o----8----8--10-8---|----8----8--10-8----o||
G||--------9----10-8h9-|-------9----10-8h9---||
D||--10----------------|-10------------------||
A||o-------------------|--------------------o||
E||--------------------|---------------------||

E|----8-8---|-8---8-|----8---8---------||-----8----8----------||
B|----8-8---|-8---8-|----8---8--10-8---||o----8----8--10-8---o||
G|----8---8-|-8-8---|------9----10-8h9-||--------9----10-8h9--||
D|-10-----7-|---7---|-10---------------||--10-----------------||
A|----------|-------|------------------||o-------------------o||
E|----------|-------|------------------||---------------------||

E|----8----8-----||---11b12----11b12----11b12-|
B|----8----8-----||---10b11----10b11----10b11-|
G|-------9-------||---------------------------|
D|-10------------||---------------------------|
A|---------------||---------------------------|
E|---------------||---------------------------|

E|-11b12----11b12-|-11b12----11b12----11b12--*|
B|-10b11----10b11-|-10b11----10b11----10b11--*|
G|----------------|--------------------------*|
D|----------------|--------------------------*|
A|----------------|--------------------------*|
E|----------------|--------------------------*|

I got lumps in my throat
When I saw her comin down the aisle
I got the wiggles in my knees
When she looked at me and sweetly smiled
Well there she is again
Standin over by the record machine
Well she looks like a model
On the cover of a magazine
But she's too cute
To be a minute over seventeen

Meanwhile I was thinkin'

Well if she's in the mood
No need to break it
I got the chance and I oughta take it
If she can dance we can make it
C'mon queenie let's shake it

I said go, go, go, little queenie
I said go, go, go, little queenie
I said go, go, go, little queenie

Won't someone tell me
Who's the queen standin over by the record machine
Well she looks like a model
On the cover of a magazine
But she's too cute
To be a minute over seventeen
I said go, go, go, little queenie
I said go, go, go, little queenie
I said go, go, go, little queenie

Meanwhile, I was still thinkin, hmmmm,
Well if it's a slow one
We'll omit it
If it's a rocker, then we'll get it
If it's a good one, she'll admit it
C'mon queenie, let's get with it

I said go, go, go, little queenie
I said go, go, go, little queenie
I said go, go, go, little queenie

I said go, go, go, little queenie
I said go, go, go, little queenie
I said go, go, go, little queenie...

Вверх

Maybellene

A / / / 2 / / /
CHORUS:
Maybellene, why can't you be true
D7                     A
Oh, Maybellene, why can't you be true
E7                     D7                 A
You've started back doin' the things you used to do

Verse 1:
As I was motivatin' over the hill
I saw Maybellene in a Coupe de Ville
Cadillac rollin' on the open road
Nothin' outruns my V-8 Ford
Cadillac doin' 'bout 95
Bumper-to-bumper, rollin' side by side

(chorus)

Cadillac rolled up ahead of the Ford
The Ford got hot, wouldn't do no more
It soon got cloudy and it started to rain
I tooted my horn for the passing lane
Rain was pourin' under my hood
I knew that was doin' my motor good

(chorus)

(instrumental, same pattern as chorus)

(chorus)

Motor cooled down, the heat went down
That's when I heard that highway sound
The Cadillac sittin' like a ton of lead
110 half a mile ahead
The Cadillac looked like it was sittin' still
I caught Maybellene at the top of the hill

(chorus)

Вверх

Memphis Tennessee

G / / / 2 / / / 3 / /
D
Long-distance information, get me Memphis, Tennessee
Help me find the party who tried to get in touch with me
G
She could not leave her number, but I know who placed the call
D7                             G
'Cause my uncle took a message and he wrote it on the wall

Verse 2:
Help me, information, get in touch with my Marie
She's the only one who called me here from Memphis, Tennessee
Her home is on the south side, high upon the ridge
Just a half a mile from the Mississippi bridge

(instrumental; same pattern as verses)

Verse 3:
Help me, information, more than that I cannot add
Only that I miss her and all the fun we had
But we were pulled apart because her mom would not agree
Tore apart our happy home in Memphis, Tennessee

Verse 4:
Last time I saw Marie, she was wavin' me goodbye
With hurry-home drops on her cheeks that trickled from her eyes
Marie is only 6 years old; information please
Try to put me through to her in Memphis, Tennessee

Вверх

Nadine

A
I got on a city bus and found a vacant seat,
thought I saw my future bride
B9
walking up the street, I shouted to the driver
hey conductor, you must slow
A
down. I think I see her please let me off this bus

CHORUS:
A                A         B9
Nadine, honey is that you.  Oh, Nadine. Honey,
A              E7
is that you? Seems like every
A
time I see you Darling you got something else to do

[Alternate verse: Seems like every time I catch you, datcha
you're up to something new]

CHORUS

Downtown searching for her, looking all around.
Saw her getting in a yellow
cab heading up town. I caught  a loaded taxi,
paid up everybody's tab. With a
twenty dollar bill, told him 'catch that yellow cab.'

CHORUS

She move around like a wave of summer breeze,
go, driver, go, go, catch her
balmy breeze. Moving thru the traffic like a mounted cavalier.
Leaning out
the taxi window trying to make her hear.

CHORUS

Вверх

No Money Down

G|-----------|----------------|
D|-----------|5-/-------------|
A|-5---7---7-|------5---7---7-|
E|-----------|----------------|

G|----------------|----------------|
D|5-/-------------|5-/-------------|
A|------5---7---7-|------5---7---7-|
E|----------------|----------------|

G|----------------|----------|
D|5-/-------------|5-/---5---|
A|------5---7---7-|----------|
E|----------------|----------|

G|------------------2---5-|3---3-2-------------|
D|------2---2-5---5-------|----------5---2---2-|
A|3---3-------------------|--------------------|
E|------------------------|--------------------|

G|------------5-6-7-|7---7-----7-------------|
D|5-----------------|------9-----------------|
A|----7---5---------|------------5---5-7---5-|
E|------------------|------------------------|

G|----4---7-----|--------------|
D|5-------------|5-------------|
A|------------5-|----7---5---7-|
E|--------------|--------------|

G|------------------|--------------|
D|------------------|5-------------|
A|5---5-------5---7-|----5---7---7-|
E|------7---7-------|--------------|

G|----------------|----------------|
D|5-/-------------|5-/-------------|
A|------5---7---7-|------5---7---7-|
E|----------------|----------------|

Вверх

Rock N Roll Music

A7
Just let me hear some of that...

CHORUS:
D
Rock and roll music
Any old way you choose it
G
It's got a back beat, you can't lose it
D
Any old time you use it
A7
It's gotta be rock and roll music
D
If you wanna dance with me
A7                      D
If you wanna dance with me

Verse 1:
A
I have no kick against modern jazz
A7                          D
Unless you try to play it too darn fast
G
I lose the beauty of a melody
A7
Until it sounds just like a symphony
That's why I go for that...

(chorus)

Verse 2:
I took my love on over 'cross the tracks
So she could hear a man a-wailin' sax
I must admit they had a rockin' band
And they were blowin' like a hurrican'
That's why I go for that...

(chorus)

Verse 3:
Way down south they gave a jubilee
And Georgia folks, they had a jamboree
They're drinkin' home brew from a wooden cup
The folks dancin' got all shook up
And started playin' that...

(chorus)

Verse 4:
Don't get to hear 'em play a tango
I'm in no mood to take a mambo
It's way too early for the congo
So keep on rockin' that piano
So I can hear some of that...

(chorus)

Вверх

Roll Over Beethoven

G|------------------------------|------------------------------|
D|--------------------0---2---0-|---------------------0---2--0-|
A|-------------2----------------|-------------2----------------|
E|-3---3---3-------3------------|-3---3---3-------3------------|

G|-------------------------4--7-|--------------------2---4---2-|
D|---------------------7--------|------------4-----------------|
A|-5---5---5---5---5------------|-5--5---5-------5-------------|
E|------------------------------|------------------------------|

G||-----------------------------|------------------------------|
D|*-------------------2---4---2-|---------------------2---4--2-|
A|*0--0---0---4---0-------------|-0---0---0---4---0------------|
E||-----------------------------|------------------------------|

G||--------------------2---4--2-|-------------------2---4--2--||
D|*------------4----------------|-----------4-----------------*|
A|*5---5---5-------5------------|-5--5--5-------5-------------*|
E||-----------------------------|-----------------------------||

G|---------------------2--4--2-||-----------------------------||
D|-------------4---------------*|---------------------0--2--0-*|
A|-5---5---5-------5-----------*|-------------2---------------*|
E|-----------------------------||-3---3---3-------3-----------||

G|------------------------------|----------------------------2-|
D|---------------------2---4--2-|---------------------2---4----|
A|-0---0---0---4---0------------|-0---0---0---0---0------------|
E|------------------------------|------------------------------|

G|-------------------------4--7-|-------------------------4--7-|
D|---------------------7--------|---------------------7--------|
A|-5---5---5---5---5------------|-5---5---5---5---5------------|
E|------------------------------|------------------------------|

G|-------------------------4--7-|------------------------------|
D|---------------------7--------|---------------------0---2--0-|
A|-5---5---5---5---5------------|-------------2----------------|
E|------------------------------|-3---3---3-------3------------|

G|----------------------------0-|------------------------------|
D|---------------------0---2----|---------------------0---2--0-|
A|-------------2----------------|-------------2----------------|
E|-3---3---3-------3------------|-3---3---3-------3------------|

G|----------------------------2-|------------------------------|
D|---------------------2---4----|---------------------2---4--2-|
A|-0---0---0---4---0------------|-0---0---0---4---0------------|
E|------------------------------|------------------------------|

G|-------------------------4--7-|---------------------2---4--2-|
D|-------------4-------7--------|-------------4----------------|
A|-5---5---5-------5------------|-5---5---5-------5------------|
E|------------------------------|------------------------------|

G|-------------------------4--7-|----------------------------2-|
D|---------------------7--------|---------------------2---4----|
A|-5---5---5---5---5------------|-0---0---0---4---0------------|
E|------------------------------|------------------------------|

G|----------------------------2-|-------------------------4--7-|
D|---------------------2---4----|-------------4-------7--------|
A|-0---0---0---4---0------------|-5---5---5-------5------------|
E|------------------------------|------------------------------|

G|----------------------------0-|------------------------------|
D|---------------------0---2----|---------------------2---4--2-|
A|-------------2----------------|-0---0---0---4---0------------|
E|-3---3---3-------3------------|------------------------------|

G|------------------------------|----------------------------0-|
D|---------------------0---2--0-|---------------------0---2----|
A|-------------2----------------|-------------2----------------|
E|-3---3---3-------3------------|-3---3---3-------3------------|

G|------------------------------|----------------------------2-|
D|---------------------2---4--2-|---------------------2---4----|
A|-0---0---0---4---0------------|-0---0---0---4---0------------|
E|------------------------------|------------------------------|

G|----------------------------0-|-------------------------4--7-|
D|---------------------0---2----|---------------------7--------|
A|-------------2----------------|-5---5---5---5---5------------|
E|-3---3---3-------3------------|------------------------------|

G|------------------------------|------------------------------|
D|---------------------0---2--0-|----------------2--4--2-------|
A|-------------2----------------|-0-----0--4--0-----------0--4-|
E|-3---3---3-------3------------|----2-------------------------|

G|---------------------2---4---2-|---|
D|-------------4-----------------|-0-|
A|-----5---5-------5-------------|---|
E|-5-----------------------------|---|

Вверх

Run Run Rudolph

INTRO:

E|-/8--8--8--8--8-----------|-8-----------8-----8---8---8--11b-|
B|-/8--8--8--8--8--10-------|-8--10-------8-----8---8---8--11b-|
G|---------------------8--9-|--------8h9-----9-----------------|
D|-----------------------10-|---------------10-----------------|
A|--------------------------|----------------------------------|
E|--------------------------|----------------------------------|

(F)                                                    (C)
Out of all the reindeer you know you're the mastermind
(G)                                           (C)
Run run Rudolph  Randolph's way too far behind

(C)             (F)                          (C)
Run run Rudolph Santa's got to make it to town
(F)                                                          (C)
Can't you make him hurry tell him he can take the freeway down
(G)                                                    (C)
Run run rudolph 'cause I'm reelin' like a merry-go-round

Said Santa to a boy child what have you been longing for
All I want for Christmas is a rock n roll electric guitar
And then away went Rudolph wizzin' like a shootin' star

SOLO:

E|---8--8---8---8---8--8--|--8--10--11--10--8-------------|
B|--/8--8---8---8---8--8--|--8--10--11--10--8--11--10--8--|
G|--/---------------------|--------------------11--10--8--|
D|------------------------|-------------------------------|
A|------------------------|-------------------------------|
E|------------------------|-------------------------------|

E|-------8--10--8-------------|------------------------------|
B|-------8--10--8--11--10--8--|--8b(9)--8b(9)--8b(9)--8b(9)--|
G|--10b------------11--10--8--|--8b(9)--8b(9)--8b(9)--8b(9)--|
D|----------------------------|------------------------------|
A|----------------------------|------------------------------|
E|----------------------------|------------------------------|
....and so on

Вверх

School Day

                             G
Up in the mornin' and off to school
The teacher is teachin' the golden rule
C
American hist'ry and practical math
G
You're studyin' hard, hopin' to pass
D
Workin' your fingers right down to the bone
C7                                        G
And the guy behind you won't leave you alone

Verse 2:
Ring ring, goes the bell
The cook in the lunchroom's ready to sell
You're lucky if you can find a seat
You're fortunate if you have time to eat
Back in the classroom, open your books
Bet the teacher don't know how mean she looks

Verse 3:
Soon as 3:00 rolls around
You finally lay your burden down
Close up your books, get out of your seat
Down the halls and into the street
Up through the corner and round the bend
Right to the juke joint you go in

Verse 4:
Drop the coin right into the slot
You gotta hear somethin' that's really hot
With the one you love you're makin' romance
All day long you've been wantin' to dance
Feelin' the music from head to toe
Round and round and round you go

(instrumental, same pattern as verses)

(repeat verse 4)

Verse 5:
Hail, hail, rock 'n' roll!
Deliver me from the days of old
Long live rock 'n' roll
The beat of the drums loud and bold
Rock, rock, rock 'n' roll
The feelin' is there, body and soul

Вверх