Clapton Eric

Aint nobodys business
Change the world
Cocaine
Danny boy
Layla
Old Love
Tears In Heaven
Tears In Heaven (2 вариант)
Tears In Heaven (3 вариант)
Вверх

Aint nobodys business

[Bb] There ain't nothin' [D7] I can do, [Gm] nor nothin' I can [D7] say,
[G7] That folks don't [Dm7] cri[G7]ti[Cm]cize [G7] me.
[Cm] But I'm gonna [G7] do just as I [Cm] want to any[C]way,
[C7] I don't care if they all des[F#7]pise [F7] me.

[Bb] If I should [D7] take a notion
[Gm] To jump in[Eb]to the ocean,
[Bb] It ain't nobody's [F7] business if I [Bb] do. [G7] [C7] [F7]

[Bb] Rather than [D7] persecute me,
[Gm] I choose that [Eb] you would shoot me,
[Bb] It ain't nobody's [F7] business if I [Bb] do. [G7] [C7] [F7]

[Bb] If I should [D7] get the feelin'
[Gm] To dance up[Eb]on the ceiling',
[Bb] It ain't nobody's [F7] business if I [Bb] do. [G7] [C7] [F7]

[Bb] If I let my [D7] best companion
[Gm] Drive me right in[Eb]to the canyon,
[Bb] It ain't nobody's [F7] business if I [Bb] do. [G7] [C7] [F7]

[Bb] After all the [D7] way to do [Gm] is do just as you [D7] please,
[G7] Regardless [Dm7] of [G7] their [Cm] talk[G7]in'
[Cm] Often times the [G7] ones that talk will get [Cm] down on their [C] knees,
[C7] And beg your pardon for their [F#7] squak[F7]in'. (sp?)

[Bb] If I dis[D7]like my lover
[Gm] And leave (him/her) [Eb] for another,
[Bb] It ain't nobody's [F7] business if I [Bb] do. [G7] [C7] [F7]

[Bb] If I go to [D7] church on Sunday,
[Gm] Then caba[Eb]ret on Monday,
[Bb] It ain't nobody's [F7] business if I [Bb] do. [G7] [C7] [F7]

[Bb] If my friend ain't [D7] got no money
[Gm] And I say, Take [Eb] all mine honey,
[Bb] It ain't nobody's [F7] business if I [Bb] do. [G7] [C7] [F7]

[Bb] If I lend (him/her) [D7] my last nickel
[Gm] And it leaves me [Eb] in a pickle,
[Bb] It ain't nobody's [F7] business if I [Bb] do.

Вверх

Change the world

E F#m G     G F# E     E F#m G     G  F#m  B7sus4

E          E6        E7     E7       E6       E
If I could reach the stars, pull one down for you.
E       E6    E7     E7           E6      E
Shinin' on my heart, so you could see the truth.
A         A6          A7      A7      A6    A
Then this love I have inside, is everything it seems
E       E6    E7    E7       E6    G#7
But for now I find, its only in my dreams

F#m7 G#7    C#m     F#m            G#7              C#m
And I can change  the world.  I would be the sunlight in your universe
F#m7                G#7             C#m7 Cm7   Bm7
You would think our love was really some-thing good

A    E/G#   G#m Gm F#m(6 beats) E
Baby if I could, change......       the world

E   E6   E7   E7  E6   E

E    E6       E7     E7   E6    E
If I could be king,  even for a day.
E            E6    E7      E7          E6       E
I'd take you as my queen.  I'd have it no other way.
G# A       A6         A7         A7      A6      A
And our love would rule, this kingdom we have made.
E             E6   E7    E7     E6      G#7
Till then I'd be a fool, wishin for the day...

F#m G#7    C#m     F#m            G#7              C#m
And I can change the world.  I would be the sunlight in your universe
F#m                 G#7             C#m7 Cm7   Bm7
You would think our love was really some-thing good
A7   E/G#   G#m Gm F#m(2 Beats)E(4 beats)
Baby if I could, change         the world
A7   E/G#   G#m Gm F#m  (6beats) E
Baby if I could, change.............  the world

Break around verse chords

F#m    G#7 C#m     F#m            G#7              C#m
I can change the world.  I would be the sunlight in your universe
F#m                 G#7             C#m7 Cm7   Bm7
You would think our love was really some-thing good
A7   E/G#   G#m    Gm  F#m
Baby if I could, change the world
A7   E/G#   G#m    Gm  F#m
Baby if I could, change the world
A7   E/G#   G#m Gm F#m 4beats     G
Baby if I could, change     . . . .         the World

E   E6   E7      E7   F#m7   E
. . . . . .
Note that the 6th chords are actually 6/11 chords.  The
Chords are not played with the 6th or 7th on top.  Also, most
Of the minor chords are actually minor 7th chords.  The intro
Really is E E6 E7 chords with E F# G in the bass.

Вверх

Cocaine

main riff is [E] [E] [D] [E], [E] [D] -- play that twice over each
Line of the verses)

If you wanna hang out you've got to take her out, cocaine.
If you wanna get down, down on the ground, cocaine.

She don't [E] lie, she don't [D] lie, she don't [C] lie [B]
Cocaine!

If you got bad news, you wanna kick them blues, cocaine.
When your day is done and you wanna run, cocaine.

Chorus

If your thing is gone and you wanna ride on, cocaine.
Don't forget this fact, you can't get it back, cocaine.

Chorus

(long solo here?)

Chorus

Вверх

Danny boy

e|-----------------|
B|-----------------|
G|-----------------|
D|-------------4---|
A|-------6-7-------|
E|-----------------|

FIRST VERSE

e|-----------------|-----------------|-----------------|-----------------|
B|-----------------|-----------------|-----------------|-----------------|
G|-----------------|-------464-------|-----------------|---------------4-|
D|-6-------------4-|-6----------/6-4-|---2-------------|-------2/6---7---|
A|-----------------|-----------------|-----4-----------|-----------------|
E|-----------------|-----------------|-----------------|-----------------|

e|-----------------|-----------------|-----------------|-----------------|
B|-----------------|-----------------|-----------------|-----------------|
G|---------------46|-4---------------|-----------------|-----------------|
D|-----------------|-------6~---/6-4-|-----------------|---------------4-|
A|-----------------|---------7-------|-----------------|-------6-7-------|
E|-----------------|-----------------|-----------------|-----------------|

e|-----------------|-----------------|-----------------|-----------------|
B|-----------------|-----------------|-----------------|-----------------|
G|-----------------|----/6-4---------|-----------------|-----------------|
D|/6-------------4-|-6-----------6-4-|---2-------------|---------------4-|
A|-----------------|-----------------|-----4-----------|-------6-7-------|
E|-----------------|-----------------|-----------------|-----------------|

e|-----------------|-----------------|-----------------|-----------------|
B|-----------------|-----------------|-----------------|-----------------|
G|-----------------|-----------------|-----------------|------/4-6--/8---|
D|-6-------------67|-6-----4~2----/4-|-2---------------|-----------------|
A|-----------------|-----------------|-----------------|-----------------|
E|-----------------|-----------------|-----------------|-----------------|

SECOND VERSE

e|-----------------|-----------------|-----------------|-----------------|
B|-----------------|-----------------|-----------------|-----------------|
G|-9-------------89|-8-6-6----/6--/6-|-4---------------|------/4-6--/8---|
D|-----------------|-----------------|---6-6-----------|-----------------|
A|-----------------|-----------------|-----------------|-----------------|
E|-----------------|-----------------|-----------------|-----------------|

e|-----------------|-----------------|-----------------|-----------------|
B|-----------------|-----------------|-----------------|-----------------|
G|-9-----9-9-----9~|-8-----6~4-------|-----------------|------/4-4---4---|
D|-----------------|-----------6-6-4-|-------------2-4-|-1---------------|
A|-----------------|-----------------|-----------------|-----------------|
E|-----------------|-----------------|-----------------|-----------------|

e|-----------------|-----------------|-----------------|-----------------|
B|/9-------------7-|-7-------------5-|-----------------|-----------------|
G|-----------------|---9-9----/6-----|-4---------------|-----------------|
D|-----------------|-----------------|---6-2-----------|---------------4-|
A|-----------------|-----------------|-----------------|-------6-7-------|
E|-----------------|-----------------|-----------------|-----------------|

e|-----------------|-----------------|-----------------|-----------------|
B|-----------------|-----------------|-----------------|-----------4-5-7-|
G|------/6-4-------|-----------------|-----------------|-----------------|
D|-6-----------6-4-|-------2-------2-|-2---------------|-----------------|
A|-----------------|---------4-------|-----------------|-----------------|
E|-----------------|-----------------|-----------------|-----------------|

THIRD VERSE

e|-----------------|-------797-------|-----------------|-----------------|
B|-9-------------7-|-9-----------9-7-|-----------------|-------5/9---10--|
G|-----------------|-----------------|-----------------|-----------------|
D|-----------------|-----------------|-----------------|-----------------|
A|-----------------|-----------------|-----------------|-----------------|
E|-----------------|-----------------|-----------------|-----------------|

e|-----------------|-----------------|-----------------|-----------------|
B|-12-----------12~|-12----9~---/9-7-|-----------454---|-------4-5-----12|
G|-----------------|---------9-------|---------46---646|-4---------------|
D|-----------------|-----------------|-------46--------|-----------------|
A|-----------------|-----------------|-----------------|-----------------|
E|-----------------|-----------------|-----------------|-----------------|

e|-----------------|-------797-------|-----------------|-----------------|
B|-9-------------7-|-9-----------9-7-|---5-------------|-------4-5---7-9-|
G|-----------------|-----------------|-----6---------4~|-3---------------|
D|-----------------|-----------------|-----------------|-----------------|
A|-----------------|-----------------|-----------------|-----------------|
E|-----------------|-----------------|-----------------|-----------------|

e|-----------------|-----------------|-----------------|-----7---9--/11--|
B|--------------910|-9-----7~5-----7-|-5---------------|-----------------|
G|-----------------|----------------6|-------64--------|-----------------|
D|-----------------|-----------------|---------4-2-242-|-2---------------|
A|-----------------|-----------------|----------------4|-----------------|
E|-----------------|-----------------|-----------------|-----------------|

FOURTH VERSE

e|-12------------11|11-9-9----/9--/9-|-7---------------|-------7-9--/11--|
B|-----------------|-----------------|--95-------------|-5---------------|
G|-----------------|-----------------|---------------46|-----------------|
D|-----------------|-----------------|-----------------|-----------------|
A|-----------------|-----------------|-----------------|-----------------|
E|-----------------|-----------------|-----------------|-----------------|

e|-12---12-12---12~|11-----9~7-------|-----------------|-------7-7-----7-|
B|-----------------|------------/9-7-|---------5-754~--|-----------------|
G|-----------------|-----------------|---------------64|-4---------------|
D|-----------------|-----------------|-----------------|-----------------|
A|-----------------|-----------------|-----------------|-----------------|
E|-----------------|-----------------|-----------------|-----------------|

e|/16------------14|14-1212---/9---12|-7---------------|-----------------|
B|-----------------|-----------------|---9-5-------4-54|-------4-5-----7-|
G|-----------------|-----------------|-----------------|-6---------------|
D|-----------------|-----------------|-----------------|-----------------|
A|-----------------|-----------------|-----------------|-----------------|
E|-----------------|-----------------|-----------------|-----------------|

e|-------797-------|-----------------|-----------------|-------7-9--/11--|
B|-9-----------9-7-|-------5-------5-|-5---------------|-----------------|
G|-----------------|---------6-------|-----------------|-----------------|
D|-----------------|-----------------|-----------------|-----------------|
A|-----------------|-----------------|-----------------|-----------------|
E|-----------------|-----------------|-----------------|-----------------|

FIFTH VERSE

e|-12-----------111211-9-9----/9--/9-|-7---------------|-------7-9--/11--|
B|-----------------|-----------------|--95-------------|-----------------|
G|-----------------|-----------------|-----------------|-----------------|
D|-----------------|-----------------|-----------------|-----------------|
A|-----------------|-----------------|-----------------|-----------------|
E|-----------------|-----------------|-----------------|-----------------|

e|-12-----------12~|11-----9~7-------|---------1197----|-----------------|
B|-----------------|------------/9-7-|-------77----975-|-7--------9~79757|
G|-----------------|-----------------|-----------------|-------46--------|
D|-----------------|-----------------|-----------------|-----------------|
A|-----------------|-----------------|--------not-sure-|-about-this-part-|
E|-----------------|-----------------|-----------------|-----------------|

e|----16-16------14|14-1212---/9---12|-7---------------|-----------------|
B|-5---------------|-----------------|---9-5---------4~|--------------457|
G|-----------------|-----------------|-----------------|-6-----6~5-------|
D|-----------------|-----------------|-----------------|-----------------|
A|-----------------|-----------------|-----------------|-----------------|
E|-----------------|-----------------|-----------------|-----------------|

e|-----9-7---------|-----------------|-9---------9-1112|-----------------|
B|-9-----------9-7-|-------5-------5-|-----------------|-11---11~10--1210|
G|-----------------|---------6-------|-----------------|-----------------|
D|-----------------|-----------------|-----------------|-----------------|
A|-----------------|-----------------|-----------------|-----------------|
E|-----------------|-----------------|-----------------|-----------------|

CADENZA

e|-------9-7-------|-----------------|-----------------|-7---------------|
B|-9----------/9-7-|-------5-----5---|---5-7-9-9~797~57|---5-5-----------|
G|-----------------|---------6-------|-----------------|-----------------|
D|-----------------|-----------------|-----------------|-----------------|
A|-----------------|-ritard----------|--------not-sure-|-----------------|
E|-----------------|-----------------|-----------------|-----------------|

Вверх

Layla

E|----------|--------------------------|-----------------------|
B|----------|---------------3---3------|-5---5---5-------------|
G|--------2-|---------------3---3------|-5---5---5--2---------2|
D|--------0-|-0--------3----3---3------|-5---5---5--0---------0|
A|-0---3----|-----3----1----1---1----3-|-3---3---3------0--3---|
E|----------|--------------------------|-----------------------|

E|-1-------------------------|---------------------------------|
B|-3-----------------3--3----|-5-------------------------------|
G|-2-----------------3--3----|-5----------2--------------------|
D|-------------3-----3--3----|-5-----5----0--------------0-----|
A|---------3---1-----1--1--X-|-3--0--3-----------0---3---------|
E|---------------------------|---------------------------------|

E|-1--1-------------|-------------------|----------------------|
B|-3--3-------------|-----------------5-|565----5-6-5----5-6/8-|
G|-2--2-------------|---------------7---|------7--------7------|
D|-0--0--X--3--3--3/|-5--5--5--7--7-----|----------------------|
A|----------1--1--1/|-3--3--3--5--------|----------------------|
E|------------------|-------------------|----------------------|

E|------------8------|10-12-10/12/10----10---------------------|
B|6-8/10-8-10---10-13|---------------13----13-10---10----12/10-|
G|-------------------|--------------------------12---12--------|
D|-------------------|-----------------------------------------|
A|-------------------|-----------------------------------------|
E|-------------------|-----------------------------------------|

E|------------------|---------------------------|--------------|
B|------------5-6-5-|---------------------------|--------------|
G|-9--10-9---7------|-7------7----------------3-|--------------|
D|---------7--------|-----7-----7/5---3---3/5---|-------0------|
A|------------------|-------------------5-------|-5--3-----0-3-|
E|------------------|---------------------------|--------------|

1. What?ll you do when you get lonely, No one waiting by your
side?
2. Try to gove you consolation, Your old man he let you down.
3. Make the best of the situation, before I finally go insane.

E|-4-4-4-4-4-4-4-4-|-4-4-4-4-4-4-4--4-|-4--4--4--X-------------|
B|-5-5-5-5-5-5-5-4-|-4-4-4-4-4-4-4--5-|-5--5--5--X--5--X--7--X-|
G|-6-6-6-6-6-6-6-5-|-5-5-5-5-5-5-5--4-|-4--4--4--X--5--X--7--X-|
D|-6-6-6-6-6-6-6-4-|-6-6-6-6-6-6-6--6-|-6--6--6--X--5--X--7--X-|
A|-4-4-4-4-4-4-4-6-|-6-6-6-6-6-6-6--4-|-4--4--4-----5--X--5--X-|
E|---------------4-|-4-4-4-4-4-4-4----|------------------------|

E|---------0-----0----------|
B|------------3-----0-------|
G|-1---0/1----1-----1-------|
D|-2----------------2-------|
A|-2------------------------|
E|-0--------------------2---|

You?ve been runnin? and hidin? too long.  You know it?s
just your foolish. Like a fool, I fell in love with you. You
turned my whole world uspside. Please don?t say we?ll never
find a way. Tell me all my love?s in vain.

E|-2-2-2-X---------|-0--0--0--X------------|-2--2--2-X-------0-|
B|-2-2-2-X-4-4-4-X-|-0--0--0--X--2--2--2---|-2--2--2-X-4-4-4-0-|
G|-2-2-2-X-4-4-4-X-|-1--1--1--X--2--2--2---|-2--2--2-X-4-4-4-1-|
D|-4-4-4-X-4-4-4-X-|-2--2--2--X--2--2--2---|-4--4--4-X-4-4-4-2-|
A|-4-4-4---2-2-2-X-|-2--2--2-----0--0--0---|-4--4--4---2-2-2---|
E|-2-2-2-----------|-0--0--0-------------2-|-2--2--2-----------|

Layla
E|------0-----------------|
B|------0---0-------------|
G|------1---1----------2--|
D|--2------------------2--|
A|--2------------0-----0--|
E|--0---------------------|

You Got me on my knees. Layla  I?m beggin darlin please, Layla

E|-------------------|----------------------|-1----------------|
B|----3------3--3--X-|-5--5--5--3-----------|-3----------3--3--|
G|-0--2---5--3--3--X-|-5--5--5--2---------2-|-2---5--3---3--3--|
D|-2--0---5--3--3--X-|-5--5--5--0---------0-|-0---5--3---3--3--|
A|--------3--1--1----|-3--3--3-------0--3---|-----3--1---1--1--|
E|-------------------|----------------------|------------------|

E|-----------------------|
B|--5--5--5--3-----------|
G|--5--5--5--2---------2-|
D|--5--5--5--0---------0-|
A|--3--3--3------0---3---|
E|-----------------------|

darlin? won?t you ease my worried mind?

E|-----1-------------|----------------------|-1----------------|
B|-----3-----3--3--X-|-5--5--5---3----------|-3--------3--3--X-|
G|-(2)-2--5--3--3--X-|-5--5--5---2--------0-|-2--5--3--3--3--X-|
D|-(0)-0--5--3--3--X-|-5--5--5---0--------2-|-0--5--3--3--3--X-|
A|--------3--1--1----|-3--3--3------0--3----|----3--1--1--1--X-|
E|-------------------|----------------------|------------------|

E|-3--3--3-----------|
B|-5--5--5-----------|
G|-5--5--5--------5-.|
D|-5--5--5---7-------|
A|-3--3--3---0----3-.|
E|-------------------|

Solo:
E|-5-5-5---5-------|-------------------|-7/8--8-------8--8--8--|
B|-6-6-6---6-------|-------------------|-9/10-10-9/10-10-10-10-|
G|-------7---7-5---|-------------------|-----------------------|
D|---------------7-|-6/5/3-5-3---3-----|-----------------------|
A|-----------------|-----------5----5-X|-----------------------|
E|-----------------|-------------------|-----------------------|

E|-----8--8-------8--8------8-10-----|--------------10-10/12/10|
B|9/10-10-10-9/10-10-10-9/10---------|---------10-13-----------|
G|--------------------------------/12|10--10-12----------------|
D|------------------------------12---|--12---------------------|
A|-----------------------------------|-------------------------|
E|-----------------------------------|-------------------------|

E|----10---|------------------------------|--------------------|
B|-13----13|-10----10-10-10---11--10------|--------------------|
G|---------|----12---------------------12-|-10-9--7/9-7--5---7-|
D|---------|------------------------------|----------------7---|
A|---------|------------------------------|--------------------|
E|---------|------------------------------|--------------------|

E|-------------------------------|-----13--10-------------10---|
B|-5-6-5/6/5---------------------|--------------------13-------|
G|-----------7-5-----------------|-----------------------------|
D|----------------7-6--5-3-5-3---|-----------------------------|
A|-----------------------------5-|--5--------------------------|
E|-------------------------------|-----------------------------|

E|-12-10/12-10----------------|-10----13--10-----|
B|-------------13--10------10-|----10---------13-|
G|---------------------13-----|------------------|
D|----------------------------|------------------|
A|----------------------------|------------------|
E|----------------------------|------------------|

E|--15/13-15--13--------|--12-13/15--13-15--X--12--13--|
B|-------------------15-|------------------------------|
G|----------------14----|------------------------------|
D|----------------------|------------------------------|
A|----------------------|------------------------------|
E|----------------------|------------------------------|

E|-10--------------------------------|-10----------------------|
B|----13(10)-------13---/-10---------|-10----10----10----------|
G|-----------12-10----12-----12-10---|-10--9--9/10 9---9/10----|
D|---------------------------------12|----------------------12-|
A|-----------------------------------|-------------------------|
E|-----------------------------------|-------------------------|

Layla,
E|-----------------|
B|-----------------|
G|--5-----------/--|
D|-----7-6--5--3---|
A|-----------------|
E|-----------------|

Out-chorus

You got me on my knees. Layla, I?m Begging darlin please. Layla

E|------------------|---------------------|-1------------------|
B|-3--------3--3--X-|--5--5--5--3---------|-3--------3--3------|
G|-2--5--3--3--3--X-|--5--5--5--2-------0-|-2--5--3--3--3---X--|
D|-0--5--3--3--3--X-|--5--5--5--0-------2-|-0--5--3--3--3---X--|
A|----3--1--1--1----|--3--3--3-----0--3---|----3--1--1--1---X--|
E|------------------|---------------------|--------------------|

Layla,
E|-----------------------|
B|-5--5--5--3------------|
G|-5--5--5--2---------2--|
D|-5--5--5--0---------0--|
A|-3--3--3-----0--3------|
E|-----------------------|

you got me on my knees. Layla, I?m

E|----------------------|--------------------|-1---------------|
B|-----3-------3--3--X--|-5--5--5--3---------|-3--------3-3----|
G|-(2)-2-5--3--3--3--X--|-5--5--5--2-------2-|-2--5--3--3-3--X-|
D|-(0)-0-5--3--3--3--X--|-5--5--5--0-------0-|-0--5--3--3-3--X-|
A|-------3--1--1--1-----|-3--3--3-----0--3---|----3--1--1-1--X-|
E|----------------------|--------------------|-----------------|

Beggin? darlin? please. Layla, darlin won?t you ease my worried

E|------------------------|-1------------------|-----|
B|-5--5--5---3------------|-3-----------3---3--|--5--|
G|-5--5--5---2----------0-|-2---5--3----3---3--|--5--|
D|-5--5--5---0----------2-|-0---5--3----3---3--|--5--|
A|-3--3--3--------0--3----|-----3--1----1---1--|--3--|
E|------------------------|--------------------|-----|

mind?

E|---------------|-------------------------------|-------------|
B|-----5-6-5-5-6-|-8-6-5-6-5---5-----------------|-------------|
G|-5-7-----------|-----------7---7-5-------------|-------------|
D|---------------|-------------------7-6-5-3---3-|-5/3---------|
A|---------------|---------------------------5---|-----5--5--5-|
E|---------------|-------------------------------|-------------|

Вверх

Old Love

Am7 Dm7        G+  G
I can feel your body
Am7 F/Dm7      G+  G
When Im lying in bed
Am7 Dm7             G+  G
There?s too much confusion
Am7 F/Dm7   G+             G
Going around through my head

F                        E7
And it makes me so angry
Am Am- Am7 D7
To know that the flame still burns
F                     E7
Why can?t I get over?
F      E7
When will I ever learn

Am7 Dm7 G+ G       Am7 Dm7  G+ G
Old love,         leave me alone
Am7 Dm7 G+ G        Am7 Dm7  G+ G
Old love,         go on home

Am7 Dm7       G+  G
I can see your face
Am7 F/Dm7		     G+  G
But I know that it?s not real
Am7 Dm7          G+  G
It?s just an illusion
Am7 F/Dm7             G+  G
Caused by how I used to feel

F                        E7
And it makes me so angry
Am AM- Am7 D7
To know that the flame will always burn
F                    E7
I?ll never get over
F      E7 . . . .
I know now that I?ll never learn

Am7 Dm7 G+ G       Am7 Dm7  G+ G
Old love,         leave me alone
Am7 Dm7 G+ G       Am7 Dm7  G+ G
Old love,         go on home

G+  == 355533
Am- == x02110

Вверх

Tears In Heaven

   D/F# E7sus4 E7    A                   A          E/G#    F#m
1. Would you know my name
2. Would you hold my hand

F#m/E      D/F#    A           E
+------------------+-------------0-----+------------------+
+--------2---2---2-+-3---3---2---2-----+-0---0---2---3----+
+--------2---2---2-+-2---2---2---2-----+-1---1---2---4----+
+------------------+-------------------+------------------+
+------------------+---------0-0-------+------------------+
+----2-----2-0-0--0+-2-2---2--------0--+---0---0---0---0/2+
if I saw you in heaven?

Would it be the same                                 If I saw you in hea-
Would ya help me stand                               If I saw you in hea-

E     A/E  E7/5  F#m7               C#/E#
+-----------------+-2---2---2---2----+-1---1---1---1----+
+--0---0---2---3--+-2---2---2---2----+-2---2---2---2----+
+--1---1---2---4--+-2---2---2---2----+-1---1---1---1----+
+--2--------------+-2---2---2---2----+------------------+
+-----------------+-4---4---4---4----+------------------+
+----0---0---0---0+-2-2---2---2---0--+-1-1---1---1---1--+
ven?                  I must be strong

A7/E              F#7 F#7sus4 F#/A#   Bm7
+---0---0---0---0---+-------------------+------------------+
+---2---2---2---2---+-2-------------2---+-3---3---3---3----+
+---0---0---0---0---+-3-------4---------+-2---2---2---2----+
+-------------------+-2---2---2---------+------------------+
+-------------------+---------------1---+-2-2---2-2-2------+
+---0-0---0---0-----+-2-2---2---2-------+---------------0--+
and carry on        ?cause I know    I don?t belong
through night and day        ?cause I know    I just can?t stay

*to coda*
D/E                  A              E/G#       F#m7          F#m7/E
+---------------------+-------------------------------+---------------------+
+-------3---3---3-----+-------2/3/2-----5-------5---2-+--------2---2---2----+
+-------2---2---2-----+-----2-------2---4-------4---2-+--------2---2---2----+
+---------------------+-------------------------------+---------------------+
+---------------------+-0-----------------------------+---------------------+
+-------------0---0/2-+-----------------4---4-------2-+----2-----2-0-0---0--+
here in hea-ven.
here in hea-ven.

D/F# E7sus4 E7    A                   D/F# E7sus4 E7
+------------------+-------------------+----------------+
+--3---3---3---3---+-2---2---2----2----+-3---3---3---3--+
+--2---2---2---1---+-2---2---2----2----+-2---2---2---1--+
+------------------+-------------------+----------------+
+------------------+-0-0---0---0-------+----------------+
+--2-2---2-0---0---+----------------0/2+-2-2---2-0---0--+

A                   C           G/B          Am           D/F#
+---------------------+-----------------------3---0-+-----------------------+
+---2---2---2---2-----+--------1----------0-------1-+--1-----3---3------3---+
+---2---2---2---2-----+-----0-----0-------0-------2-+-----2------2---2------+
+---------------------+-----------------------------+-----------------------+
+---0-0---0---0---0/2-+-3-------------2-----------0-+-----------------------+
+---------------------+-----------------------------+------------2--------2-+
Time can bring you down, time can bend your
knees

G        D/F#     Em    D/F#  G     C    G/B    Am
+-------------------+-----------------+-------0---------+
+-------3---3---3---+-----3---3---3---+-1---1---3-----1-+
+---0---0---2---2---+-0---0---2---0---+-----------------+
+-------------------+-----------------+-----------------+
+-------------------+-----------------+-3-3---3-2-2---0-+
+---3-3---3-2-2---2-+-0-0---0-2-2-3---+-----------------+
Time can break your heart

D/F#           G       D/F#          E         A/E  E7/5
+-------------------------+-------------------------+-0---------------+
+-----1--------------3----+-3-----3-----3-----3-----+-0---0---1---3---+
+--------2--0-----2-------+-0-----0-----2--2--------+-0---0---2---4---+
+-------------------------+-------------------------+-2---------------+
+--0--------0-------------+-------------------------+-----------------+
+--------------2--2-----3-+-3--3-----3--2--2-----0--+-------0---0---0-+
have ya beggin? please,        beggin? please





A           E/G#   F#m7  E     A/E  E7/5    F#m
+------------------------+-----------------+-----2---2---2---+
+-------2/3/2-----5----2-+-0---0---2---3---+-2---2---2---2---+
+-----2-------2---4----2-+-1---1---2---4---+-2---2---2---2---+
+------------------------+-----------------+-----------------+
+-0----------------------+-----------------+-----------------+
+-----------------4----2-+-0-0---0---0---0-+-2-2---2---2---2-+
Beyond the door

C#/E#                A7/E               F#7        G#m  F#/A#
+---1---1---1---1----+-0---0---0---0----+---------2-----------+
+---2---2---2---2----+-2---2---2---2----+-2---2-----------2---+
+---1---1---1---1----+-1---1---1---1----+-3---3-------4-------+
+--------------------+------------------+-2---2---------------+
+--------------------+------------------+-----------------1---+
+---1-1---1---1---1--+-0-0---0---0---0--+-2-------2---4-------+
there?s peace, I?m sure

Bm7                  D/E                 A              E/G#  F#m7
+--------------------+--------------------+---------------------------+
+---3---3---3---3----+--3---3---3---------+-------2/3/2-----5---5---2-+
+---2---2---2---2----+--2---2---2---------+----2---------2--4---4---2-+
+--------------------+--------------------+---------------------------+
+---2-2---2---2------+--------------------+-0-------------------------+
+------------------0-+--------0-------0/2-+-----------------4-4-------+

F#m7/E             D/F# E7sus4 E7    A
+------------------+-----------------+--------------------+
+------2---2---2---+-3---3---3-------+-2---2---2---2------+
+------2---2---2---+-2---2---2---7---+-2---2---2---2------+
+------------------+-------------6---+--------------------+
+------------------+-----------------+-0-0---0---0--------+
+---2----2-0-0---0-+-2-2---2-0---0---+----------------0/2-+

A      E/G#          F#m7   F#m7/E      D/F#    A
+---------------0-----+-------------------+-----------------+
+-------5-----------2-+-------2---2---2---+-3---3---2---2---+
+---2-----------4---2-+-------2---2---2---+-2---2---2---2---+
+---------------------+-------------------+-----------------+
+---0-----------------+-------------------+---------0-0-----+
+-----------4-------2-+---2-----2-0-0---0-+-2-2---2-------0-+
3. Would you know my name                  if I saw you in hea-

E    A/E   E7/5    A              E/G#  F#m7       F#m7/E
+-------------------+--------------------------+--------------------+
+---0---0---2---3---+-------2/3/2-----5---5--2-+-------2---2---2----+
+---1---1---2---4---+----2--------2---4---4--2-+-------2---2---2----+
+-------------------+--------------------------+--------------------+
+-------------------+-0------------------------+--------------------+
+---0-0---0---0---0-+-----------------4--------+---2-----2-0-0---0--+
ven?                   Would you be the same

D/F#             A/E               E               A/E     E7/5
+-----------------------------------+---------------------------------+
+---3-------3-------2-------2-------+-0-------0-------2-------3-------+
+---2-------2-------2-------2-------+-1-------1-------2-------4-------+
+-----------------------------------+---------------------------------+
+-----------------------------------+---------------------------------+
+---2---2-------2---0---0-------0---+-0---0-------0-------0-------0---+
if I saw you in hea-         ven?

*coda*
A           E/G#   F#m7         F#m7/E
+----------------------------+---------------------+
+-------2/3/2-----5---5----2-+--------2---2---2----+
+-----2-------2---4---4----2-+--------2---2---2----+
+----------------------------+---------------------+
+-0--------------------------+---------------------+
+-----------------4--------2-+-----2----2-0-0---0--+
ven.                                      ?Cause I

Bm7                 D/E                 A             E/G#   F#m
+-------------------+---------------------+--------------------------+
+---3---3---3---3---+---3---3---3---------+--------2-3-2----5--5--5--+
+---2---2---2---2---+---2---2---2---------+-----2--------2--4--4--2--+
+-------------------+---------------------+--------------------------+
+---2-2---2---2-----+---------------------+-0------------------------+
+-----------------0-+---------0-------0/2-+-----------------4-----2--+
know    I don?t belong        here in hea-ven.

F#m/E        D/F# E7sus4 E7    A
+-------------------+-----------------+-------------------------------------+
+-------2---2---2---+-3---3---3---3---+----------2--3--2/3/2----------5--5--+
+-------2---2---2---+-2---2---2---1---+-------2--------------4--2-4/6-------+
+-------------------+-----------------+----2--------------------------------+
+-------------------+-----------------+-0-----------------------------------+
+-----2---2-0-0---0-+-2-2---2-0---0---+-------------------------------------+

Вверх

Tears In Heaven (2 вариант)

Verse:
] A       E/G#    ]F#m  A] D   A      ] E     ]
Would you know my name   if I saw you in Heaven
] A       E/G#    ]F#m  A] D   A      ] E     ]
Would it be the same     if I saw you in Heaven

] F#m      ]  C#/E#   ] Em      ] F#   ]
I must be strong     and carry on

]       Bm          ]E7sus E7      ] A   E/G# ]
Cause I know I don?t belong here in heaven

] F#m  A ] D  E7sus E7]  A  ]

Would you hold my hand, if I saw you in heaven
Would you help me stand, if I saw you in heaven
I?ll find my way through night and day
Cause I know I just can?t stay here in heaven.


Bridge:
] C       G/B     ] Am            D       ]  G   D ] Em   D G ]
Time can bring you down Time can bend your knees

] C       G/B     ] Am             D     ]  G       D   ] E    ]
Time can break your heart Have you beggin  please beggin please

Instrumental of first two lines, then:

] F#m      ]  C#/E#   ] Em      ] F#   ]
Beyond the door, there?s peace for sure
]       Bm          ]E7sus E7      ] A   E/G# ]
and I know there?ll be no more tears in heaven.

] F#m  A ] D  E7sus E7]  A  ]

repeat 1st verse

]       Bm          ]E7sus E7      ] A   E/G# ]
Cause I know I don?t belong here in heaven

] F#m  A ] D  E7sus E7]  A  ]

Fingerpick it [2 beats per pattern].
There are a couple of places where achord
only gets 1 beat -Just squeeze the chord
pluck the 4 strings  simultaneously.


Finger both the E/G# and the C#/E# chords in a open D chord
shape with the thumb wrapped around to the 6th string.
Like this:

C#/E#           The E/G# is the same thing played at the
--X-X------         4th fret
T ] ] 1 ] 2
-----------
] ] ] ] 3 ]
>Chorus:
>] F#m      ]  C#/E#   ] Em      ] F#   ]
>  I must be strong     and carry on

The Em sounds much better if you add a C# with your pinky
(2nd fret at the B string)

Version 2
Tears In Heaven (Eric Clapton)

Below are my attempt to reproduce the two main riffs in Tears
of Heaven off Eric Clapton?s unplugged album. There is really
only one figuring which is a reach which is the A to Esus2.

___________
]_]_]_]_]_]
]_]_1_1_1_1
]_]_]_]_]_]
2_]_]_3_]_]
] ] ] ] 4 ]

Play the A as a partial barre  add other three fingers to
construct the Esus2.

Tears In Heaven (Eric Clapton)

Lick 1: (The Verse)

A     Esus2  F#m    F#m/E      D   A     E
E|-------------------------------------------------------------|
B|---------2---5-----2---------2---------3-3-2-02--------------|
G|----------2-4-------2-------2-2-------2---2-------1---2---4--|
D|--------2-----2---4---4---------4---0---2---2-----2----------|
A|------0-----------------4---------4-----0-------2---2-4---5--|
E|0-2-4-------4---0-2-------0-------------------0---------0---0|

Would you know my name...

A Esus2/G# F#m   F#m/E    D    A      E
E|-------------2-----------------------------------------------|
B|---------2-----5-------------------3-3-2-0-------------------|
G|-----------2-------2---------2----2----2--2------1---2---4---|
D|-------2---------2----4-------2-0------2----2----2-----------|
A|------0-----------------4---4----------0-------2---2-4---5---|
E|-0-2-4-------4-----2------0------------------0---------0---0-|

F#m       C#/F    Em/G          F#               Bm       E
E|-------------------------------------------------------------|
B|---------0--------------------------------0---2----3---------|
G|-----2-2---1------------0-0-2-----3----------------4-4-4---1-|
D|-----4-----3-3----------2---------4-4--------------4-----4-2-|
A|---4-----------4------2-----------4---4------------2-------2-|
E|-2-------2-1-----1--3-------------2-----2---2---2----------0-|


Lick 2:

C       G   F                     Em    G
E|-----------0-0-----------------------------------|
B|---------------3---1-------1---3-0-----3-------0-|
G|---------0-------0---2-----2-----0---2---0-0-2---|
D|-----------------------2-----0-----0-----2-------|
A|-0-2-3-3-------2---0-----0---------------2-------|
E|---------------------------2-----3---2---0---2-3-|

Time will bend your knees...

Вверх

Tears In Heaven (3 вариант)

e|---------|
B|---------|
G|---------|
D|---------|
A|---------|
E|-0--h2---|


* *Aintro* *

e|---------------------------------0---------------0-----------|
B|-----------------2h3p2-----------------------------------2---|
G|---------2---------------2-------1---------------1-------2---|
D|-------------------------------------------------------------|
A|-0-----------------------------------------------------------|
E|---------------------------------4-------4---------------2---|
1.
2. ven
3. ven
4. ven

e|-------------------------------------------------------------|
B|-----------------2---------------2---------------2-----------|
G|-----------------2---------------2---------------2-----------|
D|-------------------------------------------------------------|
A|-------------------------------------------------------------|
E|---------2---------------2-------0-------0---------------0---|

e|-------------------------------------------------------------|
B|-3---------------3---------------3---------------3-----------|
G|-2---------------2---------------2---------------1-----------|
D|-------------------------------------------------------------|
A|-------------------------------------------------------------|
E|-2-------2---------------2-------0-------0-------0-------0---|
(on 3., go to *C* after the above measure, and return to *A*
afterwards)

e|-------------------------------------------------------------|
B|-2---------------2---------------2---------------2-----------|
G|-2---------------2---------------2---------------2-----------|
D|-------------------------------------------------------------|
A|-0-------0---------------0-------0-------0-------------------|
E|-----------------------------------------------------0--h2---|

* *A* *

e|---------------------------------0---------------0-----------|
B|-----------------2h3p2-----------------------------------2---|
G|---------2---------------2-------1---------------1-------2---|
D|-------------------------------------------------------------|
A|-0-----------------------------------------------------------|
E|---------------------------------4-------4---------------2---|
1.                 would   you     know            my      name
2.                 would   you     hold            my      hand
3. (solo instead of vocals)
4.                 would   you     know            my      name

e|-------------------------------------------------------------|
B|-----------------2---------------2---------------2-----------|
G|-----------------2---------------2---------------2-----------|
D|-------------------------------------------------------------|
A|-------------------------------------------------------------|
E|---------2---------------2-------0-------0---------------0---|

e|-------------------------------------------------------------|
B|-3---------------3---------------2---------------2-----------|
G|-2---------------2---------------2---------------2-----------|
D|-------------------------------------------------------------|
A|-------------------------------------------------------------|
E|-2-------2---------------2-------0-------0---------------0---|
1.                 if      i       saw     you     in      hea-
2.                 if      i       saw     you     in      hea-
4.                 if      i       saw     you     in      hea-

e|-------------------------------------------------------------|
B|-0---------------0---------------2---------------3-----------|
G|-1---------------1---------------2---------------4-----------|
D|-------------------------------------------------------------|
A|-------------------------------------------------------------|
E|-0-------0---------------0---------------0---------------0---|
1. ven
2. ven
4. ven

e|---------------------------------0---------------0-----------|
B|-2---------------2h3p2-----------------------------------2---|
G|-2-----------------------2-------1---------------1-------2---|
D|-------------------------------------------------------------|
A|-0-------0---------------------------------------------------|
E|---------------------------------4-------4---------------2---|
1.                 would   it      be              the     same
2.                 would   you     help            me      stand
4.                 would   it      be              the     same

e|-------------------------------------------------------------|
B|-----------------2---------------2---------------2-----------|
G|-----------------2---------------2---------------2-----------|
D|-------------------------------------------------------------|
A|-------------------------------------------------------------|
E|---------2---------------2-------0-------0---------------0---|

e|-------------------------------------------------------------|
B|-3---------------3---------------2---------------2-----------|
G|-2---------------2---------------2---------------2-----------|
D|-------------------------------------------------------------|
A|-------------------------------------------------------------|
E|-2-------2---------------2-------0-------0---------------0---|
1.                 if      i       saw     you     in      hea-
2.                 if      i       saw     you     in      hea-
4.                 if      i       saw     you     in      hea-

e|-------------------------------------------------------------|
B|-0---------------0---------------2---------------3-----------|
G|-1---------------1---------------2---------------4-----------|
D|-------------------------------------------------------------|
A|-------------------------------------------------------------|
E|-0-------0---------------0---------------0---------------0---|
1. ven
2. ven
4. ven

* *B* *

e|-----------------2-------------------------------2-----------|
B|---------2---------------2---------------2---------------2---|
G|-2-------------------------------2---------------------------|
D|-------------------------------------------------------------|
A|-------------------------------------------------------------|
E|-2-------------------------------2---------------------------|
1.                         I       must            be      str-
2.                         I?ll    find            my      way
3.                         be-     yond            the     do-
4.                         I       must            be      str-

e|-----------------1-------------------------------1-----------|
B|---------2---------------2---------------2---------------2---|
G|-1-------------------------------1---------------------------|
D|-------------------------------------------------------------|
A|-------------------------------------------------------------|
E|-1-------------------------------1---------------------------|
1. ong
2.
3. or
4. ong

e|-----------------0-------------------------------0-----------|
B|---------0---------------0---------------0---------------0---|
G|-0-------------------------------0---------------------------|
D|-------------------------------------------------------------|
A|-------------------------------------------------------------|
E|-0-------------------------------0---------------------------|
1.                         and     car-            ry
2.                         through night           and
3.                         there?s peace           I?m
4.                         and     car-            ry

e|-----------------2-------------------------------2-----------|
B|---------2---------------2---------------2---------------2---|
G|-3-------------------------------3---------------------------|
D|-------------------------------------------------------------|
A|-------------------------------------------------------------|
E|-2-------------------------------2---------------------------|
1. on                              Cause           I       know
2. day                             Cause           I       know
3. sure                            And             I       know
4. on                              Cause           I       know

e|-------------------------------------------------------------|
B|-3---------------3---------------3---------------3-----------|
G|-2---------------2---------------2---------------2-----------|
D|-------------------------------------------------------------|
A|-------------------------------------------------------------|
E|-2-------2---------------2-------2-------2---------------2---|
1.                         I       don?t           be-     lo-
2.                         I       just            can?t   st-
3.                         there?ll be             no      mo-
4.                         I       don?t           be-     lo-

e|-------------------------------------------------------------|
B|---------3-------3---------------3---------------------------|
G|---------2-------2---------------2---------------------------|
D|-------------------------------------------------------------|
A|-------------------------------------------------------------|
E|-0----------------------------------------------------0--h2--|
1. ng                                      here    in      hea-
2. ay                                      here    in      hea-
3. re                                      tears   in      hea-
4. ng                                      here    in      hea-
(return to *Aintro* after the above measure, except on 4.,
in which case go to *Coda*)

* *C* *

e|-------------------------------------------------------------|
B|-2---------------2---------------2---------------2-----------|
G|-2---------------2---------------2---------------2-----------|
D|-------------------------------------------------------------|
A|-0-------0---------------0-------0-------0-------------0--h2-|
E|-------------------------------------------------------------|

e|-----------------0-------------------------------0-------0---|
B|-----------------1-------------------------------0-------1---|
G|---------0---------------0---------------0---------------2---|
D|-------------------------------------------------------------|
A|-3-------------------------------2-----------------------0---|
E|-------------------------------------------------------------|
3.                 Time    can     bring           you     down

e|-----------------0---------------2---------------2-------3---|
B|-----------------1---------------3---------------3-------0---|
G|-----------------2---------------2---------------2-------0---|
D|-------------------------------------------------------------|
A|---------0---------------0-----------------------------------|
E|---------------------------------2-------2---------------3---|
3.                 Time    can     bend            your    knees

e|-----------------3-------------------------------------------|
B|-----------------0---------------3---------------3-------0---|
G|-----------------0---------------2---------------2-------0---|
D|-------------------------------------------------------------|
A|-------------------------------------------------------------|
E|---------3---------------3-------2-------2---------------0---|

e|-------------------------------------------------------------|
B|-----------------0---------------3---------------3-----------|
G|-----------------0---------------2---------------0-----------|
D|-------------------------------------------------------------|
A|-------------------------------------------------------------|
E|---------0---------------0-------2-------2-------3-------3---|

e|-----------------0-------------------------------0-------0---|
B|-----------------1-------------------------------0-------1---|
G|---------0---------------0---------------0---------------2---|
D|-------------------------------------------------------------|
A|-3-------------------------------2-----------------------0---|
E|-------------------------------------------------------------|
3.                 Time    can     break        your    heart

e|-----------------0---------------2---------------2-------3---|
B|-----------------1---------------3---------------3-------0---|
G|-----------------2---------------2---------------2-------0---|
D|-------------------------------------------------------------|
A|---------0---------------0-----------------------------------|
E|---------------------------------2-------2---------------3---|
3.                 have    you     beg-        ging    please

e|-----------------3---------------------------------------0---|
B|-----------------0---------------3---------------3-------0---|
G|-----------------0---------------2---------------2-------1---|
D|-------------------------------------------------------------|
A|-------------------------------------------------------------|
E|---------3---------------3-------2-------2---------------0---|
3.                                     beg-    ging    please

e|-----------|
B|-----------|
G|-----------|
D|-----------|
A|-----------|
E|---0--h2---|
(return to *A*, still on 3.)

* *Coda* *
e|---------------------------------0---------------0-----------|
B|-----------------2h3p2-----------------------------------2---|
G|---------2---------------2-------1---------------1-------2---|
D|-------------------------------------------------------------|
A|-0-----------------------------------------------------------|
E|---------------------------------4-------4---------------2---|

e|-------------------------------------------------------------|
B|-----------------2---------------2---------------2-----------|
G|-----------------2---------------2---------------2-----------|
D|-------------------------------------------------------------|
A|-------------------------------------------------------------|
E|---------2---------------2-------0-------0-------------------|
4.                                                     Cause I

e|-------------------------------------------------------------|
B|-3---------------3---------------3---------------3-----------|
G|-2---------------2---------------2---------------2-----------|
D|-------------------------------------------------------------|
A|-------------------------------------------------------------|
E|-2-------2---------------2-------2-------2---------------2---|
4. know                    I       don?t           be-     lo-

e|-------------------------------------------------------------|
B|---------3-------3---------------3---------------------------|
G|---------2-------2---------------2---------------------------|
D|-------------------------------------------------------------|
A|-------------------------------------------------------------|
E|-0---------------------------------------------------0--h2---|
4. ng                                      here    in      hea-

e|-------------------------------0---------------0---------|
B|---------------2h3p2-----------------------------------2-|
G|-------2---------------2-------1---------------1-------2-|
D|---------------------------------------------------------|
A|-0-------------------------------------------------------|
E|-------------------------------4-------4---------------2-|
4. ven   (rit.)

e|---------------------------------------------------|
B|-----------------2---------------2---------------2-|
G|-----------------2---------------2---------------2-|
D|---------------------------------------------------|
A|---------------------------------------------------|
E|---------2---------------2-------0-------0---------|

e|-----------------------------------------------------------|
B|-3---------------3---------------3---------------3---------|
G|-2---------------2---------------2---------------1---------|
D|-----------------------------------------------------------|
A|-----------------------------------------------------------|
E|-2-------2---------------2-------0-------0-------0-------0-|

e|------|
B|----2-|
G|---2--|
D|--2---|
A|-0----|
E|------|

Вверх