Deep Purple

Anthem
Anyones Daughter
Black Night
Bloodsucker
Burn
Child In Time
Cry Free
Cry Free
Demons Eye
Flight Of The Rat
Flight Of The Rat
Gypsy Kiss
Highway Star
Highway Star (2 вариант)
Hush
Into The Fire
Into The Fire
Lasy
Lay Down
Lazy
Loosen My Strings
Love Child
Love Conquerors All
Mary Long
Maybe Im A Leo
Pictures Of Home
Rat Bat Blue
Sail Away
Sail Away (2 вариант)
Smoke On The Water
Soldier Of Fortune
Solitaire
Space Truckin
The Battle Rages On
Time To Kill
When A Blind Man Cries
Вверх

Anthem

Am         C                F       E7             Am      C F
When the night winds softly blow    through my open window
E7                Am         C     F     F     E7      E7
then I start to remember     the girl that brought me joy
Am         C               F       E7         Am      C  F
Now the night winds softly blow    sadness to tomorrow
E7       Am   C
bringing tears to eyes so tired
F       F       E7     E7
Eyes I thought could cry no more

Chorus:

A      Cm#            Bm7       Bm7              D
If the day would only come then you might just appear
Cm#                 Bm       Bm               A
even though youd soon be gone when I reached out my hand
A          A       E     Bm7       Bm7
If I could see you (ooohh ooooh)
Bm7          A        E    Bm7
If only I could see you ooooh ooooh
Bm7               A      D    Cm# Bm
To see if you are laughing    or  crying
A        D     Bm    Bm     A
When the night winds softly blow

In my dark and whispering room
Memories still bring me a numbness to my feelings
Take my hand and brush my brow
In the warm and fevered dark
Heart is madly beating
My crazy thoughts are burning
When the night winds softly blow

If the day would only come
Then you might just appear even though youd soon be gone
When I reached out my hand
If I could see you
If only I could see you
To see if you are laughing or crying
When the night winds softly blow

Вверх

Anyones Daughter

G
Well, I stood under your bedroom window
Throwing up a brick
No one came I threw one more
That really did the trick
Your daddy came and banged my head
He said what kind of man
Is this thats hanging round my girl
And threw me in the car

Em
Youre a farmers daughter
Youre a farmers daughter
Why do I always get
The kinda girl I didnt oughta get
C                   G/B
I wont get no more eggs and water
Am                Em
Now Ive laid the farmers daughter

(piano break in G, same chords as above)

G
Imagine I was a full-grown man
And I could talk just right
Could I come and see you here
And do this every night
Wham!  The door comes crashing down
Your daddys face all pale
Says come with me you hairy bum
Ill put you in my jail

Em
Youre a judges daughter
Youre a judges daughter
Why do I always get
The kinda girl I didnt oughta get
C               G/B
Now Im getting jail and torture
Am                 Em
Cause I made the judges daughter
(Spoken: Yes I did. It was nice.)

(guitar break)

C                          G/B
It seems theyre screaming law and order
Am             Em
When I go with anyones daughter

G
Woman I should like some peace
And daddy hold your tongue
I think youre gonna die of fright
When I tell you what Ive done
I can hear your tales and lies
You say Im dumb and scraggy
But man this dumb and scraggy is
Your daughters babys daddy

Em
Shes a lucky daughter
Such a lucky daughter
Why did I always get
The kinda girl I didnt wanna get
C                   G/B
Now Ive got what I always fought for
Am                    Em
Cause Ive married a rich mans daughter
(Spoken: Waddaya think of that?)

Вверх

Black Night

Riff 1:
D|---5-----------5---7-5---------5---|
A|-7---7-5---7-5---7-----7--5-7----7-|	x 2
E|---------7-------------------------|

Verse:

A|-5--7-7--7-7--7-7--7-|

Riff 2:
A|-7-5---5---5-9-7-5-7-5-----|
E|-----7---7-------------7-5-|

Intro:
Riff 1

Black night is not right
I dont feel so bright
I dont care to sit tight
Riff 2                                          A
Maybe Ill find on the way down the line that Im free
G        E
Free to be me
A              G             B
Black night is a long way from home

Riff 1

I dont need a dark tree
I dont want a rough sea
I cant feel, I cant see
Riff 2                                          A
Maybe Ill find on the way down the line that Im free
G        E
Free to be me
A              G              B
Black night is a long way from home

Break:
Verse 		x 12
Riff 2
Verse in G A 	x 12
Riff 1

Black night, black night
I dont need black night
I cant see dark light
Riff 2                                          A
Maybe Ill find on the way down the line that Im free
G        E
Free to be me
A              G             B
Black night is a long way from home

Outro:
Verse  x 15 (fading from 10)

Вверх

Bloodsucker

Intro:

s  s  s  s  s  s  s  s   s  s  s  s  s  s  s  s
G|------r-----------7------------r-----------7-----------|
D|--4:--e--7--8--9-----9--7------e--7--8--9-----9--7-----|
A|--4:--s--------------------10--s--------------------10-|
E|------t------------------------t-----------------------|

Verse 1:

e  s  s  e  s  s  s  E   e  e
G||----------------------------------|
D||*---------------------------------|
A||*--7--7--7--7--7--7--7--10--9--8--|
E||----------------------------------|

e  s  s  e  s  s  s  s  s  s  s  s  s  s    3x
G|--------------------------------7-------------||
D|-----------------------7--8--9-----9--7------*||
A|--7--7--7--7--7--7--7--------------------10--*||
E|----------------------------------------------||

e  s  s  e  s  s  s  E   e  e     e  e  q  q  q
G|---------------------------------|--------r--r--r--|
D|---------------------------------|--------e--e--e--|
A|--7--7--7--7--7--7--7--10--9--8--|--7--7--s--s--s--|
E|---------------------------------|--------t--t--t--|

Chorus 1:

s  s  s  s   s  s   s  s   e  s  s  s  s  e
G|--------------------------------9--7------------|
D|--7--9--7------7----------------------9--7------|
A|-----------10-----10--7------7--------------10--|
E|-------------------------10---------------------|

s  s  s  s   s  s   s  s   e  s   s  s  E
G|------------------------------------r--r------|
D|--7--9--7------7--------------------e--e------|
A|-----------10-----10--7------7--10--s--s------|
E|-------------------------10---------t--t--10--|

s  s  s  s   s  s   s  s   e  s  s  s  s  e
G|--------------------------------9--7------------|
D|--7--9--7------7----------------------9--7------|
A|-----------10-----10--7------7--------------10--|
E|-------------------------10---------------------|

s  s  s  s  s  s  s  s  s  s  s  s q
G|--------7--------9--------7--------9-9--|
D|--7--9-----7--9-----7--9-----7--9---h---|
A|----------------------------------------|
E|----------------------------------------|

q  q  q  q     q  q  q  q
G|--r--r--r--r--|--r--r--r--r--|
D|--e--e--e--e--|--e--e--e--e--|
A|--s--s--s--s--|--s--s--s--s--|
E|--t--t--t--t--|--t--t--t--t--|

q  q  s  s  s  s  s  s  s  s
G|--r--r--r-----------7------------|
D|--e--e--e--7--8--9-----9--7------|
A|--s--s--s--------------------10--|
E|--t--t--t------------------------|

Verse 2 same as Verse 1

Chorus 2 same as Chorus 1

Verse 3 same as Verse 1

Chorus 3:

s  s  s  s   s  s   s  s   e  s  s  s  s  e
G|-------------------------------9--7-----------|
D|-7--9--7------7----------------------9--7-----|
A|----------10-----10--7------7--------------10-|
E|------------------------10--------------------|

s  s  s  s   s  s   s  s   e  s   s  s  E
G|------------------------------------r--r------|
D|--7--9--7------7--------------------e--e------|
A|-----------10----10---7------7--10--s--s------|
E|-------------------------10---------t--t--10--|

s  s  s  s   s  s   s  s   e  s  s  s  s  e
G|--------------------------------9--7-----------|
D|--7--9--7------7----------------------9--7-----|
A|-----------10-----10--7------7--------------10-|
E|-------------------------10--------------------|

s  s  s  s  s  s  s  s  s  s  s  s q
G|--------7--------9--------7--------9-9-|
D|--7--9-----7--9-----7--9-----7--9---h--|
A|---------------------------------------|
E|---------------------------------------|

q  q  q  q     q  q  q  q     q  q  q  q
G|--r--r--r--r--|--r--r--r--r--|--r--r--r--r--|
D|--e--e--e--e--|--e--e--e--e--|--e--e--e--e--|
A|--s--s--s--s--|--s--s--s--s--|--s--s--s--s--|
E|--t--t--t--t--|--t--t--t--t--|--t--t--t--t--|

e  s   e  s   e   q  s  s   e
G|--9-------------12--9--r------12-|
D|-----12--9--12---------e--12-----|
A|-----------------------s---------|
E|-----------------------t---------|

s  s  s  s  q  s  e  e  s  e
G|--9--9--9--r--r-----------------|
D|-----------e--e--9--8--7--------|
A|-----------s--s-----------7--10-|
E|-----------t--t-----------------|

Guitar and organ solos:

H  s s  e      H  e  e     H  s s  e     H  e  e
G||-----------7--|---9--7--8--|--9-------7--|--9--7--8--|
D||*-----7h9-----|------------|-----7h9-----|-----------|
A||*--7----------|------------|-------------|-----------|
E||--------------|------------|-------------|-----------|

H  e  e     H  s s  e     H  e  e
G|--9--7--8--|--9-------7--|--9--7--8--|
D|-----------|-----7h9-----|-----------|
A|-----------|-------------|-----------|
E|-----------|-------------|-----------|

e  s   e  s   e   q  s  s   e
G|--9-------------12--9--r------12--|
D|-----12--9--12---------e--12------|
A|-----------------------s----------|
E|-----------------------t----------|

s  s  s  s  q  s  e  e  s  e    4x
G|--9--9--9--r--r-------------------||
D|-----------e--e--9--8--7---------*||
A|-----------s--s-----------7--10--*||
E|-----------t--t-------------------||

q E  s  s  e  e  s  s  s
G|-----------------------------|
D|---7h7-----------------5--6--|
A|--------------5--6--7--------|
E|--------5--8-----------------|

h  s  s  s  s  s  s  s  s
G|------r-----------7------------|
D|---7--e--7--8--9-----9--7------|
A|------s--------------------10--|
E|------t------------------------|

Verse

Lyrics:

Gotta black breast Chinese eyes
Got an English brain that's gonna make me wise
Got a long story that I wanna tell
To a rhythm that I know so well
Really got a lot of lovin' that I wanna give
Baby I'm a mistery but you know I gotta live
I tried another but she didn't want to know.

Take a hold now if you can
Take a lesson from the hard lovin' man
I'm a long way from where I wanna go
Guess I'll stay awhile I really love you so
How's about another sip of all the wine you got
Take a tip from me and give it here I'll drink the lot
I'm not a winey, I'm putting on a show.

You really really grab me but I've gotta move
Before they know I'm here and spread the news
Maybe in while when I've moved around
I can find a way to pay you back your twenty pounds
Really got a lot of lovin' that I wanna give
Baby I'm a mistery but you know I gotta live
I tried another but she didn't want to know.

Вверх

Burn

Intro:  Gm

Gm
The sky is red, I dont understand;
F/G
past midnight I still see the land.
Gm
People are sayin the woman is damned,
C                                         Gm
she makes you burn with a wave of her hand.
The citys ablaze, the towns on fire;
F/G
the womans flames are reachin higher.
Gm
We were fools, we called her "liar";
Bb  F  C       Gm     Eb   C    Gm
All I hear is "Burn!"

I didnt believe she was devils sperm;
she said, "Curse you all, youll never learn!
When I leave theres no return!"
The people laughed till she said, "Burn!"
Warning came, no one cared;
earth was shakin, we stood and stared.
When it came no one was spared;
Still I hear "Burn!"

Dm                       Bb
You know we had no time,
Am         Bb
we could not even try,
Dm      Bb/D    C/D   Gm
You know we had no time.

The sky is red, I dont understand;
past midnight, I still see the land.
People are sayin the woman is damned;
she makes you burn with a wave of her hand.
Warning came, no one cared;
earth was shakin, we stood and stared.
When it came no one was spared.
Still I hear "Burn!"

RIFF SUGGESTION 1:

e|-------------------------------------------|
b|-------------------------------------------|
g|---5-3-0-5---3-3-0-5-0-3---5-3-0-5-5-3-0---|
d|---5-3-0-5---3-3-0-5-0-3---5-3-0-5-5-3-0-3-|
a|-----------------------------------------3-|
e|-3---------3-------------3---------------1-|

"Use pull-offs and hammer-ons....
this is basically a two finger riff."

RIFF SUGGESTION 2:

e|--------------------------------------------|
b|--------------------------------------------|
g|---3-2-0-5---3-2-0-5-0-3-3-2-0-5---3-2-0----|
d|---3-2-0-5---3-2-0-5-0-3-3-2-0-5---3-2-0-3--|
a|-----------------------------------------3--|
e|-3---------3---------------------3------(1)-|

RIFF SUGGESTION 3:

e|-----------------------------------------|
b|-----------------------------------------|
g|-0-3-2-0-5-0-3-2-0-5-3-3-2-0-5-0-3-2-0---|
d|-0-3-2-0-5-0-3-2-0-5-3-3-2-0-5-0-3-2-0-3-|
a|---------------------------------------3-|
e|-----------------------------------------|

Вверх

Child In Time

Intro:
G G Am   G G Am   F F G   G G Am

1. verse

G G Am                     G G Am
Sweet Child in time
F F G
youll see the line
G G Am
The line thats drawn between
G G Am
The good and the bad
G G Am
See the blind man
F F G
Shooting at the world
G G Am
Bullets flying
G G Am
taking toll

G G Am
If youve been bad,
F F G
Lord I bet you have
G G Am
And youve not been hit
G G Am
by flying lead
G G Am
Youd better close your eyes
F F G
and bow your head

G G Am
Wait for the ricochet
G G Am / G G Am / F F G / G G Am
(Same chord sequence repeated three times
with the infamous screams over)

(INSTRUMENTAL)

2. verse (as first)

Sweet child in time youll see the line
The line thats drawn between the good and the bad
See the blind man shooting at the world
Bullets flying taking toll
If youve been bad, Lord I bet you have
And youve not been hit by flying lead
Youd better close your eyes and bow your head
(And) wait for the ricochet

G G Am / G G Am / F F G / G G Am

Вверх

Cry Free

The tune starts off with the following chromatic sequence :

e|------------------|----------------| => To Main Riff
B|------------------|----------------|
G|------------------|----------------|
D|----------------- |----------------|
A|-5--6--7----------|--2--3--4--5----|
E|---------3--4--5--|----------------|

Main Riff

e|----------------|----------------|----------------|
B|----------------|----------------|----------------|
G|----------------|----------------|----------------|
D|---------------5|---------------5|---------------5|
A|-7-7-7-7-7-7-77-|-7-7-7-7-7-7-77-|-7-7-7-7-7-7-77-|
E|----------------|----------------|----------------|

e|----------------|-------------|
B|----------------|-------------|
G|----------------|-------------|
D|----------------|-------------|
A|-7-7-7-7-7-7-77-|---7---6---5-|
E|----------------|-------------|

Like a lot of the tunes on In Rock, the verse rythm is based on
the descending sequence from Bar 5 of the main riff.

Verse Rythm

C#5                E5  D#5 D5
e|----------------|-------------|
B|----------------|-------------|
G|----------------|-------------|
D|-6-6-6-6-6-6-66-|---9---8---7-|
A|-4-4-4-4-4-4-44-|---7---6---5-|
E|----------------|-------------|

End of Verse

Then when Ian Sings "Cry.......Free" play this :

Cry............ Free.............

E5              F#5
e|---------------|----------------|(1st Time back to Main Riff)
B|---------------|----------------|(2nd Time go to bridge)
G|-9-(hold)------|-11-(hold)------|
D|-9-(chord)-----|-11-(chord)-----|
A|-7-(full bar)--|-9--(full bar)--|
E|---------------|----------------|

After this there is bridge and 2 guitar solos.

If you want to hear the full track buy the new digital
remastered version of "In Rock". Cry Free was originally left
of In Rock and has been remixed by Roger Glover.

If you want to play, try something from the C# Blues Scale.

Вверх

Cry Free

The Transcription takes you through before the bridge which leads into the
guitar solo.  The Transcription covers the intro and verse parts.

The tune starts off with the following chromatic sequence :

e|------------------|----------------| => To Main Riff
B|------------------|----------------|
G|------------------|----------------|
D|------------------|----------------|
A|-5--6--7----------|--2--3--4--5----|
E|---------3--4--5--|----------------|

Main Riff

e|----------------|----------------|----------------|
B|----------------|----------------|----------------|
G|----------------|----------------|----------------|
D|---------------5|---------------5|---------------5|
A|-7-7-7-7-7-7-77-|-7-7-7-7-7-7-77-|-7-7-7-7-7-7-77-|
E|----------------|----------------|----------------|

e|----------------|-------------|
B|----------------|-------------|
G|----------------|-------------|
D|----------------|-------------|
A|-7-7-7-7-7-7-77-|---7---6---5-|
E|----------------|-------------|

Like a lot of the tunes on In Rock, the verse rythm is based on the
descending sequence from Bar 5 of the main riff.

Verse Rythm

C#5                E5  D#5 D5
e|----------------|-------------|
B|----------------|-------------|
G|----------------|-------------|
D|-6-6-6-6-6-6-66-|---9---8---7-|
A|-4-4-4-4-4-4-44-|---7---6---5-|
E|----------------|-------------|

End of Verse

Then when Ian Sings "Cry.......Free" play this :

Cry............ Free.............

E5              F#5
e|---------------|----------------| (1st Time back to Main Riff)
B|---------------|----------------| (2nd Time go to bridge)
G|-9-(hold)------|-11-(hold)------|
D|-9-(chord)-----|-11-(chord)-----|
A|-7-(full bar)--|-9--(full bar)--|
E|---------------|----------------|

After this there is bridge and 2 guitar solos.

Вверх

Demons Eye

First riff:
e|------------------|
B|------------------|
G|----3-------------|
D|-0----5-----------|
A|----------5-------|
E|------------6-3-3-|

Second riff:
e|------------------|
B|----4-------------|
G|-0----5-----------|
D|----------5-------|
A|------------6-3-3-|
E|------------------|

"Chorus" riff:

Sly (ays)                        like a demonds eye.
e|-------------------------------------------------------------|
B|-------------------------------------------------------------|
G|-10-12----1012--710--57--35-------------------means slide----|
D|-10-12------------------------3--5-------------------------to|
A|-----------------------------------3--5----------------------|
E|-------------------------------------------------------------|

The song will be something like this:

verse 1:

(Riff 1)     (Riff 1)
Now, I dont mind just what you say.
(Riff 1)          (Riff 1)
I never hurt you babe, never hurt you any way.
(Riff 2)     (Riff 2)
No, I dont care, what you do
(Riff 1)    (Riff 1)
Just as long as it aint me and you.

"chorus":

sly, (lots of "ay"s) like a demonds eye.....

Verse 2:
Now everythings good, I said that everythings fine.
You dont know, you dont know, Its the end of your time.
How does it feel to be turned away?
Ive known it baby, almost every day.

"chorus"

- Organ solo -

Verse 3:

I dont need you, a- anymore
I dont want you babe, a- hanging round my door
You slipnslide, around my brain
If you think youre so clever, Shed (?) know  youre insane.

"chorus"

- guitar solo -

Verse 4:

I dont mind, a-just what you say.
I never hurt you anyway
Everythings good, and everythings fine
You dont know its the end of your time

"chorus"

Вверх

Flight Of The Rat

A          A        A      A G D   <-- Chord Progression 1 (CP1)
Spread the word around
A          A        A      A G D
The rat is leaving town
A         A        A      A G D
The message is a song
A      A       A      A G D
The misery is gone

(CP1)
Once I had a dream
To sing before the queen
She didnt want to know
She wouldnt see the show

E     E    E     E   D   A     <-- Chord Prograssion 2 (CP2)
What a fright
E     E    E     E       D     A
I couldnt do it right
E     E    E     E     D    A
Oh what a night

Riff A:
e|---------------------------------------|
b|-----------------------------3-2h3h4/5-|
g|-----------------2---0-4-0-4-----------|
d|-----2---0-4-0-4---0-------------------|
a|-0-4---0-------------------------------|
E|---------------------------------------|

(CP1)
Mystic demons fly
All about the sk
With memories of a clown
The saddest show in town

(CP1)
When I was seventeen
Me mother said to me
Be careful what you touch
You shouldnt take so much

(CP2)
I blew my mind
She was so kind
I could have cried

B  B  B     B A G#     <--Chord Progression 3 (CP3)
In my mind
B  B      B     B A G#
I had to find
B        B     B      B A G#
A kind of new way
B        B      B     B A G#
Of being oh so cool
B       B      B     B A G#
Like a blue blooded
B     B     B     B A G#
Well studded
B    B   B      B A G#
English fool

(Solo)

(CP1)
Speak about the past
Times are changing fast
Once I was so weak
I couldnt even speak

(CP1)
Shaking put a curse
Nothing could be worse
Walking through the door
Who could ask for more

(CP2)
Now Im free
And I can see
That I am me

(CP1)
Spread the word around
The rat is leaving town
The message is a song
The misery is gone

(CP1)
Shaking out a curse
Nothing could be worse
Walking through the door
Who could ask for more

(CP2)
Now Im free
And I can see
That I am me

Please stay away

Вверх

Flight Of The Rat

A          A        A      A G D   <-- Chord Progression 1 (CP1)
Spread the word around
A          A        A      A G D
The rat is leaving town
A         A        A      A G D
The message is a song
A      A       A      A G D
The misery is gone

(CP1)
Once I had a dream
To sing before the queen
She didnt want to know
She wouldnt see the show

E     E    E     E   D   A     <-- Chord Prograssion 2 (CP2)
What a fright
E     E    E     E       D     A
I couldnt do it right
E     E    E     E     D    A
Oh what a night

Riff A:
e|----------------------------------------|
b|-----------------------------3-2h3h4/5--|
g|-----------------2---0-4-0-4------------|
d|-----2---0-4-0-4---0--------------------|
a|-0-4---0--------------------------------|
E|----------------------------------------|

(CP1)
Mystic demons fly
All about the sk
With memories of a clown
The saddest show in town

(CP1)
When I was seventeen
Me mother said to me
Be careful what you touch
You shouldnt take so much

(CP2)
I blew my mind
She was so kind
I could have cried

B  B  B     B A G#     <--Chord Progression 3 (CP3)
In my mind
B  B      B     B A G#
I had to find
B        B     B      B A G#
A kind of new way
B        B      B     B A G#
Of being oh so cool
B       B      B     B A G#
Like a blue blooded
B     B     B     B A G#
Well studded
B    B   B      B A G#
English fool

(Solo)

(CP1)
Speak about the past
Times are changing fast
Once I was so weak
I couldnt even speak

(CP1)
Shaking put a curse
Nothing could be worse
Walking through the door
Who could ask for more

(CP2)
Now Im free
And I can see
That I am me

(CP1)
Spread the word around
The rat is leaving town
The message is a song
The misery is gone

(CP1)
Shaking out a curse
Nothing could be worse
Walking through the door
Who could ask for more

(CP2)
Now Im free
And I can see
That I am me

Вверх

Gypsy Kiss

Here is the main riff of the solo :  (played twice)

E|-------------------------------------------------------------|
B|-------------------------------------------------------------|
G|-------------------------------------------------------------|
D|-----------11--12--11-------11^h12h^11--10-------------------|
A|-10-12-13--------------13-------------------13--12--10-12-13-|
E|-------------------------------------------------------------|

Slide
E|--------------------------------------------------------|
B|------10--11--10----------------------------------------|
G|--12--------------12--10--------------------------------|
D|--------------------------13--12--12^h14h^12--10--9--10-|
A|--------------------------------------------------------|
E|--------------------------------------------------------|

E|-------------------------------------------------------------|
B|--------------------------------------------15--13-----------|
G|----------------------------------------14----------15-14-12-|
D|-----------7^h8-----10^h12------12--15-----------------------|
A|-9--12--9--------9----------12-------------------------------|
E|-------------------------------------------------------------|

E|--------------------------------------|
B|--------------------------------------|
G|--12^h14h^12--11--10------------------|
D|-----------------------12--10---------|
A|-------------------------------13--10-|
E|--------------------------------------|

Вверх

Highway Star

Intro

G5 Fsus2  C  Fsus2
E|---|-----|-1-|---|
B|-3-|--1--|-1-|-1-|
G|-0-|--0--|-0-|-0-|
D|-5-|--3--|-2-|-3-|
A|---|-----|---|---|
E|---|-----|---|---|

G5 Fsus2  G5
E|---|----|-----|-3-|
B|-3-|-1--|--1--|-0-|
G|-0-|-0--|--0--|-0-|
D|-5-|-3--|--2--|-5-|
A|---|----|-----|-5-|
E|---|----|-----|---|

D|------------------------|------------------------| x2
A|-5--5--5--5--5--5--5--5-|-5--5--5--5--5--5--5--5-|
E|-3--3--3--3--3--3--3--3-|-3--3--3--3--3--3--3--3-|

E|---------------|---------------|
B|---------------|---------------|
G|-3--0--3--0--3-|-3--0--3--0--5-|
D|-3--0--3--0--3-|-3--0--3--0--5-|
A|---------------|---------------|
E|---------------|---------------|

E|---------------|---------------|
B|---------------|---------------|
G|-3--0--3--0--3-|-3--0--3--0--5-|
D|-3--0--3--0--3-|-3--0--3--0--5-|
A|---------------|---------------|
E|---------------|---------------|

E|---------------|------------------|
B|---------------|------------------|
G|-3--0--3--0--3-|-0--3--0--3--5--0-|
D|-3--0--3--0--3-|-0--3--0--3--5--0-|
A|---------------|------------------|
E|---------------|------------------|

E|------------------------|------------------------|
B|------------------------|------------------------|
G|-3--3--3--0--0--0--0--0-|-3--3--3--0--0--0--0--0-|
D|-3--3--3--0--0--0--0--0-|-3--3--3--0--0--0--0--0-|
A|------------------------|------------------------|
E|------------------------|------------------------|

E|---------------|---------------------|
B|---------------|---------------------|
G|-3--0--3--0--3-|-0--3--0--3--3--3--5-|
D|-2--0--0--0--3-|-0--3--0--3--3--3--5-|
A|---------------|---------------------|
E|---------------|---------------------|

C  Bb
E|------------|------|
B|------------|-5--3-|
G|-3--0--3--0-|-5--3-|
D|-3--0--3--0-|-5--3-|
A|------------|-3--1-|
E|------------|------|

Verses 1 & 2

1.    No -body   gonna    take    my   car,   Im
2.    No -body   gonna    take    my   girl,  Im
D|------------------------|------------------------|
A|------5--5--5--5--5--5--|-5--5--5--5--5--5--5--5-|
E|-1/3--3--3--3--3--3--3--|-3--3--3--3--3--3--3--3-|

gonna race it  to the ground.
gonna keep her to the end.
E|------------------------|-----------|
B|------------------------|-----------|
G|------------------------|-3---5---3-|
D|------------------------|-3---5---3-|
A|-5--5--5--5--5--5--5--5-|-----------|
E|-3--3--3--3--3--3--3--3-|---3---3---|

A - No - body  gonna beat   my   car, Its  gonna
A - No - body  gonna have   my  girl, She  stays
E|------------------------|------------------------|
B|------------------------|------------------------|
G|------------------------|-------------5-----5----|
D|------------------------|-------------5-----5----|
A|-5--5--5--5--5--5--5--5-|-5--5--5--5-------------|
E|-3--3--3--3--3--3--3--3-|-3--3--3--3-----3-----3-|

break the speed of sound.
close on ev-ry  bend.
E|------------------------|---------------|
B|------------------------|---------------|
G|------------------------|-3-----5-----3-|
D|------------------------|-3-----5-----3-|
A|-5--5--5--5--5--5--5--5-|---------------|
E|-3--3--3--3--3--3--3--3-|----3-----3----|

Ooh, Its a killin machine.
Ooh, Shes a killin machine.
D|---------------------|------------------------|
A|----3--3--3--3--3--3-|-3--3--3--3--3--3--3--3-|
E|-1--1--1--1--1--1--1-|-1--1--1--1--1--1--1--1-|

Its  got a - ev - ry thing,
Shes got a - ev - ry thing,
E|---------------------|---------------|
B|---------------------|---------------|
G|---------------------|---------------|
D|---------------------|-------2--1--0-|
A|-3--3--3--3--3--3--3-|-3-----3--2--1-|
E|-1--1--1--1--1--1----|----3----------|

like a drivin power,
like a movin mouth,
D     Dsus4 D
E|----2-----3---|-2-|
B|----3-----3---|-3-|
G|----2--2--2---|-2-|
D|-0-----0------|-0-|
A|--------------|---|
E|--------------|---|

big fat tires and ev - ry thing.
body control and ev - ry  thing.
D     Dsus4  D
E|----2-----3-|----2----|
B|----3-----3-|----3----|
G|----2--2--2-|----2----|
D|-0-----0----|----0--7-|
A|------------|-------0-|
E|------------|---------|

I love it          and I need it!
I love her         and I need her!
E|---------------------|------------------|
B|---------------------|------------------|
G|-------------------5-|----------------5-|
D|----7--7--7--7--7--5-|-7--7--7--7--7--5-|
A|-0--0--0--0--0--0----|-0--0--0--0--0----|
E|-0-------------------|------------------|

I bleed  it!
I seed  her!
E|------------------|------------|
B|------------------|------------|
G|----------------5-|----5-----5-|
D|-7--7--7--7--7--5-|-7--5--7--5-|
A|-0--0--0--0--0----|-0-----0----|
E|------------------|------------|

Yeah, its a  wild hurricane!
Yeah, she turns me on!             C
E|-------------------|------------8--|
B|-------------------|------------8--|
G|-5---------------5-|------------9--|
D|-5-7-7--7--7--7--5-|-7-7-7-7----10-|
A|---0-0--0--0--0----|-0-0-0-0-0--10-|
E|-------------------|------------8--|

Al - right, hold tight, Im
D C      D C
E|-----8--|-----8--|
B|---7-8--|---7-8--|
G|---7-9--|---7-9--|
D|---7-10-|---7-10-|
A|-0-5-10-|-0-5-10-|
E|-----8--|-----8--|

a      high - way star!
C      D     F      Gm      A
E|-8-----------------|-10------12-|
B|-8------7-----10---|-11------14-|
G|-9------7-----10---|-12------14-|
D|-10-----7-----10---|-12------14-|
A|-10--0--5--0--8----|-10------12-|
E|-8-----------------|------------|

E|-12-|
B|-14-|
G|-14-|
D|----|
A|----|
E|----|

C  Bb
E|---|------|
B|---|-5--3-|
G|---|-5--3-|
D|-7-|-5--3-|
A|-0-|-3--1-|
E|---|------|

E|---|---|
B|---|---|
G|---|---|
D|-7-|---|
A|-0-|-0-|
E|---|---|

Organ solo begins

Repeat 8x

D|---------------|-------------------|
A|-5-5-5-5-5-5-5-|-5-5-5-5-5-5-5-5-5-|
E|---------------|-------------------|

Then the following chords:

Measure 1: 8 x Am
Measure 2: 8 x EG#
Measure 3: 8 x Gm
Measure 4: 8 x DF#

D|-----------------|-----------------|
A|-----------------|-----------------|
E|-1-1-0-1-1-1-0-1-|-1-1-1-1-1-1-0-0-|

D|---------------|-----------------|
A|-5-5-5-0-5-5-0-|-5-5-5-0-5-5-5-5-|
E|---------------|-----------------|

E|-------------|-----------|
B|-------------|-----------|
G|-------------|-----------|
D|-----5-7-5-7-|---5-7-5-7-|
A|-0-7-------0-|-7-------0-|
E|-------------|-----------|

(.25)
E|-----------|----------------|
B|-----------|----------------|
G|-----5-----|-5^-------------|
D|-7-5---7-5-|----7-5-7---5-7-|
A|-----------|----------0-----|
E|-----------|----------------|

E|---------------|-----------|
B|---------------|-----------|
G|---------------|-----------|
D|-7-7-5-7-5-8---|-7-5-7-5-7-|
A|-0-----------0-|-----------|
E|---------------|-----------|

E|---------------|-------------------|
B|---------------|-------------------|
G|---------------|-------------------|
D|---------------|-------------------|
A|-5-5-5-5-5-5-5-|-5-5-5-5-5-5-5-5-5-|
E|---------------|-------------------|

Repeat 4x
E|-------------------------|--------------------|
B|-------------------------|--------------------|
G|-------------------------|-10------12------10-|
D|-------------------------|-10------12------10-|
A|-------------------------|--------------------|
E|-10-10-10-10-10-10-10-10-|-----10------10-----|

E|---------------------|------|
B|---------------------|------|
G|----------------5--5-|-7--7-|
D|-------3--5--7-------|------|
A|-3--5----------------|------|
E|---------------------|------|

E|---------------------|---------|
B|---------------------|---------|
G|-7--5----------------|----5----|
D|-------7--6--5--3----|----5--3-|
A|-------------------5-|-3--3--1-|
E|---------------------|---------|

Verses 3 & 4

3. No - body gonna   take  my head, I got
4. No - body gonna   take  my car Im gonna
E|-----------------------|---------------------|
B|-----------------------|---------------------|
G|-----------------------|---------------------|
D|-----------------------|-------------------5-|
A|------5--5--5--5--5--5-|-5--5--5--5--5--5--5-|
E|-1/3--3--3--3--3--3--3-|-3--3--3--3--3--3----|

speed  in - side   my   brain.
race it   to   the   ground.
Bb5   C5    Bb5
E|------------------|---------------|
B|------------------|---------------|
G|------------------|-3-----5-----3-|
D|-------5--5-----5-|-3-----5-----3-|
A|-------5--5--5--5-|-1-----3-----1-|
E|-3--3--------3----|----3-----3----|

A - no - body gonna steal my head now that Im
A - no - body gonna beat my car, its gonna
E|-------------------------|------------------------|
B|-------------------------|------------------------|
G|-------------------------|------------------------|
D|-------------------------|------------------------|
A|-5--5--5--5--5--5--5--5--|-5--5--5--5--5--5--5--5-|
E|-3--3--3--3--3--3--3--3--|-3--3--3--3--3--3--3--3-|

on the road a - gain.
break the speed of sound.
Bb5         C5           Bb5
E|------------------------|-----------------------------|
B|------------------------|-----------------------------|
G|------------------------|--3-----------5------------3-|
D|------------------------|--3-----------5------------3-|
A|-5--5--5--5--5--5--5--5-|--1-----------5------------1-|
E|-3--3--3--3--3--3--3--3-|--------3------------3-------|

Ooh, Im in heavan again.
Ooh, Its a killin, machine.
E|----------------------------|-------------------------------|
B|----------------------------|-------------------------------|
G|----------------------------|-------------------------------|
D|----------------------------|-------------------------------|
A|----------------------------|-------------------------------|
E|-1----1---1---1---1---1---1-|-1---1---1---1---1---1---1---1-|

I     got   a - ev - ry thing,
Its  got   a - ev - ry thing,
E|---------------------------------|---------------------------|
B|---------------------------------|---------------------------|
G|---------------------------------|--------2-------1--------0-|
D|---------------------------------|--------3-------2--------1-|
A|---------------------------------|---------------------------|
E|--1---1---1---1---1---1---1---1--|---1-----------------------|

like   a    mov - in     ground,
like   a    driv - in     power,
D               Dsus4                       D
E|------2---------------3-|----2----------------------|
B|------3---------------3-|----3----------------------|
G|------2---------------2-|----2--------------------2-|
D|-0----------------------|-------------------------0-|
A|------------------------|-------------------------0-|
E|------------------------|---------------------------|

throttle con - trol   and ev - ry thing.
big  fat tires       and ev - ry thing.
D                        Dsus4     D
E|-2------------------------3-|-------2------------------------|
B|-3------------------------3-|-------3------------------------|
G|-2------------------------2-|-------2---------------2--------|
D|-0------------------------0-|-------0---------------0--------|
A|----------------------------|------------------------------0-|
E|----------------------------|--------------------------------|

I love it and  I  need  it!
I love it and  I  need  it!
E|---------------------------|-----------------------|
B|---------------------------|-----------------------|
G|-------------------------5-|---------------------5-|
D|-----7---7---7---7---7---5-|-7---7---7---7---7---5-|
A|-0---0---0---0---0---0-----|-0---0---0---0---0-----|
E|-0-------------------------|-----------------------|

I  seed   it!
I  bleed  it!
E|---------------------------------|---------------------------|
B|---------------------------------|---------------------------|
G|---------------------------5-----|---------5---------------5-|
D|-----7---7---7---7---7-----5-----|-----7---5----------7----5-|
A|-----0---0---0---0---0-----------|-----0--------------0------|
E|---------------------------------|---------------------------|

Eight  cylinders,  all mine!
Yeah,  its a  mad hurricane              C
E|---------------------------------|------------------------8--|
B|---------------------------------|------------------------8--|
G|---5------------------------5----|------------------------9--|
D|---5----7---7---7---7---7---5----|---7---7---7---7--------10-|
A|--------0---0---0---0---0--------|---0---0---0---0---0----10-|
E|---------------------------------|------------------------8--|

Al   -   right,           hold           tight,           Im
D                C               D               C
E|--------------------------8------|------------------------8--|
B|---------7----------------8------|--------7---------------8--|
G|---------7----------------9------|--------7---------------9--|
D|---------7----------------10-----|--------7---------------10-|
A|-----0---5----------------10-----|----0---5---------------10-|
E|--------------------------8------|------------------------8--|

a             high      -     way     star!
C          D            F               Gm            A
E|----8----------------------------|----------10------------12-|
B|----8----------7------------10---|----------11------------14-|
G|----9----------7------------10---|----------12------------14-|
D|----10---------7------------10---|----------12------------14-|
A|----10----0----5-------0----8----|----------10------------12-|

E|---------------------------|-------------------20------------|
B|---------------------------|---------------------------------|
G|---------------------------|-----------19--------------------|
(1) ~~~~~~
E|---------------------------------|---------------------------|
B|---------------------------------|-----------------------13^-|
G|---------------------------------|-------------------10------|
D|-----7---------------------------|---------------12----------|
A|-----0---------------------------|---------------------------|
E|---------------------------------|---------------------------|

(1)          ~~~~~~~~~~~~             (1)
E|---------------------------|-----------------------------12^-|
B|------------------13^------|-------------------------10------|
G|--------------10-----------|----10------10-/10---------------|
D|----------12---------------|---------------------------------|
A|---------------------------|---------------------------------|
E|---------------------------|---------------------------------|

(.25)          ~~~~~~~~~                    (1)
E|-12--12--10--0------------------|----------------------------|
B|--------------------------------|---------------------13^-/0-|
G|----------------10^------12--10-|-10-2----------10-----------|
D|---------------------12---------|---------/12----------------|
A|--------------------------------|----------------------------|
E|--------------------------------|----------------------------|

(1)          ~~~~~~~~~~~~             (1)
E|---------------------------|-----------------------------12^-|
B|------------------13^------|-------------------------10------|
G|--------------10-----------|----10------10-/10---------------|
D|----------12---------------|---------------------------------|
A|---------------------------|---------------------------------|
E|---------------------------|---------------------------------|

(.25)          ~~~~~~~~~~~~~~~~~~~         (1)
E|-12--12-10-0------------------|------------------------------|
B|------------------------------|------------------------8^----|
G|-------------10^------12--10--|-----------10-----------------|
D|------------------12----------|------------------------------|
A|------------------------------|------------------------------|
E|------------------------------|------------------------------|

(1)             (1)             (1)                (1)
E|--------------------------|---------------------------------|
B|-8^--------------8^-------|------8^-----------------8^------|
G|--------------------------|---------------------------------|

(.25)                (.25)
E|---------------------------------|---------------------------|
B|-8--8--7--5----------------------|---------------------------|
G|--------------5^------7----5-----|---5-----------------------|
D|------------------7--------------|---------7---7-------5---7-|
A|---------------------------------|---------------------------|
E|---------------------------------|---------------------------|

(.25)    (.25)     (.25)    (.25)      (.25)        (.25)
E|----------------------------|--------------------------------|
B|----------------------------|--------------------------------|
G|-5^--------5^--------5^-----|-5^----------5^----------5^-----|
D|-----7--5------7--5-------7-|-----7---5-------7---5------7-0-|
A|----------------------------|--------------------------------|
E|----------------------------|--------------------------------|

(1)        (1)      (1)      (1)    (1)    (1)    (1)   (1)
E|---------------------------|------------------------------8^-|
B|-8^---------8^-------8^----|--8^-----8^-----8^-----8^--------|
G|---------------------------|---------------------------------|

~~~~    (1)                        ~~~~   (1)
E|-8---5---------------8^----|-----8---5-----------------8^----|
B|---------6-----------------|---------------6-----------------|
G|-------------7-------------|--------------------7------------|

~~~~    (1)
E|-10---8----------------10^----|----10----8------------|
B|-----------8------------------|----------------8------|
G|---------------9--------------|---------------------9-|

(1)             (1)            (1)                 (1)
E|----5--------------6-------|-------7-------------------8-----|
B|-8^--------------9^--------|----10^-----------------11^------|
G|---------------------------|---------------------------------|

E|-5-6-8-8-5-6-8-8-5-6-8-8-5-6-8-8-|
B|---------------------------------|
G|---------------------------------|

E|-5-6-8-8-5-6-8-8-5-6-8-8-5-6-8-8-|
B|---------------------------------|
G|---------------------------------|

E|-6-8-10-10-6-8-10-10-6-8-10-10-6-8-10-10-|
B|-----------------------------------------|
G|-----------------------------------------|

E|-6-8-10-10-6-8-10-10-6-8-10-10-6-8-10-10-|
B|-----------------------------------------|
G|-----------------------------------------|

E|-8-10-12-12-8-10-12-12-8-10-12-12-8-10-12-12-|
B|---------------------------------------------|
G|---------------------------------------------|

E|-8-10-12-12-8-10-12-12-8-10-12-12-8-10-12-12-|
B|---------------------------------------------|
G|---------------------------------------------|

E|-17-17-0-0-15-14-0-0-14-13-0-0-13-12-0-0-|
B|-----------------------------------------|
G|-----------------------------------------|

E|-12-11-0-0-11-10-0-0-10-9-0-0-9-8-0-0-|
B|--------------------------------------|
G|--------------------------------------|

E|-5-6-8-8-5-6-8-8-5-6-8-8-5-6-8-8-|
B|---------------------------------|
G|---------------------------------|

E|-5-6-8-8-5-6-8-8-5-6-8-8-5-6-8-8-|
B|---------------------------------|
G|---------------------------------|

E|-6-8-10-10-6-8-10-10-6-8-10-10-6-8-10-10|
B|----------------------------------------|
G|----------------------------------------|

E|-6-8-10-10-6-8-10-10-6-8-10-10-6-8-10-10-|
B|-----------------------------------------|
G|-----------------------------------------|

E|-8-10-12-12-8-10-12-12-8-10-12-12-8-10-12-12-|
B|---------------------------------------------|
G|---------------------------------------------|

E|-8-10-12-12-8-10-12-12------10-12-12-12-13-15-16-|
B|-------------------------------------------------|
G|-------------------------------------------------|

E|-17-17-0-0-15-14-0-0-14-13-0-0-13-12-0-0-|
B|-----------------------------------------|
G|-----------------------------------------|

E|12-11-0-0-11-10-0-0-10-9-0-0-9-8-0-0-|
B|-------------------------------------|
G|-------------------------------------|

E|12-11-0-0-11-10-0-0-10-9-0-0-9-8-0-0-|
B|-------------------------------------|
G|-------------------------------------|

E|8-7-0-0-7-6-0-0-6-5-0-0-5-4-0-0|
B|-------------------------------|
G|-------------------------------|

E|4-3-0-0-3-2-0-0-2-2-0-0-3-3-0-0|
B|-------------------------------|
G|-------------------------------|

(1)              (.25)
E|-4-4-0-0-5-5-0-0-6-6-0-0-7-7-0-|--------5--------------------|
B|-------------------------------|--8^-------8---7--5----------|
G|-------------------------------|---------------------8----7^-|

(.25)            (1)
E|-------------------------------|-------5---------------------|
B|--------------------------8^---|--8--------8---5-------------|
G|--5-----7--5^------------------|------------------8--7--5----|
D|-----7---------7----0----------|---------------------------7-|
A|-------------------------------|-----------------------------|
e|-------------------------------|-----------------------------|

E|---------------------------------|---------------------------|
B|------------------------5--------|---------------------------|
G|---7---5----------------5--------|----5----------------5-0---|
D|-----------7---5---7-------------|---------------------------|
A|---------------------------------|---------------------------|
e|---------------------------------|---------------------------|

Im       a             high       -       way      star!
E|---------------------------------|---------------------------|
B|---------------------------------|---------------------------|
G|---------------------------------|---------------------------|
D|---------------------------------|---------------------------|
A|---3----0---5--------------8-----|-------------10-------12---|
e|---------------------------------|---------------------------|

Im             a                high     -  way
E|---------------------------------|---------------------------|
B|---------------------------------|---------------------------|
G|---------------------------------|---------------------------|
D|---------------------------------|--------15-----------17----|
A|-------12-/15-------------17-----|---------------------------|
e|---------------------------------|---------------------------|

star!          Im a high  -
(.5)
E|---------------------------------|---------------------------|
B|---------------------------------|----------------------8^---|
G|----------------------------17---|--------------19-----------|
D|---17--------19------------------|---------------------------|
A|---------------------------------|---------------------------|
e|---------------------------------|---------------------------|

way                        star!
(1)            (1)         (1)      (1)        (1)
E|---------------------------------|---------------------------|
B|---------8^-------------8^-------|--8^-------8^---------8^---|
G|---------------------------------|---------------------------|
D|---------------------------------|---------------------------|
A|---------------------------------|---------------------------|
e|---------------------------------|---------------------------|

E|-----5-----------------------|-------------------------------|
B|-8-------8---7---5-----------|-------------------------------|
G|----------------------8---7--|--5-------7---5----------------|
D|-----------------------------|------7-----------7---5------7-|
A|-----------------------------|-------------------------7-----|
e|-----------------------------|-------------------------------|

E|---------------------------------|---------------------------|
B|---------------------------------|---------------------------|
G|---------------------------------|---------------------------|
D|--5------------------------------|---------------------------|
A|------7----6----5----3-----------|---------------------------|
e|--------------------------5------|--------3-----5----------5-|

Вверх

Highway Star (2 вариант)

Ab   Ebm   Db   Ebm   Ab    Ebm    Db    Ebm   Ab
Ab7  Ab7   Ab7  Ab7   Ab7   Db Cb

Ab                                                 Gb   Db
Nobody gonna take my car  Im gonna race it to the ground
Ab                                                      Gb  Db
Nobody gonna beat my  car its gonna break the speed of sound
Gb
Ooh its a killing machine  itt got everything
Eb
Like a driwing power big fat tires everything

Bbm7         Bbm7            Bbm7         Bbm7
I love it   and I need it   I bleed it
Bbm7
Yeah its a wild hurricane
Db Eb    Db   Eb    E   Eb Gb  Ab  Bb   Bb  -  Db Cb
Alright  hold tight Im a  highway star

Nobody gonna take my girl Im gonna keep her to the end
Nobody gonna have my girl she stays close on every bend
Ooh shes a killing machine shes got everything
Like a moving mouth body  controll and everything
I Love her I need her seed her
Yeah she turns me on
Alright hold tight Im a highway star

Nobody gonna take my head I got speed inside my  brain
Nobody gonna steal my  head now that Im on the road again
Ooh Im in heaven again Iv got everything
Like a moving ground throttle  control and everything
I love it  I need it  I seed it
Eight cylinders all mine
Alright hold tight Im a highway star

Same as 1. except
DbEb    Db   Eb     E   EbGb  Ab  Bb
Alright hold tight  Im a highway star
E   EbGb  Ab  Bb   E   EbGb Ab   Bb
Im a highway star Im a highway star

Вверх

Hush
mp3

(intro)

Bb Ab Eb F

C Cm7 F
C Cm7 F
C Cm7 F
C Cm7 F

(bridge)

Ab	Eb	Bb	F
Naa na na naa na na naa na na naaa
C	Cm7 F
(twiddly bit on guitar)
Ab	Eb	Bb	F
Naa na na naa na na naa na na naaa
C	Cm7 F
(twiddly bit on hammond)

(first verse)

C	Cm7 F
I got a certain little girl shes on my mind
C	Cm7 F
No doubt about it she looks so fine
C	Cm7 F
Shes the best girl that I ever had
C	Cm7 F
Sometimes shes gonna make me feel so bad

(bridge again)

(chorus)

C	F	Bb	Cm7 F
Hush, hush, thought I heard her calling my name now
C	F	Bb	Cm7 F
Hush, hush, she broke my heart but I love her just the same now
C	F	Bb	Cm7 F
Hush, hush, thought I heard her calling my name now
C	F	Bb	Cm7 F
Hush, hush, I need you love but Im not to blame now
Cm7
[Love Love] Got it early in the morning
Cm7
[Love Love] Got it late in the evening
Cm7
[Love Love] I want it, I need it
Cm7
[Love Love] Oh I gotta gotta have it

(verse again)

(bridge again)

(chorus again)

C	Cm7 F
(organ solo - repeat a lot)

(bridge again)

Ab	Eb	Bb	F	Cm7
Naaaaa naa naa naaaaa naa naa naaaaa naa naa naaaaaaa

Вверх

Into The Fire

I havent matched the Riffs with the lyrics, but its pretty
simple, just listen to the record...

Riff A:
e||-------------------------------------||---------------------|
b||-------------------------------------||---------------------|
g||o-----------------------------------o||---------------------|
d||o------------0-0---0-2--------------o||---------------0-1-2-|
a||--2-2---0-2---------------------0-1--||-2---0h1-2-3-4-------|
E||----------------------0-1-2-3-4------||---------------------|

Riff B:
e|-----------------------------------------------0-------------|
b|-------------------------------------------------3-0---------|
g|-----------------------------------4-2h4p2-----------2-0-----|
d|---2--2--2----------2---2---2---(2)--------4-------------2-2-|
a|---------------------------------------------2---------------|
E|-0--0--0--0-0h3h5-0---0---0---0------------------------------|

Riff C:
e|---------------0---------------0-|
b|-------0-----4---------0-----4---|
g|-----3---------------3-----------|
d|---2-------2-------2-------2-----|
a|-2-------2-------2-------2-------|
E|---------------------------------|

Lyrics:

Take the trouble to decide the things you do
Will not be the things that dont appeal to you
See the mess your makin cant you see your fakin
Gonna make it hard for you, youre gonna--into the fire

Turn on the mandrake that was given to you
See if you can make it like the others do
Feel the blood a knockin when youre finger poppin
Gonna make it hard for you, youre gonna--into the fire

Stop your bleeding mind before its over and done
Listen very closely to the message Ive sung
Feel the blood a knockin when youre finger poppin
Gonna get a message through, youre gonna--into the fir

Вверх

Into The Fire

I havent matched the Riffs with the lyrics, but its pretty simple,
just listen to the record...

Riff A:
e||-------------------------------------||---------------------|
b||-------------------------------------||---------------------|
g||o-----------------------------------o||---------------------|
d||o------------0-0---0-2--------------o||---------------0-1-2-|
a||--2-2---0-2---------------------0-1--||-2---0h1-2-3-4-------|
E||----------------------0-1-2-3-4------||---------------------|

Riff B:
e-----------------------------------------------------0-------------|
b-------------------------------------------------------3-0---------|
g----------------------------------------4-2h4p2------------2-0-----|
d---2---2---2-------------2---2---2---(2)--------4--------------2-2-|
a--------------------------------------------------2----------------|
E-0---0---0---0-0h3h5---0---0---0---0-------------------------------|

Riff C:
e---------------0---------------0-|
b-------0-----4---------0-----4---|
g-----3---------------3-----------|
d---2-------2-------2-------2-----|
a-2-------2-------2-------2-------|
E---------------------------------|

Lyrics:

Take the trouble to decide the things you do
Will not be the things that dont appeal to you
See the mess your makin cant you see your fakin
Gonna make it hard for you, youre gonna--into the fire

Turn on the mandrake that was given to you
See if you can make it like the others do
Feel the blood a knockin when youre finger poppin
Gonna make it hard for you, youre gonna--into the fire

Stop your bleeding mind before its over and done
Listen very closely to the message Ive sung
Feel the blood a knockin when youre finger poppin
Gonna get a message through, youre gonna--into the fire

Вверх

Lasy

Intro

E|-----|
B|-----|
G|-1---|
D|---3-|
A|-----|
E|-----|

E|--------|---------------------|
B|--------|---------------------|
G|--------|---------------------|
D|----1-2/|--3--------------1-2/|
A|-3------|--------------3------|
E|--------|---------------------|

E|--------------------|-------------------------------|
B|--------------------|----------------------------4b-|
G|--------------------|----1---3-1-----1----3-1-------|
D|-3----------------2/|-3----3-----3-1---3------3-----|
A|--------------------|-------------------------------|
E|--------------------|-------------------------------|

E|-----------------1---------------|------|
B|-4b-4-1-4--1---1---1-------------|------|
G|-------------4-------4-3-1---3---|-1----|
D|---------------------------3---3-|----3-|
A|---------------------------------|------|
E|---------------------------------|------|

E|------4--6/7---4--6---|---4-6--7-6-4---6---4-----|
B|---6---------6------6-|-6------------6---6-----7/|
G|-5--------------------|--------------------------|
D|----------------------|--------------------------|
A|----------------------|--------------------------|
E|----------------------|--------------------------|

E|---8b---9--8--6--8---|-4b---4--1-4-----|
B|-6-----------------6-|--------------4r-|
G|---------------------|-----------------|
D|---------------------|-----------------|
A|---------------------|-----------------|
E|---------------------|-----------------|

Rythm

...

E|--------------------------------|
B|--------------------------------|
G|--------------------------------|
D|--------------------------------|
A|--------------------------------|
E|-13-12-11-10-9-8-7-6-5-4-3-1--1-|

E|-8-|
B|-8-|
G|---|
D|---|
A|---|
E|---|

...

E|------------------------|
B|------------------------|
G|----1---3-1-----1---3-1-|
D|-3----3-----3-1---3-----|
A|------------------------|
E|------------------------|

E|-------|-----------------------------------|-------|
B|----4b-|-6--4h6h4---4--------6-------------|----4b-|
G|-------|----------5----5-4h5---5-4-3-1-----|-------|
D|-3-----|-------------------------------3-1-|-3-----|
A|-------|-----------------------------------|-------|
E|-------|-----------------------------------|-------|

E|---------------------------|-------------------------------|
B|---------------------------|-------------------------------|
G|---------------------------|-------------------------------|
D|---1---3-1-----1---3-1-----|---------------------1---------|
A|-3---3-----2-3---3-----3-2/|-3--2-1-2--1---1-2/3---3-1---1-|
E|---------------------------|-------------4-------------4---|

E|---------------------------|---------------------------|
B|---------------------------|---------------------------|
G|---------------------------|---------------------------|
D|----3--1--3------3--1--3---|----3--1--3------3--1--3---|
A|------------3------------3-|------------3------------3-|
E|-1------------1------------|-1------------1------------|

E|--------------------------|--------------------------|-------|
B|--------------------------|--------------------------|-------|
G|----3---1--------3---1--3-|--------------------------|-1---0-|
D|------3----3-------3------|----3---1--3-----3---1--3-|-------|
A|-1------------1-----------|------3------------3------|-------|
E|--------------------------|-1------------1-----------|-------|

E|--------------------|--------------------------|
B|------------------4-|--------------------------|
G|------------------3-|--------------------------|
D|----3---1--3--3---2-|----3---1--3-----3---1----|
A|------3-----------3-|------3------------3----3-|
E|-1------------------|-1------------1-----------|

E|--------------------------|--------------------------|
B|--------------------------|--------------------------|
G|--------------------------|----3---1--------3---1--3-|
D|----3---1--3-----3---1--3-|------3----3-------3------|
A|------3------------3------|-1------------1-----------|
E|-1------------1-----------|--------------------------|

E|--------------------------|------------|--------------------|
B|--------------------------|------------|------------------4-|
G|--------------------------|-1--------0-|------------------3-|
D|----3---1--3-----3---1--3-|------------|----3---1--3--3---2-|
A|------3------------3------|------------|------3-----------3-|
E|-1------------1-----------|------------|-1------------------|

E|--------------------------|--------------------------|
B|--------------------------|--------------------------|
G|--------------------------|--------------------------|
D|----3---1--3-----3---1----|----3---1--3-----3---1--3-|
A|------3------------3----3-|------3------------3------|
E|-1------------1-----------|-1------------1-----------|

E|--------------------------|--------------------------|-------|
B|--------------------------|--------------------------|-------|
G|----3---1--------3---1--3-|--------------------------|-1---0-|
D|------3----3-------3------|----3---1--3-----3---1--3-|-------|
A|-1------------1-----------|------3------------3------|-------|
E|--------------------------|-1------------1-----------|-------|

E|---------------|------------------------|-------|
B|-------------4-|------------------------|----4b-|
G|-------------3-|----1---3-1-----1---3-1-|-------|
D|-3-----------2-|-3----3-----3-1---3-----|-3-----|
A|-------------3-|------------------------|-------|
E|---------------|------------------------|-------|

E|-----------------------------------|-------|
B|-6--4h6h4---4--------6-------------|----4b-|
G|----------5----5-4h5---5-4-3-1-----|-------|
D|-------------------------------3-1-|-3-----|
A|-----------------------------------|-------|
E|-----------------------------------|-------|

E|-----------------------------|-------------------------------|
B|-----------------------------|-------------------------------|
G|-----------------------------|-------------------------------|
D|----1---3-1-----1---3-1------|---------------------1---------|
A|-3----3-----2-3---3-----3--2/|-3--2-1-2--1---1-2/3---3-1---1-|
E|-----------------------------|-------------4-------------4---|

E|---------------------------|---------------------------|
B|---------------------------|---------------------------|
G|---------------------------|---------------------------|
D|----3--1--3------3--1--3---|----3--1--3------3--1--3---|
A|------------3------------3-|------------3------------3-|
E|-1------------1------------|-1------------1------------|

E|--------------------------|--------------------------|------|
B|--------------------------|--------------------------|------|
G|----3---1--------3---1--3-|--------------------------|-1--0-|
D|------3----3-------3------|----3---1--3-----3---1--3-|------|
A|-1------------1-----------|------3------------3------|------|
E|--------------------------|-1------------1-----------|------|

E|--------------------|---------------------------|
B|------------------4-|---------------------------|
G|------------------3-|---------------------------|
D|----3---1--3--3---2-|----3--1--3------3--1--3---|
A|------3-----------3-|------------3------------3-|
E|-1------------------|-1------------1------------|

E|---------------------------|---------------------------|
B|---------------------------|---------------------------|
G|---------------------------|-----3---1--------3---1--3-|
D|----3--1--3------3--1--3---|-------3----3-------3------|
A|------------3------------3-|--1------------1-----------|
E|-1------------1------------|---------------------------|

E|--------------------------|------------|--------------------|
B|--------------------------|------------|------------------4-|
G|--------------------------|-1--------0-|------------------3-|
D|----3---1--3-----3---1--3-|------------|----3---1--3--3---2-|
A|------3------------3------|------------|------3-----------3-|
E|-1------------1-----------|------------|-1------------------|

E|---------------------------|---------------------------|
B|---------------------------|---------------------------|
G|---------------------------|---------------------------|
D|----3--1--3------3--1--3---|----3--1--3------3--1--3---|
A|------------3------------3-|------------3------------3-|
E|-1------------1------------|-1------------1------------|

E|--------------------------|--------------------------|-------|
B|--------------------------|--------------------------|-------|
G|----3---1--------3---1--3-|--------------------------|-1---0-|
D|------3----3-------3------|----3---1--3-----3---1--3-|-------|
A|-1------------1-----------|------3------------3------|-------|
E|--------------------------|-1------------1-----------|-------|

E|---------------|------------------------|-------|
B|-------------4-|------------------------|----4b-|
G|-------------3-|----1---3-1-----1---3-1-|-------|
D|-3-----------2-|-3----3-----3-1---3-----|-3-----|
A|-------------3-|------------------------|-------|
E|---------------|------------------------|-------|

E|-----------------------------------|-------|
B|-6--4h6h4---4--------6-------------|----4b-|
G|----------5----5-4h5---5-4-3-1-----|-------|
D|-------------------------------3-1-|-3-----|
A|-----------------------------------|-------|
E|-----------------------------------|-------|

E|----------------------------|--------------------------------|
B|----------------------------|--------------------------------|
G|----------------------------|--------------------------------|
D|---1---3-1-----1---3-1------|--------------------1-----------|
A|-3---3-----2-3---3-----3--2/|-3-2-1-2--1---1-2/3---3-1---1-3/|
E|----------------------------|------------4-------------4-----|

E|-------------------------------|-------------|
B|-------------------------------|-------------|
G|-------------------------------|-------------|
D|---------------------3---------|----5---3--5-|
A|-5--4-3-4--3-1-3-4/5---5-3-1-3-|-5----5------|
E|-------------------------------|-------------|

E|------------------|------------------|-------------------|
B|------------------|------------------|-------------------|
G|-5b---5--3--------|------------------|----------3--------|
D|------------5-3-5-|------------------|------------5--5-5-|
A|------------------|-3----3----3----3-|-------------------|
E|------------------|-x----x----x----x-|-3-----------------|

E|------------|----------------|----------|
B|------------|--------------6-|----------|
G|-3--------2-|--------------5-|-3--------|
D|------------|-5---3--5-----4-|---5--5-5-|
A|------------|---5----------5-|----------|
E|------------|----------------|----------|

E|--------------------|--------------------|
B|--------------------|--------------------|
G|-----------3--------|-----------3--------|
D|-5---3--5----5--5-5-|-5---3--5----5--3-5-|
A|---5----------------|---3----------------|
E|--------------------|--------------------|

E|----------------------|------------|-------------------------|
B|----------------------|------------|-------------------------|
G|----------------------|-3--------2-|-------------------------|
D|-5---3--5----5---3--5-|------------|----5---3--5----5---3----|
A|---5-----------5------|------------|------5-----------5----5-|
E|----------------------|------------|-3-----------------------|

E|--------------------------|--------------------------|
B|--------------------------|--------------------------|
G|----------------3---------|----------------3---------|
D|----5---3--5--------3-----|----5---3--5--------3-----|
A|------5-----------5---3-1-|------5-----------5---5-1-|
E|-3------------------------|-3------------------------|

E|---------------------------|----------------------|---------|
B|---------------------------|----------------------|---------|
G|-----------------3---------|--------------3-------|-3-----2-|
D|----5---3--5---------3-----|----5---3--5----5-3-5-|---------|
A|-3----3-------3----5---3-5-|------5---------------|---------|
E|---------------------------|-3--------------------|---------|

E|---------------|-6----------------|--------------------|
B|-------------6-|-8----------------|--------------------|
G|-0-----------5-|-7----------------|--------------------|
D|-------------4-|--------5--5----5-|-5--------5----5--5-|
A|-------------5-|--------x--x----x-|-x--------x----x--x-|
E|---------------|--------x--x----x-|-x--------x----x--x-|

E|-----------|----------------------|-----------------|
B|-----------|----------------------|-----------------|
G|-3-------3-|--3--3----------------|-3--------2----3-|
D|-5-------5-|--5--5--------5-----5-|-----------------|
A|-x-------x-|--------------x-----x-|-----------------|
E|-x-------x-|--------------x-----x-|-----------------|

E|-------------|------------------|--------------------------|
B|-------------|------------------|--------------------------|
G|-------------|-------------3----|--------------3-----------|
D|-5-----------|-5---3--5-------5-|----5---3--5-----5---3--5-|
A|------5------|---5--------------|------5------------5------|
E|-----------3-|------------------|-3------------------------|

E|-------------------------|-------------------|------------|
B|-------------------------|-------------------|------------|
G|-------------------------|-----------3-------|-3--------2-|
D|----5---3--5----5---3--5-|-5---3--5----5-3-5-|------------|
A|-3----3-----------3------|---5---------------|------------|
E|-------------------------|-------------------|------------|

E|----------------|--------------------------|
B|--------------6-|--------------------------|
G|-0------------5-|--------------------------|
D|-----3--5-----4-|----5---3--5-----5---3--5-|
A|---5----------5-|------3------------3------|
E|----------------|-3------------3-----------|

E|--------------------------|--------------------------|
B|--------------------------|--------------------------|
G|--------------------------|--------------------------|
D|----5---3--5-----5---3--5-|----5---3--5-----5---3--5-|
A|------3------------3------|------3------------3------|
E|-3------------3-----------|-3------------3-----------|

E|----------------------|------------|------------|
B|----------------------|------------|------------|
G|--------------3-------|-3--------2-|------------|
D|----5---3--5----5-3-5-|------------|-5--------3-|
A|------5---------------|------------|------------|
E|-3--------------------|------------|------------|

E|------------------------------|----------------|
B|---------------------------8b-|-8b-8b-8b-8b-8b-|
G|----5---7-5-----5---7-5-------|----------------|
D|-7----7-----7-5---7-----7-----|----------------|
A|------------------------------|----------------|
E|------------------------------|----------------|

E|--------------------------------------|-------------------|
B|-10--8h10h8---8--------10-------------|----8b-----8b---8b-|
G|------------9----9-8h9----9-8-7-5-----|-------------------|
D|----------------------------------7-5-|-7-----------------|
A|--------------------------------------|-------------------|
E|--------------------------------------|-------------------|

E|--------------------------|------------------------|
B|--------------------------|------------------------|
G|--------------------------|------------------------|
D|----5---7-5-----5---7-5---|------------------------|
A|-7----7-----6/7---7-----7-|-------------0--1--2--3-|
E|--------------------------|-0--1--2--3-------------|

E|----------------------------|---------------------------|
B|----------------------------|---------------------------|
G|----5---7-5-----------------|--------5------------------|
D|------7-----7-5-7--7---5--7-|----7-5---7-5--7--7---5--7-|
A|---------------------5------|-0------------------5------|
E|-5--------------------------|---------------------------|

E|-----------------------------|--------------------------|
B|-----------------------------|--------------------------|
G|----7---5--------5---7-5-----|--------------------------|
D|------7----7-------7-----7-5-|----7---5--7-----7---5----|
A|-5------------5--------------|------7------------7----7-|
E|-----------------------------|-5------------5-----------|

E|-------|--------------------------|--------------------------|
B|-------|--------------------------|--------------------------|
G|-5---4-|--------------------------|--------------------------|
D|-------|----7---5--7-----7---5--7-|----7---5--7-----7---5--7-|
A|-------|------5------------5------|------5------------5------|
E|-------|-5------------5-----------|-5------------5-----------|

E|---------------------------|--------------------------|------|
B|---------------------------|--------------------------|------|
G|-----------------7----5----|--------------------------|-5--4-|
D|----7---5--7-------7-----7-|----7---5--7-----7---5--7-|------|
A|-5----5-------5------------|------5------------5------|------|
E|---------------------------|-5------------5-----------|------|

E|--------|--------------------------|-------------------------|
B|------8-|--------------------------|-------------------------|
G|------7-|--------------------------|--------------5----------|
D|-7----6-|----7---5--7-----7---5--7-|----7---5--7----7-5-7--5-|
A|------7-|------5------------5------|------5------------------|
E|--------|-5------------5-----------|-5-----------------------|

E|--------------------------|--------------------------|-------|
B|--------------------------|--------------------------|-------|
G|--------------------------|--------------------------|-5---4-|
D|----7---5--7-----7---5--7-|----7---5--7-----7---5--7-|-------|
A|------5------------5------|------5------------5------|-------|
E|-5------------5-----------|-5------------5-----------|-------|

E|----------------------------|------------|
B|----------------------------|------------|
G|----------------------------|-5--------4-|
D|----7---5--7---7-5---7----5-|------------|
A|------5------5-----7----7---|------------|
E|-5--------------------------|------------|

E|------------------------------------|------------|
B|------------------------------------|------------|
G|------------------------------------|-5--------4-|
D|-7--5--4----------------------------|------------|
A|----------7--6--5--4--3-----------5-|------------|
E|-------------------------5--3--0----|------------|

Solo

...

E|------------------------|-------|
B|------------------------|----4b-|
G|----1---3-1-----1---3-1-|-------|
D|-3----3-----3-1---3-----|-3-----|
A|------------------------|-------|
E|------------------------|-------|

E|-----------------------------------|--------|
B|-6--4h6h4---4--------6-------------|-----4b-|
G|----------5----5-4h5---5-4-3-1-----|--------|
D|-------------------------------3-1-|--3-----|
A|-----------------------------------|--------|
E|-----------------------------------|--------|

E|-----------------------------|-------------------------------|
B|-----------------------------|-------------------------------|
G|-----------------------------|-------------------------------|
D|----1---3-1-----1---3-1------|---------------------1---------|
A|-3----3-----2-3---3-----3--2/|-3--2-1-2--1---1-2/3---3-1---1-|
E|-----------------------------|-------------4-------------4---|

E|-----------------|---------------------------------1-|
B|-----------------|-------------------------------1---|
G|-3b-3b-----3b-3b-|-3-4-3-1----1---3-1---1------3b----|
D|-----------------|---------3----3-----3--------------|
A|-----------------|-----------------------------------|
E|-----------------|-----------------------------------|

E|---------------------------8b-|-8-6h5h4---6-4h6h4------------|
B|-4-1---------------4/6---6----|---------6-----------4-6--6-6-|
G|-----4-3-1---3---1-----7------|-------------------5----------|
D|-----------3---3--------------|------------------------------|
A|------------------------------|------------------------------|
E|------------------------------|------------------------------|

E|-------------------------------4---|-4-6b--6-4---4-6---------|
B|-6-4---4-6-6-4---4-6-6-4---4-6---6-|-----------6-----------5/|
G|-----5---------5---------5---------|------------------3b-----|
D|-----------------------------------|-------------------------|
A|-----------------------------------|-------------------------|
E|-----------------------------------|-------------------------|

E|---4-6-7h6h4-6-4-7--6--5/|-4-6-7-6---4-4h6h7h4---4-4h6h7h4---|
B|-6-----------------------|---------6-----------6-----------6-|
G|-------------------------|-----------------------------------|
D|-------------------------|-----------------------------------|
A|-------------------------|-----------------------------------|
E|-------------------------|-----------------------------------|

E|-4-4h6h7h4---4-4h6h7h4-------6-4-----------|
B|-----------6-----------6---6-----6-4-1-----|
G|---------------------------------------3-1-|
D|-------------------------------------------|
A|-------------------------------------------|
E|-------------------------------------------|

E|--------------------------------1-|--------------------------|
B|------------------------------1---|-4-1------------------1---|
G|-1/3-1-3-1-----1---3-1---1--3b----|-----4-3-1---1-3-1/3----3-|
D|------3----3-1---3-----3----------|-----------3---------3----|
A|----------------------------------|--------------------------|
E|----------------------------------|--------------------------|

E|----------------------------|--------------------------------|
B|----------------------------|1-------1--------1--------1-----|
G|1---3---3-1---1---3-1------3|-3-1--3b-3-1---3b-3-1---3b-3-1--|
D|--3---3-----3---3-----3-1---|----3--------3--------3--------3|
A|--------------------------3-|--------------------------------|
E|----------------------------|--------------------------------|

E|-------------------------------------------------|
B|-------------------------------------------------|
G|-----3-6-5-3-5-4-3-----------3-6-5-3-5-4-3-------|
D|-5-6---------------6-5-3-5-6---------------6-5-3-|
A|-------------------------------------------------|
E|-------------------------------------------------|

E|-------------------------------------------------|
B|-------------------------------------------------|
G|-----3-6-5-3-5-4-3-6-5-3-5-4-3-6-5-3-5-4-3-6-5-3-|
D|-5-6---------------------------------------------|
A|-------------------------------------------------|
E|-------------------------------------------------|

E|--------------------------------------|
B|-4------------------------------------|
G|----3-6-5-3-5-4-3-----------3-6-5-3-5-|
D|------------------6-5-3-5-6-----------|
A|--------------------------------------|
E|--------------------------------------|

E|-----------------------------------|------------------------|
B|-----------------------------------|------------------------|
G|-5--3-----------3-5-3---------3--5-|-3-4b-4b-4b-3-1-3-1--3b-|
D|------6-5-3-5-6-------6-5--6-------|------------------------|
A|-----------------------------------|------------------------|
E|-----------------------------------|------------------------|

E|------------------------|-------|
B|------------------------|----4b-|
G|----1---3-1-----1---3-1-|-------|
D|-3----3-----3-1---3-----|-3-----|
A|------------------------|-------|
E|------------------------|-------|

E|-----------------------------------|-------|
B|-6--4h6h4---4--------6-------------|----4b-|
G|----------5----5-4h5---5-4-3-1-----|-------|
D|-------------------------------3-1-|-3-----|
A|-----------------------------------|-------|
E|-----------------------------------|-------|

E|------------------------------|-----------------------------|
B|------------------------------|-----------------------------|
G|------------------------------|-----------------------------|
D|----1---3-1-----1---3-1-------|-------------------1---------|
A|-3----3-----2-3---3-----3---2/|-3-2-1-2-1---1-2/3---3-1---1-|
E|------------------------------|-----------4-------------4---|
...

E|------------------------|
B|------------------------|
G|----1---3-1-----1---3-1-|
D|-3----3-----3-1---3-----|
A|------------------------|
E|------------------------|

E|-------|-----------------------------------|-------|
B|----4b-|-6--4h6h4---4--------6-------------|----4b-|
G|-------|----------5----5-4h5---5-4-3-1-----|-------|
D|-3-----|-------------------------------3-1-|-3-----|
A|-------|-----------------------------------|-------|
E|-------|-----------------------------------|-------|

E|---------------------------|---------------------------------|
B|---------------------------|---------------------------------|
G|---------------------------|---------------------------------|
D|---1---3-1-----1---3-1-----|---------------------1-----------|
A|-3---3-----2-3---3-----3-2/|-3--2-1-2--1---1-2/3---3-1---1-3/|
E|---------------------------|-------------4-------------4-----|

E|-------------------------------|
B|-------------------------------|
G|-------------------------------|
D|---------------------3---------|
A|-5--4-3-4--3-1-3-4/5---5-3-1-3-|
E|-------------------------------|

Вверх

Lay Down

Normal tuning
riff1A: guitar1
E|-------------------------------------------------------------|
B|-------------------------------------------------------------|
G|--------5------------------5--6--7----------------5----------|
D|----5-7---7-5-7------5--7-----------5-------5--7-----7--5--7-|
A|-/7--------------/7---------------------/7-------------------|
E|-------------------------------------------------------------|

end riff1A
E|-------------------------------------------------------------|
B|--------------5-----------------------------------------5--8-|
G|--------5-6-7----------5----------------------5--6--7--------|
D|----5-7------------5-7----7--5--7-------5--7-----------------|
A|-/7-------------/7------------------/7-----------------------|
E|-------------------------------------------------------------|

Riff1B: guitar2
E|-------------------------------------------------------------|
B|-------------------------------------------------------------|
G|-------------------------------------------------------------|
D|-------------------------------------------------------------|
A|-------0--3--0-----0--------0--3--4--5----------0--3--0----0-|
E|-0--3-----------3-----0--3-------------3--0--3-----------3---|

end riff1B
E|-------------------------------------------------------------|
B|---------------------------------------------------------5-8-|
G|-------------------------------5-------------------5-6-7-----|
D|-------------------2-----5--7-----7--5--7------5-7-----------|
A|-------0--3--4--5----/7--------------------/7----------------|
E|-0--3--------------------------------------------------------|

fill1:
E|------|
B|------|
G|------|
D|-7--7-|
A|-7--7-|
E|-5--5-|

intro:
riff1A+riff1B
fill1

Riff2
E|----------------|-----------------------|--------------------|
B|----------------|-----------------------|--------------------|
G|----------------|-----------------------|--------------------|
D|-7-7------------|--------------7--------|-7-7----------------|
A|-5-5---5----7-7-|-5-5----------5----7-7-|-5-5--------5---7-7-|
E|-------3----5-5-|-3-3---------------5-5-|------------3---5-5-|

riff3
E|------------------------------------|
B|------------------------------------|
G|----------------------------------5-|
D|-------------------------------5----|
A|-3--4--5-----------3--4--5--7-------|
E|----------3--4--5-------------------|

Verse1:
1x riff2:
I dont care if my ladys gone
as long as you give me just what I want
Ive been losin my direction

1x riff3:
got to find a new connection

fill1

Verse2:
1x riff2:

You have wasted the love I tasted
now Im really gettin hungry more and more
Been a long time ,had a bad sign

1x riff3:
Tell me what am I fighting for?

riff4:
E|-------------------------------------------------|
B|-------------------------------------------------|
G|-------------------------------------------------|
D|---------7-7-5-7---------7-7-5-7-----------------|
A|-7-7-7-7-5-5-5-5-7-7-7-7-5-5-5-5-7-7-7-7-5-5-5-5-|
E|-5-5-5-5---------5-5-5-5---------5-5-5-5-3-3-3-3-|

Chorus:
riff4:
Let me know you feel it
you now I really need it
Keep on pushin for more
riff3:
Lay down,stay down

riff4:
I got something to find
theres one thing I really need
Im gonna tell you right now
riff3:
Lay down,stay down

Riff1A+riff1B
fill1

Verse3
riff2:
Lookin for trouble, I guess thats right
When I was young Iwas taught to fight
Its been long gone since I had known
riff3:
Now Im headin for some more

Chorus:
riff4:
Let me know you feel it
you now I really need it
Keep on pushin for more
riff3:
Lay down,stay down

riff4:
I got something to find
theres one thing I really need
Im gonna tell you right now
riff3:
Lay down,stay down

Riff1A+riff1B
solo

Chorus:
riff4:
Let me know you feel it
you now I really need it
Keep on pushin for more
riff3:
Lay down,stay down

riff4:
I got something to find
theres one thing I really need
Im gonna tell you right now
riff3:
Lay down,stay down

Riff5:Dramatic ritard...

E|-------------------------------------------|
B|-------------------------------------------|
G|----------7------------------------------2-|
D|----5--7-----7--5--7------5--7-----------2-|
A|-7---------------------7--------6--5--3--0-|
E|-------------------------------------------|

Вверх

Lazy

Solo:

E|---------------------------|--------------3------------------|
B|--------------------------6|6-6-3-6-3---3---3----------------|
G|----3---5-3-----3---5-3----|----------6-------6_5_3---5---3--|
D|3=5---5-----5-3---5-----5--|------------------------5---5---5|
A|---------------------------|---------------------------------|
E|---------------------------|---------------------------------|

E|-----6-8-6-8---|---6-8-9_8_6---8---6-|---10-10-9-8-10---|
B|---8---------8-|-8-----------8---8---|-8--------------8-|
G|-7-------------|---------------------|------------------|
D|---------------|---------------------|------------------|
A|---------------|---------------------|------------------|
E|---------------|---------------------|------------------|

E|---------------|
B|-11-11-8-11----|
G|------------10-|
D|---------------|
A|---------------|
E|---------------|

E|------------------------------|
B|----------------------------6-|
G|------3---5-3-----3---5-3-----|
D|-3==5---5-----5-3---5-----5---|
A|------------------------------|
E|------------------------------|

E|---------------3-----------------|
B|-6-6-3-6-3---3---3---------------|
G|-----------6-------6-5-3-------6-|
D|-------------------------5-3-5---|
A|---------------------------------|
E|---------------------------------|

E|----------------------------|
B|----------------------------|
G|----------------------------|
D|------3---5-3-----3---5-3---|
A|-4==5---5-----4-5---5-----5-|
E|----------------------------|

E|----------------------------------|
B|----------------------------------|
G|----------------------------------|
D|----------------------3-----------|
A|-4==5-4---4-3---3-4-5---5_4_3---3-|
E|--------6-----6---------------6---|

E|------------|-----------------------|
B|------------|-----------------------|
G|-5--5--5--5-|-5_6_5_3---3---5_3---3-|
D|------------|---------5---5-----5---|
A|------------|-----------------------|
E|------------|-----------------------|

E|-----3---------------------|-----------10|
B|---3---6_5_3---------------|-----8---8---|
G|-6-----------6_5_3---5---3-|-==9---9-----|
D|-------------------5---5---|-------------|
A|---------------------------|-------------|
E|---------------------------|-------------|

E|-10-8-6---8-6~7---------|
B|--------8---------6-8-8-|
G|----------------7-------|
D|------------------------|
A|------------------------|
E|------------------------|

E|------------------------------------------|
B|-8_9_8_6---6--8_9_8_6---6--8_9_8_6---6--8-|
G|---------7------------7------------7------|
D|------------------------------------------|
A|------------------------------------------|
E|------------------------------------------|

E|-6---8-8-8-6---6-8---|
B|---8---------8-------|
G|-------------------5-|
D|---------------------|
A|---------------------|
E|---------------------|

E|---6-8-9_8_6---8-6-9-8-|-6-8-9-8-|---6-8_6-8_6---|
B|-8-----------8---------|---------|-8-----------8-|
G|-----------------------|---------|---------------|
D|-----------------------|---------|---------------|
A|-----------------------|---------|---------------|
E|-----------------------|---------|---------------|

E|-6-8_9_8_6---6-8_9_8_6---|
B|-----------8-----------8-|
G|-------------------------|
D|-------------------------|
A|-------------------------|
E|-------------------------|

E|---8_6-----------|---------------------------|
B|-8-----8-6-------|---------------------------|
G|-----------7-5-3-|-5-3---5-3-----3---5_3---3-|
D|-----------------|-----5-----5-3---5-----5---|
A|-----------------|---------------------------|
E|-----------------|---------------------------|

E|-----3-------------------|
B|---3---6-3---------------|
G|-6---------6-5-3---3-5-5-|
D|-----------------5-------|
A|-------------------------|
E|-------------------------|

E|---------------------|-------------|
B|-3-------------------|-------------|
G|---5-3---5---5_3---3-|---5_3-------|
D|-------5---5-----5---|-5-----5-3---|
A|---------------------|-----------5-|
E|---------------------|-------------|

VERSES (chords)

Well this is just the singing part:

Gm7  C/G
Youre lazy
Gm7
Just stay in bed
C
Youre lazy
Gm7
Just stay in bed
Bb
You dont want no money
F                 Gm7    D7#9 (ie Purple Haze E down 2 frets)
You dont want no bread

Repeat chords for

If youre drowning you dont clutch no straw
If youre drowning you dont clutch no straw
You dont want to live you dont want to cry no more

(Harmonica solo)

Well my trying aint done no good
I said my trying aint done no good
You dont make no effort no not like you should

Lazy you just stay in bed
Lazy you just stay in bed
You dont want no money
You dont want no bread

(Guitar solo)
(blues outro w/harmonica)

This is the chord progression from Lazy:

Gm7 | C/G |  Gm7 | Gm7
C   | C   |  Gm7 | Gm7
Bb  | F   |  Gm7 | D7#9

OUTRO (tablature)

Tempo--- Fast blues swing

E|--5------8~-5-----5---7---5--7-------|
B|-/5---5--------5-----------------5~~-|
G|-------------------------------------|
D|-------------------------------------|
A|-------------------------------------|
E|-------------------------------------|

E|-5-------5-------5--------5------5-|
B|----8^10----8^10----8^10-----8^10--|
G|-----------------------------------|
D|-----------------------------------|
A|-----------------------------------|
E|-----------------------------------|

E|----------------------------------------|
B|-8--7---5-----------------7--------10~~-|
G|-----------8--7--5------7--------9------|
D|---------------------7/9----9/11--------|
A|----------------------------------------|
E|----------------------------------------|

E|-10-^-(12 12)---10--8-9---------------------|
B|----------------------10--------------------|
G|-------------------------9--8--7---5----7-5-|
D|--------------------------------------7-----|
A|--------------------------------------------|
E|--------------------------------------------|
Drum break      In Free Time -->
E|----------------5----------------------------------|
B|-----------8^10----8-7-5---------------------------|
G|-------------------------8-7-5---------------------|
D|-8---7-------------------------7-5-----------------|
A|-----------------------------------7-6-5---3-------|
E|----------------------------------------------3--5-|

Вверх

Loosen My Strings

intro repeat 2x
w/delay
e|----------17--------------------------17---------------------|
b|-------15----------18-20-17-------15---------------18-20--17-|
g|----14----------17-------------14---------------17-----------|
d|-12----------15-------------12------------15-17--------------|
a|-------------------------------------------------------------|
E|-------------------------------------------------------------|

part2 distorted
e|----------5-------------------------5-------------|--|-------|
b|-------3-----------6--8--5-------3----------6-8-5-|--|-5---7-|
g|----2-----------5-------------2-----------5-------|--|-5---7-|
d|-0-----------3-------------0----------3-5---------|2X|-5---7-|
a|--------------------------------------------------|--|-3---5-|
E|--------------------------------------------------|--|-------|

Wake up in the morning Get into bed
ph ph
e|-----------------------------------------------|
b|-----------------------------------------------|
g|-7---5---------------------7--7-----5b7--------|
d|-7---5---------------------7--7--5------7------|
a|-5---3-----------7--3-5----5--5--3---------3-2-|
E|--------5--3~~---5--1-3----------5---------1-0-|


closing my eyes I rest my head
ph
e|--------------------------------------------------|
b|--------------------------------------------------|
g|-7--------------------------7---7-5---------------|
d|-7--5-----------------------7---7-5----5b7--------|
a|-5--3----------7----3-5-----5---5-3----------3--2-|
E|-------5--3~~--5----1-3--------------5-------1--0-|

repeat part2


There is no arrangement
No time no place
It?s gone in the wind
and left no trace

Who can say, maybe or whatever. It?s up to you
e|------------------------------------------------------------|
b|-------------1----------------------------------------------|
g|-----------2--------------------------5---------------------|
d|--3------3-----3----------------7----7----7-5-3-------------|
a|--3----3-------3----------------7---7-----------3-----------|
e|--1--1---------1-----3----------5--5--------------5-4-3-0-1-|

You know you can trust me I?ll make it up to you
e|------------------------------------------------------|
b|----------1-------------------------------------------|
g|---------2------------------5-------------------------|
d|---3----3---3---------7----7---7------7-5-3-----------|
a|---3---3----3---------7---7----7------------3-------3-|
e|---1--1-----1--3------5--5-----5--------------5-4-3---|


e|----------5------------------------------5--------------|
b|-------3------------6--8--5-----------3-----------6-8-5-|
g|----2------------5-----------------2------------5-------|
d|-0------------3-----------------0-----------3-5---------|
a|--------------------------------------------------------|
E|--------------------------------------------------------|

other verse the same processions except some more pitched
harmonics

You move with the action
You loosen my strings
Your fingers
can smooth out my jangles
and all those things

Grease on the handle
and the tangles
in my hair
They always seem
to go together
I don?t care

guitar part before solo
e|---------------------3----------------|
b|---3-----1-----1----3----10---11---13-|
g|--2-----0-----2----0----9----10---12--|
d|-0-----2-----3---------7----8----10---|
a|--------------------------------------|
E|--------------------------------------|

chords before solo
e|-------------------------|
b|-------------------------|
g|-------------------------|
d|---10----10-----8-8---10-|
a|---10----10-----8-8---10-|
E|---8-----8------6-6---8--|

solo
3:09
e|---------------------------------------------------------|
b|---------------------------------------------------------|
g|-11b12rb11-----------------------------------------------|
d|-----------12-14-12h14p12--------------------------------|
a|--------------------------15-14~~---15-14-12h14p12-10-12-|
E|---------------------------------------------------------|

e|-------------------------------------------------------------|
b|-------------------------------------------------------------|
g|-------------11-12-14b16rb14-11-12-14-16b17-14-12~-----------|
d|-----11-12-14-------------------------------------14~--------|
a|12-14------------------------------------------------15-12-14|
E|-------------------------------------------------------------|

3:28
e|------------------------14b15rb14b15rb14---------------------|
b|------------------12-15------------------15-15b17rb15-13-12~-|
g|---------11-12-14--------------------------------------------|
d|-11-12-14----------------------------------------------------|
a|-------------------------------------------------------------|
E|-------------------------------------------------------------|

3:37
e|----------------------------------------------14-15-17b19rb17|
b|13p12h13p12---------------------------12-14-15---------------|
g|-----------14p12h14~----------11-12-14-----------------------|
d|----------------------11-12-14-------------------------------|
a|-------------------1214--------------------------------------|
E|-------------------------------------------------------------|

tp tp tp
e|-14-15~--17-19b20rb19-17-15-15vv-15-17-19-15-17~-17-19-21b22-|
b|-------------------------------------------------------------|
g|-------------------------------------------------------------|
d|-------------------------------------------------------------|
a|-------------------------------------------------------------|
E|-------------------------------------------------------------|

3:50
ph[------------------------------------]
e|-----------------------------------------|
b|-----------------------------------------|
g|-----------------------------------------|
d|-----------------------------------------|
a|-----------------------------------------|
E|--0--1-3-1~~----3-5-6--5~~--6--8-10-12~~-|


Who can say, maybe or whatever. It?s up to you
e|------------------------------------------------------------|
b|-------------1----------------------------------------------|
g|-----------2--------------------------5---------------------|
d|--3------3-----3----------------7----7----7-5-3-------------|
a|--3----3-------3----------------7---7-----------3-----------|
e|--1--1---------1-----3----------5--5--------------5-4-3-0-1-|

You know you can trust me I?ll make it up to you
e|------------------------------------------------------|
b|----------1-------------------------------------------|
g|---------2------------------5-------------------------|
d|---3----3---3---------7----7---7------7-5-3-----------|
a|---3---3----3---------7---7----7------------3-------3-|
e|---1--1-----1--3------5--5-----5--------------5-4-3---|

Вверх

Love Child

Проигрыш:
D|-------------------------5//7----5---------------|
A|-------3-----5-7-3---0--------------7----0-3-5-3-|
E|-5-----------------------------------------------|

A|-7//1

Проигрыш - 4 раза

F
D|-3-3-3-3-3-------3-3-3-3-
A|-3-3-3-3-3-------3-3-3-3-
E|-1-1-1-1-1-------1-1-1-1-
You can walk through fire

D|-3-3-3-3-3-------3-3-3-3-
A|-3-3-3-3-3-------3-3-3-3-
E|-1-1-1-1-1-------1-1-1-1-
Make the north wind blow

Squeeze ?n? tease me honey
When you shake your body

A|------2~------
You move my soul

Проигрыш - 2 раза

Let me be your lover
Won?t you let me be your child
Take me through your universe
Y?know that when you smile
You drive me wild

Проигрыш - 2 раза

D|-3--2--------------------------------
A|-------5--3---5----------------------
E|--------------------3----5-----------
Love child

D|-3--2--------------------------------
A|-------5--3---5----------------------
E|-------------------3--5--------------
Driving me wild

D|-3--2--------------------------------
A|-------5--3---5----------------------
E|--------------------3----5-----------
Love child

D|-3--2--------------------------------
A|-------5--3---5----------------------
E|--------------------3----------------
Always teasin? me
Проигрыш - 2 раза

You can ride your pony
Day dream in fairy tales
All I know is I need more
When I see you dance the seven veils

Проигрыш - 2 раза

Седующая тема играется 8 раз!
A9+
H|--------------------------------------------8-
G|--------------------------------------------6-
D|------7-----5-------5---5-7-------7-----5---5-
A|-0-7-----7--------7----------0-7-----7------7-

Проигрыш 4 раза

Вверх

Love Conquerors All

Am     G/B            C
Feels like the end
Dm                    Am
When you?re closer to losing your dreams
G
Than losing a friend

Am       G/B    C
Flying blind
Dm                    Am
I?m shooting into the dark
G
Who will I find

F    G    Am
Oh   girl
Dm        C          G
And if it takes me a lifetime

F    G               Am
I swear I?ll tear down every wall

Dm       C    Bb       F              E7
Love conquers all
Am    G/B      C
On     my      way

Dm                  Am
Tomorrow I rise with the sun
G
Soon I?ll be gone
Am    G/B   C
Words can?t say
Dm                              Am
How the memories of feelings of love
G
They linger on
F     G     Am
Oh girl
Dm        C           G
And if it takes me forever

F             G           Am
I know it?s worth every teardrop that falls
Dm   C        Bb
Love conquers all

Eb                  Bb/D
Somewhere there?s a place in your heart
Fm           Cm
Where the wounds never heal
Eb
(You?re not alone)
Bb
Well you?re not alone
F
That?s just how I feel

(instrumental)

F    G        Am
Love conquers all
Dm            C       G
This one will last a lifetime

F       G            Am
And if love conquers all
Dm            C        Bb
This one will last forever
Gm        D

Вверх

Mary Long

Intro: Gm

Gm Bb/G
Mary Long is a hypocrite
C/G Gm
She does all the things that she tells us not to do
Bb/G
Selling filth from a corner shop
C/G Gm
And knitting patterns to the high street queue
Bb/G
She paints roses, even makes them smell good
C/G Gm
And then she draws titties on the khazy wall
Bb/G
Drowns kittens just to get a thrill
C/G Gm
And writes sermons in the Sun-day Chronicle
Eb Bb F C Gm
How did you lose your virginity, Ma-ry Long ?
Bb F C7
When will you lose your stupidity, Mary Long ?

Mary told Johnny not to write such trash
Said it was a waste of public money
She made a fuss, they made apologies
But everybody thought the show was funny
When the nation knew you?d had children
It came as such a surprise
We really didn?t know you?d had it in you
How you did it we can only surmise

How did you lose your virginity, Mary Long ?
When will you lose your stupidity, Mary Long ?

Mary Long, you?re not alone
But you?re a long way behind our times
What we do in full frontal view
Is more honest than your clean-up mind
What I?m saying, Mary Long is
When you can spare a minute
Go find your friend the porny Lord
Dig your self a hole and jump in it

How did you lose your virginity, Mary Long ?
When will you lose your stupidity, Mary Long ?

Вверх

Maybe Im A Leo

E|-------------------------------------| 1 такт
B|-------------------------------------|
G|-------------------------------------|
D|------------0/3----------------4/5-3-|
A|5-5-3-0-3-5-----5--5-5-3-0-3-5-------|
E|-------------------------------------|

E|-----------------------------------| 2 такт
B|-----------------------------------|
G|-----------------------------------|
D|-----------------------------------|
A|------------3------------3-4-pause-|
E|5-5-3-0-3-5---5--5-5-3-0-----------|

NB – 3 и 4 такт начать со слабой доли!!!

E|-------------------------------------| 3 такт
B|-------------------------------------|
G|-------------------------------------|
D|-------------0/3----------------4/5-G|
A|-5-5-3-0-3-5-----5--5-5-3-0-3-5------|
E|-------------------------------------|

E|-----------------------------------| 4 такт
B|-----------------------------------|
G|-----------------------------------|
D|---------------------------5-------|
A|-------------3-------------3--5/6/-|
E|-5-5-3-0-3-5---5--5-5-3-0-----3/4/-|


Peeping round the door I got a big surprise
E|--------------------------------------------------|
B|--------------------------------------------------|
G|--------------------------------------------------|
D|/7--7--7--7--7--7--7--7--7--7--7--7--7--7--7--7--7|
A|/7--7--7--7--7--7--7--7--7--7--7--7--7--7--7--7--7|
E|/5--5--5--5--5--5--5--5--5--5--5--5--5--5--5--5--A|

E|------------------------------------|
B| -----------------------------------|
G| -----------------------------------|
D|-----------------------------5------|
A|5/7-5-3-0-3-5-----5/7-5-3-0--3--5/6-|
E|--------------3-5---------------3/4-|

Couldn’t see a thing but open skies
E| -----------------------------------|
B| -----------------------------------|
G|/7--7--7--7--7--7--7--7--7--7--7--7-|
D|/7--7--7--7--7--7--7--7--7--7--7--7-|
A|/5--5--5--5--5--5--5--5--5--5--5--5-|
E| -----------------------------------|

E|------------------------------------|
B|------------------------------------|
G|------------------------------------|
D|-----------------------------5------|
A|5/7-5-3-0-3-5-----5/7-5-3-0--3--5/6-|
E|--------------3-5---------------3/4-|

They’ve taken her away where is  she  now?
E|--------------------------------------------------------|
B|--------------------------------------------------------|
G|/9--9--9--9--9--9--9--9---7----5---4----------7-7---7-7-|
D|/9--9--9--9--9--9--9--9---7----5---4----7-----7-7---7-7-|
A|/7--7--7--7--7--7--7--7---5----3---2----7-----5-5---5-5-|
E|----------------------------------------5---------------|

Конец первого куплета.

Далее как сначала… потом идет «неподбираемое» соло, затем
Второй куплет – 1-2-3-4 такты + то же самое со следующими
словами:

Wish that she was here wish she’d hold my hand
Maybe she could laugh maybe understand
Why was I so cruel where is she now?

Третий куплет аналогично.

Acting like a fool had to make her cry
Maybe I’m a Leo but I ain’t a lion
I’m hurting oh so bad, I want her now.

Окончание: 1+2 такт – далее много-много раз 3+4.

Вверх

Pictures Of Home

  Intro.
E|-----------------------------------------------|-------------|
B|-----------------------------------------------|-------------|
G|--------------------7----------11-9-7-----7-12-|-------------|
D|----------4---7--9-----9-7-9~~--------9-7------|-------4-7-9-|
A|----5--7---------------------------------------|---5-7-------|
E|-7---------------------------------------------|-7-----------|

E|---------14-14-14-14-12-14-14-14-14-15p14p12-----------------|
B|---------------------------------------------15p14p12--------|
G|------------------------------------------------------14-----|
D|7--------------------------------------------------------14--|
A|--9-7-9~~--------------------------------------------------14|
E|-------------------------------------------------------------|

Verse.
E|--------------------------------------------------|----------|
B|--------------------------------------------------|----------|
G|--------------------------------------------------|----------|
D|--------------------------------------------------|----------|
A|-2-2-2-2-2-2-2-2-2-2-2-2-2-2-2-2-2-2-2-2-2-2-2-2-2|5-5-5-5-7-|
E|--------------------------------------------------|----------|

E|-------|-----------------------------------------------------|
B|-------|-----------------------------------------------------|
G|-------|-----------------------------------------------------|
D|-------|-----------------------------------------------------|
A|-7-7-7-|2-2-2-2-2-2-2-2-7-7-7-7-7-7-7-7-2-2-2-2-2-2-2-2-7-7-7|
E|-------|-----------------------------------------------------|

E|------------------------|------------------------------------|
B|------------------------|------------------------------------|
G|------------------------|------------------------------------|
D|------------------------|------------------------------------|
A|-7-7--7-7-7--2--2-2-2-2-|-3--5-------------------------------|
E|------------------------|-------3--2-3-2-2-2-3-2-2-2-3-2-2-2-|

Вверх

Rat Bat Blue

Проигрыш1 :
D|------------------------------------------------------
A|----7--7-5-----7--5----------5^7-----7--7-5-----7--5~-
E|-0----------0--------0----0-------0----------0--------

Проигрыш2 :
G|-------5-----------------------------
D|-----5-------------------------------
A|-5-7-----6-5-3-5-3-0-3-5-3-5-6-5-3-0-


Проигрыш1 - 6 раз

A                    C
Hey baby, what you gonna do
G                   A
When the lights go up on you?
Проигрыш2
A                          G
What?s your name, can I drive you home?
C             A
Sweet woman, are you all alone?
Проигрыш2
D
You?re the one for me
A
I?m gonna keep you busy as a bee, could bee, could be

Проигрыш2

D C A
Rat bat blue

Проигрыш1 - 4 раза


Now, get up woman, don?t be slow
It?s getting late and I wanna go
No cause for acting big
Got to love, got to live
Stick around with me
I?m gonna show you things you never thought you?d see, you see

Rat bat blue
You?re so fine
Rat bat blue

Этот проигрыш играется 12 раз (потом его просто не слышно:) :
A|----------3-------------------3----
E|-0--3--5-----5------3--5---------5-

Далее - великолепный соляк в исполнении Джона Лорда на
органе (подобрать его на аккустике(!) мне оказалось слабо:)

Проигрыш1 - 4 раза

Get out! You didn?t understand
I?m a hard loving man
No way you can satisfy
The way you look, the way you lie
And when you shut the door
Make sure I don?t see you ?round here no more, no more
Rat bat bat bat blue
Alright

Все аккорды, конечно, играются квинтами:

G   A   C   D
G|--- --- -5- -7-
D|-5- -7- -5- -7-
A|-5- -7- -3- -5-
E|-3- -5- --- ---

Вверх

Sail Away

Riff1:
|-----------------------------------------------------
|-----------------------------------------------------
|-----------------------------------------------------
|-----------------------------------------------------
|-----7--10--7-----7------5h7-----7--10--7-------5----
|--0------------0-----5h7------0------------5h7-----3-

end riff1
|-----------------------------------------------------------
|-----------------------------------------------------------
|-----------------------------------------------------------
|--------------------------------------------7b8r7-5---------
|-----7--10--7-----7-------5h7-----7--10--7---------------5--
|--0------------0-----5h7-------0----------------------7-----

riff2:
|-----------------------------------------------------
|-----------------------------------------------------
|-----------------------------------------------------
|-----------------------------------------------------
|-----7--10--7-----7------5h7-----7--10--7-------5----
|--0------------0-----5h7------0------------5h7-----3-

end riff2
|--------------------------------------------------------
|--------------------------------------------------------
|--------------------------------------------------------
|--------------------------------------------------------
|-----7--10--7-----7-------5h7-----7--10--7--------------
|--0------------0-----5h7-------0-------------7--5---3---

Intro:
riff1
riff2

Verse1:
4x riff2:
If youre driftin on an empty ocean
with no wind to fill your sail,
the future, your horizon,
its like searchin for the Holy Grain.
You feel theres no tomorrow
as you look into the water below
Its only your reflection
and you still aint got no place to go.

Chorus:
riff3:
|-----------------------------------------------------------
|-----------------------------------------------------------
|---4-----------2-------------------4--------2--------------
|---4-----------2----------5--------4--------2---------5----
|---2-----------0----------5--------2--------0---------5----
|--------------------------3---------------------------3----
Time    -   will   -   show     When,  I dont     know

riff4:
|-----------------------------------------------------
|-----------------------------------------------------
|-----------------------------------------------------
|--------7---------7----------------------------------
|-----7---------7---------7--10--7--------------------
|--5---------5---------0------------5--7--5--3--0-----

riff5:
|----------------------------------
|----------------------------------
|----------------------------------
|-------------2-------4------------
|---5---------0-------2------------
|---3------------------------------

3x Riff4:
Sail away tomorrow,
sailin far away
To find it steal or borrow
riff5:
Ill be there someday yea-yea-yeah yea-yea-yeah.

riff1

Verse2:
4x riff2:
Oh, woman, I keep running
to sing the same old song
The storys been told, now Im gettin old.
Tell me ,where do I belong?
Feel like Im goin to surrender,
Hard times Ive had enough.
If I could find a place to hide my face,
I believe, I could get back up.

Chorus:
riff3:
Time will show,
when, I dont know.
3x Riff4:
Sail away tomorrow,
sailin far away
To find it steal or borrow
riff5:
Ill be there someday yea-yea-yeah yea-yea-yeah.
solo
2x chorus:
riff3:
Time will show,
when, I dont know.
3x Riff4:
Sail away tomorrow,
sailin far away
To find it steal or borrow
riff5:
Ill be there someday yea-yea-yeah yea-yea-yeah.

riff 2 till end.

Вверх

Sail Away (2 вариант)

Вступление:
D|-------5----------------------------5----------------|
A|----7-----7------7-------5^7-----7-----7--------5----|
E|-0------------0-----5^7-------0------------5^7-----3-|

D|-------5----------------------------5-----7^8^7--5-------|
A|----7-----7------7-------5^7-----7-----7------------5--7-|
E|-0------------0-----5^7-------0--------------------------|

Основная тема:
D|-------5----------------------------5----------------|
A|----7-----7------7-------5^7-----7-----7--------5----|
E|-0------------0-----5^7-------0------------5^7-----3-|

D|-------5----------------------------5----------------|
A|----7-----7------7-------5^7-----7-----7-------------|
E|-0------------0-----5^7-------0------------5^7--5--3-|

If you?re driftin? on an empty ocean
With no wind to fill your sail,
Еhe future, your horizon,
It?s like searchin? for the Holy Grail.
You feel there?s no tomorrow
As you look into the water below.
It?s only your reflection
And you still ain?t got no place to go.

H    A     G
Time will show,
H   A         G
When, I don?t know.

Припев:
A           E
Sail away tomorrow,
A            E
Sailin? far away.
A                E
To find it steal or borrow.
G         A        H
I?ll be there someday yea-yea-yeah yea-ye-yeah.

Oh, woman, I keep returnin?
to sing the same old song.
The story?s been told, now I?m gettin? old.
Tell me, where do I belong?
Feel like I?m goin? to surrender,
Hard times I?ve had enough.
If I could find a place to hide my face,
I believe, I could get back up.

Time will show, when,
I don?t know.

Припев - 3 раза

Аккорды играть квинтами:
E   G   A   H
D|-2- -5- -7- -9-
A|-2- -5- -7- -9-
E|-0- -3- -5- -7-

Вверх

Smoke On The Water
mp3

Riff A                                                       -----------------
|     1-5        |
Q   Q   Q    E  E  ER E ER E   Q   Q     Q   Q   Q   E  E   ER Q.-Q      Q
|-------------------|-------------------|--------------------|----------------|
|--------------*----|----------------*--|--------------*-----|-------------*--|
:--------------X----|----------------X--|--------------X-----|-------------X--:
:-5---8---10------5-|---8---11--10------|--5---8---10-----8--|---5------------:
|-5---8---10------5-|---8---11--10------|--5---8---10-----8--|---5------------|
|-------------------|-------------------|--------------------|---3------------|
>.  >.  >       >.    >.  >.  >          >.  >.  >      >.     >
(* Hit pick ups with palm of right hand)


-------------------    1st Verse
| 6. Rh. Fill 1  (We  all came out to........)
ER  Q.-Q       Q      E  E  Q    E  E  Q                 E  E  Q   E  E  Q
|-------------------|-----------------------|----------|----------------------|
|-------------------|-----------------------|----------|----------------------|
|-------------------|-----------------------|-----%----|----------------------|
|----5--------------|--------5----------5---|-----%----|--------5---------3---|
|----5----------10-|-----5----------5------|----------|-----5---------3------|
|----3--------------|--3----------3---------|----------|--3---------1---------|
>        >              .          .                       .         .

(line                   to ...  mo - bile,_____                     we didnt)
E  E  Q    E  E  Q              E  E  Q    E  E  Q      E  E  Q   E  E  Q
|-----------------------|-------|-----------------------|---------------------|
|-----------------------|-------|-----------------------|---------------------|
|-----------------------|---%---|------------------(3)--|---------------------|
|--------5----------5---|---%---|--------5----------5---|--------5---------3--|
|-----5----------5------|-------|-----5----------5------|-----5------3--3-----|
|--3----------3---------|-------|--3----------3---------|--3---------1--------|
.          .                    .          >.                     .

(have much time       But Frank.....     Mothers.....        at the best....)
Q  Q  E   Q  Q  E   Q  Q  E   Q  Q  E    Q  Q  E   Q  Q  E   Q  Q  E  Q  Q  E
-------------------|--------------------|-------------------|-----------------|
-------------------|--------------------|-------------------|-----------------|
-------------------|--------------------|-------------------|-----------------|
-------5---------5-|-------5---------5--|-------------------|-------5--3------|
----5------5--5----|----5------5--5-----|-5--5--5---5--5--5-|-5--5--------3---|
-3---------3-------|-3---------3--3-----|-3--3--3---3--3--3-|-3--------------1|
.         .         .         .          .         .         .        .

(   But some .......  flare  gun         burned...........)
Q  Q  E   Q  Q  E   Q  Q  E   Q  Q  E    Q  Q  E   Q  Q  E   Q  Q  E  Q  Q  E
-------------------|--------------------|-------------------|-----------------|
-------------------|--------------------|-------------------|-----------------|
-------------------|--------------------|-------------------|-----------------|
-------5-----------|-------5---------5--|-5---------------5-|-------5--------3|
-5--5------5--5--5-|----5---------5-----|-5--5---------5----|----5--------3---|
-3---------3-----3-|-3---------3--------|-------3---3-------|-3--------1------|
.         .         .         .          .         .         .        .

_______________________
end Rhy Fig 1 |
Q  Q  g E   Q  Q  E
----------------------||
----------------------||
----------------------||
-------3h5---------5--||
-5--5-----------5-----||
-3-----------3--------||
.         .

Chorus
(Smoke   on..  wa  --   ter     a fire..         Smoke     on.. wa  --  ter--)
_______________________________________________________________________________
|  Riff B.                                                                    |
Q   Q   H      Q   Q   H     Q   H.-----W        Q   Q   H      Q   Q   Q.  E
--------------|--------------|---------|--------|--------------|--------------|
--------------|--------------|---------|--------|--------------|--------------|
---------5----|--------------|---------|--------|---------5----|--------------|
-----5--------|---------6----|---------|--------|-----5--------|---------6---X|
-3------------|-----6--------|-----5---|-(5)----|-3------------|-----6--------|
--------------|-4------------|-3-------|--------|--------------|-4------------|
>              >              >                  >       >      >       >
let ring----------------------------------------------------------------------|


Riff A

Riff A, 1st 3 bars + Rhy Fill 1

------------------------------------------------------------------------------

2nd Verse
Rhy. Fig 1

------------------------------------------------------------------------------
Chorus
Riff B

Riff A

Riff A, 1st 3 bars + Rhy Fill 1
-------------------------------------------------------------------------------
Solo  (With 2nd guitar playing 16 bars similar to Rhy Fig 1)

RH      Q   Q
|----------------|
|----------------|  (Played over last bar, Rhy Fill 1)
|----------------|  (Played with neck pickup)
|---------12--15-|  (2nd guitar comes in after this bar)
|----------------|
|----------------|

H------S S RE E    E   E   Q.        E   E E  E    E  E  E  E-----Q  E  E
|-------------------------|--------------------------|-------------------------|
|----------------13gfr(13)p11q-----------11t-X-X-----|----12-15-15f~~~~~-15-14-|
|--12~~~~~~~-X------------|----12wwwwwwww----X-X--12-|-15----------------------|
|-------------------------|--------------------------|-------------------------|
|-------------------------|--------------------------|-------------------------|
|-------------------------|--------------------------|-------------------------|

3
E   E  [S  S  S] E   E  E  E  E    E   E   E  E---Q         E   E
|---------------------------------|---------------------------------|
|---------------------------------|-------------------------------8-|
|-12-14--12h14p1210--12-10--8-10-|-10-10gf10gh10gf(10)~~~~~--X-----|
|---------------------------------|---------------------------X-----|
|---------------------------------|---------------------------------|
|---------------------------------|---------------------------------|

E   E   E   E------E   E   E   E    S S S S   S S   S  S S  S  S S S S S S
|----------------~~~~~~~--8---------|------8-----------------------------------
|-11--11gf11--11gf--------11--8--11-|----8---11-10-8---------------------------
|-----------------------------------|-10f-------------11-10p8----10-8-7p5------
|-----------------------------------|-------------------------10----------8-7--
|-----------------------------------|------------------------------------------
|-----------------------------------|------------------------------------------




E  E  E  E  E  E  E  E    E-S-S-E     E  E  E  E   E  E  E  E--S-E--S-E
|-------------------------|------------------------|-----------------/-----|
|-------------------------|------------------------|----------------/------|
|----------5-----8--7--5--|-3fr-(3)~~~~-5--3--2--3-|-2--3--2--0-----(0)-----|
|-5--8--7-----8-----------|------------------------|------------------------|
|-------------------------|------------------------|------------------------|
|-------------------------|------------------------|------------------------|
.  .  .  .  .  .  .  .     >          .  .  .  .   .  .  .  > (drop pitch
2.5 steps with
trem and return
to pitch)

behind              Gradual                   Gradual
beat--|       3      Bend                      Bend
S S S S S S S S S S S S S S E  [Q   Q   Q]  Q    E  E   E  E  E  E  E  Q--E
|-----3h--3-3-------------------|-----------------------|-3--------3--6--8f---|
|---3---6h----6-5p3-------------|------------------3--6-|----3--6-------------|
|-5f----------------6p5-3---5-3-|-5f--5f--5f--5f--------|---------------------|
|-------------------------5-----|-----------------------|---------------------|
|-------------------------------|-----------------------|---------------------|
|-------------------------------|-----------------------|---------------------|
> . .   . . .               .                    .  .   .  .  .  .  .


E  E  E  E  Q.         E   E   S S S  S  S S S E  E    E  E  RE  E-Q.    E---
|-8h-8--6--8---------------|---------8-------8---8--10-|-11-13-----13f~~~~13--|
|-------------8~~~~~~~~--8-|-11----8---11--8---11------|----------------------|
|--------------------------|----10h--------------------|----------------------|
|--------------------------|---------------------------|----------------------|
|--------------------------|---------------------------|----------------------|
|--------------------------|---------------------------|----------------------|

--E   E   E  E  Q   RE  E    E  E  E  E  Q.     ER   E  E  S-S E   E  E  Q
|(13)f13-13f13-13fwwww-13-|13gf13-10---------------|-----------------------|
|-------------------------|----------13-13f~~~~~~~-|----6------------------|
|-------------------------|------------------------|-5f----5ghr3q--5--3h---|
|-------------------------|------------------------|---------------------5-|
|-------------------------|------------------------|-----------------------|
|-------------------------|------------------------|-----------------------|
^   ^      ^
Half Ghost bend   Quarter Half
and release       bend    bend


Bridge pickup, guitar 2 plays Riff A
E  E  E  E  H------E  E  E  E   E  E  E  [Q  Q  Q] E RS S RE E--
|-----8--6--8--8----|(8)f8--8--8h-f8--8--8-|-8--8--8--8----8q-----|
|-/8----------------|----------------------|--------------------6-|
|-------------------|----------------------|----------------------|
|-------------------|----------------------|----------------------|
|-------------------|----------------------|----------------------|
|-------------------|----------------------|----------------------|
Grad bend        1/2 Release               Release bend to
bend, and re-bend         quarter


--E-----E------H------------H            RH
|------------------------|-----------------------------|
|(6)---(6)f---(6)~~~~~~~~|~(6)~~~~~~~~~~~--------------|
|------------------------|-----------------------------|
|------------------------|-----------------------------|
|------------------------|-----------------------------|
|------------------------|-----------------------------|


Riff A - first 3 bars
Rhy. Fill 1

------------------------------------------------------------------------------
Verse 3

Rhy Fig 1. - first 12 bars

Palm Mute-------------------------------------------------------
E   E   E   E   E   E   E   E   E   E   E   E   E   E   E   E
|-------------------------------|-------------------------------|
|-------------------------------|-------------------------------|
|-------------------------------|-------------------------------|
|---------5---------------5-----|---------5---------------5-----|
|-----5-------x-------5-------5-|-----5-------5-------5-------5-|
|-3---------------3-------------|-3---------------3-------------|



Palm Mute-------------------------------------------------------
E   E   E   E   E   E   E   E   E   E   E   E   E   E   E   E
|-------------------------------|-------------------------------|
|-------------------------------|-------------------------------|
|-------------------------------|-------------------------------|
|---------5---------------3-----|---------5---------------5-----|
|-----5-------5-------3-------3-|-----5-------5-------5---------|
|-3---------------1-------------|-3---------------3-----------3-|

-------------------------------------------------------------------------------

Chorus (Variation:)

Let ring throughtout:

Q    Q    H         Q    Q    H         Q    E   E-H--------W
|-------------------|-------------------|-------------------|-----------------|
|-------------------|-------------------|-------------------|-----------------|
|-----------5-------|-------------------|-------------------|-----------------|
|------5------------|-----------6-------|-------------------|-----------------|
|-3-----------------|------6------------|----------5--------|(5)--------------|
|-------------------|-4-----------------|-3----3------------|-----------------|


Q    Q    H         Q    Q    H
|-------------------|-------------------|
|-------------------|-------------------|
|-----------5-------|-------------------|
|------5------------|-----------6-------|
|-3-----------------|------6------------|
|-------------------|-4-----------------|

Riff A - four times


-------------------------------------------------------------------------------
Outro - Organ Solo

E  E  E  E  H                    E  E  E  E-Q    E  E
|-------------------|------------|-----------------------|
|-------------------|------------|-----------------------|
|-------3-----------|------%-----|-3---------------------|
|-3--5--3--3--5-----|------%-----|-3--5--3--5------3-----|
|-3--5-----3--5-----|------------|----5--3--5------3--5--|
|-------------------|------------|-----------------------|


E  E  E  E-Q    E  E   E  E  E  E-Q    E  E   E  E  E  E-Q   E  E
|----------------------|----------------------|----------------------|
|----------------------|----------------------|----------------------|
|-3--------------------|-3--------------------|-3h-5-----------------|
|-3--5--3--5------3--5-|-3--5--3--5------3--5-|-3h-5--3--5-----3-----|
|----5--3--5------3--5-|----5--3--5------3--5-|-------3--5-----3--5--|
|----------------------|----------------------|----------------------|
Begin to fade.......


E  E  E  E RE  E RE  E   RE  E RE  E RE  E  E  E   Q    Q    Q    E  E
|------------------------|-------------------------|---------------------|
|------------------------|-------------------------|---------------------|
|-3----------------------|-------------------------|---------------------|
|-3--5--3--5-----5-----5-|-----5-----5-----5--3--4-|-5----5----5----5--5-|
|----5--3--5-----5-----5-|-----5-----5-----5--3--4-|-5----5----5----5--5-|
|------------------------|-------------------------|---------------------|


RE  E RE  E RE  E RE  E   E  E  E  E RE  E RE  E   RE  E RE  E RE  E RE  E
|-------------------------|------------------------|-------------------------|
|-------------------------|------------------------|-------------------------|
|-------------------------|-3----------------------|-------------------------|
|-----5-----5-----5-----5-|-3--5--3--5-----5-----5-|-----5-----5-----5-----5-|
|-----5-----5-----5-----5-|----5--3--5-----5-----5-|-----5-----5-----5-----5-|
|-------------------------|------------------------|-------------------------|

Вверх

Soldier Of Fortune

Intro: Gm / F / Eb

Gm
I have often told you stories

I have often told you stories
F
about the way
Gm
I lived the life of a drifter
Dm
waiting for the day
Gm
When Id take your hand and sing you songs
F
Then maybe you would say
Gm
Come lay with me and love me
Dm                      Bass D-C-Bb
And I would surely stay

Bb       C                Gm   Bass G-F-Eb
But I feel Im growing older
F                Bb
And the songs that I have sung
D            Gm
Echo in the distance
F
Like the sound
Bb              Eb  Bass Eb-D
Of a windmill going round
Cm                Dm
Guess Ill always be
Gm
A soldier of fortune.

Solo:  Gm / C / Gm / C /
Gm / Bb / C / Gm

Many times Ive been a traveller
I looked for something new
In days of old when nights were cold
I wandered without you
But those days I thought my eyes
Had seen you standing near
Though blindness is confusing
It shows that youre not here.

Now I feel Im going older
And the songs that I have sung
Echo in the distance
Like the sound
Of a windmill going round
Guess Ill always be
A soldier of fortune

Eb             F
Yes, I can hear the sound
Bb           Eb Bass Eb-D
of a windmill going round
Cm               Dm
I guess Ill always be
Gm
a soldier of fortune.
Eb         F
I guess Ill always be
G  (major chord)
a soldier of foRtune.

Перевод:

Я рассказывал не раз жизнь свою тебе
Что бродягою провел в ожиданье дня
Когда руку ты свою в руку вложишь мне
Я останусь и ты скажешь – люби меня.

Припев:
Время густо сеет старость
И те песни, что писал,
Те, что стали эхом среди скал,
На «вертушку» променял:
Я солдат удачи – им останусь.

Жажда странствия звала, и я жил в ее плену
Были дни длинны и холодны, взгляд сквозь пелену
И я открыл глаза, увидел, что ты есть
Но слепота сказала: «Все ложь – ее нет здесь».

Слышу в небе звук
То «вертушка» чертит
Я солдат удачи
Им останусь.
Я солдат удачи
Им останусь.

Вверх

Solitaire

      INTRO

N.C

----------------I----------------I
----(both guitars)---------------I
----------------I----------------I
5-----3-----1---I3-----1-----0---I
----------------I----------------I
----------------I----------------I

Gm                                                 Eb/G ???
guitar 1 (rhy.fig.B)

I----------------I----------------I----------------I----------------I
I----------------I----------------I----------------I----------------I
I.-----3-2-------I----------------IZ-----3-2-------I---------------.I
I.-----------5---I----------------I------------5---I---------------.I
I----------------I5---------------I----------------I6---------------I
I----------------I----------------I----------------I----------------I

I                                                                   I
I                        guitar 2 (rhy.fig.A)                       I

I----------------I-------(muted throughout)--------I----------------I
I----------------I----------------I----------------I-----??????-----I
I.---------------I----------------I----------------I---------------.I
I.---5-z-----5-z-I----5-z-----5---I----5-Z-----5-z-I----5-z-----5-z.I
I--5-------5-----I--5-------5-----I--5-------5-----I--6-------6-----I
I3---------------I3---------------I3---------------I3---------------I


VERSE
Gm (w/rhy.fig.A)                 Eb/G
I               I                 I                I               I
Door            dont close the door                I want to feel the

Gm (w/1st half of rhy.fig.A)       F
I               I                 I                I                 I

cold            I want to see  the light

Gm (w/rhy.fig.A & B)
I               I                 I                I                 I

Mama                     where you gone                    this is no

Gm (1/2*fig.A & fill 1)            F
I               I                 I                I                 I

dream               Cant make it right if its wrong

PRECHORUS

Dm               Eb5   C5         Dm                Eb5   C5
I               I                 I                I                 I

Youre dancing with strangers        Youre fighting with friends



CHORUS

Gm          F    Bb    C          Gm          F    Eb      F

----------------I----------------I----------------I----------------I
----------------I----------------I----------------I----------------I
12----1212--10--I----------------I12----1212--10--I8-10--12-10-----I
12----1212--10--I8-----1010------I12----1212--10--I----------------I
10----1010--8---I8-----1010------I10----1010--8---I6-8---10-8------I
----------------I6-----8-8-------I----------------I----------------I

Its a matter of time           between love and despair

Gm          F    Bb    C          Eb               F

----------------I----------------I----------------I----------------I
----------------I----------------I----------------I----------------I
12----1212--10--I----------------I----------------I----------------I
12----1212--10--I8-----1010------I----------------I----------------I
10----1010--8---I8-----1010------I1---------------I3---1-0---------I
----------------I6-----8-8-------I----------------I----------------I


Falling over the line    Empty  hearts and icy stares

Eb      F/C ??   Gm               F                Gm

----------------I-(half time)----I----------------I----------------I
----------------I----------------I----------------I----------------I
8-------2-???---I----------------I----------------I----------------I
8-------3-???---I5---------------I3---------------I5---------------I
6-------0-???---I5---------------I3---------------I5---------------I
----------------I3---------------I1---------------I3---------------I


Oh      call me  solitaire               Oh-oh-o-o-oh

N.C

----------------I----------------I
----------------I----------------I
----(both guitars)---------------I
----------------I----------------I
5-----3-----1---I3-----1-----0---I
----------------I----------------I

VERSE 2:

The eyes / In the face on the wall / Follow me round the room /Follow
me everywhere

A heart / Without an echo / A man without a child / Alone with my
sorrow


PRECHORUS
CHORUS

ORGAN SOLO

Dm               Eb    F     Gm  (1.Dm             Bb     C        )

----------------I----------------I----------------I----------------I
----------------I----------------I----------------I----------------I
.7-----7-7-------I8-----10----12--I7-----7-7-------I3------5-------.I
.7-----7-7-------I8-----10----12--I7-----7-7-------I3------5-------.I
5-----5-5-------I6-----8-----10--I5-----5-5-------I1------3--------I
----------------I----------------I----------------I----------------I


2.Dm               Eb  C            Dm  Bb

----------------I----------------I----------------I
----------------I----------------I----------------I
7---------------Iz-8-8-5-5-------Iz-7-7-3-3-------I
7---------------Iz-8-8-5-5-------Iz-7-7-3-3-------I
5---------------Iz-6-6-3-3-------Iz-5-5-1-1-------I
----------------I----------------I----------------I

CHORUS

****************************

Fill 1

Gm                                F

----------------I----------------I-------------P--I----------------I
----------------I----------------I----------------I----------------I
------3-2-------I7---------8---7-I5-----------20--I----------------I
------------5---I----------------I--------------3-I----------------I
----------------I----------------I----------------I----------------I
----------------I----------------I----------------I----------------I


Fill 2

(F)              (Gm)
----------------I----------------I
----------------I----------------I
--------2-3-2---I----------------I
--------------3-I5---------------I
----------------I----------------I
----------------I----------------I

Вверх

Space Truckin

   G5 A5 D5 C5 A5 C5 D5 G5 A5
D|-------7--5-----5--7-------|
A|-5--7--5--3--7--3--5--5--7-|
E|-3--5--------5--------3--5-|

VERSE
D|-------2--4--2--4--2--4--2--4-|
A|-5--7--0--0--0--0--0--0--0--0-|
E|-3--5-------------------------|

D|-5--7--7--9-------------------------|
A|-3--3--5--5--7--9--7--9--7--9--7--9-|
E|-------------5--5--5--5--5--5--5--5-|

D|-------------5--7--7--9-------------|
A|-7--9--7--9--3--3--5--5--7--9--7--9-|
E|-5--5--5--5--------------5--5--5--5-|

D|-7--9--7--9--------------7--9--7--9-|
A|-5--5--5--5--7--9--7--9--5--5--5--5-|
E|-------------5--5--5--5-------------|
(VERSE 1)
Well, we had a lot of luck on Ve - nus,
we al - ways have a ball on Mars.--- With meet-ing all the
groov-y peo- ple we?ve rocked the Milk-y Way so far
We danced a-round with bo -----re --------al--------is,
we?re space truck-in? round the stars.-

(VERSE 2)
Re-mem-ber- when we did the moon-shot and
Po-ny Trek-ker led the way?--- We?d move to the Ca-nav -?ral
moon
---stomp and ev-?ry ?naut would dance and sway.--- Got
mu-sic in our so ------lar--------sys----tem, we?re space
truck-in? round the stars.--

CHORUS
E (chord) let ring Chorus (A)

Come on! Come on!
Come on! Come on!
Come on! Come on!
Let?s go space truckin?- Come on!

Come on! Come on!
Come on! Come on!
Come on! Come on!
? Re- Space truck-in?

E Chord to Key of A

E|------------------------------------|
B|------------------------------------|
G|-9----------------------------------|
D|-9-----2--1--0--------------2--1--0-|
A|-7--0-----------3--2--1--0----------|
E|-0----------------------------------|

D|-------------2--1--0--------------2--1--0-------------|
A|-3--2--1--0-----------3--2--1--0-----------3--2--1--0-|
E|------------------------------------------------------|

D|-2--1--0-------------------------------------------|
A|----------3--2--0-----2--1--0--------------2--1--0-|
E|-------------------0-----------3--2--1--0----------|

D|------------------------------------------------------------|
A|---2-1-0--------------2--1--0--------------2--1--0----------|
E|-0--------3--2--1--0-----------3--2--1--0-----------3--2--1-|

E|---------------------------------------------------|
B|-------------------------------------------------5-|
G|-------------------------------------------------5-|
D|-------------------------------------------------5-|
A|---------------------------------------------------|
E|-0--1--2--3--0--1--2--3--xxxxxxxxxxxxxxxxxxxxxxxx--|
(Bridge)
G5 A5 D5 C5
A5 C5 D5 G5 A5
G5 A5 D5 C5 A5 C5 D5 G5 A5
G5 A5 D5 C5 A5 D5 G5 A5
G5 A5 D5 C5 A5 C5 D5 E5(let ring)
(Bridge Verse)
The fire-ball that we rode was mov-
--ing but now we?ve got a new ma-chine
Yeah, yeah,-----yeah,-------yeah! The freaks said,
"Man those cats can real-ly swing."

They got mu---sic in their so------lar sys-------tem
--they?ve rocked a -round the Milk-y Way---ay-ay
They danced a-round with bo-re-al-is,
they?re space truck-in? ev-?ry day.

E|-------------------------------------------------------------|
B|---------------5-------------------------------------------5-|
G|---------------5-------------------------------------------5-|
D|---------------5-------------------------------------------5-|
A|-------------------------------------------------------------|
E|-xxxxxxxxxxxxxxxxxxx--xxxxxxxxxxxxxxxxxxxxxxxxxxxxxxxxxxxx---|

(Repeat Chorus)
Guitar Solo
/ - slide
> - bend
F - Full bend
) - Half-step bend
H-Hammer
P- Pull Off
A5
E|---------------------------------5------------------------|
B|------------------------8F>--8F>---8--5-------------------|
G|-----5F>-----------5F>-------------------8--7--5-----7--5-|
D|-/7-------7--5--7---------------------------------7-------|
A|----------------------------------------------------------|
E|----------------------------------------------------------|

E|--------------------5------5------5------5-------5-----------|
B|--------------------5-3/5-----3/5----3/5----3/5-----8--7---5-|
G|----------5F>----------------------------------------x---x---|
D|-7--5--7------7/---------------------------------------------|
A|------------------0------------------------------------------|
E|-------------------------------------------------------------|

E|----------------------------5--------------------------------|
B|-----------------------8F>-----8--5--------------------------|
G|-7----5>(-----5F>--------------------8--H-7-5-P--5-----5-----|
D|---x-------7-------7/-------------------------------7-----7/-|
A|-------------------------------------------------------------|
E|-------------------------------------------------------------|
Drum Solo

pick slide(steady gliss)
E|----------------------------------------------|
B|----------------------------------------------|
G|-4--5--6--7---------8--9--3--4--5--6--7--8--9-|
D|-2--3--4--5---------6--7----------------------|
A|----------------------------------------------|
E|----------------------------------------------|

E|--------------------------------------|
B|--------------------------------------|
G|-10--11--12--13--14--15--16--17--18-/-|
D|--------------------------------------|
A|--------------------------------------|
E|--------------------------------------|
Repeat chorus
Repeat and fade

Вверх

The Battle Rages On

INTRO

Dm (strings)                              Bb/D      fill (dr)
E|-------------|----------------|----------------|-------------|
B|-------------|----------------|----------------|-------------|
G|-------------|----------------|----------------|-------------|
D|-------------|----------------|----------------|-------------|
A|1p0-0--------|1p0-0-----------|1p0-------------|1p0-0--------|
D|---3--1p0----|---3-1p0--------|-----1p0--------|---3--0=====-|

MAIN RIFF

Dm                                (Kbd appears)

E|--------------------------------|---------------------------|
B|--------------------------------|---------------------------|
G|--------------------------------|---------------------------|
D|----------------------3p0=------|----------------------3p0=-|
A|1p0---0-----1p0-3p0-----------0)|1p0---0-----1p0-3p0--------|
D|----3---1p0---------3------(3---|----3---1p0---------3------|
?????

E|--------------------------------|----------------------------|
B|--------------------------------|----------------------------|
G|--------------------------------|------------------------2=5-|
D|----------------------3p0=------|3p0-0-2p0-0-3p0-0-5p0-0-----|
A|1p0---0-----1p0-3p0--------(0h3)|----------------------------|
D|----3---1p0---------3-----------|----------------------------|
?????
Repeat the main riff (throughout with kbd)

1st VERSE

Dm                    C(from here on organ only)
Been so many words so much to say
Dm                     F         Gm
Words are not enough to keep the guns at bay

Main riff (with gtr)

2nd verse

Dm               C   Gtr fill #1
Some live in fear some do not
Dm                        F            Gm
some gamble everything on who gets the final shot

The first half of the main riff

SECOND RIFF (using D min harmonic scale)

A                                                      Bb
Oh dontt talk to me of love                      Its obvious

E|----------------|---------------|----------------|-----------|
B|----------------|---------------|----------------|-----------|
G|---67-6---------|--67-6---------|---67-6---------|---67-6----|
D|-78--8-7857-5--5|78--8-7857-5757|-78--8-7857-5--5|-78--8-78==|
A|-----------8-78-|----------8----|-----------8-78-|-----------|
D|----------------|---------------|----------------|-----------|

C/E         Dm          Bb/D       Dm        Bb C
its not enough   Annihilation   Kill them all
E|-----------|10====-----10=====---|10=====6===8====|
B|-----------|10====-----11=====---|10=====6===8====|
G|10=========|10====-----10=====---|10=====7===9====|
D|10=========|12====-----12=====---|12=====8===10===|
A|-----------|---------------------|----------------|
D|-----------|---------------------|----------------|

Dm     Bb/D       C         Bb  C     Dm      Bb/D
Capitulation    watch the mighty fall The road to glory
E|10====10========|12--------6===8===|10=======10=====|
B|10====11========|13--------6===8===|10=======11=====|
G|10====10========|12--------7===9===|10=======10=====|
D|10====10========|14--------8===10==|12=======12=====|
A|----------------|------------------|----------------|
D|----------------|------------------|----------------|

Dm          Bb  C Dm        C     Bb       G
is lined in red   And thoug the   gone
reason now is
E|-10=======6==8===|10=====8===--|-6===|-3=|
B|-10=======6==8===|10=====8===--|-6===|-3=|
G|-10=======7==9===|10=====9===--|-7-==|-4=|
D|-12=======8==10==|12=====10==--|-8===|-5=|
A|-----------------|-------------|-----|---|
D|-----------------|-------------|-----|---|

Gm
The battle rages on
E|-3=|
B|-3=|
G|-3=|  main riff
D|-5=|
A|---|
D|---|

3rd verse (guitar murders the chords)

Dm (gtr D5)         C(5)
Was it love or hate that got here first
Dm (D5)        F(5)         Gm(G5)
Hates a habit its hard to shake the curse

The first half of the main riff

4th verse (now melody chords with fills)

Dm               C
Kill to live and live to die
Dm          F            Gm
Human nature you let the strong survive

1/2 of the usual riff...

2nd riff and top 4 string chords as above

A
Oh dont talk to me of love
Bb     C/E         Dm
Be serious its not enough
Bb/D   Dm        C Bb
Annihilation kill them all
Dm            C          Bb C  Dm
Capitulation watch the mighty fall
Bb/D  Dm          Bb C
The road to glory is lined in red
Dm             C             Bb   G Gm
And though the reason now is gone

The battle rages on

Guitar solo
(organ plays chords)

IE5   I     I     I     I

IH5   IG5   IH5   IA5 H5I

Guitar & org power chords:
(D bass throughout)
D   F   G   Bb  C   Eb  F    G (fill)
E|---|---|---|---|---|---|----|--------|
B|---|---|---|---|---|---|----|--------|
G|---|---|---|-1-|-3-|-6-|-8--|----12==|
D|-0-|-3-|-5-|-3-|-5-|-8-|-10-|--------|
A|-0-|-3-|-5-|-3-|-5-|-8-|-10-|9/10----|
D|-0-|-3-|-5-|---|---|---|----|--------|

E|-----|
B|-----|
G|-12--|
D|-12--|
A|-10--|
D|-----|

(!=basic beat X=strum D=lh damped strum W=less powerful strum)
(transcribed approximately especially this strumming part)

Second riff twice:
1st time kbd-gtr-kbd-gtr
2nd time unisono + chainsaw fills from 2nd gtr

Annihilation as played earlier with gtr licks in 10th position

THE END

D (bass)
(org chord progressions)
Gtr riff n+1 times
E|--------------|--------------|---------------|---------------|
B|--------------|--------------|---------------|---------------|
G|--------------|--------------|---------------|---------------|
D|--------------|--------------|---------------|---------------|
A|1p0-0---------|1p0-0---------|1p0--0---------|1p0-0----------|
D|---3-1p0--0-0-|---3-1p0--0-0-|----3-1p0--0-0-|---3--0--0-0---|

the last bar of the main riff x 3 times
ending the last time in high D (7th fret on B-stiring)

the first bar of the main riff
and thats the song
*********
Gtr fill #1

some  do not
E|-----------|
B|-----------|
G|-(7)^9r7=5=|
D|-----------|
A|-----------|
D|-----------|

Вверх

Time To Kill

E|--------|
B|--------|
G|-7~~~---|
D|-7~~~---|
A|--------|
E|--------|

Riff 1 (Main)

(P = palm mute briefly before changing chord)
( x = left hand mute and strike strings)

note: 9-P means play 9th position, hold and then mute
9P mean play 9th position and then mute

E|------------------------------------------|
B|------------------------------------------|
G|-xx-9P-7-P-xx-7P-6-P-xx-6P-4-P-xx-7P-6-P--|
D|-xx-9P-7-P-xx-7P-7-P-xx-7P-4-P-xx-7P-7-P--|
A|------------------------------------------|
E|------------------------------------------|

(play riff 1 * 4) + through chorus

Consider your position position your defense
Why dont you let me ask you is it coincidence
Feeding speculators on a downhill gravy train
Like vultures ripping out the eyes to reach the dying brain

Listen to the wind - a silent scream

(fill 1)

E|--------------------------------|
B|-10~-9~-7~-9~-10~-9~-7~-9~-7~---|
G|--------------------------------|
D|--------------------------------|
A|--------------------------------|
E|--------------------------------|

Tearing at your broken heart
Like a forgotten dream

And theres a time for peace a time for war
Wondering what weve been put here for
A time for giving a time to take
A time for love and a time for hate
A time to beg and a time to steal
So you gamble on that spinning wheel
Of all these things Ive had my fill
Lord I need some time to kill

Ten percent of nothing is exactly what you got
You think youve got the given right to take another shot
Ill take away your money all youve got is coloured beads
Find a piece of land where you can sow your seeds

Listen to the wind - a silent scream

(fill 1)

Tearing at your broken heart
Like a forgotten dream

Theres a time for passion a time for pain
A time to learn that were all the same
A time to remember a time to forget
Wondering how were going to pay our debts
A time for thunder a time for rain
Waiting for the seasons to change
Of all these things Ive had my fill
Lord I need some time to kill

repeat both choruss

[organ outro]

Вверх

When A Blind Man Cries

[Intro]
Bm
E|-------------------------------------------------------------|
B|-----------------------/12-----/12-10------------------------|
G|-----/11~~----------11----------------/11---------------(7)--|
D|7-9~-------7-9~-/12--------7-9~-----------12-7-9~-----7-----9|
A|--------------------------------------------------7h9--------|
E|-------------------------------------------------------------|

Bm
If youre leaving, close the door.
A                        Bm
Im not expecting people anymore.
Bm
Hear me greaving, lying on the floor.
A7                          Bm
Whether Im drunk or dead I really aint too sure.

Bm              D
Im a blind man, Im a blind man.
G               Em
And my world is pale.
Bm
When a blind man cries,
D             G                     Bm
Lord you know there aint no sadder tale.

Bm
Had a friend once, in a room.
A
Had a good time, but it ended much to soon.
Bm
In a cold month, in that room.
A7                     Bm
Found a reason for the things we had to do.

Bm              D
Im a blind, Im a blind man.
G               Em
Now my world is cold.
Bm
When a blind man cries,
D                G                 Bm
Lord you know he feels it from his soul

Вверх