Dire Straits

Brothers In Arms
Calling Elvis
Down To The Waterline
Fade To Black
Going Home
How Long
In The Gallery
Iron Hand
Lady Writer
Mans Too Strong
Money For Nothing
News
Once Upon A Time
On Every Street
On Every Street (2 вариант)
Planet Of New Orleans
Private Investigations
Romeo And Juliet
Romeo And Juliet (2 вариант)
Setting Me Up
Single Handed Sailor
Six Blade Knife
So Far Away From Me
Sultans Of Swing
Sultans Of Swing (2 вариант)
Ticket To Heaven
Tunnel Of Love
Twisting By The Pool
Walk Of Life
Where Do You Think Youre Going
Where Do You Think Youre Going (2 вариант)
Why Worry
You And Your Friend
Your Latest Trick
Вверх

Brothers In Arms

Key: G#m..organ and effects/bass
--------------------------------
G#m / E / G#m / E  / C#m.....(bass/keybd)
--------------------------------
E       F#
These mist covered mountains
B   Bsus4  B
Are home now for me
D#m(A)      G#m     D#m
But my home is the low lands
E       F#sus4  F#
And always will be
G#m     D#m
Someday youll return to
E      C#m7   F#sus4
Your valley and your farms
F#        G#m
And youll no longer burn
E         F#sus4   F#
To brothers in arms
------------------------
G: G#m / E / G#m / E
G#m/ E  / C#m /C#m/ G#m sus2
G#m
--------------------------
D#m(A)    E       F#
Through these fields of destruction
B   Bsus4 B
Baptisms of fire
D#m(A)            G#m      D#m
Ive watched all your suffering
.             E       F#sus4   F#
As the battles raged higher
G#m         D#m
And though they did hurt me so bad
E     C#m     F#sus4
In the fear and alarm
F#       G#m
You did not desert me
E        F#
My brothers in arms
------------------------
G: G#m / E / C#m / E / G#m / E / C#m / C#m -E-F#/ G#m sus2  etc
-------------------------
G#m        F#              G#m          F#
Theres so many different worlds
B               E
So many different suns
F#               G#m      F#
And we have just one world
B             E      E
But we live in different ones
-----------------------------
G: G#m / E / C#m / E / G#m / E / C#m / C#m -E-F#/ G#m sus2  etc
-----------------------------
D#m(A)        E      F#
Now the suns gone to hell
B   Bsus4   B
And the moons riding high
D#m(A)      G#m    D#m
Let me bid your farewell
E
Everyman has to die
G#m      D#m
But its written in the starlight
E    C#m    F#sus4
ANd every line on your palm
F#           G#m
Were fools to make war
E           F#
On our brothers in arms

Вверх

Calling Elvis

E|-10>7----7---------------------------------------------------|
B|-----10>7-10>7--7----7---------------------------------------|
G|---------------9-9>10-10>9>7---9>7---7-----------------7-----|
D|-----------------------------9-----9---9>7---7-------7-------|
A|-------------------------------------------9---7>8>9----9vvv-|
E|-------------------------------------------------------------|

Вверх

Down To The Waterline

   S       B  R B       R            S        H  P       S        H
E---------------------------------------7-10-7^10^7---7-----------------
B------------------------------------/7-------------7---7/12----10^12---
G-----7-9-9(11)9(11)-(11)9-7-9-9-7--------------------------------------
D--/9-------------------------------------------------------------------
A-----------------------------------------------------------------------
E-----------------------------------------------------------------------
H B  R P       H
E--------------------7-10-----------------------------------------------
B----------------7^10-------7-10---7------------------------------------
G-7^9(11)9^7---------------------9---7-9---7-----------------7-7----7---
D----------------------------------------9---7-9---7-------9------9-----
A------------------------------------------------9---7-9----------------
E-----------------------------------------------------------------------
B            H P          P   P   P   P                        P
E-----------------------------------------------------------------------
B-------------------------------------------3--3-3-3--------------------
G-9(11)-7-9-9--7^9^7-4-2-4--4^2-----4^2-------------4-4-2-2-------------
D-------------------------------4^0-----4^0----------------4-2-0-2^0----
A-------------------------------------------------------------------2-2-
E-----------------------------------------------------------------------
B            P    B  R  B            B  R B  R
E-----------|---------7---------------------|-7-------------------------
B-----------|-------7---7-10^7-10(12)10(12)-|-7-------------------------
G-7-9-9-7-7-|-9(11)-------------------------|----9-9(10)9(10)9-7--------
D-7-9-9-7-7-|-------------------------------|----9-9(10)9(10)9---9-7-9--
A-----------|-------------------------------|---------------------------
E-----------|-------------------------------|---------------------------
R           S               H     B  R P H    H P   P H      B R
E--------------------|--------------------------------------------------
B-(9)7--7-7--5-53-3-|------------------------------------------7(8)7-8-
G-(9)7--7-7--6-64-4-|-----7-7-----7-9(11)9^7^9--7^9^7-------x--7(8)7-7-
D--------------------|-7-9-----7^9---------------------9^7^9---x--------
A--------------------|--------------------------------------------------
E--------------------|--------------------------------------------------
S         B          P   P   H        H H         S        B  R B  R
E-------------------7----------------------------------|----------------
B-8/12-10---------7---10^7-----------------------------|-7-9-9----------
G-7/11--9---9(11)----------9^7-9^7----0-------7-----7-|-7-9-9(11)9(11)9
D-----------------------------------9-----------9------|----------------
A---------------------------------------7^8^9----------|----------------
E------------------------------------------------------|----------------
P         S     S    S                     H P   H     B  R P H
E------------|----10----9----7---9---7---|------------------------------
B------------|-/7----/7---/7-----------7-|------------------------------
G---7--------|-----------------9---7---7-|-----7^9^7-----7-9(11)9^7^9-9-
D------9-7-9-|---------------------------|-7-9-------7^9----------------
A------------|---------------------------|------------------------------
E------------|---------------------------|------------------------------
P              B R       S       Arp         B       R
E-----------------------------------------------------------------------
B------------------------7(8)7--8--8/12-10----9-10-12-12(14)-(14)12-9-8-
G-7-----7-9^7---7--------7(8)7--7--7/11-9----9--------------------------
D-----9-------9---9-7-9---------------------9---------------------------
A-----------------------------------------------------------------------
E-----------------------------------------------------------------------
S Arp           B          R        B
E------------------10--------------------------------15-----------------
B----10-8---10-8------8-10---8-------12-13-15-15(17)----(17)15-12-15(17)
G--9------9------9---------9-------12-----------------------------------
D-------------------------------/12-------------------------------------
A-----------------------------------------------------------------------
E-----------------------------------------------------------------------

R             S      R                     S S       S   S
E-13----------------------------------------------------5-7-----9/12----
B----(17)15-13-15-13------------------------------3/5/7-----------------
G-------------------12/14---------------------0-2-----------7/9---------
D-------------------------(15)14----------0-4---------------------------
A--------------------------------13-12----------------------------------
E-----------------------------------------------------------------------
H  P    S     S              S              P            B        R
E-9^12^9----------------------------------------------------------------
B--------10/12-------------------------11----12^11--------------14------
G--------------11/14---------0------11-------------11-13--13(15)--(15)13
D-----------------------14------/11-------11----------------------------
A--------------------16----0--------------------------------------------
E-----------------------------------------------------------------------
Arp           S  S  S  S
E---------------------------------------12------------------------------
B------------12-15-12-----------------x----15-141210/127-------------
G-11------12----------12------------x-----------------------------------
D------12----------------12-------x-------------------------------------
A-----------------------------------------------------------------------
E-----------------------------------------------------------------------
B     B       P          B         P       P       H H       S
E----------------------------|--------7---------------------------------
B-7-9-10----10---------------|------7---10^7---7------------------------
G-7-9-9(11)-9(11)--11^9------|-9(11)---------9---9^7---0-------7---7---
D-7-9-------------------12-9-|-----------------------9-----------9------
A----------------------------|---------------------------7^8^9----------
E----------------------------|------------------------------------------
H     B  R P H             P              B R      S
E-----------------------------------------------------------------------
B------------------------------------------------------7(8)7-8--8/12-10-
G-----7-9-7------7-9(11)9^7^9-9-7-7---7-9^7---7--------7(8)7-7--7/11--9-
D-7-9--------7^9--------------------9-------9---9-7-9-------------------
A-----------------------------------------------------------------------
E-----------------------------------------------------------------------
B          P        P   P   P           B R      S
E---------7-10^7---7------------------------------------------9---------
B-------7--------7---10^7-----------------7(8)7-8--8/12-10----7---------
G-9(11)-------------------9^7-9^7---7-----7(8)7-7--7/11--9----7---------
D---------------------------------9---9-----------------------9---------
A-------------------------------------------------------------9---------
E-------------------------------------------------------------7---------

Вверх

Fade To Black

Dm7                             A7
Well I wonder where U R 2 nite  probably on a rampage...

F                               G7
You have been known to take...  in getting in somebodys...

Bb                              A7      Dm7     A7
Always had the knack 2          fade to black

Dm7
I betcha already made your pass.....
A7
I see a darkened room somewhere...

Вверх

Going Home

------------------------|-----------|---------------------|---------
----7--------7--5--7----|------5>7--|--10--10-------8--7--|---------
----7-----7-------------|----7------|------7---7-7--7-----|---------
--7----7--------------7-|--7--------|---------------------|---------
------------------------|-----------|---------------------|---------
------------------------|-----------|---------------------|---------
130"

---5--------4-5--------5--------5----|-------4-5-|-------4-5-7>5-4-2-|
---7-----7----------7--------7-------|----7------|----7--------------|
------6----------6--------6--------6-|-6---------|-6-----------------|
-------------------------------------|-----------|-------------------|
-------------------------------------|-----------|-------------------|
-------------------------------------|-----------|-------------------|

---------------------|----------|----------------------|-
---8-----7-----8-----|-----7-8--|--------7-8--10>8-7>5-|-
------7-----7--------|--9-------|-----9----------------|-
------------------9--|--9-------|--9-------------------|-
---------------------|----------|----------------------|-
---------------------|----------|----------------------|-

----------------------------|--------------------------------|------
--7--------7-----------7----|-----7--7--------7>8--10>8-7>5--|------
--7-----7-----9-----9-------|---7----7---7>9-----------------|-(audience
-----7-----------7--------7-|-7------------------------------|--laughs)
----------------------------|--------------------------------|------
----------------------------|--------------------------------|------

--------------------|-----------------------------------|-
---8-----7-----8----|----8---7--------7-----------7-----|-
------7-----7-------|-9------7-----7-----9-----9--------|-
------------------9-|-7------7--7-----------7--------7--|-
--------------------|-----------------------------------|-
--------------------|-----------------------------------|-
230"

-----------------------------------------------|-------------------|
-------7--7-----------7--------7-8---10>8-7>5--|--5-----3-----3----|
----7-----7-----9-----------9------------------|-----4-----4-------|
-7--7--------7-----7-----7---------------------|-----------------4-|
-----------------------------------------------|-------------------|
-----------------------------------------------|-------------------|

------------------------|-------|------------------------------------|
-------3--3----3-2-3----|-------|------------------------------------|
----4-----4--4----------|--6--7-|----6-7--6--6>7>6>4---2>11-11-11>14-|
-4--------------------5-|-------|-9----------------------------------|
------------------------|-------|------------------------------------|
------------------------|-------|------------------------------------|

-----------------------|---------|-----------------|-
---------12--12>14>12--|--10--7--|--------7--------|-
-11--14----------------|---------|-----7-----9--7--|-
-----------------------|---------|--7--------------|-
-----------------------|---------|-----------------|-
-----------------------|---------|-----------------|-

-----------------------------|---------------------------------
--------7>12--7--------------|--10--12--10>12>10-10--8>10>8-8--
-9>7>9-----------10--9--7--9-|--11-----------------------------
-----------------------------|---------------------------------
-----------------------------|---------------------------------
-----------------------------|---------------------------------

------------------|--10-----------------|-------------------|-
--7>8>7-7--5>7>5--|------12-10-12-10-7--|--7-7--------------|-
------------------|---------------------|--7-7--7-9-7>11--7-|-
------------------|---------------------|-----------------7-|-
------------------|---------------------|-------------------|-
------------------|---------------------|-------------------|-

-------------------------------|-------------------7-----------|-
--10--12--14>12----------------|----------------7-----10--7----|-
--9---11--11------12>11--11>9--|-------------7---------------7-|-
-------------------------------|----------7--------------------|-
-------------------------------|--10>9>7-----------------------|-
-------------------------------|-------------------------------|-

-------------------------------|-----------------------|-
----------------7--------------|-----------------------|-
-------------7-----7>6>7-------|-----------------------|-
-------7--9---------------7>11-|--2>11--11--11--14--14-|-
-9-10--------------------------|-----------------------|-
-------------------------------|-----------------------|-

--------------------------|---------------------------|-
---------12--14>12--------|--7-----7--10--------------|-
-11--14-------------14-11-|-----9---------9--9--9>7>9-|-
--------------------------|---------------------------|-
--------------------------|---------------------------|-
--------------------------|---------------------------|-

---------------------------|--------------------|-
----------7----------------|--------7-7-7-10-10-|-
----7--9-----7-------------|-6-7-9--------------|-
-7--------------7-9--9>7>9-|--------------------|-
---------------------------|--------------------|-
---------------------------|--------------------|-

-----------10-9-7-7>9>7-------|----------------------|-
-----7-10----------------10-7-|----7--10-------------|-
-7>9--------------------------|-9---------9-9--9>7>9-|-
------------------------------|----------------------|-
------------------------------|----------------------|-
------------------------------|----------------------|-

----------------------------------|
---------7------------7-----------|
----7-9-----7------7-----9--7>9>7-|
-7------------7-9-----------------|
----------------------------------|
----------------------------------|

------------10-10-10-10-9------7------------------------------------|
------7-10----------------10-7---10-8-10--8>7>8--10-8-7---------7---|
-7>9----------------------------------------------------7-----7---9-|
----------------------------------------------------------7-9-------|
--------------------------------------------------------------------|
--------------------------------------------------------------------|

-14-12-10-9--------7---------------------------------------|
-------------10-7-----10-8-10---8-7-8--10-8-7-----------7--|
----------------------------------------------7-----7---7--|
------------------------------------------------7-9-----9--|
-----------------------------------------------------------|
-----------------------------------------------------------|
Bm

---------------------------------|----------------------|-
----------------10---------------|-10--8>7--8>7--5>7----|-
------11>9>11-------12>11--9--11-|----------------------|-
---------------------------------|--------------------7-|-
--12-----------------------------|----------------------|-
---------------------------------|----------------------|-

-----------------------------------|-------------------------3--|-
-----------------------------------|--7--------------7--10---0--|-
--7--9--7--6>7>9-7-6-7-9-7--7>6>7--|-----7--------7----------0--|-
-----------------------------------|--------7--9-------------0--|-
-----------------------------------|-------------------------2--|-
-----------------------------------|-------------------------3--|-

G

---------------2--|
---------------3--|
--7--6--4--2---2--|
---------------0--|
------------------|
------------------|
D

Вверх

How Long

Chords used: D, G, Em, A7

Intro: Light strumming with D major.

D
How long, how long baby
D
How long has it been
D                             G
How long you gonna keep me wondering
D
How long before you see
Em  A7     D
Stallin me was wroooong- how long

D
How long, how long you gonna keep
slappin my hands away
D                                  G
How long you gonna keep my love at bay
D
How long before youre sure
Em    A7       D
my love is stroooong- how long

D
How long, how long you gonna keep
tellin me you like me fine
D                                  G
How long until Im gonna make you mine
D
How long before you wake(up)
Em   A7       D
and find your good man goooone- how long

Em   A7
goooone, how long....

Вверх

In The Gallery

Key: Am  or (A#m on the record)

Intro: drums and guitar                                      0.5  0.5 1.0
Am                         D  Am                   D  - Am    Am - C - D
Harry made a bareback rider     proud and free upon a horse 0.5  0.5 0.5
Am                    D                       D  - Am       Am - C - D
And a fine coalminer      for the NCB that was

(repeat chord sequence ahead....)

A fallen angel and Jesus on the cross
A skating ballerina you should have seen her do the skaters waltz

Some people have got to paint and draw
Harry had to work iin clay and stone
Like the waves coming to the shore
It was in his blood and in his bones
Ignored by all the trendy boys in London and in Leeds

Am                                 D - G - C                    G
CHORUS: He might as well have been making toys         or strings of beads
C       C                 G      C slide D
He couldnt be...   He couldnt be.....         in the gallery

And then you get an artist says he doesnt want to paint at all
He takes an empty canvas and sticks it on the wall
The birds of a feather all the phonies and all of the fakes
While the dealers they get together
And they decide who gets the breaks
And whos going to be in the gallery

Solo: Follow 1 verse chord pattern
and then do the chorus

No lies he wouldnt compromise
No junk no bits of string
And all the lies we subsidise
That just dont mean a thing
Ive got to say he passed away in obscurity
And now all the vultures are coming down from the tree
So hes going to be in the gallery

(keep chord sequence going
ie Am - D.C / Am - D.C)

Вверх

Iron Hand

  +-- Do not play this note (the 4) the first time through
|
+-|-----------------7---7-------+               +-----------------+
+-V---3-------3---5-------5p3---+               +-----2-------2---+
+-4---4-------4-----------------+  B1 riff      +-----2-------2---+  A riff
+-----4-------4-------4---------+               +-----2-------2---+
+-2---------------2-------2-----+               +-0-------0-------+
+---------2---------------------+               +-----------------+


+-----------------+                             +-----------------+
+-----3-------3---+                             +-----3-------3---+
+-----4-------4---+  B2 riff                    +-----4-------4---+  B3 riff
+-----4-------4---+                             +-----4-------4---+
+-2-------2-------+                             +-----------------+
+-----------------+                             +-2-------2-------+


+-- Play this note only first time through.
V
+-------3-----------------------+
+-----0-------0-------0------0--+
+-----2-------2-------2------2--+  Em riff (Im unsure about this one, but
+-----2-------2-------2------2--+           it does the job. Its too hard to
+-0-------0-------0-------0-----+           hear over the synths...)
+-------------------------------+

The song goes like this.

Intro:
B1 B1 B1 B1 B2 A

Verse:
B2 B2 B2 B2 A A B2 B2 B1
B2 B2 B2 B2 A A B2 B2 B1
B2 B2 B2 B2 A A B2 B3 B3 B2
Em Em Em Em A A A A B1 B1

Вверх

Lady Writer

key: C#m

Intro: A / B / C#m
A / B / C#m
A / B / C#m
A / B / G#m

A       B          C#m
Lady writer on the TV
A       B            C#m
Talk about the virgin mary
A          B      C#m
Reminded me of you
A             B      G#m
Expectation left a come on too

Lady writer on the TV
She had another quality
The way you used to look
And I know you never read a book

A                                       C#m
Just the way that her hair fell down around her face
A                 C#m        G#m
And I recall my fall from grace
F#m       F#m7(?)       C#m
Another time another place

Lady writer on the TV
She had all her brains and the beauty
The pictures does not fit
Youd talk to me when you felt like this

Just the way that her hair fell down around her face
And I recall my fall from grace
Another time another place
E
Your rich old man,
B
You know hed a call her a dead wringer
G#m
You got the same command
F#m
Plus your mother was a mess in life

Solo: A / B /C#m etc

Just the way that her hair fell down around her face
And I recall my fall from grace
Another time another place

Lady writer on the TV
She knew all about history
You couldnt hardly write your name
I think I want it just the same

Lady writer on the TV
Talking about the virgin mary
You know Im talking about you and me
Lady writer on the TV

Вверх

Mans Too Strong

INTRO:

C (strums)     C (strums)
e|-------------------------------0-------------0--------------|
B|-------------------------------1-------------1--------------|
G|-----0h2-2-2-2-2-2-0-----2-0---0-------------0-------0------|
D|-0-3-----------------3-0-----2-2-------------2-----2------0-|
A|-------------------------------3----------3--3---3------1---|
E|------------------------------------------------------------|

Bb(strums)      Dm(strums)    Dm(strums)
e|-1---------------1-------------1-----------------------|
B|-3---------------3-------------3-----------------------|
G|-3---------------2-------------2-------------0h2-2-2-2-| etc.
D|-3-----3p0---0---0----------0--0-------0h3-3-----------|
A|-1---------3--------------3----------------------------|
E|-------------------------------------------------------|

Dm                                         C
I am just an aging drummer-boy, and in the wars I used to play
Bb                              Dm
And Ive called a tune to many a torture session.
Dm                                          C
Now they say I am a war criminal, and Im a-fading away.
Bb
Father, please hear my confession.

G                     D
I have legalized robbery and called it belief
G                          D
I have run with the money, I have hid like a thief
G                         D
I have rewritten history with my armies and my crooks
D        C         Am         D
Invented memories,      I did burn all the books
Dm                                 C              Em
And I can still hear his laughter, and I can still hear his song
Emsus2                 Em                 D         C   D   C
The mans too big, the mans too strong

C  Cm  G  Gm

Вверх

Money For Nothing

+----------------------------------------------------------------------------+
|-----------6----------------------------------------------------------------|
|--7-7-5--7-5-7-5-3-3-0----7-7--3>s>5---0--3>s>5 5 5>s>3 0-------------------|
|--5-5-5--5---5-5-5-5-5----5-5--3>s>5---0--3>s>5 5 5>s>3 0-------------------|
|----------------------------------------------------------------------------|
+----------------------------------------------------------------------------+

+----------------------------------------------------------------------------+
|-------------8--------------------------------------------------------------|
|--7-7-5--5-7-7-7-5----0--7-7-3>s>5-0----------------------------------------|
|--5-5-5-8---------8-5-0--5-5-3>s>5-0--3>s>5-5-------------------------------|
|----------------------------------------------------------------------------|
+----------------------------------------------------------------------------+

An alternate ending used in concert down here in oz, ~ 1987 towards the end of
the song.

--> play as above until-v
+----------------------------------------------------------------------------+
|----------------------------------------------------------------------------|
|-------------------------3-2------------------------------------------------|
|-----------------------------3>s>5-5-5>p>3----------------------------------|
|-------------------------------------------3>h>5-3>h>5----------------------|
+-------------------------------------------------------6-5-3----------------+

Вверх

News

 Em  D   C   D C
-------------------
-8---7---5---7-5---
-9---7---5---7-5---
-9---7---5---7-5---
-------------------
-------------------


Lead guitar:
-----------

|---|---------------------------------------|
|---|-8---10-8-7-7(8)-7-------7~~~7(9)------|
|---|---------------------9--------------10-|
|---|---------------------------------------|
|---|---------------------------------------|
|---|---------------------------------------|

Em               D                  C          D
He sticks to his guns, he takes the road as it comes
C
He takes the shine off his shoes
Em             D                  C        D
He says its a shame, you know it may be a game
C
Ah but I wont play to lose     -----------8-7-------------------
---------------10-8--------------
-9---7/9-------------------7-9-7-
------------------------10-------
---------------------------------
---------------------------------

Hes burning the grass, he takes up a glass

He swallows it neat     ---------------------------------
---------------------------------
-9(10)~~~9---7(9)7-7(9)7-7(9)~~~-
---------------------------------
---------------------------------
---------------------------------

He crosses the floor, he opens the door

He takes a sniff at the street


CHORUS
------
C D   C D                 C D   C D   D G   D
---------------------------------------------10---
-5-7---5-7---8-8-7---------5-7---5-7---7-8---10---
-5-7---5-7---------9-7-9---5-7---5-7---7-7---11---
-5-7---5-7-----------------5-7---5-7---7-9---12---
--------------------------------------------------
--------------------------------------------------

But he climbs on his horse, you know he feels no remorse

He just kicks it alive  ------------------------------------------
------------------------------------------
--------------------7(9)------7------7(9)-
------10---7^10^7----------10---10-7------
-7/10-------------------------------------
------------------------------------------

His motor is fine, He takes it over the line

Until hes ready to dive        ----------------------
----------------6-5---
-------5---7-5------5-
---5-7---7-----7------
-7--------------------
----------------------

SOLO :

------------------------------------------15-12----------
--------12-15-12-15(17)---12-15-12-15(17)-------13(15)---
-14(16)--------------------------------------------------
---------------------------------------------------------
---------------------------------------------------------
---------------------------------------------------------

-----------------------------------------12-12-12-12-12-12---17-17-15-
----12-13-15-12^13^12----12-------------------------------------------
-14-------------------14----14-12-------------------------------------
----------------------------------14----------------------------------
----------------------------------------------------------------------
----------------------------------------------------------------------

-12^15^12--------------17-19-17--------------------------------------------
------------15-------17---------20---17^20^17---10^20^17------17-20-20(22)-
-------------------17--------------------------------------19--------------
---------------------------------------------------------------------------
---------------------------------------------------------------------------
---------------------------------------------------------------------------

C D   C D                C D   C D   D G   D
-----------------------------------------------8---------------------------------
-20(22)-20-17-20-17------17---19(20)-19--------------10(12)~~~-------------------
----------------------19---------------------------------------------------------
---------------------------------------------------------------------------------
---------------------------------------------------------------------------------
---------------------------------------------------------------------------------

He sticks to his guns, he takes the road as it comes
-15--------------17------------15---14---------------
-----------------------------------------------------
-----------------------------------------------------
-----------------------------------------------------
-----------------------------------------------------
-----------------------------------------------------

He takes the shine off his shoes
------------------------------------------------------------
-13------------------------------------------------------12-
------------------------------------------12-14-12-14-12----
----------------------------------7/10/12-------------------
------------------------------------------------------------
------------------------------------------------------------

He says its a shame            you know it may be a game
--------------------------------------------------------------------
--------------------------------------------------------------------
---------------------14-12-11-----------------------------11(12)~~~-
------------------------------14------------------------------------
--------------------------------------------------------------------
--------------------------------------------------------------------

Ah but I wont play it to lose
------------------------------------------------------
------------------------------------------------------
---------------------------------------12-------------
--------------------------------12(14)----14-14-14-14-
------------------------------------------------------
------------------------------------------------------

He sticks to his guns, he takes the road as it comes
--------------------------------------------------------
-----------------------------------------------------12-
-12--------------14-------------------------------------
------------------------------------14------------------
--------------------------------------------------------
--------------------------------------------------------

He takes the shine off his shoes
-------------------------------------------------------------------
-------------------------------------------------------------------
-------------------------------------------------------------------
-------------------------------------14-12(14)---14-14-14-14-12----
----------------------------------15----------------------------15-
-------------------------------------------------------------------

--------------------------------------------------
-----------------15-13----------------------------
----12-----------------14---12-14-12-14-12-14(16)-
-14----14-12---14---------------------------------
--------------------------------------------------
--------------------------------------------------

Hes too fast to stop,     he takes it over the top
----------------------------------------------------------
----------------------------------------------------------
-14(16)-14-12-14-12---11----------------------------------
----------------------------------------------------------
----------------------------------------------------------
----------------------------------------------------------

He makes a line in the news...

--------------------------------------------
--------------------------------------------
--------------------------------------------
--------5/7-------------------5/7-----------
--------5/7-------------------5/7-----------
--------------------------------------------

Nice song...News.  I mite suggest using these chords instead to the
song..

G / Bm / C / Bm / Am / C  for the verse

and C- D / C- D / Em9  (x2) for the chorus...

Вверх

Once Upon A Time

Am / F
Am  / G / F
Am  / G / F

Am                                 D
SOME PEOPLE GET A CHEAP LAUGH BREAKING UP SPEED LIMIT
Am                                      D
SCARING A PEDESTRIAN ON FOR A MINUTE
Am                                      G
CROSSING UP PROGRESS, DRIVING ON THE GRASS
D                             Am
LEAVING JUST ENUFFA ROOM TO PASS
C                           Am
SOMEDAY DRIVER NEVER TOOK A TEST
Dm    G                     Am
OH YEAH! ONCE UPON A TIME IN THE WEST
Am                                          D
THEY SAY ITS NO USE SAYING THAT YOU DONT KNOW NOTHING
Am                                              D
STILL GONNA GET YOU IF YOU DONT KNOW SOMETHING
Am                                      G
SITTING ON A FENCE, THATS A DANGEROUS CALL
D                                        Am
YEAH YOU COULD EVEN CATCH A BULLET FROM THE PEACE KEEPING FORCE
C                            Am
EVEN A HERO GETS A BULLET IN THE CHEST
Dm     G                       Am
OH YEAH, ONCE UPON A TIME IN THE WEST

Lead:
Am  /  F    (double time rythym)
Am / G  / F
(roll)

Am / D / Am / D
Am / G / D / Am
C  / Am / Dm / G / Am
Am / F (double time rythym)
Am / G / F

Am                                    D

MOTHER MARY YOUR CHILDREN ARE SLAUGHTERED
Am                                              D
SOMEDAY YOUR MAMAS GONNA LOCK UP YOUR DAUGHTER
Am                              G
WHOS PROTECTING THE INNER GENTEEL
D                       Am
IT SPELLS TROUBLE IN THE LAND OF PLENTY
C                       Am
TELL ME HOW WE GONNA DO OUT SPARES ??
Dm          G                     Am
YEAH, YOU GUESS... ONCE UPON A TIME IN THE WEST
Dm     G                        Am
OH YEAH, ONCE UPON A TIME IN THE WEST
Dm     G                       Am
OH YEAH ONCE UPON A TIME IN THE WEST
Dm     G                      Am
OH YEAH, ONCE UPON A TIME IN THE WEST

G                     Am
ONCE UPON A TIME IN THE, ONCE UPON A TIME IN THE WEST

ONCE UPON A TIME IN THE WEST...

ONCE UPON A TIME IN THE WEST..

ONCE UPON A TIME IN THE WEST, ONCE UPON A TIME IN THE WEST

ONCE UPON A TIME IN THE WEST, ONCE UPON A TIME IN THE WEST

repeat to fade.....(chorus)
(repeat Dm / G / Am)

Вверх

On Every Street

F               Am          G         C
There?s gotta be a record of you some place
F                   G          C
You gotta be on somebody?s books
F         Am          G               Am
The low-down - a picture of your face
F                 G
Your injured looks
F                    C
The sacred and profane
F                        Am   G
The pleasure and the pain
Am              G            F          Em
Somewhere your fingerprints remain concrete
Dm                     B          Am          Em
And it?s your face I?m looking for on every street

Am  C G G F G C G Am

A lady-killer - regulation tattoo
Silver spurs on his heels
Says - what can I tell you as I?m standing next to you
She threw herself under my wheels
Oh it?s a dangerous road
And a hazardous load
And the fireworks over liberty explode in the heat
And it?s your face I?m looking for on every street

Am  C G G F G C G Am

A three-chord symphony crashes into space
The moon is hanging upside down
I don?t know why it is I?m still on the case
It?s a ravenous town
And you still refuse to be traced
Seems to me such a waste
And every victory has a taste that?s bittersweet
And it?s your face I?m looking for on every street

Am  C G G F G C G Am C G G F G C G Am C G G F G C G Am … G

Вверх

On Every Street (2 вариант)

     F         G6              D/F#       Em7           F          Em
|         |               |          |             |          |
||--------0--(0)-----------|------------------------|--------------------------
||----------------0-----3--|--(3)-------------------|----------0--(0)--------1-
|*--2----------------------|----------0--(0)-----2--|--(2)-------------0-------
|*-----0-------------0-----|-------0----------0-----|-------0-------------2----
||-------------------------|------------------------|--------------------------
||--1---------3------------|---2----------0---------|---1----------0-----------


Gsus4         G
|             |
|------------------------------||
|--(1)--------0--(0)--------0--||
|-------0-------------0--------*|
|----------0------0------0-----*|
|------------------------------||
|---3--------------------------||

Вверх

Planet Of New Orleans

Key: G maj.

Intro solo:

---------------|---------------------------|------|-------|----------------|
---------------|---------------------------|------|-------|----------------|
---------------|--------11-12-14>12--------|-14>9-|-9>7>5-|-7-4>5-7-4>5----|
--12--14-12-14-|-12-14--------------12>14--|------|-------|----------------|
---------------|---------------------------|------|-------|----------------|
---------------|---------------------------|------|-------|----------------|


------------|---------------|-------|------------------|-------------------
------------|---------------|-------|------------15>10-|-10-15-12----------
-------9-7--|-----9-12>11-9-|-12>9--|-----12-14--------|-------------------
--7-10------|-12------------|-------|-12---------------|-------------------
------------|---------------|-------|------------------|-------------------
------------|---------------|-------|------------------|-------------------


-----------|-----------|--------12--
-12-13-10--|-12-13-15--|-13-15------
-----------|-----------|------------
-----------|-----------|------------
-----------|-----------|------------
-----------|-----------|------------

"Middle" solo. Begins at 4 02".

---------------|--------------------|--------------------------------------
10-12-13-12-10-|-12-12-10-----------|-13-------7---7---7---8------------8--
---------------|-----------12<11<9--|----12<9----9---9---9---9-7-9-7-9-----
---------------|--------------------|--------------------------------------
---------------|--------------------|--------------------------------------
---------------|--------------------|--------------------------------------
^^^^^
The 3 last notes are
played very softly

----------------------|-------------|------------------|
-------12-13-13-13<12-|-10-12-13<12-|-10-10-10---------|
-12-14----------------|-------------|----------12-11-9-|
----------------------|-------------|------------------|
----------------------|-------------|------------------|
----------------------|-------------|------------------|

-------------------------|
------------10-10<12-10--|
-11-9-11-9---------------|
-------------------------|
-------------------------|
-------------------------|

Вверх

Private Investigations

Intro arpeggios (not included in the "Money for Nothing" best-of version) :

-------5-7-5-7--|-----------------------
-----5----------|-----------------------
---5------------|----------9-12-9-------
-7--------------|--------9--------12-9--
----------------|-----10----------------
----------------|-----------------------


Intro solo:

-------------|---------|------|---------------------|---------|----------------
---8---------|---------|------|-------8>12--8>10-10-|-10>8>10-|-10>12--8-------
-----9>11-11-|-11-9-11-|-12-9-|----7----------------|---------|----------------
-9-----------|---------|------|---------------------|---------|----------------
-------------|---------|------|---------------------|---------|----------------
-------------|---------|------|---------------------|---------|----------------

---------------------------|--------------
------------8-7--5>10------|----7-7-8-----
---------7-------------9-9-|----7------9--
-------7-------------------|--------------
----9----------------------|--------------
-7-------------------------|--------------


1st verse :
-------------------7------|------------7-|-------------------------|---
-----------------8---8-7--|----------7---|------------10-----10----|---
--------------------------|--------------|------(9-9)----9-9----9--|---
--------------------------|--------------|-------------------------|---
--------------------------|--------------|-------------------------|---
--------------------------|--------------|-------------------------|---

...mystery to me	...commences	...fee

-----------------|-----------------|------------------|---
-------8-----8---|-------6-----6---|--6-5-4------4----|---
-(7-7)---7-7---7-|-(5-5)---5-5---5-|---------4-4---4--|---
-----------------|-----------------|------------------|---
-----------------|-----------------|------------------|---
-----------------|-----------------|------------------|---

...expenses

----------|----------------|------------------5--|-----------------------|---
----------|-------------8--|------------8---8----|-----------------------|---
--12-11-9-|-----6----------|------7-------7------|-----------------------|---
--14------|---9---9---9----|----5---5------------|--7-9-7-9--7-5-5-7-5---|---
----------|-9-------9------|--7-------7----------|--7------------------7-|---
----------|----------------|---------------------|-----------------------|---
(*)
...inquiry


-------------|
-------------|
-------------|
-----5-------|
-5-7---5-7---|
-------------|

2nd verse is quite much like the 1st one, give or take a few
variations:

------------7--|------------------------|------------|-
----------7----|--------------8---8-7-6-|-------6----|-
---------------|------------7---7-------|-(5-5)---5--|- (goes on same as
---------------|------------------------|------------|-   1st verse)
---------------|------------------------|------------|-
---------------|------------------------|------------|-
(repeat)
...reports	...treason



--------------------------|-----------------------|-
--------10-------------8--|-----------------------|-
---------------7-9---7----|-----------4---4-------|-
-----------9-9-----9------|---------7---7---7-5---|-
--------------------------|---------------------7-|-
--------------------------|-----------------------|-

...reason  		The "phrase" marked (*) above is also a bit
shortened.


Last verse (or is it a bridge ? Who cares)

-------------------------7----|------------------------|----7----|-----
--------------8-7-8-10-8---10-|-------7---7-8---7-8-10-|------8--|-----
--------------9---------------|-----9---9-----9--------|---------|-----
------------------------------|-----7------------------|---------|-----
------------------------------|------------------------|---------|-----
------------------------------|------------------------|---------|-----

...you got		...the day		  ...you got

------------------------------|-----------------7-----|--------------
-----------------7-8-7--------|--------7-8-10-8---10--|--------------
-------------7-9-------9-7-9--|-----------------------|--------------
-----------9------------------|-----------------------|--------------
------------------------------|-----------------------|--------------
------------------------------|-----------------------|--------------

...take away		...of wishky


Then comes a modfied version of the intro solo:

---------------|---------|--------------------------|-
-----8---------|---------|--------------------------|-
-------9>11-11-|-11-9-11-|-11-12-12>11>9>7-7>9-9>6--|-
--9------------|---------|--------------------------|-
---------------|---------|--------------------------|-
---------------|---------|--------------------------|-

------10----10-----------|-------------------------------|
---8-----10----8-7-------|------8>10>10--7>8---8---------|
-7-----------------9-7---|-------------------9---7-------|
-----------------------7-|-------------------------9-7---|
-------------------------|-------------------------------|
-------------------------|-------------------------------|

------------------------------------------|------------------|-
------------7-10-8-9---7---7--------------|------------------|-
--11>7--7-9----------9---9---9-6-7--------|-----11-12-11-9-9-|-
-----------------------------------9-7----|---9--------------|-
---------------------------------------10-|------------------|-
------------------------------------------|------------------|-

---------------------------|----------7---------------|-
--11>10--------------------|---8--10-----10--8--------|-
--12----12-9---------------|---9----------------9--9--|-
-------------11-9----------|--------------------------|-
-------------------12-9----|--------------------------|-
------------------------12-|--------------------------|-

-----------------|-------|-------|-------3--|-
-----------------|-------|-------|-------2--|-
-----------------|-------|-------|-------3--|-
-7-9-7-9-7-7-5-4-|-5>4>2-|-2>4>5-|-5>2---2--|-
-10--------------|-------|-------|----------|-
-----------------|-------|-------|----------|-
^
Go (diminished G)

After the instrumental part has begun, wait for 5 beats (i.e. 9 Es
from the bass, including the 1st long one, right after "private...
investigations"  bom bom bom... :-)

-----------------------------------|-------------------|--------------
-----------------7-----------------|---7-8-7-----------|--------------
---------------7---9>11-11-9>14-14-|---------9>7-9-9---|--------------
-----------7-9---------------------|-----------------9-|--------------
-2-3-5>7-7-------------------------|-------------------|--------------
-----------------------------------|-------------------|--------------

--------------------|------------------7-------------|---------------------
-8>7--8---8---------|--------8-10-8-10---10-8-10>12--|-8>10>8-8-10-10------
-9------7-----------|----7-9-------------------------|-----------------9-9-
-9----------9>12>14-|--7-----------------------------|---------------------
--------------------|--------------------------------|---------------------
--------------------|--------------------------------|---------------------


---------|------------|---------------------|
---------|------------|---------------------|
-9>7>6>9-|------------|---------------------|
---------|-12>11>9-12-|------9---12---------|
---------|------------|---12---9----10-9----|
---------|------------|-------------------12|

Вверх

Romeo And Juliet

intro:
F   Dm   x4

Verse I:
F                C Dm                         C F
A lovestruck Romeo sings the streets a serenade
F                C Dm             C           Bb
Laying everybody low with a love song that he made
C                         Bb C            F
Finds a street light steps out into the shade
Bb                           C
Says something like you and me babe, how about it?
F                          C Dm                        C F
Juliet says hey its Romeo, you nearly gave me a heart attack
F                         C Dm                          C Bb
Hes underneath the window, shes singing hey la my boyfriends back
C                           Bb  C                        F
you shouldnt come around here singing up to people like that
Bb                        C
Anyway, what you gonna do about it?

Chorus I:
F      C             Dm C             Bb
Juliet the dice was loaded from the start
F      C             Dm C             Bb
And I bet, and you exploded in my heart.
F      C             Dm              Bb
And I forget, I forget, the movie song
Gm                                  F        Bb    C     Dm  C  F
When you gonna realize it was just that the time was wrong  Juliet?


Verse II:
Come up on different streets, they both the streets of shame
Both dirty both mean, yes and even and dream was just the same
And I dreamed your dream for you and now your dream is real.
How can you look at me as if I was just another part of your deal

Well you can fall for chains of silver, you can fall for chains of gold.
you can fall for pretty strangers and the promises they hold
You promised me everything, you promised me thick and thin yeah
Now you just say oh Romeo yeah, I used to have a scene with him.

Chorus II:
Juliet when we made love you used to cry
you said I love you like the stars above Ill love you till I die
Theres a place for us, you know the movie song
When you gonna realize it was just that the time was wrong Juliet?

Verse III:
I cant do the talk, like they talk on the tv
I cant do a love song, like the way its meant to be.
I cant do anything, but Id do anything for you.
I cantt do anything but be in love with you.

And all I do is miss you and the way we used to be
All I do is keep the beat and bad company.
All I do is kiss you through the bars of a rhyme
Juliet Id do the stars with you anytime.

Repeat Chorus II:

Verse IV:
A love struck Romeo, sings the streets a serenade.
Now hes laying everymody low, with a love song that he made.
Finds a convenient street light, steps out of the shade
Says something like you and me babe how about it

outro:
Bb C  (as long as the lead player can do those tasty fills)

Вверх

Romeo And Juliet (2 вариант)

The intro starts out with a D-structured F chord: strum and then pick out
the first three notes, then strum again. Next, pick the last three notes
of the F chord and slide the picking down the E-string to a Bb chord:

F(D-struct)                                  Bb (strum a few times)
E---5------------------5-------------5--3--0-----1--------------------
B---6----------6-------6----------6--------------3--------------------
G---5-------5----------5-------5-----------------3--------------------
D---7----7------------------------------------------------------------
A---------------------------------------------------------------------
E---------------------------------------------------------------------

Now pick on the E-string back up to the D-struct. F chord and pick those
first 3 notes again, then strum. Now quickly move to a downward sweep pick
on the F chord barred at the first fret (plus the unfretted E-string note),
which leads back to the Bb:

F(D-struct)             F(barred,1st fret)      Bb(strum...)
--0h1--3----5----------------5------------------1-----0----1---------
------------6----------6-----6---------------1--------------3---------
------------5-------5--------5------------2-----------------3---------
------------7----7---------------------3------------------------------
------------------------------------3---------------------------------
----------------------------------------------------------------------


Now it's back up the E-string to the D-struct F for more of the same
(the rest of the band kicks in here and starts to obscure things).

F(D-struct)                                  Bb(strum...)
--0h1--3----5------------------5-------------5--3--0-----1------------
------------6---------6--------6----------6--------------3------------
------------5------5-----------5-------5-----------------3------------
------------7---7-----------------------------------------------------
----------------------------------------------------------------------
----------------------------------------------------------------------


This time on the way back up to the D-struct F we play the A and G notes
on the E-string. Then do the D-struct F thing again, then do a quick
downward seep-pick on the open C chord, with the high G note added (1st
string at 3rd fret). An open E-string then leads to the Bb.
Then it's up to the D-struct F for the start of the lyrics:

F(D-struct)                              Bb(strum/pick...)
--5--3------5-------------5------------------3---0---1-------0h1--3--- etc
------------6---------5---6---------------1----------3----------------
------------5------6------5------------0-------------3----------------
------------7---7-------------------2---------------------------------
---------------------------------3------------------------------------
----------------------------------------------------------------------




F(Dstruct)                 Dm (open)                     C(open)  F(1st fret)
A lovestruck Romeo         sings a streetsuss serenade

F(1st fret)           C(open)  Dm(open)              Bb
Laying everybody low              with the love song that he made

C(barre 3rd fret)    Bb  C(3rd fret)       F(1st fret)
Finds a streetlight       Steps out of the shade, says something like

Bb                     C(3rd fret)
you and me, babe, how about it?

Then add that nice little riff:

--0--0-----------
--------3--1-----  Followed by strumming F(1st fret).
--------------3--

F(1st fret)                    C(open)  Dm(open)
Juliet says, "Hey, it's Romeo!          you nearly gave me a 'eart attack!"

C(open) F(1st fret)                C(open) Dm(open)           Bb
He's underneath the window,  she's singing "Hey la my boyfriend's back

C(3rd fret)              Bb C(3rd fret)               F(1st fret)
Shouldn't come around here, singing up at people like that

Bb                            C(3rd fret)
Anyway, what you gonna do about it?"

F(1st fret) C(3rd fret)     Dm(5th fret)  C(3rd fret)   Bb
Juliet            the dice was loaded from   the           start

C(3rd fret)  F(1st fret)  C(3rd fret)    Dm(5th fret)  C(3rd fret)  Bb
And I            bet               and you exploded into   my           heart

C   F     C  Bb   Dm(open)       Bb
And I forget, I forget,      the movie song


Gm                            F    Bb            C        B  C   F
--3--  When you gonna realize it was just that the time was wrong, Juliet
--3--
--3--

And now you can do the downward sweep-picking on the F(1st fret) to get
to the Bb, then pick up the E-string to get to the D-struct F again. That's
about it (at least, that's as much as I'm able to do).

Вверх

Setting Me Up

A
You say Im the greatest bound for glory
E  D
Well the word is out and I learned
A
I got the latest side of the story
G          D              A
Youre pulling out before you get burned


Well your hands are squeezing me down to the bone
I never saw you breaking no law
Stands to reason Ive got to leave you alone
What you take me for

A                      D
Youre setting me up to put me down
E                        A
Youre making me out to be your clown
A                        D
Youre just setting me up to put me down
E
You better give it up
A
Quit your messing around


You think I care about your reaction
You think I dont understand
All you wanted was a piece of the action
Now you talk about another ma

Вверх

Single Handed Sailor

Intro:  Dm / C : G                 (2 times)

Intro tab below:
(For the intro: I tried to play the long note as a slide note. I have to say
that it sounds much better than a bend..Allassandro)
Dm
|E---------------10----------
|B-----------10------13^15vv-
|G----10>12------------------
|D---------------------------
|A---------------------------
|E---------------------------
Dm
---------------10---------------
-----------10------13^15.--15vv-
----10>12-----------------------
--------------------------------
--------------------------------
--------------------------------
C
---------------10----------
-----------10------13vv----
----10>12------------------
---------------------------
---------------------------
---------------------------
G
---------------------------
-----------10------13^(15)-
----10>12------10----------
---------------------------
---------------------------
---------------------------
(repeating ...)
Dm
---------------10----------
-----------10------13^15vv-
----10>12------------------
---------------------------
---------------------------
---------------------------
Dm
---------------10---------------
-----------10------13^15.--15vv-
----10>12-----------------------
--------------------------------
--------------------------------
--------------------------------
C
---------------10----------
-----------10------13vv----
----10>12------------------
---------------------------
---------------------------
---------------------------
G        |--> a fill  (this appears in 2 types: 2nd)
------------------------------15----------------------------------------
-----------10------13^(15)--------(15)^13-------------------------------
----10>12------10--------------------------10>13<13---------------------
-----------------------------------------------------12<10>12<10--------
------------------------------------------------------------------12vv--
------------------------------------------------------------------------

Verse 1
Dm	C                  Bb           F
>	Two in the morning dry-dock town
Dm                 C              Bb - F
>The river rolled away in the night
Dm                  C             Bb      F
>Little _Gypsy Moth_ shes all tied down
Dm                  C             Bb - F
>She put her in the wind and the light
>

Verse 2
>Yeah, the sailing ship is just a-held down in chains
>From the lazy days of sail
>Shes just lying there, silent pain
>You lean on the tourist rail
>

Chorus 1
Am                             Dm             Dm-C-Bb
>A mother and her baby and the College of war
C
>And the concrete grave
Dm                 C                 Bb         F
>You never want to fight against the river law
Gm                       Bb
>Nobody rules the waves

>            C              A7           Dm
>Yeah, on a night when the lazy wind is wailing
Bb                    C
>Around the _Cutty Sark_
Dm            C         Bb        F
>Single-handed sailor go sailing
Gm                        Bb
>Sailing away in the dark

Guitar intro solo:  Dm / C : G   ( twice over)

Verse 3
>Hes up on the bridge on the self-same night
>A mariner of dry-dock land
>Two in the morning, well theres one green light
>And the man on the barge is sayin
>
Chorus 2
>Shes a-gonna slip away below him
>Away from things hes done
>But he just shouts, Hey man whatcha call this thing?
>Could say, Pride of London
>
>On a night when the lazy wind is wailing
>Around the _Cutty Sark_
>Yeah, single-handed sailor go sailing
>Sailing away in the dark
>
Final solo:

Repeat intro solo and then:

Dm			  Dm
|E------------------------|-----------------------|-
|B--15<13>15<13>15^18vv---|--15<13>15<13>15^18vv--|-
|G------------------------|-----------------------|-
|D------------------------|-----------------------|-
|A------------------------|-----------------------|-
|E------------------------|-----------------------|-

C			  G
------------------------|---------------------------
--15<13>15<13>15^17vv---|-----13>15<13>15^18.-18vv--
------------------------|--14-----------------------
------------------------|---------------------------
------------------------|---------------------------
------------------------|---------------------------

________ ________ ________ ________
Dm			|   3  | |   3  | |   3  | |   3  |
--------------------------|-------------------------------------------------
--18^(20)--18<15----15vv--|----------15-18<15----18<15----18<15----18<15----
-----------------17-------|--17^(19)----------17-------17-------17-------17-
--------------------------|-------------------------------------------------
--------------------------|-------------------------------------------------
--------------------------|-------------------------------------------------

________     ________ ________ ________ ________
|   3  |   C |   3  | |   3  | |   3  | |   3  |
------------|--------------------------------------------|-
--18<15-----|-----17>20----17>20----17>20----17>20-------|-
--------17--|--19-------19-------19-------19-------19vv--|-
------------|--------------------------------------------|-
------------|--------------------------------------------|-
------------|--------------------------------------------|-

________ ________ ________ ________ ________
G |   3  | |   3  | |   3  | |   3  | |   3  |    Dm
--19<15----19<15----19<15----19<15----19<15-----|-17<16<15---15---------------
--------15-------15-------15-------15-------15--|----------18---18<17<15----15
------------------------------------------------|------------------------17---
------------------------------------------------|-----------------------------
------------------------------------------------|-----------------------------
------------------------------------------------|-----------------------------

C
------------------------|--------------------------------
------------------------|-13------13---------------------
--17^(19)-17^(19)^17vv--|-12^(14)-12^(14)--(14)^12<10>12- [.etc.]
------------------------|--------------------------------
------------------------|--------------------------------
------------------------|--------------------------------


ANOTHER TRANSCRIPTION FROM URBAN FOLLOWS............

After the intro repeat where the 4 long sustained notes as u wrote are played
in the following style...
Dm      Dm      C       G
Slide / Slide / Plain / Bend     (twice)

(Tab: H-hammer-on P-pull-off; B-bend; vv-vibrato;S-slide;.staccato;() by itself)

after that....

|E-(10)--10--10--10 13vv-|---|(10)--10--10--10 12vv|-------10--13.-13-|------
|B-----13--13--13--------|---|----13--13--13-------|10~H~12--10-------|----
|G-----------------------|-%-|---------------------|------------------|------
|D-----------------------|---|---------------------|------------------|------
|A-----------------------|---|---------------------|------------------|------
|E-----------------------|---|---------------------|------------------|----


|E-15-13-----------------|-(10)-13-10--13-10-|13-10--13-10|13~P~10--13~P~10--
|B------15-13-15-13~B~15-|-----------13------|-----13-----|-------13-------13-
|G-----------------------|-------------------|------------|-------------------
|D-----------------------|-------------------|------------|-------------------
|A-----------------------|-------------------|------------|-------------------
|E-----------------------|-------------------|------------|-------------------


|E-13~P~10--|----------------15-----15--|-------15-----15--|19~P15-15--
|B--------13|(15)(15) 15~H~17--15-17--15|15~H~17--15-17--15|------15---
|G----------|---------------------------|------------------|------------------
|D----------|---------------------------|------------------|------------------
|A----------|---------------------------|------------------|------------------
|E----------|---------------------------|------------------|------------------


|E-19~P15-----19~P15---19~P15--|17~P16~P15--15------------------------------
|B-------15---------15-------15|----------18--18-15--15---------------------
|G-----------------------------|-------------------17--17~B~19vv-17~B~19vv--
|D-----------------------------|--------------------------------------------
|A-----------------------------|--------------------------------------------
|E-----------------------------|--------------------------------------------


|E-------------------------------------------------------------------------
|B--(12)~B~14---------------------------------------------------------------
|G--(12)~B~14 or 13------etc -------------------------------------------------
|D-------------------------------------------------------------------------
|A-------------------------------------------------------------------------
|E-------------------------------------------------------------------------

Вверх

Six Blade Knife

key: Am


Am / C / D
Am / C / D

Am              C                    D
Six blade knife,  do anything for you
Anything you want it to
ONe blade breaking my heart, One blade tear me apart
Yeah, six blade knife, do anything for you

You take away my mind like you take away the top of a tin
You come up from behind and lay it close on my skin
Took a stone from my soul, when I was lame
Just so that you, can make me tame
Yeah, six blade knife, (it) do anything for you

Dm                C                 (G) G
I want to be free from it now    mm mm
D
I dont want it no more
Dm                C           G
I want to be free from it now
D
mm mm I dont want it no more

solo:[ Am / C / D ] repeat like verse

Everybody got a knife, they just want it like they want it to be
A needle or a wife, something that you just cant see
Your sixblade knife, keeps you strong
Itll do me wrong,
yeah, six blade knife, do anything for you.
do any thing, anything

Вверх

So Far Away From Me

	E B A  E                 B                            E
Here I am again in this mean old town and your so far away from me

B                            E
Now where are you when the sun gos down and your so far away from me

A        C#m           B         E
So far away from me, so far I just cant see

A         C#m           B        A        E     B A E
So far away from me, just so far from me

B                    E
Im tired of bein in love and bein all alone when your sofar away
from me

B                     E
Im tired of makin out on the telephone cus your so far away from me

A         C#m           B         E
So far away from me, so far I just cant see

A         C#m           B        A        E     B A E
So far away from me, just so far from me

B                    E
And I get so tired when I have to explain your so far away from me

B                 E
See you be in the sun and I be in the rain and your so far away from me

A         C#m           B         E
So far away from me, so far I just cant see

A         C#m           B        A        E     B A E
So far away from me, just so far from me

Вверх

Sultans Of Swing

key: Dm

(single snare beat)
Dm / C-C / Dm / C-C
Intro lead
Dm
You get a shiver in the dark
C           Bb       A
its raining in the park but meantime
Dm                      C           Bb          A
south of the river you stop and you hold everything
F                   C
a band is blowing Dixie double four time
Bb                                 Dm    Bb-C
you feel alright when you hear that music ring


Dm              C        Bb          A
(Now) you step inside but you dont see too many faces
Dm                   C                        Bb      A
coming in out of the rain to (you) hear the jazz go down
F                       C
too much competition too many other places
Bb                                    Dm
but not too many horns can make that sound
(But not too many horns are blowing that sound)
Bb-C
way on downsouth
Bb-C
way on downsouth
Dm              Dm-C-Bb-C       Dm-C-Bb-C
London town

Dm          C       Bb          A
you check out Guitar George he knows all the chords
Dm                                                 C   Bb             A
mind hes (his) strictly rhythm he doesnt want to make it cry or sing
F                       C
and an old guitar is all he can afford
Bb                                              Dm   Bb-C
when he gets up under the lights to play his thing
Dm                      C     Bb         A
(and) harry doesnbt mind if he doesnt make the scene
Dm             C        Bb                  A
he(s) got a daytime job hes doing al(l)right
F                               C
he can play honky tone just like anything
(He can play the honky tonk like anything)
Bb                      Dm      Bb-C
saving it up for friday night
Bb-C
with the sultans
Dm     Dm-C-Bb-C
with the sultans of swing
Dm-C-Bb-C

Dm                          C           Bb            A
and a crowd of young boys theyre fooling around in the corner
Dm                                    C                Bb           A
drunk and dressed in their best brown baggies and their platform soles
F                                       C
they dont give a damn about (bout) any trumpet playing band
Bb                           Dm      Bb-C
it aint what they call rock and roll
Bb-C
and the sultans
Dm     Dm-C-Bb-C
and the sultans played creole
(Yeah the Sultans they played Creole)

Dm-C-Bb-C

Lead 1: ( chords:Follow 1 full verse)

Dm                    C         Bb         A
and then the man he steps right up to the microphone
Dm          C                Bb         A    (A7)
and says at last just as the time bell rings
F                           C
thank you goodnight now its time to go home
Bb                  Dm          Bb-C
and he makes it fast with one more thing
Bb-C
we are the sultans
Dm        Dm-C-Bb-C
we are the sultans of swing

Dm      -       C       -       Bb      -       C
1.25            0.5           2.25              4.0

Вверх

Sultans Of Swing (2 вариант)

                 B          B         R       B  R B  R B
E-9-8-9----10-|--------5---------9-------7------------------
B-8-8-8-10----|------5---5-8(10)---(10)8---8-8(10)8(10)8(10)
G----------10-|-7(9)----------------------------------------
D-------------|---------------------------------------------
A-------------|---------------------------------------------
E-------------|---------------------------------------------

S     S           S                    S                  H
E-------------------|-----10-8----|------------|-------------------
B------8-86--6-6-6-|----------10-|-6-6-6-6/8--|-------------------
G--7/9-9-97--7-7-7-|-/10------10-|-7-7-7-7/9--|-----5---5---5^7---
D----------8--8-8-8-|-------------|-8-8-8-8/10-|-5-7---7---7-------
A-------------------|-------------|------------|-------------------
E-------------------|-------------|------------|-------------------

B R B R B R     S
E-3---------------|-/9-9----------------|-----------------|----------------
B-4(5)4(5)4(5)4-3-|-------10---------10-|-5-5--6-5-6-5--3-|---------6-5----
G-----------------|----------9----------|-5-5--7-5-7-5--3-|-----7-5-----8-7
D-----------------|------------12-11----|-----------------|-5/7------------
A-----------------|---------------------|-----------------|----------------
E-----------------|---------------------|-----------------|----------------

S                  P     S                P   S
E---------------|---------------------------------------------------------
B-6-6-6-6/8-----|-6-5-3--6-6^5-5--/10-8--6-5-3--6-6^5---------------------
G-7-7-7-7/9--2x-|-7-5-3--7-7^5-5--/10-9--7-5-3--7-7^5----------5----------
D-8-8-8-8/10----|-------------------------------------3/5-7-8-------------
A---------------|---------------------------------------------------------
E---------------|---------------------------------------------------------

B          R                P                    R  B
E---------12--------------13-|-12^9-------------------------------
B--12(14)----(14)12----------|------10----------10----------------
G-------------------11/14----|---------9-----------(14)12(14)-----
D----------------------------|------------12-11-------------------
A----------------------------|------------------------------------
E----------------------------|------------------------------------

S     S            S         S          S 2x           P     S
E-------------------|-------------|------------|-----------------------
B------8-86--6-6-6-|---------6---|--6-6-6-6/8-|-6-5-3--6-6^5-5--/10-8-
G--7/9-9-97--7-7-7-|-----7-5---7|--7-7-7-7/9-|-7-5-3--7-7^5-5--/10-9-
D----------8--8-8-8-|-5/7---------|--8-8-8-8/10|-----------------------
A-------------------|-------------|------------|-----------------------
E-------------------|-------------|------------|-----------------------

P     S
E-------------------------|--------------------|-------------------------
B-6-5-3--6-6^5-5----------|--------------------|-------------------------
G-7-5-3--7-7^5-5--------5-|--First-Guitar-Solo-|-repeat-last-lick--------
D----------------3/5-7-8--|--------------------|-------------------------
A-------------------------|--------------------|-------------------------
E-------------------------|--------------------|-------------------------

S       S          S        S       S     Arp    S
E-------7/9-9-(9)/12-12-1210-|-9-|------------------6-|----------------
B-----------------------------|-5-|-----8-(8)6-----6--|-------6---6----
G--6--7-7/9---(9)/12----1210-|-0-|-7/9---(9)7----7---|-----7---7---7--
D---7-------------------------|---|-------------8------|-5/7------------
A-----------------------------|---|--------------------|----------------
E-----------------------------|---|--------------------|----------------

S 2x           P     S                P     S
E-----------|-------------------------------------------------|------------
B-6-6-6-6/8-|-6-5-3--6-6^5-5--/10-8--6-5-3--6-6^5-5-----------|------------
G-7-7-7-7/9-|-7-5-3--7-7^5-5--/10-9--7-5-3--7-7^5-5---------5-|Second-Solo-
D-8-8-8-8/10|---------------------------------------3/5-7-8---|------------
A-----------|-------------------------------------------------|------------
E-----------|-------------------------------------------------|------------

First Guitar Solo:
B        B      B      B       H  P     H  P
E---------------------------------------------------------------------
B-----------------------------------------------------------10--------
G--12(14)---12(14)-12(14)-12(14)--10^12^10--9^10^9--------9-----------
D------------------------------------------------------11-------------
A---------------------------------------------------12----------------
E---------------------------------------------------------------------
B  R                          H  P
E--12(13)12--10-------------------------------------------------------
B---------------10--------10-13--11^13^11--10---11--9-10--------------
G------------------10-------------------------------------------------
D---------------------12----------------------------------------------
A---------------------------------------------------------------------
E---------------------------------------------------------------------
B       B          R       S
E----------------13-------------/13-12--------------------------------
B--------13--------13------------------13----10----13-13--------------
G--12(14)--12(14)----(14)12-10------------12----12--------------------
D---------------------------------------------------------------------
A---------------------------------------------------------------------
E---------------------------------------------------------------------
B        R        B      B          H
E--------------------------------------13^10----10--------10----------
B--13(15)--(15)13-11-13(15)-13(15)--10-------10----13(15)----10-------
G---------------------------------------------------------------12-10
D---------------------------------------------------------------------
A---------------------------------------------------------------------
E---------------------------------------------------------------------
S        H  S
E---------------------------------------------------------------------
B--------6---------------------------------------6--------------------
G------7---7-------9-10/12-10--9^10/12---------7---7---0-5--7-5-------
D----8-----------10--------------------------8------------------------
A--8-----------10--------------------------8--------------------------
E---------------------------------------------------------------------
B       R
E---------------------------------------------------------------------
B-------8-------------------------------------------------------------
G--7(9)---(9)7-5-7-7--------------------------------------------------
D---------------------------------------------------------------------
A---------------------------------------------------------------------
E---------------------------------------------------------------------

Second Guitar Solo:
B                       B  R     H  P    H P    H P   H P   H P
E-----------------------------------------------------------------------
B-----------------------------------------------------------------------
G-12(14)-12--10-12-10-----12(14)12--9^12^9--7^9^7--5^7^5----------------
D---------------------12---------------------------------5^7^5----------
A--------------------------------------------------------------5^7^5----
E-----------------------------------------------------------------------

P P H P          H  P       H  P      H  P      H  P      H  P
E---------------------------8---------8---------8---------8-------------
B-10^8^6^8^6---8----8^10^8-----8^10^8----8^10^8----8^10^8----8^10^8-----
G------------7----9--------9----------9---------9---------9---------9---
D-----------------------------------------------------------------------
A-----------------------------------------------------------------------
E-----------------------------------------------------------------------

H  P        B            P     P     P         H
E-8----------------------10---------------------------------------------
B---8^10^8------------10----13^10--------------------------10-----------
G----------9---12(14)-------------12^10-12^10-----------10----12--------
D---------------------------------------------12--10^12-----------------
A-----------------------------------------------------------------------
E-----------------------------------------------------------------------

B          R           P            P
E-----------------------12--------10-|--13^10----10--13^10----10--------
B-----10-----11--11(13)----(13)11----|--------10-----------10-----------
G---X------X-------------------------|----------------------------------
D-X------X---------------------------|----------------------------------
A------------------------------------|----------------------------------
E------------------------------------|----------------------------------

P            P            P            P            P
E--13^10----10--13^10----10--13^10----10--13^10----10--13^10----10------
B--------10-----------10-----------11-----------11-----------11---------
G-----------------------------------------------------------------------
D-----------------------------------------------------------------------
A-----------------------------------------------------------------------
E-----------------------------------------------------------------------

P            P            P            P            P
E--13^10----10--15^12----12--15^12----12--15^12----12--15^12----12------
B--------11-----------13-----------13-----------13-----------13---------
G-----------------------------------------------------------------------
D-----------------------------------------------------------------------
A-----------------------------------------------------------------------
E-----------------------------------------------------------------------
Fade out.
P            P            P            P            B       B  R
E--15^12----12--15^12----12--15^12----12--15^12----12|-15(17)--15(17)15-
B--------13-----------13-----------13-----------13---|------------------
G---------------------------------------------------.|------------------
D---------------------------------------------------.|------------------
A----------------------------------------------------|------------------
E----------------------------------------------------|------------------

B  R      H  P     H  P      H  P
E--13------13--15(17)15--13^15^13---------------------------------------
B-----14--------------------------13^15^13--10^13^10--------------------
G-----------------------------------------------------------------------
D-----------------------------------------------------------------------
A-----------------------------------------------------------------------
E-----------------------------------------------------------------------

Вверх

Ticket To Heaven

Intro:  D  Bm  G  A   (twice)

D                                                         A
I can see what youre looking to find in the smile on my face
G                A               G          D
In my peace of mind       In my state of grace
D                                            A
I send what I can to the man from the ministry
G                        A                    D
hes a part of heavens plan and he talks to me

D                                                   A
Now I send what I can to the man with the diamond ring
G                        A     G                 D
hes a part of heavens plan    and he sure can sing
D                                                         A
now its all I can afford but the lord has sent me eternity
G                          A                     D
its to save the little children in a poor country

D                                           A
I got my ticket to heaven and everlasting life
G                     A     G         D
I got a ride all the way     to paradise
D                                           A
I got my ticket to heaven and everlasting life
G          A           D
all the  way to paradise

D
Now theres nothing left for luxuries nothing left to pay my
A
heating bills
G                           A    G           D
but the good lord will provide    I know he will
D                                                  A
so send what you can to the man with the diamond ring
G                              A                D
theyre tuning in across the land to hear him sing
D                                           A
I got my ticket to heaven and everlasting life
G                   A    G         D
got a ride all the way    to paradise
D                                           A
I got my ticket to heaven and everlasting life
G         A           D       Bm
All the way to paradise
G         A           D       Bm
All the way to paradise

G    A   D    Bm
G        A     D

Вверх

Tunnel Of Love

 Dm  C  Dm                Bb                 Dm  C  Dm  Bb
--------10----10--------------------------------------------
-----------------13-10-----------------------10-------------
-----------------------12-10---10-9-10-12-10----------------
------------------------------------------------------------
------------------------------------------------------------
------------------------------------------------------------


Dm        F                        C
Getting crazy on the waltzers, but its the life that I choose

G                                                       Dm
Sing about the sixblade sing about the switchback and a torture tatoo

Dm                             F
And Ive been riding on a ghost train
------------------------------------------------------------
---------------------------------------3/5-5----------------
---------------------------------------2/5-5^6--------------
------------------------------------------------------------
------------------------------------------------------------
------------------------------------------------------------

C
where the cars they scream and slam
------------------------------------------------------------
--------------------------------------5-5---5---------------
--------------------------------------5-5---5^6-------------
------------------------------------------------------------
------------------------------------------------------------
------------------------------------------------------------

G                                              Dm
And I dont know where Ill be tonight but Id always tell you where I am

Dm                             F
In a screaming ring of faces
------------------------------------------------------------
------------------------------3/5-5-------------------------
------------------------------2/5-5^6-----------------------
------------------------------------------------------------
------------------------------------------------------------
------------------------------------------------------------

C
I see her standing in the light
------------------------------------------------------------
---------------------------------9(10)-9-7----7-------------
-------------------------------------------10---------------
------------------------------------------------------------
------------------------------------------------------------
------------------------------------------------------------

G                                                     Dm
She had a ticket for the races just like me she was a victim of the night

Dm                             F
I put my hand upon the lever
------------------------------------------------------------
-------------------------------5-7-5-7-5--------------------
-------------------------------6----------------------------
-------------------------------6----------------------------
------------------------------------------------------------
------------------------------------------------------------

C
said let it rock and let it roll
------------------------------------------------------------
-----------------------------------9/7---9/7---9------------
----------------------------------10/8--10/8--10------------
------------------------------------------------------------
------------------------------------------------------------
------------------------------------------------------------

G                                                      Dm
I had the one arm bandit fever was an arrow through my heart and my soul


Bb                      C
And the big wheels keep on turning
------------------------------------------------------------
-----------------------------------------6---6---6^8-8------
-------------------------------------5-7---7----------------
------------------------------------------------------------
------------------------------------------------------------
------------------------------------------------------------

F            Bb
neon burning , up above

F
And I am high on the world
------------------------------------------------------------
----------------------------11(13)-11-10-11-10--------------
-----------------------------------------------12-10--------
------------------------------------------------------------
------------------------------------------------------------
------------------------------------------------------------

C      Dm               Bb
come on take a low ride with me girl.
------------------------------------------------------------
------------------------------------------------------------
-------------------------------------------10---------------
----------------------------------------12----12-10-12------
------------------------------------------------------------
------------------------------------------------------------

Dm  C  Dm  Bb
On the tunnel of love.


Dm     F                              C
Its just the danger when youre riding at your own risk

G                                                   Dm
She said you are the perfect stranger she said baby lets keep it like this

Dm              F
Its just a cakewalk
------------------------------------------------------------
----------------------5-----5-------------------------------
----------------------6^5---5-------------------------------
------------------------------------------------------------
------------------------------------------------------------
------------------------------------------------------------
C
twisting baby step right up and say
------------------------------------------------------------
------------------------------------------------------------
------------------------------------10(12)-10-9-10-9-10(12)-
------------------------------------------------------------
------------------------------------------------------------
------------------------------------------------------------


G                                              Dm
Hey mister give me two give me two because any two can play


Bb           C
And the big wheels keep on turning
---------------------------6--------------------------------
---------------------------6--------------------------------
---------------------------7--------------------------------
---------------------------8--------------------------------
------------------------------------------------------------
------------------------------------------------------------

F            Bb
neon burning , up above
-------------------------10-11-10---------------------------
----------------------------------13-11---------------------
------------------------------------------------------------
------------------------------------------------------------
------------------------------------------------------------
------------------------------------------------------------

F
And I am high on the world
------------------------------------------------------------
----------------------------13-11-10-11-10------------------
--------------------------------------------12-10-----------
------------------------------------------------------------
------------------------------------------------------------
------------------------------------------------------------

C      Dm               Bb
come on take a low ride with me girl.
------------------------------------------------------------
------------------------------------------------------------
-------------------------------------------10---------------
----------------------------------------12----12-10-12------
------------------------------------------------------------
------------------------------------------------------------

Dm  C  Dm  Bb
On the tunnel of love.


Gm                       Bb
Well its been money for muscle another whirligig

Gm                               Bb
Money for muscle         another girl I dig
------------------------------------------------------------
------------------------------------------------------------
------------------------------------------------------------
-------------------8-10-8-----------------------------------
----------------10------------------------------------------
------------------------------------------------------------

Gm                                     Bb
Another hustle            just to make it big
------------------------------------------------------------
------------------------------------------------------------
------------------------------------------------------------
-------------------8-10-8-----------------------------------
----------------10------------------------------------------
------------------------------------------------------------

C              C
and rock away      rock away
------------------------------------------------------------
------------------------------------------------------------
--------------10-9-----------10-9---------------------------
------------------------------------------------------------
------------------------------------------------------------
------------------------------------------------------------


F                              C Dm
And girl, it looks so pretty to me , just like it always did

Bb C                          F Bb                      C
Like the Spanish city to me, when we were kids.


SOLO : [ F  C Dm  Bb C  F Bb  C ] (2x)  Dm  C  Dm  Bb
----

Dm            F                       C
She took off a silver locket she said remenber me by this
-----------------------------------------------------------------
-----------------------------------------------------------------
----------------------------------------------------------9^7^9--
-----------------------------------------------------------------
-----------------------------------------------------------------
-----------------------------------------------------------------

G
She put her hand in my pocket
-------------------------------3----------------------------
-------------------------------3---3-3-5-5-3----------------
------------------------------------------------------------
------------------------------------------------------------
------------------------------------------------------------
------------------------------------------------------------

Dm
I got a keepsake and a kiss
------------------------------------------------------------
-----------------------------------6------------------------
------------------------------------------------------------
-----------------------------7-5---7------------------------
---------------------------------8--------------------------
------------------------------------------------------------

Dm                           F
And in the roar of dust and diesel
------------------------------------------------5-----------
------------------------------------5^6---6-8-8-6-----------
------------------------------------------------------------
------------------------------------------------------------
------------------------------------------------------------
------------------------------------------------------------

C
I stood and watched her walk away
------------------------------------------------------------
----------------------------------6-5-----------------------
--------------------------------------5---------------------
----------------------------------------8-7-5-8-7-5-------5-
----------------------------------------------------8-7-8---
------------------------------------------------------------

G                                                                   Dm
I could have caught up with her easy enough but something must have made me stay

Bb      C      F            Bb
And the big wheels keep on turning , neon burning , up above

F
And I am high on the world
------------------------------------------------------------
----------------------------11(13)-11-10--------------------
-----------------------------------------12-10--------------
------------------------------------------------------------
------------------------------------------------------------
------------------------------------------------------------

C      Dm               Bb
come on take a low ride with me girl.
------------------------------------------------------------
------------------------------------------------------------
-------------------------------------------10---------------
----------------------------------------12----12-10-12------
------------------------------------------------------------
------------------------------------------------------------

Dm  C  Dm  Bb
On the tunnel of love.

Dm  C  Dm  Bb
On the tunnel of love.


Gm                                        Bb
And now Im searching through these carousels and the carnival arcades

Gm                        Bb
Searching everywhere from steeplechase and palisades

Gm                     Bb
In any shooting gallery where promises are made

C                                                           C
To rock away rock away from cullercoats and whitley bay out to rockaway


(Bridge : arpeggiated chords)
F                                 C Dm                     Bb C
And girl it looks so pretty to me  ,   like it always did

F Bb                     C F
Like the Spanish city to me  ,   when we were kids.

C Dm                      Bb C
And girl it looks so pretty to me  ,   like it always did

F Bb                    C
Like the Spanish city to me  ,   when we were kids.



FINAL SOLO :
----------

* Second guitar : plays chords from the bridge,
and then repeat [ F  C Dm  C  Bb ] till the end.

* Lead guitar :

---------------------------------------------------------------------
-10^11^10----------10-11-10--------------10-13-10-11--------------10-
------------12--------------12-10-12------------------------10-12----
------------14---------------------------------------12--------------
---------------------------------------------------------------------
---------------------------------------------------------------------

---------------------------------------------------------------------
-10^11^10---10(11)10---10-11-10---------------------10-11-10---------
----------------------------------10-12---10-12--------------12-10-12
---------------------------------------------------------------------
---------------------------------------------------------------------
---------------------------------------------------------------------

---------------------------------------------------------------------
-10-13-10-11-----------10----------10--------------------13(15)13----
-------------10-10--------12-10-12------12^10---12^10----------------
----------------12---------------------------------------------------
---------------------------------------------------------------------
---------------------------------------------------------------------

------------------------10-------------------------------------------
-10-11---------------------13---------------------------12--------12-
-------10-12-12^10^12-------------------------10-12(14)----12(14)----
------------------------------10-10-12-12----------------------------
---------------------------------------------------------------------
---------------------------------------------------------------------

-------------------------------------------------------------
-13----10-13----10-13-10--------------12---------------------
----12-------12----------12-10-12(14)------------------------
-------------------------------------------------------------
-------------------------------------------------------------
-------------------------------------------------------------

-------------------------------------------------------------
-------------------------------------------------------------
----9-10-12-10^12^10-9-9^10^9----10----10--------------------
-12---------------------------12----12----12-10--------------
-------------------------------------------------------------
-------------------------------------------------------------

--------------------------------------------10-10---10-------
--------------------------------------11-13------------13-13-
----------------9-10-9-10------------------------------------
-12-10-12-10-12-----------10-10-10-12------------------------
-------------------------------------------------------------
-------------------------------------------------------------

---------------------------------------10-13-12-10----10----10----------
-11-10---10-10----------(15)13(15)-----------------13----13----13-------
---------------12-10-10-------------------------------------------12-12-
------------------------------------------------------------------------
------------------------------------------------------------------------
------------------------------------------------------------------------

------------------10-13----10-13----10-13-10-------10-------10-----------
---------------13-------13-------13----------13-10----10-13--------10^13-
-(14)12-10---------------------------------------------------------------
-------------------------------------------------------------------------
-------------------------------------------------------------------------
-------------------------------------------------------------------------

----10-------10--------13-12-10-----------17----------------------
-10----10-13--------10----------10-----------20-20----------------
---------------------------------------------------17^19^17----17-
---------------------------------------19-------------------19----
------------------------------------------------------------------
------------------------------------------------------------------

--------------------13-13-13----10--------------------------------
----10------10-13------------11-------13--------------------------
-10--------------------------------10-----------------------------
-------10---------------------------------------------------------
------------------------------------------------------------------
------------------------------------------------------------------

-------------17-18-17-----------------------------------------------
----18----18----------20-18^20^18-17-----------------18----18-20-20-
-17----17----------------------------19-----------19----19----------
----------------------------------------19-19-----------------------
--------------------------------------------------------------------
--------------------------------------------------------------------

-------------------17--------------------------------------
-17-18-20-17-18-20-------18------18-18------18-18----------
----------------------19------19---------19---------19-----
-----------------------------------------------------------
-----------------------------------------------------------
-----------------------------------------------------------

-|-------------|-------------------------------------|-------------
-|-------------|-11-10----11---11-10-----------------|-------------
-|--keyboards--|-------12------------12-10-12-12-10--|--keyboards--
-|-------------|-------------------------------------|-------------
-|-------------|-------------------------------------|-------------
-|-------------|-------------------------------------|-------------

Вверх

Twisting By The Pool

A
Were going on a holiday, now
D                       E
Gonna take a villa or a small chalet
A
Costa Del (?), magnifico,
D                   E
You know the cost of livings so low

CHORUS :
D            E
Yeah, gonna be so neat
D             E
Dance, to the Euro-beat
D           E
Yeah, gonna be so cool
E
Twistin by the (twisting-by-the)
E                                         A
Twistin by the (twisting-by-the), by the pool
A               D
Twistin by the pool
A               D
Twistin by the pool (twistin by the pool)
A               D
Twistin by the pooooool

Verse 2 :
Sitting in a small cafe now
Swing-swing-swinging to the cabaret
Wanna see a movie, take in a show
Meet new people at the disco, yeah

Repeat chorus

Bm
And we can still get information
F#
Reading all about inflation
Bm                     D/E
And youre never gonna be out of reach
E
Theres a clubhouse on the beach
E
A one, a two, a-one-a-two-a-three-a-four

Solo : Same chords as verse

A                   C#m
Mmmm, youre gonna look so cute
D           E
Sunglasses, bathing suit
A           C#m
Be the lady of my dreams
D                      E
Like the ladies in the magazines

Вверх

Walk Of Life

E A B A B
E
Here comes Johnny singing oldies, goldies
Be-Bop-A-Lula, Baby What I Say
Here comes Johnny singing I Gotta Woman
Down in the tunnels, trying to make it pay
A                                       E
He got the action, He got the motion    Yeah the boy can play
A                      E
Dedication, devotion   Turning all the night time into the day
E                                     B
He do the song about the sweet lovin woman
E                     A
He do the song about the knife
E7   B                  A
He do the walk, he do the walk of life.
B                   E    A  B  A B
Yeah, he do the walk of life
E
Here comes Johnny and hell tell you the story
Hand me down my walkin shoes
Here come Johnny with the power and the glory
Backbeat the talkin blues
A
He got the action, He got the motion
E
Yeah the boy can play
A
Dedication, devotion
E
Turning all the night time into the day
E                                     B
He do the song about the sweet lovin woman
E
He do the song about the knife
E7  B                   A
He do the walk, he do the walk of life.
B                       E  A B A B
Yeah, he do the walk of life
E
Here comes Johnny singing oldies, goldies
Be-Bop-A-Lula, Baby What I Say
Here comes Johnny singing I Gotta Woman
Down in the tunnels, trying to make it pay
A
He got the action, He got the motion
E
Yeah the boy can play
A
Dedication, devotion
E
Turning all the night time into the day
E                              B
And after all the violence and double talk
E                               A
Theres just a song in all the trouble and the strife
E7  B                    A
You do the walk, you do the walk of life.
B                     E  A B A B
Yeah, you do the walk of life

Вверх

Where Do You Think Youre Going

ACOUSTIC GUITAR INTRO:


E------0-0--0--0--0-0-0-0---0-|----1-1-1--1--1--1----1-1-1-|
B------1-1--1--1--1-1-1-1---1-|----1-1-1--1--1--1----1-1-1-|
G------2-2--2--2--2-2-2-2---2-|----2-2-2--2--2--2----2-2-2-|
D------2-2--2--2--2-2-2-2---2-|----3-3-3--3--3--3----3-3-3-|
A--0---0-0--0--0--0-0-0-0---0-|----3-3-3--3--3--3----3-3-3-|
E-------------------------0---|-1--1-1-1--1--1--1--1-1-1-1-|


E------3-3-----3-3-3-----------|---0-0-0-0--0--0--0-0-0-0----|
B------3-3-----3-3-3-----------|---0-0-0-0--0--0--0-0-0-0----|
G------4-4-----4-4-4-----------|---2-2-2-2--2--2--2-2-2-2----|
D------5-5-----5-5-5-----------|---2-2-2-2--2--2--2-2-2-2----|
A------5-5-----5-5-5-----------|---2-2-2-2--2--2--2-2-2-2----|
E--3---3-3--3--3-3-3-0-3^5^3^0-|-0-0-0-0-0--0--0--0-0-0-0-b3-|





ELECTRIC GUITAR RIFF:


A-             F                 D-                F
E---------------|------0^1^0------|------0^1^0------|------------|
B----0^1^0------|------------3--1-|-3----------3--1-|-2----------|
G----0^2^0-2--0-|-2----0^2^0------|------0^2^0------|------------|
D----------2--0-|-3----------3--2-|-3----------3--2-|-3----------|
A---------------|-----------------|-----------------|------------|
E---------------|-----------------|-----------------|------------|





FIRST SOLO:


A-         F                         D-                     F
E-----------|-------------------------|----------------------|----------|
B-----------|-------------------------|----5^6^5---5---------|----------|
G--------7w^|^5^7-----5---5---5---5---|----------7---7^5---5-|------12w-|
D-----------|-------7---7---7---7---7-|-7----------------7---|-7--------|
A-----------|-------------------------|----------------------|----------|
E-----------|-------------------------|----------------------|----------|





SECOND SOLO:

A-    F      D-            F
E------|------|-------------|----------------------------------|
B------|------|-------------|-------------------------------10-|
G------|------|----12w--12w^|^10^12----------------------------|
D------|------|-------------|--------12^10----10-10--12^10-----|
A------|------|-------------|--------------12------------------|
E------|------|-------------|----------------------------------|




A-                                          F
E--------------------------------------------|---------------------------------|
B--------10-10-10-----10-10-----10-10-----10-|-13--13^10----10-13^10----10-13w-|
G--12w------------12w-------12w-------12w----|-----------12----------12--------|
D--------------------------------------------|---------------------------------|
A--------------------------------------------|---------------------------------|
E--------------------------------------------|---------------------------------|




D-                                 F
E---------10-12^10----10---------|-----------------13^10----------10----------|
B-----13w----------13---13^10----|-10-13-10-----13-------13^10-13----13^10-13-|
G-----------------------------12-|----------12w-------------------------------|
D--------------------------------|--------------------------------------------|
A--------------------------------|--------------------------------------------|
E--------------------------------|--------------------------------------------|



A-                     F         D-
E-----------------------|----15w--|-13--13^15^13-15w-15w-15w-|
B--15w---15w---13-15-13-|---------|--------------------------|
G-----------------------|---------|--------------------------|
D-----------------------|---------|--------------------------|
A-----------------------|---------|--------------------------|
E-----------------------|---------|--------------------------|




F                                         A-
E--13-----------------12-----12-15-----15-|-----15-----15-----15-----15--------|
B-----15-13----13-15w----15w-------15w----|-15w----15w----15w----15w----w15-13-|
G-----------14----------------------------|------------------------------------|
D-----------------------------------------|------------------------------------|
A-----------------------------------------|------------------------------------|
E-----------------------------------------|------------------------------------|




F
E--15w--15w--w15-----
B--------------------
G--------------------
D--------------------
A--------------------
E--------------------

Вверх

Where Do You Think Youre Going (2 вариант)

Intro: Am_F_G_E

Am
Where d?ya think you?re going
F
Don?t you know it?s dark outside
G
Where d?ya think you?re going
E
Don?t you care about my pride
Am
Where d?ya think you?re going
F
I think a you don?t know
G
You got no way of knowing
E
Is here no place you can go
Am_F_Dm_F

Am
I understand your changes
F
A-long before you reach the door
G
I know d?ya think you?re going
E
I know what you came her for
Am
And now I?m sick of joking
F
You know I like you to be free
G
A-where d?ya think ya going
E                             Am      F_Dm_F
I think you better go with me girl

G
You say there is no reason
Am
But you still find cause to doubt me
G
If you ain?t with me girl
E                     Am      F_Dm_F
You?re gonna be without me
Where d?ya think you?re going
Don?t you know it?s dark outside
Where d?ya think you?re going
I wish I didn?t care about my pride
And now I?m sick of joking
You know I like you to be free
A-where d?ya think ya going
I think you better go with me girl
Am_F_Dm_F * 7
Common…

Вверх

Why Worry

---------- Play the parts in this order -----------
Intro part 1
Intro part 2
Verse
Chorus
Intro part 2
Verse
Chorus
Instrumental ending (not included)
---------------------------------------------------


--------------------- Chords ----------------------
E    = 022100  or  xx6454
B7   = 001202  or  x6444x
A    = x02220  or  xx7655
B    = xx4442
F#   = xx4322
C#m7 = xx2424
---------------------------------------------------



Intro (part 1)
--------------

|E   |B7                  |E    |B7                  |E
|    |                    |     |                    |
------------------------------------------------------------------
-9----------9-10---10-10-9-9-----------9-10---10-10-9-12---12-12--
------11-11----------------------11-11----------------------------
------------------------------------------------------------------
------------------------------------------------------------------
------------------------------------------------------------------

|A         F#       |B    C#m7 |B
|                   |          |
----------------9---------------------------------
-9--------10-12---11------------------------------
---11-9--------------11-9-8--------------------12-
-------------------------------9---9-11-8---8-----
-------------------------------------------8------
--------------------------------------------------


Intro (part 2)
--------------

|E                  |A     B    |                   |A B A B
|                   |           |                   |
-0---0-2-4-2^4^2-0---0-----2-----0---0-2-4-2^4^2-0-----------
---0---------------4-2---2-4-------0---------------4-2-4-5-4-
-----------------------2-----------------------------2-4-6-4-
-------------------------------------------------------------
-------------------------------------------------------------
-------------------------------------------------------------

|E                  |A     B    |                   |A B A B
|                   |           |                   |
-0---0-2-4-2^4^2-0---0-----2-----0---0-2-4-2^4^2-0-----------
---0---------------4-2---2-4-------0---------------4-2-4-5-4-
-----------------------2-----------------------------2-4-6-4-
-------------------------------------------------------------
-------------------------------------------------------------
------------------------------------------------------------

|A B A B    |A B A
|           |
-------------------
-2-4-5-4-----2-4-5-
-2-4-6-4-----2-4-6-
-------------------
-------------------
-------------------


Verse
-----

Hint : play it like a barree on 4th fret

|E              |B7             |E             |B7
|               |               |              |
-4-------4-------------------------------4-----------------------
-------5-----5-----------4-----4-5-----5-----5-----------4---4-7-
-----4-----------4-----4-----4-------4-----------4-----4---4-----
---6-------6---6-----4-----4-------6-------6---6-----4-----------
-------------------6-------------------------------6-------------
-----------------------------------------------------------------
Baby,            I see ...       sad,           some people ...


|E              |A       F#     |B      C#m7    |B
|               |               |               |
-------------4-------------------------------------------7-
-5-------5-----7-5-----5-7---7-5-4-----4-5-----5-7-4---4---
-----4-----4---------6-----6---------4-------4-------------
---6---6-----------7---------------4-------6---------7-----
-----------------------------------------------------------
-----------------------------------------------------------
bad,             the things ...  say,                   but


The second half of the verse is roughly the same. The first line (E B7 E B7)
is slightly different, though the chords remain unchanged. Unfortunately I
cant remember these differences.


Chorus
------

|E            |A      B             |E            |A       B
|             |                     |             |
---------------------------------   ---------------------4---------
-------5-------------------------   -----------5-------5-------4---
---4-----4-----------------------   ---4-----4-------6-------4---4-
-6---6-----6-4---------4-----6-7-   -6---7-6-----4-----------------
---------------7-----7-----------   -------------------------------
---------------------------------   -------------------------------

<---------- 4 times ------------>

worry,         there should ...
pain,          there should ...
rain,          these things ...
same,          so why worry now,                   why worry now.

Вверх

You And Your Friend

      Gm                        B     Dm
Will you and your friend come around
Ab                             Gm
Are you and your friend gonna  get on down
Gm                        B     Dm
Will you and your friend come around
Ab                                Gm
Or are you and your friend gonna  let me down
F                          Gm
If you talk to one another
F                 Gm
I?m a hungry man
F             Gm
Let me know  one way or the other
F
So I can make my plans
Gm                        B     Dm
Will you and your friend come around
Ab                             Gm
Are you and your friend gonna  get on down
Gm                        B     Dm
Will you and your friend come around
Ab                                Gm
Or are you and your friend gonna  let me down

F                  Gm
I relive the situation
F                     Gm
Still see in in my mind
F           Gm
You got my imagination
F
Working overtime

Eb            Gm
Baby, Baby

Вверх

Your Latest Trick

E----------||--------------------------|---------------------|
B----------||--------------------------|---------------------|
G----------||o-------------------------|---------------------|
D----11-12-||o-14----13-11----11-13-14-|-14^-------14-13--11-|
A--11------||-----11-------------------|---------------------|
E----------||--------------------------|---------------------|

E-|------------------------|-----------------------|--------------------|
B-|------------------------|-----------------------|--------------------|
G-|-------------------11---|-----------------------|---------------11---|
D-|----------------------14|-(14)---------11-------|-------------11--11-|
A-|-14-------------14------|-----------------------|-13-----------------|
E-|------------------------|-----------------------|--------------------|

E-|---------------------|-----------------------|----------------------||
B-|---------------------|-----------------------|----------------------||
G-|---------------------|-------13--------------|-13--14-13-----------o||
D-|-13------------------|-----13-----16--14--16-|------------16-14-16-o||
A-|-----14--------------|-15--------------------|---15-----------------||
E-|---------------------|-----------------------|----------------------||

Вверх