Aerosmith

Adams Apple
Aint That A Bitch
Amazing
Angel
Angel
Big Ten Inch Record
Blind Man
Blind Man
Bogey Man
Crazy
Crazy (crd)
Cryin
Cryin
Cryin (2 вариант)
Deuces Are Wild
Dream On
Dream On (2 вариант)
Dream On (3 вариант)
Dude Look Like A Lady
Eat The Rich
Face
Fallen Angels
Falling In Love
Fly Away From Here
Hangman Jury
Hangman Jury (2 вариант)
Hangman Jury (tab)
Hole In My Soul
Home Tonight
I Aint Got You
I Dont Want To Miss A Thing
I Dont Want To Miss A Thing
I Dont Want To Miss A Thing (2 вариант)
I Live In Connecticut
Janies Got A Gun
Kings And Queens
Last Child
Last Child (2 вариант)
Livin On The Edge
Livin On The Edge (2 вариант)
Lord Of The Thighs
Make It
Make It
Mama Kin
Milkcow Blues
Movin Out
My Fist Your Face
No More No More
Permanent Vacation
Pink
Round And Round
Same Old Song And Dance
Season Of Wither
Shit House Shuffle
Shut Up And Dance
Sick As A Dog
Somebody
Soul Saver
Subway
Subway
Sunshine
Sweet Emotion
The Hop
Toys In The Attic
Train Kept A Rollin
Uncle Salty
Walk On Down
Walk This Way
What It Takes
When I Needed You
Вверх

Adams Apple

intro-
(1/2 step)
E|---------5-----------------------5---------------|
B|---------5----------4b4-4r---2---5---------4b4-4r|
G|---------2----------4b4-4r---2---2---------4b4-4r|
D|---------2----------4b4-4r---2---2---------4b4-4r|
A|-3b-p0-------3b-p0-----------0-------3b-p0-------|
E|-------------------------------------------------|

E|-----5---------------------|
B|-2---5-----------4b4-4r--5-|
G|-2---2-----------4b4-4r--5-|
D|-2---2-----------4b4-4r--5-|
A|-0-------3b-p0-------------|
E|---------------------------|

The verse riff,upon which most of the song is built, is very
similar in structure to the intro. The only difference is the
beginning and the end. In other words, its just this over and
over again:
rhy.fig.1-
E|----5-------------------|
B|-2--5-----------4b-4-4r-|
G|-2--2-----------4b-4-4r-|
D|-2--2-----------4b-4-4r-|
A|-0------3b-p0-----------|
E|------------------------|

A(palm muted)
Back when Cain was able way before the stable
Lightning struck right down from the sky

At this point, the guitar plays this:
rhy.fig 2-
D5    C#5 C5  B5    B
E|---------------------2-|
B|---------------------4-|
G|-7----7--6--5--4-----4-|
D|-7----7--6--5--4-----4-|
A|-5----5--4--3--2-----2-|
E|-----------------------|

A mothership with faith said "Lets give it a try"(rhy.fig 1)
A
Conscience was related
Man, he was created
Lady Luck took him by surprise(rhy.fig.2)
E
Her sweet and bitter fruit it surely opened his eyes

chorus-
D
Well, she ate it
F
Lordy it was love at first bite(rhy.fig 1)
D
Well she ate it
G                         F#m         E
Never knowin wrong from right right right

The chord progression is pretty much the same until the end.
The rest of the lyrics go like this:

Even Eve in Eden
voices tried deceivin with lies to show the lady the way
At first she stopped and turned and tried to walk away

Man, he was believer
Lady was deceiver so the story goes, but you see
The snake was he and she just climbed right up his tree
So...(go into chorus)

Science was related
man, he was created when Lady Luck took him by surprise
Her sweet and bitter fruit it surely opened his eyes

Evil came like rain an who knows whos to blame an
Somethin tried to lay her to waste
and all shed want to need was just a little taste
(chorus)

End on a variation of rhy.fig. 1 and throw the E chord in over
"thats right!" Thats basically it. It should be pretty
accurate because its similar if not identical to the way that
Joe Perry played it in a Rockumentary clip of Texxas Jam 78
(Im pretty sure thats what it was). Please consider posting
the solo if you know it.

Other chords used:
E   D   F    G   F#m
E|-0---2---1----3----2-|
B|-0---3---1----0----2-|
G|-1---2---2----0----2-|
D|-2---0---3----0----4-|
A|-2-------3----x----4-|
E|-0-------1----3----2-|

Вверх

Aint That A Bitch

 Gm                               C
Up in smoke you?ve lost another lover
Gm                          C
As you take a hit of your last cigarette
Ab        Bb
Strung out, burnt out, yeah
Cm                        Bb
you?re down on your luck and you don?t give a huh
Ab                Bb
?til the best part of you starts to switch
Ain?t that a bitch

Cm             F
Freak out, I?m alone now
Bb                           Eb
I feel just like I?m losin? my mind
Bb               Cm
?cause love is like the right dress
Ab
On the wrong girl
Eb                           Bb
You never know what you?re gonna find
Cm                   F
You think you?re high and fine as wine
Bb                      Eb
Then you wind up like a dog in a ditch
Bb              Cm
?Cause love is like a wrong turn
Ab         F
On a cold night     yeah
Eb     Cdim   Ab   Eb
Ain?t that a bitch


Cm                     F
In a daze,in the throes of emotion
Cm                F
You see God in the Devil?s eyes
Ab      Bb
Then you fall so far from grace
Cm                            Bb
You wouldn?t know a kiss If it was on your face
Ab                         Bb
You can tell it to the jury But you ain?t got no case


Freak out, I?m alone now
I feel just like I?m losin?my mind
?cause love is like the right dress
On the wrong girl
You never know what you?re gonna find
The gal was fine as calamine but not
enough to scratch a seven year itch
?cause love is like the last licks outta Hendrix
Yeah, ain?t that a bitch

Guitar Solo
G  C  G  C  G  C

Then you feel so out of place
Lickin? up the arsenic
From the same old lace
You know the stuff is poison
But you gotta have a taste, you gotta

Freak out, I?m alone now
I feel just like I?m losin? my mind
?cause love is like the right dress
On the wrong girl
You never know what you?re gonna find
You think you?re high and fine as wine
Then you wind up with your face in the ditch
Cm      Cm/Bb
?cause love is like a warm gun
Ab       Ab/G  F                    Eb  Cdim Ab Eb
On a cold night       yeah, ain?t that a bitch

Вверх

Amazing

Intro: Am - G - Am - G

Am                         G
I kept the right ones out and let the wrong ones in
C                                       F
Had an angel of mercy to see me through all my sins
Fm/G#                       C/G
There were times in my life when I was goin insane
D/F#        F
Tryin to walk through the pain
Am                 G
When I lost my grip and I hit the floor
C                                              F
Yeah, I thought I could leave but couldnt get out the door
Fm/G#                C/G
I was so sick and tired of livin a lie
D/F#                 F
I was wishin that I would die

Chorus:
C Em            F
Its amazing, with the blink of an eye you
Em              G
finally see the light
C Em           F
Its amazing when the moment arrives that
Em               G
you know youll be alright
F Em          D
Its amazing and Im sayin a prayer for
G                  C
the desperate hearts tonight

Am                D
That one last shots a permanent vacation
F                         C
And how high can you fly with broken wings?
Am                  D
Lifes a journey not a destination
F                            G
And I just cant tell just what tomorrow brings

Am                        G
You have to learn to crawl before you learn to walk
C                                          F
But I just couldnt listen to all that righteous talk
Fm/G#                    C/G
I was out on the street, just tryin to survive
D/F#                 F
Scratchin to stay alive

Chorus:
C Em            F
Its amazing, with the blink of an eye
Em              G
you finally see the light
C Em           F
Its amazing when the moment arrives that
Em               G
you know youll be alright
Am Em         D
Its amazing and Im sayin a prayer for
G                  C
the desperate hearts tonight

C D
Desperate hearts, desperate hearts
D Em
Did you wanna see without and give it out now (or whatever...)
Em F
Ow, oh yeah yeah, oh yeah yeah, ya ka kow, ya ka ka ka kow

Outro...
C - D - Em - F
G - Am - G - F
C - D - Em - F
G - Am - G - F
etc...

Вверх

Angel

INTRO:
Eb5  Bb5 Ab5  Bb5 Eb5  Bb5 Ab5
Bb5 Eb5  Bb5 Ab5  Bb5 C5  Bb5 Ab5 (Absus4 Ab)
(*Look at the timing note at the end if this looks confusing.)

VERSE 1:
Eb                                              Ab
Absus4 Ab
Im alone.  And, I dont know if I can face the night.
Eb                Cm                         Gm    Ab
Im in tears and the cryin that I do is for you.
Bb5           C5             Ab5
I want your love.  Lets break the walls between us.
Bb5              C5           Ab5
Dont make it tough.  Ill put away my pride.
Bb5        C5                Ab5                        Bb5
Enoughs enough.  Ive suffered and Ive seen the light.
(Baby)

CHORUS:
Bb5 Eb5     Bb5 Ab5                   Bb5 C5   Bb5 Ab5
Youre my ang   el.     Come and save me tonight.
Bb5 Eb5    Bb5 Ab5                     Bb5 C5   Bb5 Ab5
Youre my ang  el.     Come and make it all right.
(Absus4 Ab)

VERSE 2:
Dont know what Im gonna do about this feeling inside.
Yes, its true.  Loneliness took me for a ride.
Without your love Im nothing but a beggar.
Without your love a dog without a bone.
What can I do? Im sleepin in this bed alone.
(Baby)

CHORUS:
Bb5 Eb5    Bb5 Ab5                 Bb5 C5   Bb5 Ab5
Youre my ang  el.     Come and save me tonight.
Bb5 Eb5    Bb5  Ab5                  Bb5  C5   Bb5 Ab5
Youre my ang  el.  yeah, come and make it all right.
Bb5  Eb5
Come and save me to - night.

CHORDS FOR THE SOLO:
Eb5   Bb5 Ab5   Bb5 C5   Bb5 Ab5
Bb5 Eb5   Bb5 Ab5   Bb5 C5   Bb5 Ab5   Bb

THE TAB FOR THE SOLO:
Eb5                                    Bb5    Ab5
Bb5
e|------------------------------------------------------|
b|------------------------------------------------------|
g|---------13-------------------------------------------|
d|--13^17---17--15^17^15-13-------13--------------------|
a|-------------------------------13^15---15--13-11-10-8-|
E|------------------------------------------------------|

C5        Bb5   Ab5                        Bb5   Eb5
e|--------------------------------------------------------|
b|-----------------------11b(13)r11-----------------------|
g|--------------8^10^8--------------10b(12)--10b(12)r10^8-|
d|---------8/10-------------------------------------------|
a|--6-8/10------------------------------------------------|
E|--------------------------------------------------------|

Bb5  Ab5
Bb5
e|--------------------------------------------------------|
b|--------------------------------------------------------|
g|---------8-8--------------------8-8--------------10^8---|
d|--8^10-------------8-8--8^10-------------8-8---------10-|
a|--------------8^10-------------------8^10---------------|
E|--------------------------------------------------------|
C5
Bb5
e|---------------------------------------------------|
b|-----------------11--11----------------------------|
g|--10b(11)r10^8--------10b(12)----(12)r10^8-10b(12)-|
d|---------------------------------------------------|
a|---------------------------------------------------|
E|---------------------------------------------------|

Ab5
Bb
e|-------------------------------------------------11-13-|
b|----------------------------------11-1113-13-----------|
g|--10b(12)-10-8-----8-1012-12---------------------------|
d|-----------------10------------------------------------|
a|-------------------------------------------------------|
E|-------------------------------------------------------|

BRIDGE:
Bb                         Ab                       Eb
Youre the reason I live.  Youre the reason I die. Youre the
Cm                         Ab
reason I give when I break down and cry. Dont need no reason
Bb
why.

CHORUS:
Bb5 Eb5     Bb5 Ab5
Baby, baby, bayayby.  Youre my ang  el.       Come and save me
Bb5 C5  Bb5 Ab5      Bb5 Eb5   Bb5 Ab5                   Bb5 C5
tonight.           Youre my ang   el. Yeah, come and make it
alright.
Bb5 Ab5   Bb5  Eb5       Bb5 Ab5               Bb5 C5   Bb5 Ab5

Youre my ayayayayn geyel.  Come and save me tonight.
Bb5 Eb5  Bb5 Ab5               Bb5 C5  Bb5 Ab5
Youre my ang  el.   Come and make it alright.       Come and
Bb5 Eb5                    Bb5 Ab5
save me tonight.  Come and save me tonight.  Come and save me
Bb5 C5                     Bb5 Ab5                   Bb5 Eb5
tonight.  Come and save me tonight.  Come and save me tonight.

OUTRO:
Bb5 Ab5   Bb5 C5   Bb5 Ab5   Bb5 Eb5  (etc.)

*Note: To get the timing correct, I suggest listening to the
album, however, the progression below should give you
an idea...
Eb5   Bb5 Ab5    Bb5  C5     Bb5 Ab5    Bb5
e|----------|----------|-----------|----------|
b|----------|----------|-----------|----------|
g|----------|----------|-----------|----------|
d|--8-------|----------|-----------|----------|.
a|--6-----8-|-6------8-|-10------8-|-6------8-|
E|--------6-|-4------6-|--8------6-|-4------6-|
1  &  2  &  1  &  2  &    1  &  2  &   1  &  2  &   etc...

Вверх

Angel

Intro:  Eb____ Bb-Ab____ Bb- (Play 3 Times)
Cm____ Bb-Ab____ Absus____ Ab____

Eb
1: I'm alone
2:      Don't know what I'm gonna do

Ab             Absus  Ab
1: Yeah I don't know if I can face the night
2:                about this feeling inside

Eb
1:   I'm in tears
2: Yes it's true

Cm                      Gm      Ab
1:  and the cryin' that I do is for you
2:         loneliness took me for a ride

Bb      Cm
1: I want  your love
2: Without your love

Ab
1: Let's break the walls between us
2: I'm   nothing but a beggar

Bb         Cm
1: Don't make it tough
2: Without    your love

Ab
1: I'll put away my pride
2: a  dog without a bone

Bb       Cm
1: Enough's enough
2: What can I do?

Ab                            Bb
1: I've suffered and I've seen the light
2: I'm  sleeping   in   this  bed  alone

Chorus:

Eb     Bb-Ab
Ba-yay-by, you're my angel
Bb-Cm        Bb-Ab
Come and save me tonight
Bb-Eb     Bb-Ab
You're my angel
Bb-Cm
Come and make it all right


1: Ab____ Absus____ Ab____   (goto verse 2)


Bb-Ab               Bb-Eb
2:       Come and save me tonight

Bb-Ab____ Bb-Cm____ Bb-Ab____

Bb
You're the reason I live
Ab
You're the reason I die
Eb
You're the reason I give
Cm
when I break down and cry
Ab                            Bb
Don't need no reason why.
Bb
Baby, Baby

Вверх

Big Ten Inch Record

G|---------------|---------|-------4-5-4-----|-----------------|
D|---------------|---------|---4-7-------7-4-|-------4-5-4-----|
A|---------------|---------|-5---------------|---4-7-------7-4-|
E|-0-0--0-0-0--0-|-0---0-0-|-----------------|-5---------------|

tacet
G|-------4-5-4-----|-------|-------4-5-4-----|-----------------|
D|---4-7-------7-4-|-------|---4-7-------7-4-|-------4-5-4-----|
A|-5---------------|-7-----|-5---------------|---4-7-------7-4-|
E|-----------------|-------|-----------------|-5---------------|

[guitar solo]
G|-------------|---------------|---------------|---------------|
D|--------4-5-6|--4-5-6-7-4----|---------------|---------------|
A|-4-5-6-7-----|7-----------7-4|---------------|---------------|
E|7------------|---------------|5-3-2-0-5-3-2-0|5-3-2-0-5-3-2-0|


G|---------------|---------------|-------------|---------------|
D|---------------|---------------|-------------|------4-7-4----|
A|5-3-2-0-5-3-2-0|---------------|7-5-4-7-5-4--|--4-7-------7-6|
E|---------------|5-3-2-0-5-3-2-0|-----7------7|5--------------|

tacet
G|-------4-5-4-----|-----------------|-------4-5-4-----|-------|
D|---4-7-------7-4-|-------4-5-4-----|---4-7-------7-4-|-------|
A|-5---------------|---4-7-------7-4-|-5---------------|-7-----|
E|-----------------|-5---------------|-----------------|-------|


G|-----4-5-4----|-------------|---------------|----------------|
D|--4-7------7-4|----4-5-4----|----------4-5-6|---4-5-6-7-4----|
A|5-------------|-4-7------7-4|--4-5-6-7------|-7-----------7-6|
E|--------------|5------------|7--------------|----------------|

tacet
G|-------4-5-4-----|-----------------|-------4-5-4-----|-------|
D|---4-7-------7-4-|-------4-5-4-----|---4-7-------7-4-|-------|
A|-5---------------|---4-7-------7-4-|-5---------------|-7-----|
E|-----------------|-5---------------|-----------------|-------|

(h = hammer-on)
G|------4-5-4----|---------------|-------------|--------------5|
D|--4-7-------7-4|------4-5-4----|--------4-5-6|--4-5-6----4h7-|
A|5--------------|--4-7-------7-4|-4-5-6-7-----|7-------0-7----|
E|---------------|5--------------|7------------|---------------|

+-- play each note as a triplet --+ [sax solo]
G|--------------|---------4-5-6|---------------|---------------|
D|--------------|3-4-5-6-7-----|---------------|---------------|
A|-----3-4-5-6-7|--------------|5-3-2-0-5-3-2-0|---------------|
E|5-6-7---------|--------------|---------------|5-3-2-0-5-3-2-0|


G|-------------|---------------|------4-5-4----|---------------|
D|-------------|------4-7-4----|--4-7-------7-4|------4-5-4----|
A|7-5-4-7-5-4--|--4-7-------7-6|5--------------|--4-7-------7-4|
E|-----7------7|5--------------|---------------|5--------------|

tacet
G|-------4-5-4-----|-------|-------4-5-4-----|-----------------|
D|---4-7-------7-4-|-------|---4-7-------7-4-|-------4-5-4-----|
A|-5---------------|-7-----|-5---------------|---4-7-------7-4-|
E|-----------------|-------|-----------------|-5---------------|

tacet                     (hold)
G|-----------------|---------14-12-9-|-7-5-------------|
D|-----------4-5-6-|-----------------|-----7-5---------|
A|---4-5-6-7-------|-7---------------|---------7-0-----|
E|-7---------------|-----------------|-----------------|

Вверх

Blind Man

  E-F#-A        E-F#-D         E-F#-A        E-F#-D       E-F#-
e|-------------------------------------------------------------|
B|-------------------------------------------------------------|
G|-----2-------------7--------------2-------------7------------|
D|-----2-------------7--------------2-------------7------------|
A|-----0-------------5--------------0-------------5------------|
E|-0-2-----------0-2------------0-2-----------0-2---------0-2--|

A                       D
I took a course in Hallelujah
A                                D
I went to night school for the blues
A                                  D
I took some stuff they said would cool ya, heh hah
A                               D
But nothing seemed to light my fuse

F#m        B           D                   E
But its all in the past like a check thats in the mail
F#m          B
She was a tall whiskey glass
D                                          E
I was an old hound dog that just loved to chase his tail

D       A       E                B
Until I met a   blind man who taught me how to see, yeah
D         A             E
A blind man who could change night into day
D    A              E                  B
And if-a    I can, Im gonna make you come with me, yeah
D
Cause a-here comes the sun and well be chasin
all the clouds away

E-F#-A        E-F#-D         E-F#-A        E-F#-D       E-F#-
E|-------------------------------------------------------------|
B|-------------------------------------------------------------|
G|-----2-------------7--------------2-------------7------------|
D|-----2-------------7--------------2-------------7------------|
A|-----0-------------5--------------0-------------5------------|
E|-0-2-----------0-2------------0-2-----------0-2---------0-2--|
Yeah yeah yeah yeah yeah yee yeah yeah

A                        E-F#-D       F#m
E|------------------------------------------|
B|------------------------------------------|
G|-2-----------------------------7----------|
D|-2-----------------------------7-------4--|
A|-0-----------------------------5-------4--|
E|---------------------------0-2---------2--|
Ive had some lovers like a joy   ride

B                               E      F#
Some thing are never what they seem
A                           D      F#m
My heavens turned into a landslide
B                                A    G
Thank God I woke up from that dream

D       A       E                B
I met a   blind man who taught me how to see, yeah
D         A             E
Blind man who could change night into day
D    A              E                  B
And if-a    I can, Im gonna make you come with me, yeah
D
Because a-here comes the sun and well
be chasin all the clouds away

E                 F#m        E                     D
So please chase harder and drink all the flowers dry
E                    F#m
Well be savin us a little money
G                                           A
And if that doesnt do it, yeah, I know the reason why

D
Dont make no sense lightin candles, ah
B                                   A     G
Theres too much moonlight in your eyes

E       B       F#               C#
I met a   blind man who taught me how to see, yeah
E         B             F#
Blind man who could change night into day
E    B              F#                 C#
And if-a    I can, Im gonna make you come with me,
oh oh oh oh yeah

E
Because a-here comes the sun, aint no surprise

Aint no doubt about it, gonna open up my eyes

F#-G#-B         F#-G#-E        F#-G#-C#      F#-G#-E
E|----------------------------------------------------|
B|----------------------------------------------------|
G|-----4------------------------------6---------------|
D|-----4---------------2--------------6-------------2-|
A|-----2---------------2--------------4-------------2-|
E|-2-4-------------2-4-0----------2-4-----------2-4-0-|

Вверх

Blind Man

E|----------o||----|-----------------------------|
B|-----------||----|-----------------------------|
G|----0---5--||---0|5-0-5-0-5-0-5-2-5---2-5-5-7--|
D|-0-2-0-2--o||0-2-|-------------2---0-2---------|

chorus

E|--------------o||---|-----------|
B|---------------||---|-----------|
G|5---2-5--------||5-5|0-5---2-7-5|
D|-5-0---5-0-0--o||---|---0-2-----|

Вверх

Bogey Man

1:
E|--------------------|-----------------|
B|---------------5----|-----------------|
G|--4------2/4/6------|--4------2/4/6---|
D|--------------------|-----------------|
A|--------------------|-----------------|
E|--------------------|-----------------|

2:
E|-----------|------------|-------------|-------------|
B|--5b7r-----|--5b7r------|--8b10r------|--8b10r------|
G|-------5---|-------6----|--------8----|--------9----|
D|-----------|------------|-------------|-------------|
A|-----------|------------|-------------|-------------|
E|-----------|------------|-------------|-------------|

3:
E|------------------|----------------|------------|-----------|
B|--3--3-2----1-2---|--3---2--1---2--|--2--2---0--|------0----|
G|--2--2-2----1-2---|--2---2--1---2--|--2--2---2--|--1h2p1----|
D|------------------|----------------|------------|-----------|
A|------------------|----------------|------------|-----------|
E|------------------|----------------|------------|-----------|

Вверх

Crazy

A                          F#m
You know you drive me up a wall the way
D
you make good of all the nasty
Dm
tricks you pull. Seems like were makin
up more than were makin
A                             F#m
love and it always seems you got somn
on your mind other than me
D                            Dm
Girl, you got to change your crazy ways, you hear me

A          D
Say youre leavin on a seven thirty train
F#m
and that youre headin out
D
to Hollywood
A                    D
Girl you been givin me that line so many
F#m
times it kinda gets like
D
feelin bad looks good, yeah

E          F#m            G        D
That kinda lovin turns a man to a slave
E          F#m            G                D    E
That kinda lovin sends a man right to his grave

A      F#m    D          Dm
I go crazy, crazy, baby, I go crazy
A           F#m             Dm              E
You turn it on, then youre gone, yeah, you drive me
A      F#m    D             Dm
Crazy, crazy, crazy for you baby
Bm         E         C#m             F#m E  D   Dm
What can I do, honey, I feel like the color blue

A                      D
Youre packin up your stuff and talkin
F#m
like its tough and tryin to
D
tell me that its time to go, yeah
A                    D                                    F#m
But I know you aint wearin nothin underneath that overcoat
D
And its all a show, yeah

E          F#m                   G             D
That kinda lovin makes me wanna pull down the shade, yeah
E          F#m                 G
That kinda lovin yeah now Im never, never, never, never
D              E
gonna be the same

A      F#m    D          Dm
I go crazy, crazy, baby, I go crazy
A           F#m             D               E
You turn it on, then youre gone, yeah, you drive me
A      F#m    D             Dm
Crazy, crazy, crazy for you baby
Bm         E     C#m                 F#m E  D   Dm
What can I do, honey, I feel like the color blue
A             F#m                D         E
Im losin my mind, girl, cause Im goin crazy


A F#m D Dm
A F#m D E
A F#m D Dm
A F#m D E...

F#m E       D
I need your love, honey yeah
F#m E       D
I need your love

A      F#m    D             Dm
Crazy, crazy, crazy for you baby
A             F#m               D         E
Im losin my mind, girl cause Im goin crazy
A      F#m    D             Dm
Crazy, crazy, crazy for you baby
A           F#m             D             E
You turn it on, then youre gone, yeah, you drive me

A F#m D Dm
A F#m D E
A F#m D Dm
A F#m D E...

Вверх

Crazy (crd)

Come ere baby
A                          F#m                                   D
You know you drive me up a wall the way you make good of all the nasty
Dm
tricks you pull. Seems like were makin up more than were makin
A                             F#m
love and it always seems you got somn on your mind other than me
D                            Dm
Girl, you got to change your crazy ways, you hear me

A          D                                               F#m
Say youre leavin on a seven thirty train and that youre headin out
D
to Hollywood
A                    D                                       F#m
Girl you been givin me that line so many times it kinda gets like
D
feelin bad looks good, yeah

E          F#m            G        D
That kinda lovin turns a man to a slave
E          F#m            G                D    E
That kinda lovin sends a man right to his grave

A      F#m    D          Dm
I go crazy, crazy, baby, I go crazy
A           F#m             Dm              E
You turn it on, then youre gone, yeah, you drive me
A      F#m    D             Dm
Crazy, crazy, crazy for you baby
Bm         E         C#m             F#m E  D   Dm
What can I do, honey, I feel like the color blue

A                      D                                     F#m
Youre packin up your stuff and talkin like its tough and tryin to
D
tell me that its time to go, yeah
A                    D                                    F#m
But I know you aint wearin nothin underneath that overcoat
D
And its all a show, yeah

E          F#m                   G             D
That kinda lovin makes me wanna pull down the shade, yeah
E          F#m                 G
That kinda lovin yeah now Im never, never, never, never
D              E
gonna be the same

A      F#m    D          Dm
I go crazy, crazy, baby, I go crazy
A           F#m             D               E
You turn it on, then youre gone, yeah, you drive me
A      F#m    D             Dm
Crazy, crazy, crazy for you baby
Bm         E     C#m                 F#m E  D   Dm
What can I do, honey, I feel like the color blue
A             F#m                D         E
Im losin my mind, girl, cause Im goin crazy

A     F#m     D     Dm
A     F#m     D     E
A     F#m     D     Dm
A     F#m     D     E

F#m E       D
I need your love, honey yeah
F#m E       D
I need your love

A      F#m    D             Dm
Crazy, crazy, crazy for you baby
A             F#m               D         E
Im losin my mind, girl cause Im goin crazy
A      F#m    D             Dm
Crazy, crazy, crazy for you baby
A           F#m             D             E
You turn it on, then youre gone, yeah, you drive me

A     F#m     D     Dm
A     F#m     D     E
A     F#m     D     Dm
A     F#m     D     E...

Вверх

Cryin

Intro
A#5 C5 F5 G5
A#5 C5 F5 G5
A#5 C5 F5 G5
A#5 C5 F5 G5            A#5

Verse 1
A                E
there was a time
F#m                C#m
when I was so broken-hearted
D                A         E
love wasnt much of a friend of mine
A                    E
the tables have turned, yeah
F#m                     C#m
cause me and them ways have parted
D                 A            E
that kind of love was the killin kind -- listen
G          D           G             D
all I want is someone I cant resist
C                G                    E
I know all I need to know by the way that I got kissed

Chorus
A             E
I was Cryin when I met you
F#m          D     A
now Im tryin to forget you
E          D
[your] love is sweet misery
A              E
I was Cryin just to get you
C#m            D       A
now Im dyin cause I let you
E           D
do what you do, down on me

[w/Intro]
now theres not even breathin room
between pleasure and pain
yeah, you cry when were makin love
must be one and the same

Verse 2
its down on me
yeah I got to tell you one thing
its been on my mind, girl I gotta say
were partners in crime
you got that certain something
what you give to me takes my breath away
now the word out on the street is the devils in your kiss
if our love goes up in flames its a fire I cant resist

[CHORUS]

[Intro]

Bridge
D#             A#
cause what you got inside
D#                     A#
aint where your love should stay
G#                    D#
yeah, our love, sweet love, aint love
E
till ya give your heart away

Alt. Chorus
A             E
I was Cryin when I met you
C#m          D      A
now Im tryin to forget you
E          D
your love is sweet misery
A              E
I was Cryin just to get you
F#m(tacet)    D      A
now Im dy_____in to let you
E          D
do what you do down to me, baby, baby, ...

Solo
A  E  C#m  D  A  E  D
A  E  F#m  D  A  E  D

[Vary Chorus to fade]

Вверх

Cryin

E||----------------------|-------------------|----------|
B||-----------1----------|-------------------|--1-------|
G||--------3--0-----0----|----------------3--|--0-----0-|
D||--------3-----3--0----|----------------3--|-----3--0-|
A||--------1--3--3-------|----------------1--|--3--3----|
E||--------------1--3----|-------------------|-----1--3-|

E|----------------------|----|----------|
B|-----------1----------|----|--1-------|
G|--------3--0-----0----|-3--|--0-----0-|
D|--------3-----3--0----|-3--|-----3--0-|
A|--------1--3--3-------|-1--|--3--3----|
E|--------------1--3----|----|-----1--3-|

E|---------------------|-----0-----------------0--|-------------------------|
B|---------------------|--------2-----------------|--0--------------2-------|
G|--3------------2-----|--2--------0--------1-----|-----0--------2-----2----|
D|--3---------------2--|-----------------2--------|-----------4-----------4-|
A|--1------------------|--------------------------|-------------------------|
E|---------------------|--------------0-----------|-----0--2----------------|

E|-----------0--------------|-----2-----------------0--|
B|--------2-----2-----------|--3-----3-----------2-----|
G|-----1-----------1-----2--|-----------0-----2--------|
D|--------------------0-----|-----------------2--------|
A|--4-----------------------|--------------0-----------|
E|--------------------------|--------------------------|

E|-----------------0--------|-----------0--------------|
B|--2-----------------0-----|-----0--------0-----------|
G|-----0--------1--------1--|--------1--------0--------|
D|-----------2--------------|-----------------------2--|
A|--------------------------|--------------------0-----|
E|--------0-----------------|--0--------------0--------|

E|-----0-----------------0--|--------------------------|
B|--------2-----------------|--0--------------2--------|
G|--2--------2--------1-----|-----0--------2-----2-----|
D|-----------------2--------|-----------4-----------4--|
A|--------------------------|--------------------------|
E|--------------0-----------|--------2-----------------|

E|-----------0--------------|-----2-----------------0--|
B|--------2-----2-----------|--3-----3-----------------|
G|-----1-----------1-----2--|-----------0--------2-----|
D|--------------------0-----|-----------------2--------|
A|--4-----------------------|--------------0-----------|
E|--------------------------|--------------------------|
G5              Dm
E|-----------------0--------|-----------0-------------|------------|
B|--2-----------------0-----|--------------0----------|----------3-|
G|-----0--------1--------1--|--------1--------0--0----|----------2-|
D|-----0-----2--------------|--0--2-----2--------0----|----------0-|
A|--------------------------|-------------------------|------------|
E|--------0-----------------|--------------------3----|------------|

G5              Dm           C5              G5
E|-------------------|--------------------|------------|
B|-------------------|--3------------1----|------------|
G|------0------------|--2------------0----|----------0-|
D|------0------------|--0-----------------|----------0-|
A|-------------------|---------------3----|------------|
E|------3------------|--------------------|----------3-|

E                              A                E
E|------0------------|-----------------0----|-----------0-|
B|------0------------|-----------------2----|-----------0-|
G|------1------------|-----------------2----|-----------1-|
D|------2------------|-----------------2----|-----------2-|
A|------2------------|-----------------0----|----0------2-|
E|------0------------|--0--0--0-------------|-----------0-|

F#m              D             A               E
E|-------2-------------|--2-------------0----|----------0-|
B|-------2-------------|--3-------------2----|----------0-|
G|-------2-------------|--2-------------2----|----------1-|
D|-------4-------------|--0-------------2----|----------2-|
A|-------4-------------|----------------0----|----------2-|
E|----0--2----------0--|-------------0-------|----------0-|

D                           A               E
E|------2------------|--------------0----|----------0------|
B|------3------------|--------------2----|----------0------|
G|------2------------|--------------2----|----------1------|
D|------0------------|--------------2----|----------2------|
A|-------------------|--------------0----|----------2------|
E|-------------------|-------------------|----------0----0-|

C#m             D             A                E
E|-------4------------|--2-------------0----|-----------0-|
B|-------5------------|--3-------------2----|-----------0-|
G|-------6------------|--2-------------2----|-----------1-|
D|-------6------------|--0-------------2----|-----------2-|
A|-------4------------|----------------0----|------2----2-|
E|----0---------------|-------------0-------|-----------0-|

D                                                    A#5
E|--------2------------|----------------------|-------------------|
B|--------3------------|-----------1----------|-------------------|
G|--------2------------|--------3--0-----0----|----------------3--|
D|--------0------------|--------3-----3--0----|----------------3--|
A|---------------------|--------1--3--3-------|----------------1--|
E|--0--0---------------|--------------1--3----|-------------------|

A#5
E|---------------------|----------------------|-------------------|
B|--1------------------|-----------1----------|-------------------|
G|--0-----0------------|--------3--0-----0----|----------------3--|
D|-----3--0------------|--------3-----3--0----|----------------3--|
A|--3--3---------------|--------1--3--3-------|----------------1--|
E|-----1--3------------|--------------1--3----|-------------------|

A#5
E|---------------------|---------------------|-----0-----------------0--|
B|--1------------------|---------------------|--------2-----------------|
G|--0-----0------------|--3------------2-----|--2--------0--------1-----|
D|-----3--0------------|--3---------------2--|-----------------2--------|
A|--3--3---------------|--1------------------|--------------------------|
E|-----1--3------------|---------------------|--------------0-----------|

E|--------------------------|-----------0--------------|
B|--0--------------2--------|--------2-----2-----------|
G|-----0--------2-----2-----|-----1-----------1-----2--|
D|-----------4-----------4--|--------------------0-----|
A|-----------------------0--|--4-----------------------|
E|-----0--2-----------4-----|--------------------------|

E|-----2-----------------0--|-----------------0--------|
B|--3-----3-----------2-----|--2-----------------0-----|
G|-----------0-----2--------|-----0--------1--------1--|
D|-----------------2--------|-----------2--------------|
A|--------------0-----------|--------------------------|
E|-----------0--------------|--0-----0--------------0--|

E|-----------0--------------|-----0-----------------0--|
B|-----0--------0-----------|--------2-----------------|
G|--------1--------0--------|--2--------2--------1-----|
D|-----------------------2--|-----------------2--------|
A|--------------------0-----|--------------------------|
E|--0--------------0--------|--------------0-----------|

E|--------------------------|-----------0--------------|
B|--0--------------2--------|--------2-----2-----------|
G|-----0--------2-----2-----|-----1-----------1-----2--|
D|-----------4-----------4--|--------------------0-----|
A|--------------------------|--4--------4--0-----------|
E|-----0--2-----------2--4--|--------------------------|

E|-----2-----------------0--|-----------------0--------|-----------0-------------|
B|--3-----3-----------------|--2-----------------0-----|--------------0----------|
G|-----------0--------2-----|-----0--------1--------1--|--------1--------0--0----|
D|-----------------2--------|-----0-----2--------------|--0--2-----2--------0----|
A|--------------0-----------|--------2-----------------|-------------------------|
E|-----------0--------------|--------0--0--0-----------|-----0--0--0--------3----|

D5              G5              D5           C5
E|-------------------|-------------------|--------------------|
B|----------3--------|-------------------|--3------------1----|
G|----------2--------|------0------------|--2------------0----|
D|----------0--------|------0------------|--0-----------------|
A|-------------------|-------------------|---------------3----|
E|-------------------|------3------------|--------------------|

G5              E                              A
E|-------------------|------0------------|-----------------0----|
B|-------------------|------0------------|-----------------2----|
G|----------0--------|------1------------|-----------------2----|
D|----------0--------|------2------------|-----------------2----|
A|-------------------|------2------------|-----------------0----|
E|----------3--------|------0------------|--0--0--0-------------|

E               F#m             D            A
E|----------0--------|------2------------|--2------------0----|
B|----------0--------|------2------------|--3------------2----|
G|----------1--------|------2------------|--2------------2----|
D|----------2--------|------4------------|--0------------2----|
A|----------2--------|------4------------|---------------0----|
E|----------0--------|------2------------|--------------------|

E                D                             A
E|----------0--------|-------2------------|----------------0----|
B|----------0--------|-------3------------|----------------2----|
G|----------1--------|-------2------------|----------------2----|
D|----------2--------|-------0------------|----------------2----|
A|----------2--------|--------------------|----------------0----|
E|----------0--------|--0-----------------|----------0--0-------|

E                  C#m               D              A
E|-----------0----------|-------4--------------|--2--------------0----|
B|-----------0----------|-------5--------------|--3--------------2----|
G|-----------1----------|-------6--------------|--2--------------2----|
D|-----------2--2-------|-------6--------------|--0--0-----------2----|
A|----0------2----------|-------4--4-----------|-----------------0----|
E|-----------0-------0--|----0------------4----|--------------0-------|

E        D
E|--0--|-----2--|--------------|
B|--0--|-----3--|-----1--------|
G|--1--|-----2--|--3--0-----0--|
D|--2--|-----0--|--3-----3--0--|
A|--2--|--------|--1--3--3-----|
E|--0--|--0-----|--------1--3--|

E|-----|-----------|----------------|
B|-----|--1--------|-----1----------|
G|--3--|--0-----0--|--3--0-----0----|
D|--3--|-----3--0--|--3-----3--0----|
A|--1--|--3--3-----|--1--3--3-------|
E|-----|-----1--3--|--------1--3----|

A#5          D#5D#5
E|-----|---------------------|---------------------|
B|-----|--1------------------|---------------4--4--|
G|--3--|--0-----0------------|--3------------3--3--|
D|--3--|-----3--0------------|--3------------1--1--|
A|--1--|--3--3---------------|--1------------------|
E|-----|-----1--3------------|---------------------|

A#5                  D#5
E|--------------------------|--------------------------|
B|--4--4--4--4--------------|--------4--4--4--4--4--4--|
G|--3--3--3--3--3--3--3--3--|--3--3--3--3--3--3--3--3--|
D|--1--1--1--1--3--3--3--3--|--3--3--1--1--1--1--1--1--|
A|--------------1--1--1--1--|--1--1--------------------|
E|--------------------------|--------------------------|

A#5               G#5                  D#5
E|--------------------------|--------------------------|
B|--------------------------|--------------4--4--4--4--|
G|--3--3--3--3--3--3--1--1--|--1--1--1--1--3--3--3--3--|
D|--3--3--3--3--3--3--1--1--|--1--1--1--1--1--1--1--1--|
A|--1--1--1--1--1--1--------|--------------------------|
E|--------------------4--4--|--4--4--4--4--------------|

E5
E|--------0--0--0--0--0--0--|--0--0--0--0--0--0--0--0--|
B|--4--4--0--0--0--0--0--0--|--0--0--0--0--0--0--0--0--|
G|--3--3--------------------|--------------------------|
D|--1--1--2--2--2--2--2--2--|--2--2--2--2--2--2--2--2--|
A|--------------------------|--------------------------|
E|--------0--0--0--0--0--0--|--0--0--0--0--0--0--0--0--|

E5          E/C             A
E|--0--0--0--0--0---0---0---0-----|--0---0--0--------0--------|
B|--0--0--0--0--0---0---0---0-----|--0---0--2-----------2-----|
G|--------------------------------|---------2-----2--------0--|
D|--2--2--2--2--2-2-2-2-2-2-2-2-2-|--2-2-2--2--2--------------|
A|--------------0---0---0---3-----|--0---0--0-----------------|
E|--0--0--0--0--------------------|---------0-----------------|

E                 A6                   D
E|--0--------0--------------|-----0--------2--------2--|
B|--0-----------0-----2-----|--2-----2-----3-----3-----|
G|--1-----1--------0--2--1--|-----------1--2--2--------|
D|--2--2--------------4-----|--------------0-----------|
A|--2-----------------4-----|--------------5-----------|
E|--0-----------------0-----|--------------------------|

A                    E                 D
E|--------0--------0--------|--0--------0--------2----|-------------------------|
B|--3-----2-----------2-----|--0-----------0-----3----|-----0----0--------0--1--|
G|-----0--2-----2--------0--|--1-----1--------0--2----|--2----------2--2--------|
D|--------2--2--------------|--2--2-------------------|--0--0----0--0--0--0--0--|
A|--------0-----------------|--2----------------------|-------------------------|
E|--------0-----------------|--0-----------0----------|-------------------------|

A                    E                 F#              D
E|--------0--------0--------|--0--------0--------2----|----------2--------2--|
B|--0-----2-----------2-----|--0-----------0-----7----|----------3-----3-----|
G|-----2--2-----2--------0--|--1-----1--------0--6----|----------2--2--------|
D|--0--0--2--2--------------|--2--2--------------7----|----------0--0--------|
A|--------0--------0--------|--2--7--------------9----|----------0-----------|
E|--0--0--5-----------------|--0--------0-----0--9----|----------------------|

A                    E                 D
E|--------0--------0--------|--0--------0--------2----|--------------------------|
B|--3-----2-----------2-----|--0-----------0-----3----|-----0--0--------------0--|
G|-----0--2-----2-----------|--1-----1--------0--2----|--2--------2--2--2--2-----|
D|--------2--2-----------0--|--2--2-------------------|--0--0--0--0--0--0--0--0--|
A|--------0-----------------|--2----------------------|--------------5--5--5--5--|
E|-----0--0-----------------|--0--------------0-------|--------------------------|

D        Bm          D        Bm       A
E|--------2--2--2--2--2--2--|--2--2--2--2--2--2--0-----|
B|--0-----3--3--3--3--3--3--|--3--3--3--3--3--3--2-----|
G|-----2--2--2--2--4--4--4--|--2--2--2--4--4--2--2-----|
D|--0--0--------------------|--------------------2--2--|
A|--5--5--------------------|--------------------0-----|
E|--------------------------|--------------------------|

E                    F#m
E|-----0--------0--------0--|--------2--------0--------|
B|--------2-----0-----------|--0-----2-----2-----2-----|
G|--2--------0--1-----1-----|-----0--2--1-----------1--|
D|--------------2--2--------|--------4-----------------|
A|--------------2-----------|--------4-----------------|
E|--------------0-----------|--------2-----------------|

D                 A                    E
E|--2--------2--------0-----|-----0--------0--------0--|
B|--3-----3-----3-----2-----|--------2-----0-----------|
G|--2--2-----------0--2-----|--2--------0--1-----1-----|
D|--0-----------------2--2--|--------------2--2--------|
A|--5-----------------0-----|--------------2-----------|
E|--------------------5-----|--------------0-----------|

D                                               A
E|--------2----0--10---------|--12------12--------14------0-----|
B|--0-----3-----------7----8-|-----------------10-----10--2-----|
G|-----0--2------------------|------12------12------------2-----|
D|--------0--------------7---|----------------------------2--2--|
A|--------5------------------|----------------------------0-----|
E|--0------------------------|--------------------0---0---5-----|

E                    C#m
E|-----0--------0--------0--|--------0--------2--------|
B|--------2-----0-----------|--0-----9-----------2-----|
G|--2--------0--1-----1-----|-----0--6-----2--------2--|
D|--------------2--2--------|--------6--4--------------|
A|-----0--------2--7--------|--------4--4--------------|
E|--------------0--------0--|-----0--9-----------4-----|

D                 A                    E                    D
E|--2--------2--------0-----|--------------0-----------|--------2-|
B|--3-----3-----3-----2-----|--------------0-----------|--------3-|
G|--2--2-----------0--2-----|--------------1-----------|--------2-|
D|--0--0--------------2-----|--------------2-----------|--------0-|
A|--5-----------------0-----|--------------2-----------|----------|
E|-----------------0--0--0--|--0--0--0--0--0--0--0--0--|--0--0----|

D                                           A
E|--2--2--|--2--2---2--2--2---2--2--2--|--2--2--0--------|
B|--3--3--|--3--3---3--3--3---3--3--3--|--3--3--2--------|
G|--2--2--|--2--2---2--2--2---2--2--2--|--2--2--2--------|
D|--0--0--|--0--0-0-0--0--0-0-0--0--0--|--0--0--2--------|
A|--5--5--|--5--3---5--5--3---5--5-----|--------0------0-|
E|--------|----------------------------|-----------------|

E             F#m              D                A
E|--0-------------2----|-----------2--------|-------0-|
B|--0-------------2----|-----------3--------|-------2-|
G|--1-------------2----|-----------2--------|-------2-|
D|--2-------------4----|-----------0--------|-------2-|
A|--2-------------4----|--------------------|-------0-|
E|--0----------0--2----|--------0-----------|----0----|

E            D                              A
E|--0------------2----|------------------|------0-|
B|--0------------3----|------------------|------2-|
G|--1------------2----|------------------|------2-|
D|--2------------0----|------------------|------2-|
A|--2-----------------|------------------|------0-|
E|--0-----------------|------------------|--------|

E              F#m             D                A
E|--0--------------2----|----------2--------|-------0----------|
B|--0--------------2----|----------3--------|-------2----------|
G|--1--------------2----|----------2--------|-------2----------|
D|--2--------------4----|----------0--------|-------2----------|
A|--2--------------4----|-------------------|-------0--------2-|
E|--0----0------0-------|-------------------|----0-------------|

E              D       D
E|--0--------------2----|--2--2--2--2---2--2--|
B|--0--------------3----|--3--3--3--3---3--3--|
G|--1--------------2----|--2--2--2--2---2--2--|
D|--2--------------0----|--0--0--0--0-0-0--0--|
A|--2-------------------|--5--5--5--3---5--5--|
E|--0--------0--0-------|---------------------|

A
E|--2---2--2--2--2--2--0----|
B|--3---3--3--3--3--3--2----|
G|--2---2--2--2--2--2--2----|
D|--0-0-0--0--0--0--0--2----|
A|--3---5--5-----------0----|
E|--------------------------|

Вверх

Cryin (2 вариант)

INTRO
1|----------------------------------------------------|
2|----------------------------------------------------|
3|1-3-----------1-3--------------1-3------------1-3---|
4|---1-3-33333333---1-3-33333333---1-3-33333333---1-3-|

E|--------------|
B|--------------|
G|--------------|
D|-333333366666-|

VERSE-|
1|-----------------|o-----o|--------------|
2|-----------------|-------|--------------|
3|0--45-------45---|-55----|55-35--0-00-00|
4|-----------------|o--33-o|-----33-------|
chorus
1|o--------------o|
2|----------------|
3|-----5---5--45--|
4|o-502-500-50---o|

play while solo
1|---------------------------------------------------|
2|---------------------------------------------------|
3|---5---5--45-7/12-12-127/12-12-127/12-12-127/12-12-|
4|502-500-50-----------------------------------------|

E|---------------------|
B|---------------------|
G|-127/12-12-12-12-12/-|
D|---------------------|

1|-----------------------------|
2|-/19-19-19-19-19-19-19-19-19-|
3|-----------------------------|
4|-----------------------------|

RETURN TO CHORUS

PLAY WHILE HARMONICA SOLO
1|-7-----------------------------------------|
2|--567-774/164-5-5-----------------3H5-5-5--|
3|5----7-----------5-5-5---------------------|
4|-----------------------873-4-3333333-------|

1|--------------------------------|
2|--------------------------------|
3|-024-5-57-9-9-10-10-10-10-12-12-|
4|--------------------------------|

1|-----------------------------------------------------|
2|-----------------------------------------------------|
3|12-12-12-12-12-12-12-12-1210-10-10-10-10-10-10-10-10-|
4|-----------------------------------------------------|

E|----------/12-12-12-|
B|--------------------|
G|-10-10-10-----------|
D|--------------------|

1|10h12-12-12-10h12-12-12--------|
2|-----------------------12-10---|
3|----------------------------12-|
4|-------------------------------|

ENDING CHORUS
1|------------10H12-12-12-12-12-12-12-12-12-12-|
2|---------------------------------------------|
3|---5---5--45---------------------------------|
4|502-500-50-----------------------------------|

E|-12/17-16-14-15-14-12---------|
B|---------------------12-10----|
G|--------------------------125-|
D|------------------------------|

1|----------------------------------------------------------|
2|----77-7-4-45-5----3h7-6-5555555555555--------------------|
3|5-7---7---5--5-5----------------------875-----------------|
4|----------------875----------------------345-567-753-33-3-|

Вверх

Deuces Are Wild

G
Oh---
G
Oh---
{verse1}
G                                 C
I love to look into your big brown eyes.
G
They talk to me and seem to hypnotize.
C
They say the things nobody dares to say,
D
and Im not about to let you fly away.
C
My lover with no jet lag, were staying up all
D
night in my sleeping bag.

You got a heart beat rythym from subterean,
F
I   real-ly   Love   You Little girl, I dont neeeed to explain.

{chorus}
G                               C
I love you cause your deuces are wild, girl,
F                               G
like a double shot of loving so fi--ye-ine
G                                 C
I been loving you since you was a child, girl,
F                                G // F // G
cuz you and me are two of a ki-ye-iiiiiind.

{verse2}
G                                                 C
Ah----------  Like deja v#  I feel like I been heeeeeere,
G
Or somewhere else but youve been always neeeeear.
C
Its  you thats in my dreams, Im begging for
D
but I woke up when someone slammed the door
C
so hard I fell out of bed, screaming mamas
D
little baby loves shorten bread,
and the moral of the story I can testify;
F
I get stoned on you girl.

Thats the best reason whyyyyyyy.

{chorus} x 2
{skat}
{chorus} x 3

Вверх

Dream On

INTRO:
Piano/Harpsichord/Whatever (arranged for guitar)

e|-4-----4----|-3-----3----|-4-----4----|-3-----3----|
B|-6-----6----|-4-----4----|-3-----3----|-2-----2----|
G|----5-----5-|----5-----5-|----5-----5-|----5-----5-|
D|------------|------------|------------|------------|
A|------------|------------|------------|------------|
E|------------|------------|------------|------------|

E|-4-----4----|-6-----6----|--8-----8----|--8--------|
B|-6-----6----|-8-----8----|--9-----9----|--9--------|
G|----5-----5-|----5-----5-|-------------|-----------|
D|------------|------------|----10----10-|-----------|
A|------------|------------|-------------|-----------|
E|------------|------------|-------------|-----------|

E|-4-----4----|-3-----3----|--4-----4----|-3-----3----|
B|-6-----6----|-4-----4----|--3-----3----|-2-----2----|
G|----5-----5-|----5-----5-|-----5-----5-|----5-----5-|
D|------------|------------|-------------|------------|
A|------------|------------|-------------|------------|
E|------------|------------|-------------|------------|

E|-4-----4----|-6-----6----|--8-----8----|-6-4-----6--|
B|-6-----6----|-8-----8----|--9-----9----|-8-6-----8--|
G|----5-----5-|----5-----5-|-------------|-------5----|
D|------------|------------|----10----10-|------------|
A|------------|------------|-------------|------------|
E|------------|------------|-------------|------------|

E|--8-----8----|-6-4------4-|-3-----3----|-3-----3----|
B|--9-----9----|-8-6------6-|-2--1--2--1-|-2--1--2--1-|
G|-----7-----7-|-------7----|------------|------------|
D|-------------|------------|------------|------------|
A|-------------|------------|------------|------------|
E|-------------|------------|------------|------------|

E|-3-------3-------|-3-------3------|-3-----------3-------|--3-|
B|-2---1---2---1---|-2---1---2----1-|-2-----1-----2-----1-|--2-|
G|-----------------|----------------|---------------------|----|
D|-----------------|----------------|---------------------|----|
A|-----------------|----------------|---------------------|----|
E|-----------------|----------------|---------------------|----|
(Guitar)
E|---------------|-------------------|----------------------|--|
B|----------5-6/8|6-8/9-8-9/11-9h11p9|8h9p8-6h8p6-4h6p4-----|--|
G|6p5-3-5h6------|-------------------|------------------6-5/|17|
D|---------------|-------------------|----------------------|--|
A|---------------|-------------------|----------------------|--|
E|---------------|-------------------|----------------------|--|

This basic form repeats during the verse, until the "Isnt that
the way" line, when we have:

E|-4-----4----|-3-----3----|-4-----4----|-3-----3----|
B|-6-----6----|-5-----5----|-6-----6----|-6-----6----|
G|----5-----5-|----5-----5-|----5-----5-|----5-----5-|
D|------------|------------|------------|------------|
A|------------|------------|------------|------------|
E|------------|------------|------------|------------|

E|-3-----3----|-3-----3----|-3-----3----|-3-----3----|
B|-2--1--2--1-|-2--1--2--1-|-2--1--2--1-|-2--1--2--1-|
G|------------|------------|------------|------------|
D|------------|------------|------------|------------|
A|------------|------------|------------|------------|
E|------------|------------|------------|------------|

SOLO:

E|---4-----4-----6-|-----6-----6-----|-8-----8-----8/--|-13-|
B|-----6-----6-----|-6-----6-----6---|---6-----6-------|----|
G|-5-----5-----5---|---5-----5-----5-|-----5-----5-----|----|
D|-----------------|-----------------|-----------------|----|
A|-----------------|-----------------|-----------------|----|
E|-----------------|-----------------|-----------------|----|

E|-8-----8---------|---8-------------|-------8---------|-----|
B|-----6-----6-----|-6-----6---6-----|-6---6---6---8---|-8b9-|
G|-----------------|-----------------|-----------------|-----|
D|-----------------|-----------------|-----------------|-----|
A|-----------------|-----------------|-----------------|-----|
E|-----------------|-----------------|-----------------|-----|

E|---4-----4-----4-|-----6-----6-----|-8-----8-----8/--|-13-|
B|-----------6-----|-6-----------6---|---6-----6-------|----|
G|-5-----------5---|---5-----5-----5-|-----5-----5-----|----|
D|-----------------|-----------------|-----------------|----|
A|-----------------|-----------------|-----------------|----|
E|-----------------|-----------------|-----------------|----|

E|-8-----8---------|---8-------------|
B|-----6-----6-----|-6-----6---6-----|
G|-----------------|-----------------|
D|-----------------|-----------------|
A|-----------------|-----------------|
E|-----------------|-----------------|

FILL 1 [1:31]
E|-----------------|-----------------|
B|-----------------|-----------------|
G|-------------1---|-----------------|
D|---------1-3---3-|-(hold note)-----|
A|-----1-3---------|-----------------|
E|-1-4-------------|-----------------|

FILL 2 [2:10, 2:49, 4:00]
E|---------------|---------------|---------------|-------------|
B|---------------|---------------|---------------|-------------|
G|-5-------------|-5-------------|-5-------------|-5-3-3-3-3---|
D|---3-3-3-3-----|---5-5-5-5-----|---6-6-6-6-----|-------------|
A|---------------|---------------|---------------|-------------|
E|---------------|---------------|---------------|-------------|

FILL 3 [2:55]
E|-------------------------|-------------------------|
B|-------------------------|-------------------------|
G|--------------8---------|--8-8b-----8-10-p8-----8-|
D|-10-----------------10---|-------10----------10----|
A|-------------------------|-------------------------|
E|-------------------------|-------------------------|

E|--------8----------------|-------------------------|
B|-----------8-11-p8-------|-----------------8-11B---|
G|-10b12-------------10-p8-|--------8-10-10B---------|
D|-------------------------|----10-------------------|
A|-------------------------|-------------------------|
E|-------------------------|-------------------------|

FILL 4 [3:07]
E|--------------------------|----------------------|
B|-16b18--------16b18-------|-16b18-------16b18----|
G|--------------------------|----------------------|
D|--------------------------|----------------------|
A|--------------------------|----------------------|
E|--------------------------|----------------------|

E|--------------------------|----------------------|
B|-16B-16----13-------------|----------------------|
G|--------------15----13----|----------------------|
D|-----------------------15-|----13----------------|
A|--------------------------|-------15-14-13-11----|
E|--------------------------|-------------------13-|

FILL 5 [3:19]
E|-------------|---------------|----------4-4--|-4-6-6-6-6-6-6-|
B|-------------|------------4--|6-4-4---6-----6|---(full bend)-|
G|----------1--|3-1---1-3/5---5|------5--------|---------------|
D|3-1---1-3---3|----3----------|---------------|---------------|
A|----3--------|---------------|---------------|---------------|
E|-------------|---------------|---------------|---------------|

Вверх

Dream On (2 вариант)

Intro:    Fm  Cm/F  |  Fm6  Bbm6  |  Fm  C7sus  |  Fm

Verse 1:  Fm            Fm7          Fm6            Bbm6
Evry     time that I  look in the  mirror
All these lines on my  face gettin clearer
The past is  gone
It went   by like      dusk to      dawn

Bridge:
Dm7b		 C    Dm7b5		    Bbm6
Isnt that the way  evrybodys got their dues in life to pay?

C  Dbmaj7  |  D7  C7

Chorus:
Fm          Eb               Db                 Eb
I know      nobody knows     where it comes and where it goes
I know its evryvodys sin; you got to lose to know how to win

Fm  Fm7  |  Fm6  Bbm6  |  Fm  Fm9  |  Fm

Verse 2:
Fm            Fm7          Fm6            Bbm6
Half my       lifes in    books written pages
Lived and     learned from fools and from sages
You know its true
All these     things       come back to   you.

Chorus:
Fm            	    Eb
Sing with me, 	    sing for the years.
Db			    Eb
Sing for the laughter and sing for the tears.
Fm			    Eb
Sing with me if its	    just for today,
Dm7b5			    Dbmaj7
Maybe tomorrow the        good Lord will take you away

Bbm C Bbm C Bbm C Bbm C | Bbm C Bbm C Bbm C Bbm C

Bb        C         Db
Dream on, dream on, dream on,
Eb                           Fm
dream yourself a dream come  true.
Dream on, dream on, dream on, and
dream until your dream comes true.

Bb	    C	      D		Eb
Dream on, dream on, dream on, dream on,
F	    G	      Ab	Bb
Dream on, dream on, dream on, ah
Bbm C Bbm C Bbm C Bbm C | Bbm C Bbm C Bbm C Bbm C
Aaah.

Вверх

Dream On (3 вариант)

   intro
G|-------------------------------------------------------------|
D|3-33-33-33-33-33-33-3-31-3------3-33-333-333-1-------1-12-13-|
A|--------------------------5-54-4------------3-1-111-1--------|
E|-------------------------------------------------------------|

verse
"Everytime I look in the.."     "..isnt that the.."
G|------------------------------|-----------------------------|
D|3-------3-------3-------3-----|1-1--------------------------|
A|------13------13------13------|---3-34-43-14343434343434343-|
E|---1-------1-------1-------1--|-----------------------------|

"well I know nobody knows.."
G|-------------------------------------------|
D|3-31-3---1-13-31-3---1-3--33-33-33-33-33-33|
A|------4-4---------4-4----------------------|
E|------------------------1------------------|

"sing with me, sing for.."
G|----------------------------------------|
D|3-31-3---1-13-31-3---1------------------|
A|------4-4---------4-4--14343434343434343|
E|----------------------------------------|

chorus
"well, dream on, dream on.."
G|-------------------------------|
D|---------1-13333-32------------|
A|1-13-34-4----------32------0---|
E|---------------------32-023-11-|

chorus outro
G|-----------------------------------------|
D|------------13-35-56-68------------------|
A|-1-13-34-41-------------13333333333333333|
E|-----------------------------------------|

Вверх

Dude Look Like A Lady

Intro:

A5
E|--------------------------------|
B|--------------------------------|
G|-9--9----9--9----9--9----9--9---|
D|-7--7----7--7----7--7----7--7---|
A|--------------------------------|
E|--------------------------------|

A5       G5   A5  D5     G5 D5
E|--------------------------------|Repeat this Riff
B|-10-10-10--8-8--10--7-7-7-7-8-7-|4X, until the horns
G|--9--9--9--7-7---9--7-7-7-7-7-7-|start, then repeat
D|--7--7--7--5-5---7--7-7-7-7-7-7-|this 4 more times.
A|--------------------------------|
E|--------------------------------|
Dude Look like a lady

Once the lyrics start play the same riff over and over again.
Also
repeat it with the chorus.  After chorus and verses play this.

A5       G5         A5     F5
E|--------------------------------|
B|-10-10-10--8--8---8--10------6--|
G|--9--9--9--7--7---7---9------5--|
D|--7--7--7--5--5---5---7------3--|
A|--------------------------------|
E|--------------------------------|
Baby let me follow you     down.  Let me take a peak dear.

Right before the solo it goes like this...

D5       C5         D5  E5                     G5
Baby let me follow you down..  Do me, do me, do me, sue me.

Вверх

Eat The Rich

   Intro
E|---0--0-----0--0--|-----0--0-----------||------------------|
B|---0--0-----0--0--|-----0--0-----8--8--||------------------|
G|---4--4-----4--4--|-----4--4-----7--7--||*-----------------|
D|---2--2-----2--2--|-----2--2-----6--6--||*-------5---------|
A|---2--2-----2--2--|-----2--2-----7--7--||---5h7-----5h7----|
E|---0--0-----0--0--|-----0--0-----------||------------------|

Verse
E|---------------------------0--0---||---||---5--3---||------|
B|---------------------------0--0---||---||---5--3---||------|
G|---------------------------4--4--*||---||*--------*||------|
D|---------------------------2--2--*||---||*--------*||------|
A|---------5-----------------2--2---||---||----------||------|
E|---3--5-----6--5--4--3--0---------||---||----------||------|

Pre-chorus:  Im sick of your complaining about how many bills
E|--------------------------|----------~~~-------|----------|
B|--------------------------|--------------------|----------|
G|--------------------------|-----2---2b----(2)--|----------|
D|-------2---------4--------|--5--2--------------|--2-------|
A|-------2---------4--------|--5--0--------------|--2-------|
E|-------0---------2--------|--3-----------------|--0-------|

E|------------|------------------------|--------------------|
B|------------|------------------------|--------------------|
G|------------|-----------2------------|--4--4--4--4--4-----|
D|---4--------|--5--------2------------|--4--4--4--4--4-----|
A|---4--------|--5--------0------------|--2--2--2--2--2-----|
E|---2--------|--3---------------------|--------------------|

Chorus
E|----------|-----------------|
B|----------|-----------------|
G|-4--4--4--|--2-----2--4--4--|
D|-4--4--4--|--2-----2--4--4--|
A|-2--2--2--|--2-----2--2--2--|
E|----------|-----------------|

Eat the rich theres only one thing that there good for
E|-----------------------------------------|
B|-----------------------------------------|
G|-------------------------------------4--*|
D|-7h9--7------------------------------2--*|
A|-5----5--7h-9--7--7-----7--5--2----------|
E|---------5-----5--5-----5--3--0----------|

Вверх

Face

Intro:

Em   D  B5  A  B5 (x2, then...)  Em

(little thing played at the A chord)
e|------------|
B|------------|
G|---2--------|
D|-----2p0----|
A|-0--------2-|
E|------------|

G            Bm      Em
BEHIND THE WALLS OF MY TEMPTATION
G            Bm      Em
THAT?S WHEN IT ALL BEGAN

C           G        D
SHE TIE ME UP WITH MY FRUSTRATION
C           G     D     D9  D
AND SNAPPED MY RUBBER BAND-AH
G      Bm      Em
I REMEMBER A SWEET PATCHOULI
G      Bm      Em
SHE ABSOLUTELY ADORE
C          G         D
IT?S ALL ABOUT WITH WHO YOUR HANGIN?
C           G         D   D9 D       B
AND SHE GAVE ME TOO MUCH ROPE

Chorus:
Em      G     D
SHE DA QUEEN OF MY DELUSION
C        G        D
SHE MY ZEN FROM WAY BACK WHEN
C        G      D
AND THE CAUSE OF MY CONFUSION
Em
IS THE FACE WITHOUT A NAME

G             Bm     Em
SHE LIVED ON LUCKY CHARMS AND COFFEE
G             Bm    Em
AND CRACKER JACK SURPRISE
C           G     D
SHE HAD ME ALL REBORN AND THEN
C         G        D  D9  D B
SHE KILLED ME WITH HER EYES

Em      G     D
SHE?S THE QUEEN OF MY DELUSION
C        G        D
SHE MY ZEN FROM WAY BACK WHEN
C        G      D
AND THE CAUSE OF MY CONFUSION
Em    F5#      G5     A5 B5 C5
IS THE FACE WITHOUT A NAME

B
TRYIN? AN GET LITTLE BIT
THERE?S NOTHING WRONG WITH IT
IF NO ONE SEE?S YA
A
WHAT YA GONNA SAY
WHEN I DON?T KNOW HER NAME
I?LL BLAME IT ON THE DAMNED AMNESIA
C
FORGOTTEN LOVE?S NO DOUBT A WASTE
D                       Em  F#5 A5 B5 C5
WHAT?S IN A NAME WITHOUT A FACE

G         Bm     Em
WE DID A LITTLE NIP AND TUCK THEN
G              Bm     Em
SHE WHISPERED TO MY BRAIN
C         G                       D
I asked her if somethin? AND SHE SAID LETS fuck
B
THEN I FORGOT HER NAME

--Chorus till end--
(with Em as last chord)

Side notes:

this is played during chorus (listen carefully)

e|-12---------------------|
B|-----15--12-------------|
G|-------------14--12-----|
D|---------------------14-|
A|------------------------|
E|------------------------|

Вверх

Fallen Angels

Intro: C Am C Am (when Tyler sings something unindentifiable)

C              Am
Theres a candle burning in this world tonite
G          F                G
for another child who vanished out of sight
C            Am
And a heart is broken, another prayer in vain
G                 F                 G      Am   G
Theres a million tears that fill a sea of pain

F            G            C
Sometimes I stare out my window
F               G           C
My thoughts all drift into space
F               C                       G
Sometimes I wonder if theres a better place

(Tell Me)
C               Am
Where do fallen Angels Go?
I just dont know
G                       F
Where do fallen Angels go?
G           Am    G
They keep falling
C        Am
Now the times is frightening
G                F    G
Can’t ignore the facts
C          Am
There’s so many people
G           F              G
just slippin’ through the cracks

F       G          C
So many ashes are scattered
F       G          C
So many rivers run dry
F               C               G
Sometimes your heaven is hell and you don’t know why

(so listen)
C               Am
Where do fallen Angels Go?
I just dont know
G                       F
Where do fallen Angels go?
G          Am G     Am G     Am G
They keep falling, falling, falling

C          Am
Can you hear me?
C          Am
Can you hear me?
G                              F         G
Somewhere out there there’s a shining light
F                       G
and I got to be with you tonight
C          Am
And with all we’re nowhere
G        F           G
we still pay the price
C                      Am
yeah the devil seems to get his way
G      F
in downtown paradise

C               Am
Where do fallen Angels Go?
I just dont know
G                       F
Where do fallen Angels go?
G           Am G     Am G     Am G
They keep falling, falling, falling
C               Am
Where do fallen Angels Go?
I just dont know
G                       F
Where do fallen Angels go?
G          Am G     Am G     Am G
They keep falling, falling, falling
C
Theres a candle burning....

Вверх

Falling In Love

Intro: F5 and G5

riff 1-                                           turns into:
E|---------------------------------------------|---------------|
B|-------3----------3----------3-----------3---|--------3------|
G|----2----------2----------0-----------2------|-----0---------|
D|-0--------------------------------0----------|---------------|
A|-----------1----------3----------------------|--3------------|
E|---------------------------------------------|------------3--|

F5 and G5, followed by verse, which looks like this:
guitar 1(play in rhythm; basic pattern tabbed)-
Gm
E|-3---3---3-------3-|
B|-3---3---3-------3-|
G|-3---3---3---3---3-|
D|-------------5-----|
A|-------------5-----|
E|-------------------|

guitar 2 is barely audible at first,
but eventually this is played:
guitar 2-
E|------------------------15~~~~~~~~~~~~~-|
B|--------------------15------------------|
G|------13~~~~~~~-------------------------|
D|-12-------------------------------------|
A|----------------------------------------|
E|----------------------------------------|

bridge-
E|-------------------------------------------------------------|
B|--9-------11--11--11---------9-------11-------11-----9-------|
G|--9-------11--11--11--11b--r-9-------11-------11b--r-9-------|
D|----10-10-----10--10-----------10-10----10-10----------10-10-|
A|-------------------------------------------------------------|
E|-------------------------------------------------------------|

E|-------------------------------------------------|
B|-11--------11-----9------------------------------|
G|-11--------11b--r-9---------11-b-11--11----11b-r-|
D|----10-10-----------10-(10)-------------10-------|
A|-------------------------------------------------|
E|-------------------------------------------------|

Thats not all of it, but its enough for now.

I tabbed all of the solo that I could,
which ended up being most of it.
There is a part in there thats too fast for me.
Youll either have to
figure it out yourself or,what I recommend,
buy the tab book(when itcomes out, that is).

solo-
E|-------------------------------------------------------------|
B|-15----15----15----15----15----15----15----15----15----15----|
G|-18b-r-18b-r-18b-r-18b-r-18b-r-18b-r-18b-r-18b-r-18b-r-18b-r-|
D|-------------------------------------------------------------|
A|-------------------------------------------------------------|
E|-------------------------------------------------------------|

E|-------------------------------------------------------------|
B|-15----15----------------------------------------------------|
G|-18b-r-18b-r-18b---r-------1820-----18b-r----18b-r-----------|
D|---------------------15----------18--------17-------15--(15)-|
A|-------------------------------------------------------------|
E|-------------------------------------------------------------|

E|------------------------------------------|
B|-15~~~-13--15-------15--------------------|
G|--------------13----------13b-r----13-13--|
D|-----------------15----15-------15--------|
A|------------------------------------------|
E|------------------------------------------|...

This is where I get lost. When it slows down it looks like this:
full bend
E|15b15r-13-15-13-----21b-r----21b-r----21b-r----21b-r----21b-r|
B|----------------15/-------20-------20-------20-------20------|
G|-------------------------------------------------------------|
D|-------------------------------------------------------------|
A|-------------------------------------------------------------|
E|-------------------------------------------------------------|

Вверх

Fly Away From Here
mp3

Вступление:
F            A#9
E|--5---3--5---8--8--6-5----|
B|--6-------------6-------6-| - 2 раза, также играть между
G|--5-------------7---------|   припевом и 2-ым
D|--3-------------8---------|   куплетом.
A|--------------------------|
E|--------------------------|

1 куплет:
F
Gotta find a way
Am
Yeah, I can?t wait another day
Hb
Ain?t nothing gonna change
Hbm
If we stay ?round here
F
Gotta do what it takes
Am
?Cause it?s all in our hands
Hb
We all make mistakes
Hbm
Yeah, but it?s never too late
Dm
To start again
Am            Hb      Hb C Dm
Take another breath
C           Hb
And say another prayer

Припев:

F     Am
And fly away from here
Hb              Hbm
Anywhere, yeah, I don?t care
F     Am
We?ll just fly away from here
Hb                    Hbm
Our hopes and dreams are out there somewhere
Dm        C            Hb
Won?t let time pass us by
Hb    C    Hb   Hbm
We?ll just fly, yeah

2куплет(аккорды как в 1-0м):

If this life gets any harder now
It ain?t, no, never mind
You got me by your side
And anytime you want
Yeah, we can catch a train
And find a better place
?Cause we won?t let nothing
Or no one keep getting us down
Maybe you and I
Can pack our bags and hit the sky

ПРипев:

And fly away from here
Anywhere, yeah, I don?t care
We?ll just fly away from here
Our hopes and dreams are out there somewhere
Won?t let time pass us by
We?ll just fly

D
Do you see a bluer sky now?
D
You can have a better life now
Fm9       Hb  Fm9  Hb
Open your eye-e-e-e-e-s
D
?Cause no one here can ever stop us
D
They can try but we won?t let them
Fm9       Hb   Fm9  Hb          D...
No        wa-a-a-a-a-y

Dm   C           Hb      Hb  C  Dm
Maybe you and I
Dm            C             Hb
Can pack our bags and say goodbye

ПРипев:

And fly away from here
Anywhere, honey, I don?t care
We?ll just fly away from here
Our hopes and dreams are out there somewhere
Fly away from here
Yeah, anywhere, honey
I don?t, I don?t, I don?t care
We?ll just fly away

Вверх

Hangman Jury

intro(acoustic)-
E|---------------------------------------------------|
B|-------------------0-------------------------------|
G|-------------------0--------------------------5----|
D|---0------------0--0------0---------------3b-----3r|
A|------3p0----------------------------3p0-----------|
E|-----------3p0---------------0--3p0----------------|

E|---------------------------------------------------|
B|---------------------------------------------------|
G|---------------------------------------------------|
D|---0-----3b-r--0-------0-----------------0---------|
A|------0-----------3br----------5p3p0--0------------|
E|--------------------------------------------3br--0-|

E|-------------------------------------|
B|-----------------------------------0-|
G|-----------------------------------0-|
D|-----------3b-----0-------------0--0-|
A|------3p0------------3p0-------------|
E|-3p0----------------------3p0--------|

E|--------------------------------------------------|
B|--------------------------------------------------|
G|--------------------------------------------------|
D|-0-------------------5---------0-----3b-r--3b-r-0-|
A|------------3p0--3b-----3r--------0---------------|
E|----0--3p0----------------------------------------|
"heh"(Steven)
E|------------------------------|
B|------------------------------|
G|------------------------------|
D|-----0--------------------3b--|
A|--3------------------3p0------|
E|-------------0--3p0-----------|

At this point, Steven starts in with the harmonica and Joe
returns to the beginning and plays a variation of what is
tabbed here. The lyrics are basically the same as in the
"Permanent Vacation" sleeve with the exception of Stevens
notable substitution of "talkin bout the first time we got
laid" for "talkin bout the money that I aint made" and "stand
on the rock Joe Perry done stood" for "stand on the rock that
Moses stood." When Steven starts with "If I could I surely
would..." for the first time, the guitar plays what sounds
like a variation of this riff:

E|-------------------------------------------------|
B|-------------------------------------------------|
G|-------------------------------------------------|
D|---------------------0-----------------3b-0----0-|
A|-x-x-7p5---x-x-5p3------3--x-x-3p2--3--------3---|
E|-------------------------------------------------|

Youll have to figure out the timing for this and the first
part by listening to the music. I taped the Unplugged special
back in 1990 but I didnt have it with me when I transcribed
this. I may add/change something after I watch the tape. In the
meantime, youre welcome to do the same. Write me with any
questions.

Вверх

Hangman Jury (2 вариант)

Drop D tuning.

intro-                                 |--PM-|
E|--------------------------------------------------|
B|--------------------------------------------------|
G|--------------------------------------------------|
D|------------3-b-----0---------0-------------------|
A|------3p0-------------3p0-------------------------|
D|--0h3-----3---------------3p0---(0)----0-0-0--3p0-|

E|----------------------------------------------------------|
B|----------------------------------------------------------|
G|--------3-------------------------------------------------|
D|-----3b---3r--0-----3b--0---0-------0--0-----0------3p0---|
A|-3p0------------3p0-------3---------------------3p0-------|
D|--------------------------------0h3------0h3--------------|

E|----------------------------------------------------------|
B|----------------------------------------------------------|
G|-------------3--------------------------------------------|
D|----------3b---3-r--------------0------3-b--r-0---------0-|
A|-----3p0-------------5-3p0---------3p0----------3p0-------|
D|-0h3-----------------------3p0----------------------3p0---|

E|----------------------------------------------------------|
B|----------------------------------------------------------|
G|----------------------------------------------------------|
D|-------0-------3b------0-----3b--0-------0------3-0---0---|
A|----------3p0------------3p0----------------3h5-----3-----|
D|--0-3-------------------------------3p0-------------------|

E|--------------------------|
B|--------------------------|
G|--------------------------|
D|-0-5b--r-0---------0------|
A|------------3-0-----------|
D|----------------3-----3-0-|

riff 1-
E|-----------------------------------------------------|
B|-----------------------------------------------------|
G|-----------------------------------------------------|
D|----------------------------------0-0------0---------|
A|----x-7p5-----x-5p3--3-----x-3p2--------------3p0-0--|
D|--0---------0------------0-------------0h3-----------|

This next part is very similar to(if not exactly like) what
Brad plays on the unplugged version of the song. On the PV
album its played on an electric guitar:
riff 2-
E|------------------------------------------------------------|
B|--------1--------------3--------------5------------5------6-|
G|------0---(0---------0---(0---------0---(0------------------|
D|----0--------0)----3--------3)----5--------5)---------------|
A|--2--------------2--------------4---------------6------7----|
D|------------------------------------------------------------|
At the end of this riff, just move the second chord up the neck.

I cant quite make out what Joe plays for this part yet. When I
figure it out, Ill post it. In the meantime, if you know it,
youre more than welcome to send it to me to post.

Before the next riff, both guitars play this(w/distortion):

E|-------------------------------|
B|-------------------------------|
G|-------------------------------|
D|-------------------------------|
A|--7-7-9-7--7-7-9-7--7-7-9-7-7--|
D|--5-5-5-5--5-5-5-5--5-5-5-5-5--|

riff 3(electric guitar w/distortion)-
E|---------------------------------------------|
B|---------------------------------------------|
G|------9p7-------7p5--------5p4---------------|
D|--0h7-------0h5--------0h4------0------------|
A|-----------------------------------0h5--0h5--|
D|---------------------------------------------|

This next part I also based on Brads unplugged performance.
I think Joe plays
similar chords. Correct me if Im wrong.

riff 4-
E|-----------------------------------------------|
B|-----------------------------------------------|
G|-----------------------------------------------|
D|-----------------------------------------------|
A|--7-7-9-7---3-3-5-3--10-10-12-10--10-10-12-10--|
D|--5-5-5-5---1-1-1-1---8--8--8--8---8--8--8--8--|

Вверх

Hangman Jury (tab)

intro(acoustic)-
E|---------------------------------------------------|
B|-------------------0-------------------------------|
G|-------------------0--------------------------5----|
D|---0------------0--0------0---------------3b-----3r|
A|------3p0----------------------------3p0-----------|
D|-----------3p0---------------0--3p0----------------|

E|---------------------------------------------------|
B|---------------------------------------------------|
G|---------------------------------------------------|
D|---0-----3b-r--0-------0-----------------0---------|
A|------0-----------3br----------5p3p0--0------------|
D|--------------------------------------------3br--0-|

E|---------------------------------------------------|
B|--------------------------------------0------------|
G|--------------------------------------0------------|
D|--------------3b-----0-------------0--0------------|
A|---------3p0------------3p0------------------------|
D|----3p0----------------------3p0-------------------|

E|---------------------------------------------------|
B|---------------------------------------------------|
G|---------------------------------------------------|
D|---0-------------------5---------0-----3b-r--3b-r-0|
A|--------------3p0--3b-----3r--------0--------------|
D|------0--3p0---------------------------------------|
"heh"(Steven)
E|---------------------------------------------------|
B|---------------------------------------------------|
G|---------------------------------------------------|
D|-----0--------------------3b-----------------------|
A|--3------------------3p0---------------------------|
D|-------------0--3p0--------------------------------|

At this point, Steven starts in with the harmonica and Joe returns to the
beginning and plays a variation of what is tabbed here. The lyrics are
basically the same as in the "Permanent Vacation" sleeve with the exception
of Stevens notable substitution of "talkin bout the first time we got
laid" for "talkin bout the money that I aint made" and "stand on the rock
Joe Perry done stood" for "stand on the rock that Moses stood." When Steven
starts with "If I could I surely would..." for the first time, the guitar
plays what sounds like a variation of this riff:

E|---------------------------------------------------|
B|---------------------------------------------------|
G|---------------------------------------------------|
D|----------------------0-----------------3b-0----0--|
A|--x-x-7p5---x-x-5p3------3--x-x-3p2--3--------3----|
D|---------------------------------------------------|

Youll have to figure out the timing for this and the first part by
listening to the music. I taped the Unplugged special back in 1990 but I
didnt have it with me when I transcribed this. I may add/change something
after I watch the tape. In the meantime, youre welcome to do the same.
Write me with any questions.

Hangman Jury(Tyler/Perry/Vallance)

Permanent Vacation version
Drop D tuning.
intro-                                 |--PM-|
E|--------------------------------------------------|
B|--------------------------------------------------|
G|--------------------------------------------------|
D|------------3-b-----0---------0-------------------|
A|------3p0-------------3p0-------------------------|
D|--0h3-----3---------------3p0---(0)----0-0-0--3p0-|

E|----------------------------------------------------------|
B|----------------------------------------------------------|
G|--------3-------------------------------------------------|
D|-----3b---3r--0-----3b--0---0-------0--0-----0------3p0---|
A|-3p0------------3p0-------3---------------------3p0-------|
D|--------------------------------0h3------0h3--------------|

E|----------------------------------------------------------|
B|----------------------------------------------------------|
G|-------------3--------------------------------------------|
D|----------3b---3-r--------------0------3-b--r-0---------0-|
A|-----3p0-------------5-3p0---------3p0----------3p0-------|
D|-0h3-----------------------3p0----------------------3p0---|

E|----------------------------------------------------------|
B|----------------------------------------------------------|
G|----------------------------------------------------------|
D|-------0-------3b------0-----3b--0-------0------3-0---0---|
A|----------3p0------------3p0----------------3h5-----3-----|
D|--0-3-------------------------------3p0-------------------|

E|----------------------------|
B|----------------------------|
G|----------------------------|
D|-0-5b--r-0---------0--------|
A|------------3-0-------------|
D|----------------3-----3-0---|

riff 1-
E|-----------------------------------------------------|
B|-----------------------------------------------------|
G|-----------------------------------------------------|
D|----------------------------------0-0------0---------|
A|----x-7p5-----x-5p3--3-----x-3p2--------------3p0-0--|
D|--0---------0------------0-------------0h3-----------|

This next part is very similar to(if not exactly like) what Brad plays on the
unplugged version of the song. On the PV album its played on an electric
guitar:
riff 2-
E|------------------------------------------------------------|
B|--------1--------------3--------------5------------5------6-|
G|------0---(0---------0---(0---------0---(0------------------|
D|----0--------0)----3--------3)----5--------5)---------------|
A|--2--------------2--------------4---------------6------7----|
D|------------------------------------------------------------|
At the end of this riff, just move the second chord up the neck.

I cant quite make out what Joe plays for this part yet. When I figure it out,
Ill post it. In the meantime, if you know it, youre more than welcome to
send it to me to post.

Before the next riff, both guitars play this(w/distortion):

E|-------------------------------|
B|-------------------------------|
G|-------------------------------|
D|-------------------------------|
A|--7-7-9-7--7-7-9-7--7-7-9-7-7--|
D|--5-5-5-5--5-5-5-5--5-5-5-5-5--|

riff 3(electric guitar w/distortion)-
E|
B|---------------------------------------------|
G|------9p7-------7p5--------5p4---------------|
D|--0h7-------0h5--------0h4------0------------|
A|-----------------------------------0h5--0h5--|
D|---------------------------------------------|

This next part I also based on Brads unplugged performance. I think Joe plays
similar chords. Correct me if Im wrong.

riff 4-
E|--------------------------------------------------|
B|--------------------------------------------------|
G|--------------------------------------------------|
D|--------------------------------------------------|
A|--7-7-9-7---3-3-5-3--10-10-12-10--10-10-12-10-----|
D|--5-5-5-5---1-1-1-1---8--8--8--8---8--8--8--8-----|

You should be able to use these riffs(or slight variations of them) for the
rest of the song. Have fun with it and write me with any comments, questions,
corrections and additions.

Вверх

Hole In My Soul

Intro: (2x)
e+-5-----5----|-7-----7----|-8-----8----|-7-----7----|
B+-6-----6----|-6-----6----|-6-----6----|-6-----6----|
G+----5-----5-|----5-----5-|----5-----5-|----5-----5-|
D+------------|------------|------------|------------|
A+------------|------------|------------|------------|
E+------------|------------|------------|------------|
Riff 1: (During verse)
|-5-----5----|-7-----7----|-8-----8----|-7-----5----|
|-6-----6----|-6-----6----|-6-----6----|-6-----6----|
|----5-----5-|----5-----5-|----5-----5-|----5-----5-|
|------------|------------|------------|------------|
|------------|------------|------------|------------|
|------------|------------|------------|------------|
|-5-----5----|-5-----5----|-3-----3----|-3-----3----|
|-5-----5----|-5-----5----|-5-----5----|-5-----5----|
|----4-----4-|----4-----4-|----4-----4-|----4-----4-|
|------------|------------|------------|------------|
|------------|------------|------------|------------|
|------------|------------|------------|------------|

Riff 1
Im down a one way street
With a one night stand
With a one track mind
Out in no mans land
(The punishment sometimes dont seem to fit the crime)
Yeah theres a hole in my soul
But one thing Ive learned
For every love letter written
Theres another one burned
(So you tell me how its gonna be this time)
Dsus4    D
Is it over
C
Is it over
Dsus4 D Dsus4 G
^СCause Im blowin out the       flame
G                        Dsus4 D
Take a walk outside your mind
Am
Tell me how it feels to be
C
The one who turns the knife inside of me
G                        Dsus4 D      Am
Take a look and you will find theres nothing there girl
C
Yeah I swear, Im telling you girl yeah cause
D#         C                G            F#
Theres a hole in my soul thats been killing me forever
F             C#           D#
Its a place where a garden never grows
D#         C            G                 F#
Theres a hole in my soul, yeah I should have known better
F             C#              D#
Cause your loves like a thorn without a rose
interlude:
D G G G

Im as dry as a seven year drought
I got dust for tears
And Im all tapped out
(Sometimes I feel broke and cant get fixed)
I know theres been all kinds of shoes underneath your bed
Now I sleep with my boots on but youre still in my head
(And something tells me this time Im down to my last licks)
Cause if its over
Then its over
And its driving me insane
Take a walk outside your mind
Tell me how it feels to be
The one who turns the knife inside of me
Take a look and you will find
There^Тs nothing there girl yeah I swear
I^Тm telling you girl, yeah,
^СCause there^Тs a hole in my soul
That^Тs been killing me forever
It^Тs a place where a garden never grows
There^Тs a hole in my soul
Yeah, I should have known better
^СCause your love^Тs like a thorn
Without a rose
Is it over
Yeah it^Тs over
And I^Тm blowin^Т out the flame
Take a walk outside your mind
Tell me how it feels to be
The one who turns the knife inside of me
Take a look and you will find
There^Тs nothing there girl yeah I swear
I^Тm telling you girl, yeah,
^СCause there^Тs a hole in my soul
That^Тs been killing me forever
It^Тs a place where a garden never grows
There^Тs a hole in my soul
Yeah, I should have known better
^СCause your love^Тs like a thorn
Without a rose

Вверх

Home Tonight

Intro: D - E - D - E

C#m      F#      A       B        E
Now its time to say goodnight to you
C#m      F#      A       B        E
Now its time to bid you sweet adieu
A             Ab              C#m
And maybe drink a cheers to yesterday
F#m                      B     E
And maybe youll drink those tears away
A              Ab               F#m
So baby dont let go, hold on real tight
F#5    Ab5 A5 B5   C#5 D    E      D    E
Cause Ill be home tonight     tonight

Solo:
C#m - F#m - A - E

first solo(distortion)-
E|--------------------------------------------------|
B|--9--------9----9--------9---------9--9-----------|
G|--9--------9----9--------9---------9-11-9h11p9----|
D|----10-10----10---10-10----10-10---------------10-|
A|--------------------------------------------------|
E|--------------------------------------------------|

E|--------------------------------------------------|
B|----------9-----------9-------------9-------------|
G|-9--------9-----------9-11-11b-r~~~-9-11-11b-rp9--|
D|---10-10----10-8-10-------------------------------|
A|--------------------------------------------------|
E|--------------------------------------------------|

E|--------------------------------------------------|
B|-----------------11b-r-p9-------------------------|
G|-11b--r-b--r--11-11b-r-p9----9-11---11-11__/-11--|
D|--------------------------10----------------------|
A|--------------------------------------------------|
E|--------------------------------------------------|

E|--------------------------------------------------|
B|--------------------------------------------------|
G|-11-11-11__/-p9----9-11-9------9----9/8-8/6-6h8--|
D|-----------------11---------11----10--------------|
A|--------------------------------------------------|
E|--------------------------------------------------|

E|--------------------------------------------------|
B|-------------------------------------------11-----|
G|-6--8-8b-r-p6---6-3p0-------------8----11b----11r-|
D|--------------8-------3p0----8-10---10------------|
A|--------------------------3-----------------------|
E|--------------------------------------------------|

E|------------------------------------------------------|
B|--11-1113--13-----------------------------------------|
G|---------------16p15p13----13-11pxp9----9-5p3p0-------|
D|------------------------15-----------10---------3-----|
A|--------------------------------------------------6p3-|
E|------------------------------------------------------|

Вверх

I Aint Got You

   Riff A
|----------------------------|   This is the opening riff.
|----------------------------|   It is played during most of
|----------------------------|   the song.
|----------------------5---5-|
|------2-2---3-3--4-4--5---5-|
|-3-3------------------3-3-3-|

After this riff is repeated, then it goes into a C5 position.

Riff B
|--------------------------------|
|--------------------------------|
|--------------------------------|
|-5-5-7-5-5-7-5-5-7-5-5-7-5-5-7--|
|-3-3-3-3-3-3-3-3-3-3-3-3-3-3-3--|
|--------------------------------|


Chorus:

|--------------------------------|
|--------------------------------|
|--7-7---------------------------|
|--7-7--5--5---5-----------------|
|--5-5--5--5---5-----------------|
|-------3--3-3-3-----------------|

During the harmonica solo, play this riff.

|---------------|  Repeat this for the rest of the harmonica
|---------------|  solo.
|---------------|
|-5--5---5------|
|-5--5---5------|
|-3--3-3-3------|

The guitar solo easy to play because it is in the key of G.
Just play out of the G blues box.
Here is some of the solo:

|--------------------~~~~~~----------------------~~~~~~-|
|-------------------------------------------------------|
|---------3-5B--3-3----------5-5B-5B-3------------------|
|-5-5-5-5-----------5------------------5-5-5--3-5-------|
|-------------------------------------------------------|
|-------------------------------------------------------|

Вверх

I Dont Want To Miss A Thing

Verse:
G|---------------------------|
D|-0~------------------------|
A|----4~-2~---2----------0---|
E|----------2---2-2~-2h3---0-|

Chorus:
G|------------0~-2----|
D|-0~--------------0~-|
A|----4~-2~-2---------|
E|--------------------|

Bridge:
G|----------------------------------|
D|----------------------------0~----|
A|-3-3-----0-------3-3-3---------0~-|
E|-----3-3---1-1-1-------3-3-3------|

Вверх

I Dont Want To Miss A Thing

Verse:
G|---------------------------|
D|-0~------------------------|
A|----4~-2~---2----------0---|
E|----------2---2-2~-2h3---0-|

Chorus:
G|------------0~-2----|
D|-0~--------------0~-|
A|----4~-2~-2---------|
E|--------------------|

Bridge:
G|----------------------------------|
D|----------------------------0~----|
A|-3-3-----0-------3-3-3---------0~-|
E|-----3-3---1-1-1-------3-3-3------|

Вверх

I Dont Want To Miss A Thing (2 вариант)

[Piano Intro]

Verse:
D	    A			Bm
I could stay awake just to hear you breathing
G	               D                  Em
Watch you smile while you are sleeping while your far away
A
dreaming
D	      A		   Bm
I could spend my life in this sweet surrender
G		 D	  Em   A
I could stay lost in this moment forever
A		G		   D	A
Every moment spent with you is a moment I treasure

Chorus:
D		         A
I don?t want to close my eyes

Em	                                        Bm
I don?t want to fall asleep ?cause I?d miss you baby

G		      D
and I don?t want to miss a thing

D			    A
?cause even when I dream of you

Em						    Bm
the sweetest dream will never do I?d still miss you baby

G		     D	   A	 Em
and I don?t want to miss a thing

Verse2:
D		    A		    Bm
Lyin close to you feeling your heart beating
G		      D
and I?m wonderin what you?re dreaming
Em		   A
wonderin if it?s me you?re seein
D		  A		      Bm
Then I kiss your eyes and thank God we?re together
A	  D		      A
I just want to stay with you in this moment forever

forever and ever

Chorus:
D			A
I don?t want to close my eyes

Em				                Bm
I don?t want to fall asleep ?cause I?d miss you baby

G		     D
and I don?t want to miss a thing

D			     A
?cause even when I dream of you

Em						    Bm
the sweetest dream will never do I?d still miss you baby

G		     D
and I don?t want to miss a thing

Verse3:
D		C
I don?t want to miss one smile
G
I don?t want to miss one kiss
Dm				F
I just want to be with you right here with you just like this
C
I just want to hold you close
G
feel your heart so close to mine
Dm				      A
and just stay here in this moment for all the rest of time

yeah, yeah, yeah.....

Chorus: Repeat twice then fade to end

Pretty cool huh?

Вверх

I Live In Connecticut

rhy.fig.1(light palm mute)-
D/E   E7
E|-2-------------0--------------------------2-------|
B|-3--0--3-------3------------3--0--3-------3-------|
G|-2--0--1-------1------------1--0--2-------2-------|
D|-2--0--2--------------------2--0--2-------2-------|
A|----0--2---2-------4-5------2--0--------------4-5-|
E|-------0---0--------------------------0-----------|

Im not exactly sure of the arrangement on the album. Its
possible that there are two guitars playing something like this:
guitar 1(right side)-
E|-2-------------0--------------------------2-|
B|-3--0--3-------3------------3--0--3-------3-|
G|-2--0--1-------1------------1--0--2-------2-|
D|-2--0--2--------------------2--0--2-------2-|
A|----0--2---2----------------2--0------------|
E|-------0---0--------------------------0-----|

||guitar 2(left side)
E|---------------2--------------------------2-------|
B|---------------3--------------------------3-------|
G|---------------2--------------------------2-------|
D|---------------2--------------------------2-------|
A|-7--6--5-----------4-5------5--6--7-----------4-5-|
E|-----------0--------------------------0-----------|

Of course its also possible that the arrangement on the album
is only guitar 2 or a combination of the two arrangements.
Just play whatever you are most comfortable with. Play that
eight times and then play something like this:
rhy.fig.2-
E|--------------------------------|
B|--------------------------------|
G|--------------------------------|
D|--------------------------------|
A|-7--6--5------------------------|
E|-----------5p3--0--0----0-5p3-0-|

Вверх

Janies Got A Gun

F5           G5        Ab5       Bb5
Dum, dum Dum Honey what have you done?
Eb5                    F5
Dum, Dum, dum Its the sound of my gun
F5           G5        Ab5      Bb5
Dum dum dum honey what have you done
Eb5                   Eb5
Dum dum dum its the sound its the sound
F    G    Bb     F    G    Csus4
Nah, nah, nah,   Nah, nah, nah,
F    G    Bb    C    Csus4
Nah, nah, nah.....
F      Gm7   Csus4   F      Gm7  Csus4
Janies got a gun,    Janies got a gun
F            Gm7   Csus4
Her whole worlds come undone,
F               Gm7     Csus4
From looking straight at the sun
F            Bb     C    F          Bb        C
What did her daddy do?  What did he put you through?
Dm(add9)
They said when Janie was arrested,
Bb(add#11)                 F. F5. Eb5/F. Ab5/F. Eb5/F. F5
They found him underneath a train,
Dm(add9)                        Bb(add#11)
But man he had it coming, now that Janies got a gun
Gm7                   C  F/C C7..
She aint never gonna be the same

Janies got a gun. Janies got a gun
Her dog days just begun, Now everybody is on the run
Tell me now its  untrue, What did her daddy do?
He jacked a little bitty baby
The man has got to be insane
They say the spell that he was under,
The lightning and the thunder
Knew that someone had to stop the rain

Db             Eb            Fm7
Run away,  Run away from the pain, Yeah, yeah, Yeah, yeah
Db             Eb            Fm7
Run away,  Run away from the pain,
Eb5/F                           Fm7
Yeah, yeah, Yeah Yeahyeah Yeah, yeah
Db        Eb        Bbm      Csus4
Run away, run away, run,run away...

Janies got a gun, Janies got a gun
Her dog days just begun, Now everybodys on the run
What did her daddy do? Its Janies last I.O.U
She had to take him down easy
And put a bullet in his brain
She said cos nobody believes me, The man was such a sleaze
He aint never gonna be the same

Run away, run away from the pain, Yeah yeah, yeah,yeah, yeah
Run away, run away,from the pain yeah, yeah, yeahyeah yeah, yeah
Run away, run away, run, run away...

F       Gm7   Csus4    F      Gm7   C sus4
Janies got a gun,    Janies got a gun
F      Gm7    Csus4       F      Gm7    Csus4
Janies got a gun,   everybodys on the run.

Вверх

Kings And Queens

Fig. 1
G|-------------------------------------------------------------|
D|-------------------------------------------------------------|
A|-------------------4--5-5-5-5-5-5-5-5----------------------5-|
E|-2-2-2-2-2-2-2-2-2----------------------2--3-3-3-3-3-3-3-3---|

G|------------------|
D|------------------|
A|--4-4-4-4-4-4-4-4-|
E|------------------|

G|-------------------------------------------------------------|
D|-3-3-3-3-3-3-3-3---------------------------------------------|
A|---------------------------------4--5-5-5-5-5-5-5-5----------|
E|-----------------2-2-2-2-2-2-2-2--------------------2--3-3-3-|

G|-----------|
D|-----------|
A|-----------|
E|-3-3-3-3-3-|

G|-------------------------------------------------------------|
D|-------------------------------------------------------------|
A|-------------------------------------------------------------|
E|-5-5-5-5-5-5-5-5-5-7-7-7-7-7-7-7-7-7-7-7-7-7-7-7-7-7-7-9-9-9-|

Fig. 2

G|-------------------|
D|-------------------|
A|-------------------|
E|-9-9-9-9-9-9-9-9-9-|

G|-------------------------------------------------------------|
D|-------------------------------------------------------------|
A|-------------------------7--5--5--5--5--5--5--5--5--7--------|
E|-2--2--2--2--2--2--2--2--------------------------------2--2--|

G|------------------|
D|------------------|
A|------------------|
E|-2--2--2--2--2--2-|

G|-------------------------------------------------------------|
D|-------------------------------------------------------------|
A|-7--5--5--5--5--5--5--5--5--7-------------------------7-5--5-|
E|-------------------------------2--2--2--2--2--2--2--2--------|

G|------------------|
D|------------------|
A|-5--5--5--5--5--5-|
E|------------------|

x2                 fill 1
G|-------------------------||--------------------|
D|-------------------------||--------------------|
A|-4-4-4-4-4-4-4-4-4-4-4-4-||--4-----------------|
E|-------------------------||-------7-----5----2-|

|-----------------------|
|    Play Figure One    |
|                       |
|-----------------------|

G|-------------------------------------------------------------|
D|*------------------------------------------------------------|
A|*------------------------------------------------------------|
E|-2-2-2-2-2-2-2-2-2-2-2-2-2-2-2-2-7-7-7-7-7-7-7-7-7-7-7-7-7-7-|

G|---------------------|
D|---------------------|
A|---------------------|
E|-7-7-4-4-4-4-4-4-4-4-|

G|-------------------------------------------------|   Repeat 2x
D|-------------------------------------------------|
A|-------------------------------------------------|
E|-5-5-5-5-5-5-5-5-2-2-2-2-2-2-2-2-2-2-2-2-2-2-2-2-|
played only first time

G|-----------|
D|play fill 1|
A|-----------|
E|-----------|

Fig. 3
G|--11----13----11------------|
D|-----12----------12-0----14-|  Play it 2x
A|----------------------12----|
E|----------------------------|

Fig. 4
G|---------------------------|----------------------|
D|-12------10-9-8-0----------| play fig.3 then fig.4| play fig.3
A|----12-0----------12-11-10-|      three times     |
E|---------------------------|----------------------|

G|----------------------------------------------------------|
D|--12-------------------------------10--9--8--0------------|
A|-----12-0-9-9-9-9-9-9-9-9-9-9-9-9--------------12--11--10-|
E|----------------------------------------------------------|

G|-------------||--------------|
D| play fig. 2 ||--------------|
A|             ||--------------|
E|-------------||--5----7----2-|

Вверх

Last Child

INTRO
1|----|----|----|----|----|----|o------------------------------|
2|----|----|----|----|----|----|-------------------------------|
3|5-55|5-55|----|----|7-77|7-77|---------%-----2--------%-----2|
4|----|----|3-33|3-33|----|----|o-2-2-4-5-2-4-5--2-2-4-5-2-4-5-|

play 2 times
1|-----------------o||
2|------------------||
3|-------%------2---||
4|2-2-4-5-2-4-5--5-o||

1|o-----------------|-----------------o|
2|------------------|------------------|
3|------------------|------------------|
4|o-5-5-5-5--5-5-5-5|5-5-5-5--5-5-5-5-o|

1|--------------|------------------------------|7h87-4-2%4-|
2|--------------|------------------------------|-----------|
3|-------%-----2|-------%------2---------------|-----------|
4|2-2-4-5-2-4-5-|2-2-4-5-2-4-5--5-5-5-5-5-5-5-5|-----------|

Вверх

Last Child (2 вариант)

   Intro:       Slowly
E|-----------------------|-----------------------|---|
B|-------6--5---6--------|--------6--5--6--------|---|
G|----7------------7-----|-----7-----------7-----|---|
D|-7------------------7--|--7-----------------7--|-5-|
A|-----------------------|-----------------------|---|
E|-----------------------|-----------------------|---|

E|----3-----3--------|--------3-----3--------|--------4----|
B|-3-----5-----3-----|-----3-----5-----3-----|-----3-----5-|
G|-------------------|-----------------------|--4----------|
D|----------------5--|--5-----------------5--|-------------|
A|-------------------|-----------------------|-------------|
E|-------------------|-----------------------|-------------|

Repeat with first part of the verse.

E|-4--------|--------4-----4--5--6--||--------||-----------|
B|----3-----|-----3-----5--3--4--5--||--------||-----------|
G|-------4--|--4-----------4--5--6--||--------||*----------|
D|----------|-----------------------||--------||*----------|
A|----------|-----------------------||--------||---2--2--4-|
E|----------|-----------------------||--------||-----------|

Repeat with the second part of the verse.

E|-----------------||---------------------------------|
B|-----------------||---------------------------------|
G|----------------*||---------------------------------|
D|----------------*||-7--7--7--7--7--7--7--7--7--7--7-|
A|-4--2--4--5--7---||-7--7--7--7--7--7--7--7--7--7--7-|
E|-----------------||-5--5--5--5--5--5--5--5--5--5--5-|

Вверх

Livin On The Edge

INTRO

D5
e|----------0h2p0-------0---------|------0h2p0-------0---------|
B|-----3----------3-------3-----3-|----3-------3-------3-----3-|
G|--------------------------0h2---|----------------------0h2---|
d|-0------------------------------|-0--------------------------|
A|--------------------------------|----------------------------|
D|--------------------------------|----------------------------|

[repeat]

VERSE 1

D5 [w/Intro pattern]
theres something wrong with the world today,
I dont know what it is
Bm                              A5
somethings wrong with our eyes
D5 [w/Intro pattern]
were seeing things in a different way,
and God knows it aint His
Bm
it sure aint no surprise (yeah!)

PSEUDO-CHORUS

Chorus Pattern (use this many times throughout the song):
E|---------------------------|--------------------|
B|---------------------------|--------------------|
G|-7--7--7--7--9b11r9b10r9-7-|-7--7--7--7--9b11r9-|
D|---------------------------|--------------------|
A|---------------------------|--------------------|
E|---------------------------|--------------------|
(or something like that...)

D5 [w/chorus pattern]
were Livin On The Edge
Livin On The Edge
A#           G/B
Livin On The Edge
D5
Livin On The Edge

VERSE 2

[w/Intro pattern]
theres something wrong with the world today,
the lightbulbs gettin dim
theres meltdown in the sky
if you can judge a wise man by the color of his skin
then mister youre a better man than I
[feedback!]

CHORUS

D5 [w/chorus pattern]
Livin On The Edge     (you cant help yourself from falling)

Livin On The Edge     (you cant help yourself at all)
A#                                     G/B
Livin On The Edge     (you cant stop yourself from falling)
D5
Livin On The Edge

BRIDGE

[F#5]
E|---------------------------|---------------------------------|
B|---------------------------|---------------------------------|
G|---------------------------|---------------------------------|
D|-------------------2-------|-----------------------2---------|
A|-4---4---4---2-3-4-0---4-2-|-4---4-------4---2-3-4-0-----4/--|
E|-4---4---4---2-3-4-----4-2-|-4---4-------4---2-3-4-------4/--|
tell me what you think about your situation, complication,
aggravation

[B5] (w/Fill 1 first time around, then Fill 2 second time)
E|---------------------------|---------------------------------|
B|---------------------------|---------------------------------|
G|-------------------7-------|-----------------------7---------|
D|-------------------7-------|-----------------------7---------|
A|-9---9---9---7-8-9-----9-7-|-9---9-------9---7-8-9-------9--|
E|-9---9---9---7-8-9-----9-7-|-9---9-------9---7-8-9-------9--|
its getting to you

[F#5]
E|---------------------------|---------------------------------|
B|---------------------------|---------------------------------|
G|---------------------------|---------------------------------|
D|-------------------2-------|-----------------------2---------|
A|-4---4---4---2-3-4-0---4-2-|-4---4-------4---2-3-4-0-----4---|
E|-4---4---4---2-3-4-----4-2-|-4---4-------4---2-3-4-------4---|
if Chicken Little tells you that the sky is fallin,
even if it wasnt

G5
would you still come crawling back again?
A5
I bet you would, my friend
A#
again and again and again and again and again

FILL 1:
E|-----------|--------------------------------|
B|-----------|-----9b10r9---7-9b10r9----7-9-7-|
G|-7b9-----7-|---7-9b11r9---7-9b11r9----7-9-7-|
D|-----------|-9------------------------------|
A|-----------|--------------------------------|
E|-----------|--------------------------------|

FILL 2:
E|-----------|------------------------------7-|
B|-----------|-----9-9-9b10r9b10r9b10r9-----7-|
G|-7b9-----7-|---7-9-9-9b11r9b11r9b11r9-7-----|
D|-----------|-9--------------------------9---|
A|-----------|--------------------------------|
E|-----------|--------------------------------|

[Guitar Solo]

[Repeat BRIDGE]

VERSE 3

theres something right with the world today,
and everybody knows its wrong
well we could tell em no, we could let it go
but I would rather be hangin on!

[pause]

[Repeat CHORUS]

OUTRO

A#   A5
Livin On The Edge
G5   F5
Livin On The Edge
E5   D#5
Livin On The Edge

yeah, yeah, yeah...
D5 (hold for four measures)

This pattern is repeated in the background from here on:

E|---------17--------------17------|
B|-15--------------15--------------|
G|-----14------14------14------14--|
D|---------------------------------|
A|---------------------------------|
E|---------------------------------|

A#                                 G5    F5
Livin On The Edge (you cant help yourself from falling)
D5
Livin On The Edge (you cant help yourself at all)
A#                                 G/B   F5
Livin On The Edge (you cant stop yourself from falling)
D5
Livin On The Edge
A#
Livin On The Edge (you cant help yourself)
G/B                    F5
(you cant help yourself)
D5
Livin On The Edge (you cant help yourself at all)
A#
Livin On The Edge (you cant help yourself)
A5
(you cant help yourself)
G5
Livin On The Edge (you cant help yourself)
F5
(you cant help yourself)
E5                                 D#5
Livin On The Edge (you cant help yourself from falling)
D5
Livin On The Edge, yeah, yeah...

E|-----6------|-----5-|
B|------------|-------|
G|-7b8-(hold)-|-8r7---|
D|------------|-------|
A|------------|-------|
E|------------|-------|

E|------10-------|------8--------|-----6---------|-----5-------|
B|---------------|---------------|---------------|-------------|
G|-9b11-(hold)---|-11r9----------|-7b8-(hold)----|-8r7---------|
D|---------------|---------------|---------------|-------------|
A|---------------|---------------|---------------|-------------|
E|---------------|---------------|---------------|-------------|

I didnt include the guitar solo because all the little nuances
(bend here, use slide here, bend-and-release here, etc.)  make
it a bitch to get into ASCII notation.  Its fairly simple to
play if you can get the hang of using a slide on and off
(easier said than done!).  Im not sure if my "b" and "r"
notation is standard, so if you dont understand, feel free to
drop me a line and I will clarify myself.

D5     Bm     A5     A#     G5     F5     E5    D#5    G/B
E|---------2------------------------------------------------3--|
B|--3------3-------------3-----(8)----(6)----(5)----(4)-----3--|
G|--2------4------2------3-----(7)----(5)----(4)----(3)-----0--|
D|--0------4------2------3------5------3------2------1------0--|
A|--0------2------0------1------5------3------2------1------2--|
E|------------------------------5------3------2------1---------|

Вверх

Livin On The Edge (2 вариант)

5-string bass (5th string tuned to low-B)

(you can also play it in dropped-D tuning on a 4 string)

Verse
D           B       A
||-----|-----|-----|-----||
||*----|-----|-----|----*||
||-----|-----|-----|-----||
||*----|-----|-----|----*||
||-----|-----|-----|-----||

Chorus
D
2nd time
(Bb/D)            (G/D)            (D)
||-----------------|--------------|--------------|------------||
||*----------------|--------------|--------------|-----------*||
||-----------------|--------------|--------------|------------||
||*------5/10------|------5/10----|------5/10----|------5/10-*||
||-3---------------|3-------------|3-------------|3-----------||

Verse
D                            B                            A
|--------------|--------------|----------------|---------------|
|--------------|--------------|----------------|---------------|
|--------------|--------------|2-----2-2-------|2-----2-2--/12-|
|-------5/10---|------5/10----|--------------2-|---------------|
|-3------------|3-------------|----------------|---------------|

D
|----------------|-----------|
|----------------|-----------|
|----------------|-----------|
|------5/10------|------5/10-|
|3---------------|3----------|

B                            A
|----------------|---------------------|
|----------------|---------------------|
|2-----2-2---2-2-|2------/12/12/12/12R-|
|----------------|---------------------|
|----------------|---------------------|

Chorus
D
|--------------|--------------|---------------|----------------|
|--------------|--------------|---------------|----------------|
|--------------|--------------|---------------|----------------|
|----5/10--10--|----5/10--10--|-----5/10--5---|------5/10--10--|
|3-------------|3-------------|3--------------|3---------------|

Bb/D            G/D             D
|---------------|---------------|-------------|----------------|
|---------------|---------------|-------------|----------------|
|---------------|---------------|-------------|----------------|
|-----5/10--10--|-----5/10--10--|---5/10--1010|10101010101010X-|
|3--------------|3--------------|3------------|----------------|

Bridge
(F#)                           (B)
|--------------|---------------|---------------|---------------|
|--------------|---------------|---------------|---------------|
|-----------0--|-----------0---|-----------5---|---------5-----|
|2-2-2-2-012-20|2-2-2-2-012--20|7-7-7-7-567--75|7-7-7-7-7-7-575|
|--------------|---------------|---------------|---------------|

(F#)                           G               A
|--------------|---------------|---------------|---------------|
|--------------|---------------|----5-------5--|----7-------7--|
|-----------0--|-----------0---|--5---5---5---5|--7---7---7---7|
|2-2-2-2-012-20|2-2-2-2-012--20|3-------3------|5-------5------|
|--------------|---------------|---------------|---------------|

Solo
Bb                                D                  (4 times)
|----------------|----------------||---------|----------------||
|----8-8-----8-8-|----8-8-----8-8-||*--------|---------------*||
|----------------|----------------||---------|----------------||
|6-6-----6-6-----|6-6-----6-6-----||*--------|---------------*||
|----------------|----------------||-3-3-3-3-|3-----3-3---3---||

Bb              G               F               D
|---------------|---------------|---------------|--------------|
|---------------|---------------|--3---3---3---3|--------------|
|1-1-1-1-1-1-1-1|---------------|---------------|---5-5-----5-5|
|---------------|3-3-3-3-3-3-3-3|1---1---1---1--|--------------|
|---------------|---------------|---------------|3-3----3-3----|

(F#)
|--------------------------------|--------------|--------------|
|-------------------------12-----|--------------|--------------|
|---------------------------10---|-----------0--|-----------0--|
|/101010101010101010101010----12-|2-2-2-2-012-20|2-2-2-2-012-20|
|--------------------------------|--------------|--------------|

(B)                            (F#)
|--------------|---------------|---------------|---------------|
|--------------|---------------|---------------|---------------|
|-----------5--|-----------5---|-----------0---|-----------0---|
|7-7-7-7-567-75|7-7-7-7-567--75|2-2-2-2-012--20|2-2-2-2-012--20|
|--------------|---------------|---------------|---------------|

|---------------|---------------|--------------|---------------|
|----5-------5--|----7-------7--|----8-8----8-8|----8-8-----8-8|
|--5---5---5---5|--7---7---7---7|--------------|---------------|
|3-------3------|5-------5------|6-6-----6-6---|6-6-----6-6----|
|---------------|---------------|--------------|---------------|

D
|--------------|----------------|---------------|--------------|
|--------------|----------------|---------------|--------------|
|--------------|----------------|---------------|--------------|
|----10-----10-|----10-----10---|----10-----10--|----10-----10-|
|3/------3/----|3/------3/------|3/------3/-----|3/------3/----|

B
|--------------------------------|-----------------|
|--------------------------------|-----------------|
|--------------------------------|---------------R-|
|2---2---2---2--/14/14/14/14/|14/14/14/14----------|
|--------------------------------|-----------------|

(bass drum)
X       X       X       X
|----|--------------------------|
|----|--------------------------|
|-R--|--------------------------|
|----|--------------------------|
|----|--------------------------|

Outro
D                              Bb               G           F
||-------------|--------------||----------------|--------------|
||*------------|-------------*||----------------|--------------|
||-------------|--------------||----------------|--------------|
||*------5/10--|------5/10---*||6-6-6-6-6-6-6-6-|3-3-3-3-3-3-1-|
||-3-----------|3-------------||----------------|--------------|

D                          Bb               A
|------------|------------|----------------|----------------|
|------------|------------|----------------|----------------|
|------------|------------|----------------|----------------|
|------5/10--|------5/10--|6-6-6-6-6-6-6-6-|5-5-5-5-5-5-5-5-|
|3-----------|3-----------|----------------|----------------|

G               F               E               Eb
|---------------|---------------|---------------|-------------|
|---------------|---------------|---------------|-------------|
|---------------|---------------|---------------|-------------|
|3-3-3-3-3-3-3-3|1-1-1-1-1-1-1-1|---------------|-------------|
|---------------|---------------|5-5-5-5-5-5-5-5|4-4-4-4-4-4-4|

D
|----------------|---|-----|-----|-----|
|----------------|---|-----|-----|-----|
|----------------|---|-----|-----|-----|
|----------------|---|-----|-----|-----|
|4-4-4-4-4-4-4-4-|-3-|-(3)-|-(3)-|-(3)-|

Bb               G           F    D
|----------------|----------------|--------------|-------------|
|----------------|----------------|--------------|-------------|
|----------------|----------------|--------------|-------------|
|6-6-6-6-6-6-6-6-|3-3-3-3-3-3-1---|------5/10----|------5/10---|
|----------------|----------------|3-------------|3------------|

Bb               G/B         F    D
|----------------|----------------|--------------|-------------|
|----------------|----------------|--------------|-------------|
|----------------|----------------|--------------|-------------|
|6-6-6-6-6-6-6-6-|7-7-7-7-7-7-1---|------5/10----|-------5/10--|
|----------------|----------------|3-------------|3------------|

Bb               G/B         F  D
|----------------|--------------|-------------|-------------|
|----------------|--------------|-------------|-------------|
|----------------|--------------|-------------|-------------|
|6-6-6-6-6-6-6-6-|7-7-7-7-7-7-1-|--10-/10--10-|--10-/10--10-|
|----------------|--------------|3------------|3------------|

Bb              A               G               F
|---------------|---------------|---------------|--------------|
|---------------|---------------|---------------|--------------|
|---------------|---------------|---------------|--------------|
|6-6-6-6-6-6-6-6|5-5-5-5-5-5-5-5|3-3-3-3-3-3-3-3|1-1-1-1-1-1-1-|
|---------------|---------------|---------------|--------------|

E                Eb                                 D
|----------------|----------------|----------------|---|
|----------------|----------------|----------------|---|
|----------------|----------------|6---6---6---6---|---|
|----------------|----------------|----------------|---|
|5-5-5-5-5-5-5-5-|4-4-4-4-4-4-4-4-|--4---4---4---4-|-3-|

|-----|-----|-----|---|-----||
|-----|-----|-----|---|-----||
|-----|-----|-----|---|-----||
|-----|-----|-----|---|-----||
|-(3)-|-(3)-|-(3)-|-3-|-(3)-||

Вверх

Lord Of The Thighs

guitar 1
E|---|
B|---|
G|---|
D|---|
A|-3-| ПОВТОРИТЬ X РАЗ
E|---|

guitar 2
E|------------------------------------------------|
B|-6-----4----------------------------------------|
G|-5-----3-----5-5-5-5-5-5-5-5----5-5-5-5-5-5-5-5-|
D|-3-----1-----5-5-5-5-5-5-5-5----5-5-5-5-5-5-5-5-|
A|-------------3-3-3-3-3-3-3-3----3-3-3-3-3-3-3-3-|
E|------------------------------------------------|

E|------------------------------------------------|
B|-6-----9-----8-8-8-8-8-8-8-8----8-8-8-8-8-8-8-8-|
G|-5-----8-----7-7-7-7-7-7-7-7----7-7-7-7-7-7-7-7-|
D|-3-----6-----5-5-5-5-5-5-5-5----5-5-5-5-5-5-5-5-|
A|------------------------------------------------|
E|------------------------------------------------|

piano:
E|-------------------------------------------------------------|
B|-------------------------------------------------------------|
G|-------------------------------------------------------------|
D|-------------------------------------------------------------|
A|-3-3----1-1-----3-3-----1-1-----3-3-----1-1-----3-3------1-1-|
E|-------------------------------------------------------------|

down to who knows       who   just to      socialize
E|-------------------------------------------------------------|
B|-------------------------------------------------------------|
G|-------------------------------------------------------------|
D|(5)-----------(3)--------------------------------------------|
A|(3)3-3-3-3-3-3(1)1-1-1-1-1-1-1(6)-------------(5)------------|
E|------------------------------(4)4-4-4-4-4-4-4(3)3-3-3-3-3-3-|

E|--------------------------------
B|--------------------------------
G|--------------------------------  repeat twice (2nd time
D|-3----3--1--3----3--1--3---1--3-  play only power chords - as
A|-3----3--1--3----3--1--3---1--3-  indicated in parentheses)
E|-1----1----------1--------------

you got the  ways  to make a man
honey you got to understand
E|------------------------------------|
B|------------------------------------|
G|------------------------------------|
D|----------------------------------5-|
A|-6---------------5--5-------------3-|
E|-4---------------3--3---------------|

Im your man child lord of the thighs
E|------------------------------------|
B|------------------------------------|
G|------------------------------------|
D|----------------------------------5-|
A|-----------6------5-5-------------3-|
E|-----------4------3-3---------------|

This first part tabbed by an anonymous tabber(possibly Denis
Jacob or Mike Heasley,from whose archive this file was taken)

Solo parts:

1st solo-
E|-8p6---6---6------8--------8-8p6---6---------|
B|-----8---8---8-8b---8b-r-8-------8---6-8-6b3-|
G|---------------------------------------------|
D|---------------------------------------------|
A|---------------------------------------------|
E|---------------------------------------------|

E|-------------------------------------------------------------|
B|-----------------------------------------------------6p5-----|
G|------3--5-5b----------------3-----3-5b-r--5b-rp3------------|
D|---5-----------------3h5--5-----5-----------------p3---------|
A|-----------------3h5-----------------------------------------|
E|-------------------------------------------------------------|

After that there are a bunch of slide licks that my lack of
confidence with the slide prohibits me from tabbing.
If you know this part, please send it to me and Ill post it.

2nd solo(delay or heavy reverb)-
E|--------8-----------------8--------------8-----------------8-|
B|------8---11b-11r-------8--------------8----11b-11r------8---|
G|-8h10--------------8h10-----------8h10--------------8h10-----|
D|------------------------------10-----------------------------|
A|-------------------------------------------------------------|
E|-------------------------------------------------------------|

E|-----------8-10b---------8--------------8--------------------|
B|---------8-------------8----11--------8-----11---11--11p10p8-|
G|----8h10----------8h10-----------8h10------------------------|
D|-10----------------------------------------------------------|
A|-------------------------------------------------------------|
E|-------------------------------------------------------------|

E|-----------------11-11b-r-11b-rp8----11p10p8----11b-11r-8----|
B|-11p10p8-11p10p8------------------11---------11-----------11-|
G|-------------------------------------------------------------|
D|-------------------------------------------------------------|
A|-------------------------------------------------------------|
E|-------------------------------------------------------------|

E|-8--12b--r12-15-18p15-18b---------------------------------|
B|----------------------------------------------------------|
G|--------------------------17-19p17-19b--------------17----|
D|---------------------------------------17-19p17-19b----19r|
A|----------------------------------------------------------|
E|----------------------------------------------------------|

I dont know the lead slide part at the end,
but the rhythm goes something like this:
E|---------------------------------------------------|
B|---------------------------------------------------|
G|---------------------------------------------------|
D|---------------------------------------------------|
A|-1--3--1-3-1-3-1-3--1-1-1-1-3--1-3-1-3-1-3-1-1-1-1-|

Вверх

Make It

intro(guitar 1)-
E|----------------------------------------------|
B|-----------7--7-----7---10--10--10------10----|
G|--------7--7--7--7--7---10--10--10--10--10----|
D|-----5--7--7--7--7--7---10--10--10--10--10--8-|
A|--0--3--5-----5--5--5--------8---8---8---8--8-|
E|--------------------------------------------6-|

After that riff, guitar two strums a Bb5

Continue with that pattern until you hear a change.
Then play something like this:

E|------------------------------------------|
B|------------------------------------------|
G|------------------------------------------|
D|------------------------------------------|
A|-5-5-7--5-5-7--5-5-7--5-5-7--7-7-9--7-7-9-|
E|-3-3-3--3-3-3--3-3-3--3-3-3--5-5-5--5-5-5-|

E|----------|
B|----------|
G|----------|
D|----------|
A|-7-7-9--7-|
E|-5-5-5--5-|

verse-

E|------------|------------|------------|----------|
B|------------|------------|------------|----------|
G|--10--9--7--|--10--9--7--|--10--9--10-|-10--9--7-|
D|--10--9--7--|--10--9--7--|--10--9--10-|-10--9--7-|
A|---8--7--5--|---8--7--5--|---8--7---8-|--8--7--5-|
E|------------|------------|------------|----------|

chorus(palm mute)-

Em-G5-G#5-A5 C5-D5-E5(slide back to Em)

the "bedwetter" part-

bed wetter  pull...
E|-----------------------------------------------|
B|-6b--8-8--10-8------------------6b-5-6p5-6-810-|
G|----------------10-8---------------------------|
D|----------------------10-8---------------------|
A|----------------------------10-----------------|
E|-----------------------------------------------|

At the very end of that, guitar 2 plays this
E|--------------|
B|-8--10--------|
G|--------------|
D|---------8(1)-|
A|--------------|
E|--------------|

guitar 1-
E|-------------------------------------------|
B|-6b--8-8--10-8------------------56-6-5-5-3-|
G|----------------10-8-----------------------|
D|----------------------10-8-----------------|
A|----------------------------10-------------|
E|-------------------------------------------|

Вверх

Make It

intro(guitar 1)-
E----------------------------------------------|
B-----------7--7-----7---10--10--10------10----|
G--------7--7--7--7--7---10--10--10--10--10----|
D-----5--7--7--7--7--7---10--10--10--10--10--8-|
A--0--3--5-----5--5--5--------8---8---8---8--8-|
E--------------------------------------------6-|

After that riff, guitar two strums a Bb5

Continue with that pattern until you hear a change.
Then play something like this:

E-------------------------------------------|
B-------------------------------------------|
G-------------------------------------------|
D-------------------------------------------|
A--5-5-7--5-5-7--5-5-7--5-5-7--7-7-9--7-7-9-|
E--3-3-3--3-3-3--3-3-3--3-3-3--5-5-5--5-5-5-|

E----------|
B----------|
G----------|
D----------|
A-7-7-9--7-|
E-5-5-5--5-|

verse-

E------------|------------|------------|----------|
B------------|------------|------------|----------|
G--10--9--7--|--10--9--7--|--10--9--10-|-10--9--7-|
D--10--9--7--|--10--9--7--|--10--9--10-|-10--9--7-|
A---8--7--5--|---8--7--5--|---8--7---8-|--8--7--5-|
E------------|------------|------------|----------|

chorus(palm mute)-

Em-G5-G#5-A5 C5-D5-E5(slide back to Em)


the "bedwetter" part-

bed wetter  pull...
E-------------------------------------------------|
B--6b--8-8--10-8------------------6b-5-6p5-6-810--|
G-----------------10-8----------------------------|
D-----------------------10-8----------------------|
A-----------------------------10------------------|
E-------------------------------------------------|

At the very end of that, guitar 2 plays this
E----------------|
B---8--10--------|
G----------------|
D-----------8(1)-|
A----------------|
E----------------|

guitar 1-
E--------------------------------------------|
B--6b--8-8--10-8------------------56-6-5-5-3-|
G-----------------10-8-----------------------|
D-----------------------10-8-----------------|
A-----------------------------10-------------|
E--------------------------------------------|

Вверх

Mama Kin

  Intro
E|------------------|-----------------|-----------------|
B|------------------|-----------------|-----------------|
G|---9--9--9--9--9--|-----------------|-----------------|
D|---9--9--9--9--9--|--9--9--9--9--9--|--7--7--7--7--7--|
A|---7--7--7--7--7--|--9--9--9--9--9--|--7--7--7--7--7--|
E|------------------|--7--7--7--7--7--|--5--5--5--5--5--|

Keepin touch with mama kin.
E|----------|-----||--------------------------|
B|----------|-----||--------------------------|
G|----------|-----||-----------------------9--|
D|-2--2--2--|-----||-----------------9--9--9--|
A|-2--2--2--|-----||-----------------9--9--7--|
E|-0--0--0--|-----||-----------------7--7-----|

Вверх

Milkcow Blues

intro/verse riff(guitar 1)-

E|---------------------|
B|---------------------|
G|-------------------3-|
D|-5----5p3----------3-|
A|-------------5-------|
E|---------------------|

Guitar one repeats this riff through the verse. Guitar two
backs guitar one with a similar riff. When Steven says "pack"
in the line "pack my bags Im gone", one of the guitars plays
this riff:
C5       Bb5
E|---------------------------------------------------|
B|---------------------------------------------------|
G|--------------------------5----5--3------5----5--3-|
D|-5----3-------------------5----5--3------5----5--3-|
A|----------5----3---1------3----3--1------3----3--1-|
E|---------------------------------------------------|

The verse riff appears sporadically throughout the song.
During the harmonica part at the end, the rhythm guitar plays
this:
F5               G5
E|----------------------------------|
B|----------------------------------|
G|----------------------------------|
D|-3-3-3-3-3-3-3-3--5-5-5-5-5-5-5-5-|
A|-3-3-3-3-3-3-3-3--5-5-5-5-5-5-5-5-|
E|-1-1-1-1-1-1-1-1--3-3-3-3-3-3-3-3-|

Repeat this part until the very end and then stop and do
something like this:
~feedback~
E|----------------------------------------------3--------------|
B|----------------------------------------------3(14)----------|
G|-6b(hold)--6r~~~~~~---------------------------3----(16)------|
D|--------------------5---3----------------------------------5-|
A|----------------------------5---3---1--1tr(3)--------------5-|
E|-----------------------------------------------------------3-|

symbols used in transcription:
p = pull-off
PM = palm mute
b = bend
r = release
~ = let ring
1tr(3) = trill(between 1 and 3)
(14) = slide(up to 14)

lyrics:

Yeah Ive tried evry thing just to get along with you
But now Im gonna tell ya just what Im gonna do
Well Im sick of all your cryin when you should be
leavin me alone
If you dont believe me, you pack my bags Im gone!

Wont you please...Dont act so no good goin down(2x)
(this line is unintelligible)
When your old man aint around

(on the second time substitute)
Well you best believe I love you baby
When your old man aint around

(Guitar solo 1)

(Guitar solo 2)

Harmonica solo

Wont you please...Dont act so no good goin down(2x)
Well you best believe I love you baby
when your old man aint around

aint around aint around...(lead vocal ad lib)

Вверх

Movin Out

intro/verse 1(slight palm mute)-
E|-----------------------------------------------------|
B|----------------------------5--x-x-------------------|
G|----------------------------5--x-x-------------------|
D|--5h7--7--7--7--5--7--5--7-----x-x--5h6h7--7--7--7--5|
A|-------------------------------x-x-------------------|
E|-----------------------------------------------------|

E|-----------------------------------------------------|
B|--------------------------------------------5--7--7b-|
G|-------------x------------------------------5--7--7b-|
D|-7--5--7-----x--5h6h7--7--7--7--5--7--5--7-----------|
A|----------6--x---------------------------------------|
E|-----------------------------------------------------|

E|-----------------------------------------------------|
B|-7r--5---------------------------------5--7b--7--7r--|
G|-7r--5---------------------------5--7----------------|
D|--------7--7--5h6h7--7--7--7--7----------------------|
A|-----------------------------------------------------|
E|-----------------------------------------------------|

E|----------------------------|
B|--5-------------------------|
G|-----7--7--5h6h7--7--7--7---|
D|----------------------------|
A|----------------------------|
E|----------------------------|

Thanks to Matthew Brian Wheeler for letting me know about the
ghost note Repeat this part through the verse which lyrically
goes something like this:

We all live on the edge of town
Where we all live, aint a soul around
People start a comin all we do is just a-grin
Said we gotta move out cause the citys movin in(2x)

At that point, the lyrics change and the guitar plays something
like this:
verse 2-                               (trill)
E|---------------------------------------------------|
B|---------------------------------------------------|
G|-----2-------------2-----------4---2---0h2p0h2po---|
D|--------2-------------2-----2----------------------|
A|--0--------0--3p0--------0-------------------------|
E|---------------------------------------------------|
(start lyrics)
E|---------------------------------------------------|
B|---------------------------------------------------|
G|-----2-------------2-----2------------2------------|
D|--------2--------------------------------2---------|
A|--0--------0--3p0-----0------------0--------0--3p0-|
E|-----------------------------3b--------------------|

E|---------------------------------------------------|
B|---------------------------------------------------|
G|--2-----------4---2---2p0-------2-------------2----|
D|-----2-----2-----------------------2---------------|
A|--------0-------------------0---------0--3p0-----0-|
E|---------------------------------------------------|

E|------------3--------------------------------------|
B|---------------------------------------------------|
G|-2---3p2p0-----------2-------------2------------4--|
D|------------------------2-------------2-----2------|
A|------------------0--------0--3p0--------0---------|
E|---------------------------------------------------|

E|---------------------------------------------------|
B|---------------------------------------------------|
G|-2---2p0------2-------------2-----------4---2--2p0-|
D|-----------------2-------------2-----2-------------|
A|-----------0--------0--3p0--------0----------------|
E|---------------------------------------------------|

The lyrics for this part go like this:

Tell me who ya know and Ill tell ya who to
Go see my friend and hell set you free
Tell me what you need and maybe I can go too
No one knows the way but maybe me

For the "Nobody goes there" part, the guitar plays what sounds
like this:
A       B5    C5
Nobody goes  there   Nobody shows where   Nobody
E|-------------------------------------------------|
B|-2-2-2----------------2-2-2----------------2-2-2-|
G|-2-2-2---4-----5------2-2-2---4-----5------2-2-2-|
D|-2-2-2---4-----5------2-2-2---4-----5------2-2-2-|
A|---------2-----3--------------2-----3------------|
E|-------------------------------------------------|
D5
knows where    you   can   find   me
E|-------------------------------------|
B|-----------------------------------2-|
G|--4-----5-------5-----7------------2-|
D|--4-----5-------5-----7------------2-|
A|--2-----3-------3-----5--------------|
E|----------------------------3b-------|

Repeat that part(although I forget how many times) and then
start in with these lyrics and a variation of verse 2:

Good Morning Glory! Halleluiah to ya!
What is the story and
Whats been goin through ya?
Living like a king off the fat of the land
Working like a dog in a rock-n-roll band

Were movin
Were gettin out
Were movin
Without a doubt
Were movin
Were goin far
Were movin
Oh, yes we are cause

Nobody goes there
Nobody shows where
Nobody knows where
You can find me
Nobody knows where
Nobody shows where
Nobody knows where
You can find me

Before the solo the guitar plays something like this:
E|-------------------|
B|-2-----------------|
G|-2-5-7-10-10-12-12-|
D|-2-5-7-10-10-12-12-|
A|---3-5--8--8-10-10-|
E|-------------------|

solo-
E|-12b----------12b------------5---------------12b-12-|
B|-15b--15b-----15b-15b-15b-r/-5-5-5-510-__/-15b-----|
G|----------------------------------------------------|
D|----------------------------------------------------|
A|----------------------------------------------------|
E|----------------------------------------------------|

E|-12--12h15p12--12b------12/-------5-5---------------|
B|---------------15b--15-------8b-r---5--__/-13b-13b-|
G|--------------------------------------------15b-15b-|
D|----------------------------------------------------|
A|----------------------------------------------------|
E|----------------------------------------------------|

E|-----------------------10---------------------------|
B|-----------------------12--__/--13--13--15---15----|
G|-13b-----11-------10~~---------------15b-17b--17b-r-|
D|-15b-15b-13b-12b------------------------------------|
A|----------------------------------------------------|
E|----------------------------------------------------|
fill 1*
E|-12--12----15--15------15-----15-----15/--|
B|-----15b---18b-----18b----18b----18b------|
G|------------------------------------------|
D|------------------------------------------|
A|------------------------------------------|
E|------------------------------------------|

*guitar 2, fill 1-
E|-17--17~~~~~--|
B|--------------|
G|--------------|
D|--------------|
A|--------------|
E|--------------|

This part Im not as sure of as the others, but it sounds to me
that one of the guitars plays something like this:
verse 3(clean guitar with what sounds like a chorus)-
E|------------------------------------------------|
B|------------------------------------------------|
G|----2p0-----2-----2p0-----2--0--------2p0-----4-|
D|-0-------2-----0-------2--------2--0-------0----|
A|------------------------------------------------|
E|------------------------------------------------|

E|---------------------|
B|---------------------|
G|----5p4-----2---0----|
D|-0-------0---------2-|
A|---------------------|
E|---------------------|(repeat throughout verse)

The lyrics for this part go like this:

Level with God and youre in tune with the universe
Talk with yourself and youll hear what you wanna know
Gotta rise above cause below its only gettin worse
Life and time will take you where you wanna go

Where you wanna go
where you going(3x)
Ah(6x)

Вверх

My Fist Your Face

     MMMMMMMM   MMMMMMMM
D5/E5E5E5E5E5/D5D5D5D5D5/   X4    M - Palm Mute
/ - Slide
B A B A E   X2
A E         X4

Riff A
---------2---------2---|d
-----------------------|a
-0-3-0-3---0-3-0-3-----|e

D
Riff A
DAC#G#CGE

BABAE  X2
AE     X2
D
Riff A
D
Riff A
DAC#G#CG
Riff A
DAC#G#CG
E

Solo.    (BABAE  X2)

AE  X4
D
Riff A
D
Riff A
DAC#G#CG |_ X3
Riff A   |

E  (Outro solo type thing)

Вверх

No More No More

 +-- Fig. 1
N.C.(Esus4)        (E)                         (B)
e|-----------------|-----------------|----0--0-|-------------|
B|-----------------|-----------------|----0--0-|-------------|
G|-----------4-----|-----------4-----|---------|-------------|
D|-----2---2---2---|-----2---2---2---|---------|-4-4-6---4-6-|
A|---2-------------|---2-------------|---------|-2-2-2---2-2-|
E|-5-----5-------5-|-4-----4--------4|-0-------|-------------|

Play these 4 measures 2x, then repeat first 3 measures only.
Then...

Fig. 2 (next 4 bars)
E|---------------------------------|---------------------------|
B|---------------------------------|---------------------------|
G|---------------------------------|---------------------------|
D|-7-------9---9---7-7-7---9-------|-6-------7---7---6---6---7-|
A|-7-------9---9---7-7-7---9-------|-6-------7---7---6---6---7-|
E|-5-------7---7---5-5-5---7-------|-4-------5---5---4---4---5-|

E|---------------------------------|---------------------------|
B|---------------------------------|---------------------------|
G|---------------------------------|---------------------------|
D|-7-------9---9---7-7-7---9-------|-9-------7---9-------7---9-|
A|-7-------9---9---7-7-7---9-------|-9-------7---9-------7---9-|
E|-5-------7---7---5-5-5---7-------|-7-------5---7-------5---7-|

E
blood stains the ivories of my daddys baby grand
aint seen the daylight since we started this band

B
E|-------------|---------------|---------------|---------------|
B|-------------|---------------|---------------|---------------|
G|-------------|---------------|---------------|---------------|
D|-4-4---6-4-6-|-4---4-6-4-4-6-|-4-4---6---4-6-|-4---4-6-4-4-6-|
A|-2-2---2-2-2-|-2---2-2-2-2-2-|-2-2---2---2-2-|-2---2-2-2-2-2-|
E|-------------|---------------|---------------|---------------|
No More, No More                    No More, No More

E
store-bought clothes fallin part at the seams
tea leaf-readin gypsies fortune-tellin my dreams
B (as before)
No More, No More
No More, No More

holiday inns, lock the door with a chain
you love it then ya hate it but to me theyre all the same
No More, No More
No More, No More

(w/Fig. 1)
baby Im a dreamer
found my horse and carriage
(Fig. 2)

stalemate jailbait ladies cant refuse
you love em then you leave em with your sold out reviews
No More, No More
Mo More, No More

sweet talkin barroom ladies disease
slippin with her lips slidin down your knees
No More, No More
No More, No More

(w/Fig. 1)
*baby Im a screamer
B
bound to a wife in marriage

(w/Fig. 1)
baby Im a dreamer
found my horse and carriage
(Fig. 2)

E
ladies hold the aces and their lovers call it passion
the men call it pleasure but to me its old fashioned
A
times theyre a changin nothing ever stands still
if I dont* stop changin Ill be writin my will
B
its the same old story never get a second chance
for a dance to the top of the hill

(w/Fig. 1)
babe Im a dreamer, found my horse and carriage

Outro (repeat ad infinitum):

E|-------------|-----------------|-------------|-----------|
B|-------------|-----------------|-------------|-----------|
G|-------------|-----------------|-----------9-|-----------|
D|-7-9-9---7-9-|-6---7-7---6-7-6-|-----------9-|-9-9---9-9-|
A|-7-9-9---7-9-|-6---7-7---6-7-6-|-----------7-|-9-9---9-9-|
E|-5-7-7---5-7-|-4---5-5---4-5-4-|-0-----3p0---|-7-7---7-7-|

Вверх

Permanent Vacation

E|-2-2-2-2--------|-----------------|-2-2-2-2--------|
B|-3-3-3-3--------|---2-2-0-2-2-0-2-|-3-3-3-3--------|
G|-2-2-2-2--------|---2-2-0-2-2-0-2-|-2-2-2-2--------|
D|-0-0-0-0--------|---2-2-0-2-2-0-2-|-0-0-0-0--------|
A|----------------|---0-0-0-0-0-0-0-|----------------|
E|----------0-2-3-|-4---------------|----------0-2-3-|

E|-----------|
B|---2-2-0-2-|
G|---2-2-0-2-|
D|---2-2-0-2-|
A|---0-0-0-0-|
E|-4---------|

C      D                      A
E|--0------2--------------|---------------|
B|--1------3--------------|-------2-2-0-2-|
G|--0------2--------------|-------2-2-0-2-|
D|--2------0--------------|-------2-2-0-2-|
A|--3---------------------|-------0-0-0-0-|
E|---------------0--2--3--|--4------------|

C                       G              F       C
E|----0--0--0--0--0--0--0--0--3--3--3--3-----1-1-1---0-|
B|----1--1--1--1--1--1--1--1--0--0--0--0-----1-1-1---1-|
G|----0--0--0--0--0--0--0--0--0--0--0--0-----2-2-2---0-|
D|----2--2--2--2--2--2--2--2--0--0--0--0-----3-3-3---2-|
A|----3--3--3--3--3--3--3--3--2--2--2--2-----3-3-3---3-|
E|----------------------------3--3--3--3-----1-1-1-----|

C                       G              F       B
E|----0--0--0--0--0--0--0--0--3--3--3--3-----1-1-1-----|
B|----1--1--1--1--1--1--1--1--0--0--0--0-----1-1-1---4-|
G|----0--0--0--0--0--0--0--0--0--0--0--0-----2-2-2---4-|
D|----2--2--2--2--2--2--2--2--0--0--0--0-----3-3-3---4-|
A|----3--3--3--3--3--3--3--3--2--2--2--2-----3-3-3---2-|
E|----------------------------3--3--3--3-----1-1-1-----|

B   A   B    D           Db C  B  A  B
E|------------------------------------------|
B|---4---2---4----7-7-7-7-7-7-6--5--4--2--4-|
G|---4---2---4----7-7-7-7-7-7-6--5--4--2--4-|
D|---4---2---4----7-7-7-7-7-7-6--5--4--2--4-|
A|---2---0---2----5-5-5-5-5-5-4--3--2--0--2-|
E|------------------------------------------|

Вверх

Pink

Chords used:
G  - F  - Cadd - D - Em - A - C -C7
E|--3----3-----3-----0----0---0---0--0--|
B|--3----3-----3-----3----0---2---1--1--|
G|--0----0-----0-----0----0---2---0--3--|
D|--0----0-----2-----4----2---2---2--2--|
A|--2----0-----3-----5----2---0---3--3--|
E|--3----1-----0----------0-------------|

Verse:
G  -   F   -  C  -    D
E|--3-3-3--3-3-3--3-3-3-------------|
B|--3-3-3--3-3-3--3-3-3-------------|
G|--0-0-0--0-0-0--0-0-0---------0~~-|
D|--0------0------2-2-2------4------|
A|--2------0------3-------5---------|
E|--3------1------------------------|

Pink its my new obsession
Pink its not even a question,
Pink on the lips of your lover, cause
Pink is the love you discover
Pink as the bing on your cherry
Pink cause you are so very
Pink its the color of passion
Cause today it just goes with the fashion

Chorus:
G           F               Cadd  D
Pink it was love at first sight
G           F             Cadd  D
Pink when I turn out the light, and
G            F         Cadd D
Pink gets me high as a kite
Em                  A               C
And I think everything is going to be all right
C7
No matter what we do tonight

Verse:(same)
You could be my flamingo
Coz pink is the new kinda lingo
Pink like a deco umbrella
Its kink - but you dont ever tell her
Pink it was love at first sight, and
Pink when I turn out the light
Pink gets me high as a kite
And I think everything is going to be all right
No matter what we do tonight

Solo:
/:slide
~:hold
E|-----------------------------------------------------|
B|-13-14-13------12--11--11/14--14~-----12/11--9-11-9~-|
G|-----------12----------------------12----------------|
D|-----------------------------------------------------|
A|-----------------------------------------------------|
E|-----------------------------------------------------|

E|-------------------------------------------------------------|
B|-------------------------------------------------------------|
G|---8-9-8------6/7/6----6/9-9~---------9--13/11---9------9~~--|
D|----------9----------7----------9--11---------------11-------|
A|-------------------------------------------------------------|
E|-------------------------------------------------------------|

E|-------------------------------------------------------------|
B|-6/7/6-----4/5/4------------7~~-------------7-9(11)-9-7--9-7~|
G|--------6---------4----4/6----------5--7--5-------------8----|
D|---------------------------------7---------------------------|
A|-------------------------------------------------------------|
E|-------------------------------------------------------------|

E|------11--------13---------15----------17----21~~~-|
B|-7/9------9/11------11/13-------13/15--------------|
G|---------------------------------------------------|
D|---------------------------------------------------|
A|---------------------------------------------------|
E|---------------------------------------------------|

Verse(same):
I want to be your lover
I wanna wrap you in rubber
As pink as the sheets that we lay on
Pink its my favorite crayon, yeah
Pink it was love at first sight
Pink when I turn out the light
Pink its like red but not quite
And I think everything is going to be all right
No matter what we do tonight

Вверх

Round And Round

INTRO
E|----------------------------------------|
B|---------------------------------5------|
G|---------------------------555577-7-----|
D|5555-5555-77777777-88888888-------------|

MAIN RIFF
E|---------------|
B|---------------|
G|----7-----775%|
D|3-0---000------|

INTERLUDE
E|o-0-9-5-4-5-6-7-------------------o|
B|-----------------------------------|
G|-------------------5------7-775----|
D|o--------------75-7-7-3-0---------o|

Вверх

Same Old Song And Dance

Intro :  (Rhy. Fig.1)
E7                           Em7          E5  4X
E|----------------------------|-------------------|
B|----------------------------|-------------------|
G|----------------------------|--------------9-9--|
D|--------------0--0------0---|--------------9-9--|
A|-----------2---------2-----2|--------------7-7--|
E|-0--0--4--------------------|--3--0-----0-------|

Verse :  (Rhy. Fig.2)
E7                     Em7
E|-------------------------|-----------------------|
B|-------------------------|---8-------------------|
G|----------------7----7---|--------7--------9-----|
D|---------9------7----7---|------------7----9-----|
A|---------7---------------|-----------------------|
E|-------------------------|-----------------------|
Get   yourself cool-er,    lay yourself low.  Etc.

(Rhy. Fig.2)

Coincidental murder with nothing to show.
When the judges constipation goes to his head,
and his wifes aggravation, youre soon enough dead.
G5        A5      C5        D5
E|--------------------------------------| Repeat Rhy. Fig.1
B|--------------------------------------| After each chorus.
G|-------------------5---5-----7----7---|
D|-5----5----7-7-----5---5-----7----7---|
A|-5----5----7-7-----3---3-----5----5---|
E|-3----3----5-5------------------------|
Same old  story,  same old  song and dance

Bridge :(Rhy. Fig.3) B
E|-------------------------------------------| Repeat Rhy.Fig.3
B|-------------------------------------------| with rest of
G|-4-----4------0----2-----4-----4-----0---2-| bridge.
D|-4-----4------0----2-----4-----4-----0---2-|
A|-------------------------------------------|
E|-------------------------------------------|
Fate  comes a knocking; doors start locking....

Your old time connection, change your direction.
Aint gonna change it, cant rearrange it.
Cant stand the pain when its all the same to you, my friend.
Rhy. Fig.1

At the end, use the same chorus Rhy. but substitute
this at the end of the chorus....

C5       D5     F5       G5       A5
E|--------------------------------------|
B|--------------------------------------|
G|-5---5----7-7-------------------------|
D|-5---5----7-7----3----3---5---5----7--|
A|-3---3----5-5----3----3---5---5----7--|
E|-----------------1----1---3---3----5--|
Same old story, same old song and dance.

Вверх

Season Of Wither

Intro Fig. (7x)
e|-----------------|-----------------| On the     |-----|
B|-----------------|-----------------| last rep   |-----|
G|-----0-----0-----|-----0-----0-----| substitute |---0-|
D|---0-----0-----0-|---2-----3-----3-| these for  |-----|
A|-------1---------|-0-----1-----1---| the last   |-3---|
E|-3-----------3---|-----------------| two notes: |-----|

Bridge Fig. (4x)
D                   C                    D     C   Bb  F
E|---------|-----------------|  Replace   |-----------------|
B|-7-----7-|-7-----7---5-----|  the last  |-7-7---5---3-----|
G|-7-----7-|-7-----7---5-----|  measure   |-7-7---5---3-----|
D|-7-----7-|-7-----7---5-----|  of the    |-7-7---5---3---3-|
A|-5-----5-|-5-----5---3-----|  last rep  |-5-5---3---1---3-|
E|---------|-----------------|  with:     |---------------1-|

Verse Fig. (5x)
E|--------------|---------------|---------------|--------------|
B|--------------|---------------|---------------|--------------|
G|----2----0----|----2-----0----|----2-----2----|---0-----0----|
D|--0----0-----0|--0-----0-----0|--0-----0-----0|-0-----0-----0|
A|--------------|---------------|---------------|--------------|
E|0----0-----0--|1-----1-----1--|2-----2-----2--|3----3-----3--|

-blues hearted lady, sleepy was she
-love for the devil brought her to me
-seas of a thousand drawn to her sin
-Seasons of Wither holdin me in

CHORUS:
E|-----------------|-----------------|-----------------|
B|-----------------|-----------------|-----------------|
G|-----0-----0-----|-----0-----0-----|-----2-----0-----|
D|---0-----0-----0-|---2-----2-----2-|---0-----0-----0-|
A|-----------------|-3-----3-----3---|-2-----2-----2---|
E|-3-----3-----3---|-----------------|-----------------|

E|-----------------|-----------------|-----------------|
B|-----------------|-----------------|-----------------|
G|-----2-----0-----|-----2-----0-----|-----0-----0-----|
D|---0-----0-----0-|---0-----0-----0-|---0-----0-----0-|
A|-----------------|-----------------|-----------------|
E|-0-----0-----0---|-1-----1-----1---|-3-----3-----3---|

-ooh always me, I feel so badly for you

(repeat last 6 measures)
-ooh always me, I feel so sadly for you at times

E|-----------------|-----------------|-----------------|
B|-----------------|-----------------|-----------------|
G|-----0-----0-----|-----0-----0-----|-----0-----0-----|
D|---0-----0-----0-|---0-----0-----0-|---0-----0-----0-|
A|-0-----0-----0---|-1-----1-----1---|-3-----3-----3---|
E|-----------------|-----------------|-----------------|

-bound to lose your mind
-live on borrowed time
-take the wind right out of your sails

[end CHORUS]

w/Bridge Fig. (6x)
-fireflies dance in the heat of
-hound dogs that bay at the moon
-my ship leaves in the midnight
-cant say Ill be back too soon

w/Verse Fig. (4x)
-they awaken far far away
-heat of my candle show me the way
-seas of a thousand drawn to her sin
-Seasons of Wither holdin me in

[CHORUS]

Bridge Fig. (4x)

Verse Fig. (first 3 measures only)

Intro Fig. (4x)

end on D chord (x5777x).

For some reason, this song was mixed with the guitar section
very quiet.  So, dont blame me if some of this is not
right--especially the "ooh, always me" part!  Treat this tab as
just one persons conception of the song, if you wish. :-) The
lyrics are denoted by hyphens and correspond to the tab section
right above them.

There is a fill near the end that goes something like..

E|-------12-------------------------------------|
B|-15-15-------------------15-------------------|
G|----------14b16r14-12-14-14b16r14-12-[24]-----|
D|-------------------------------------harmonic-|
A|----------------------------------------------|
E|----------------------------------------------|

14b16r14 means bend at the 14th fret to the pitch of the note
at the 16th fret, then release the string back to the pitch of
the 14th fret.

Вверх

Shit House Shuffle

main riff:

E|----------------------------------|
B|----------------------------------|
G|----------------------------------|
D|-------3p0--0--3p0--0--0----------|
A|--------------------------3--2--0-|
E|-0h13-----------------------------|

Play that riff moderately fast eight times and then try this:
A    F#5  G5   A5  G5
E|-------------------------------|
B|-------------------------------|
G|-------------------------------|
D|--2----4----5----7---5----5--5-|
A|--2----4----5----7---5----5--5-|
E|--0----2----3----5---3----3--3-|

Вверх

Shut Up And Dance

Intro:

E|-----------| Play this 4 times during intro
B|-----------|
G|-----------|
D|-5-5s-3s-5-|
A|-5-5s-3s-5-|
E|-3-3s-1s-3-|

Chorus: play above riff throughout the Chorus

Talk is cheap, shut up and dance
Dont get deep, shut up and dance

Verse 1:
Em       D         G
Love has got me down
play riff twice
Em       D             G
A tear just hit the ground
play riff twice

Verse 2:  this is a stretch but it was as close as I came
Em                     D
So I started writing you this song
G
But the words came out all wrong
C#m          Bm
Yeah, but its alright

Chorus

Verse 3: Follow same format as verse 1

When you cant define the crime
Then life aint worth a dime

Verse 4: follow same format as verse 2

When they take away everything you got
And they rub your nose in the funky spot
Not without a fight

Chorus

Solo

Verse 5: follow same format as verse 1

Sex is like a gun
You aim, you shoot, you run

Verse 6: follow same format as verse 2

When youre splittin hairs with Mr.Clean
Its like getting head from a guillotine
And the night has just begun

Repeat Chorus

Вверх

Sick As A Dog

intro-
rhythm figure 1(guitar 1 acoustic)
E|--------0---------0------0-------0-------0-|
B|-----2---------2------------4p0------------|
G|--4---------4---------4--------------------|
D|-------------------------------------------|
A|-------------------------------------------|
E|-------------------------------------------|
guitar 2(electric w/distortion)
B5                         Eb5 E5
E|----------------------------------|
B|----------------------------------|
G|-4------------------------9--8--9-|
D|-4------------------------9--8--9-|
A|-2-------------------27-----6--7--|
E|----------------------------------|
guitar 2 continued(w/rhy.fig 1)
B5      A  Em                 Eb5
E|--------------|----------------------|----------|
B|--------2-----|----------------------|--------2-|
G|-4---4--2-----|--4---------9---8---9-|--4-----2-|
D|-4---4--2--2--|--4---------9---8---9-|--4-----2-|
A|-2---2-----2--|--2---27--------6---7-|--2-------|
E|-----------0--|----------------------|----------|

verse/main riff(guitar 2)
E5        Eb5 Db5   B5                  A5
E|-----------------------------------------------|
B|------------------------------------------2--2-|
G|--9-x-9----98--6/8---4---4--x-4----4-4-x--2--2-|
D|--9-x-9----98--6/8---4---4--x-4----4-4-x--2--2-|
A|--7-x-7----76--4/6---2---2--x-2----2-2-x-------|
E|-----------------------------------------------|

chorus-
guitar 2-         E5-Eb5-B5                E5
guitar 1(w/distortion)
E|-----------------------------------------|
B|-----------------------------------------|
G|-----------------------------------------|
D|---------------------------------------2-|
A|----2--0-----0----------------2--0-------|
E|----------3-------------------------3----|

E5-Eb5-B5   E5-Eb5-Db5-B5
E|-----------------------------------------|
B|-----------------------------------------|
G|-----------------------------------------|
D|---------------------------------------2-|
A|----2--0-----0----------------2--0-------|
E|----------3-------------------------3----|

First solo after 1st chorus:
(full step bends- hit C# note)
E|-----------------------------------------------------------|
B|------------------------------12b--12b--12b--12--10--------|
G|----------------------9--11-------------------------11--9--|
D|---------------9--11---------------------------------------|
A|--------9--11----------------------------------------------|
E|---12------------------------------------------------------|

Second solo during bridge part:

Lead in chords before this solo are : B-A
During the solo the chords are:
D(4 measures) - C(2 meas.)- B(2 meas.) - E-E-E

E|----------------------------------------15-17--19b--17-15-14-|
B|-------------------------------15-17-18----------------------|
G|----------------------14-16-17-------------------------------|
D|----------12-14-15-17----------------------------------------|
A|-12-14-15----------------------------------------------------|
E|-------------------------------------------------------------|

E|------------------------------------------------------|
B|-17-15-13-12-----12---12b-10p--12h--12b-10p-12h---17v-|
G|--------------14--------------------------------------|
D|------------------------------------------------------|
A|------------------------------------------------------|
E|------------------------------------------------------|
(I dont have the rest figured out yet...)

Вверх

Somebody

rhy.fig.1-

E|--------------------------------------------|
B|--------------------------------------------|
G|--------------------------------------------|
D|--------------------------------------------|
A|-2--2--4----2--4--2--2---4------------------|
E|-0--0--0----0--0--0--0---0--2---2--3-3--4-4-|
This riff changes slightly, sometimes  changing to (2  3  4)
instead of (2 3 3  4 4). When the verse comes in, play this:
rhy.fig.2-
I need a lady not somebody shady...
E|-------------------------------|
B|-2-----------------------------|
G|-2-------(3x)------------------|
D|-2-----------------------------|
A|-------------------------------|
E|-----------------0---3---0---3-|
(rhy.fig.1))
The words fit into the music like this:

I need a lady not somebody shady
need someone to be close to
somebody cozy not somebody nosy
help me see my whole day through
F#5
someone to share the load
A5
somebody to walk the road I live on...live!(rhy.fig.1)

Basic chords for this part go like this:
fill 1-
F#5   A5       live on...live
E|----------------------------|
B|----------------------------|
G|-----------------9--9-----9-|
D|-4-----7---------9--9-----9-|
A|-4-----7---------7--7-----7-|
E|-2-----5--------------------|
(rhy.fig.2)

Good Lord send me, good lord mend me
send me down someone for me
said I wont be choosy you could send me a floozy
send me anybody you please
F#5
Somebody say you will
A5
Somebody further still
G5           B5
Somebody some-somebody for me(fill 1)
fill 2-   D5       A                E
E|--------------------------------------|
B|------------------2-------------------|
G|---9----7--7------2-------------------|
D|---9----7--7------2----------------2--|
A|---7----5--5-----------------------2--|
E|------------------------3---2---0--0--|
Now wont you send me somebody
(repeat twice)

I used two barre chords in this transcription without tabbing
them. Here they are for those who dont know:
B5   G5
E|--------|
B|--------|
G|-4------|
D|-4----5-|
A|-2----5-|
E|------3-|

(guitar solo(by the way, anyone who wants to post the solo is
more than welcome))

(rhy.fig.1)
yeah somebody
wont you send me somebody
now wont you send me somebody

(rhy.fig.2)
well,call for somebody scream loud and bloody
call woman woman come on to me
save for tomorrow share all your sorrow
misery enjoys company(yes it does,yes it does)

Вверх

Soul Saver

intro(heavy distortion)-
E|------------------------------------2-|
B|----------------------2-------------2-|
G|-9--9---11--9--7---7-2-----3--4----4--|
D|-9--9---11--9--7---7-2-----3--4-------|
A|-7--7----9--7--5---5-----0-1--2-------|
E|--------------------------------------|

rhythm figure 1-
E|-------------------------------|
B|-----------------------------2-|
G|-----------------------------2-|
D|---------4-------------------2-|
A|-------4-4-4-4----2-----4------|
E|-0--1--2-2-2-2--0-0---0-2-0----|

You may have to mess around with the strumming pattern to get
rhy.fig.1 to sound right.
rhy.fig.2-

E|--------------------------------|
B|-----------2------------2--2----|
G|-----------2------------2--2--4-|
D|-----------2------------2--2--4-|
A|------4-4----------4-4--------2-|
E|-0-1--2-2-----0-1--2-2----------|

Вверх

Subway

intro/main riff-
E|-----------------------------------------|
B|-----------------------------------------|
G|---7---7----79-9-9-9-4--7----------------|
D|---7---7----79-9-9-9-4--7----------------|
A|---5---5----57-7-7-7-2--5---0---0-1-2----|
E|-0---0---0---------------------3-------3-|

E|----------------------------------------------|
B|----------------------------------------------|
G|---7---7---7-9-9-9-9--------------------------|
D|---7---7---7-9-9-9-9--------------------------|
A|---5---5---5-7-7-7-7-7-7-7-7-7-7-7--5-5-5-5---|
E|-0-------0-------------5-5-5-5-5-5-5--3-3-3-3-|

E|-----------|
B|-----------|
G|-----------|
D|---------2-|
A|-4-4-4-4-2-|
E|-2-2-2-2-0-|

Repeat that until the change, then play something like this:
(palm mute throughout)
E|------------------------------------|
B|------------------------------------|
G|------------------------------------|
D|----------9--------7----------------|
A|----------------------------5-------|
E|-7-7-7-7----7-7-7----7-7-7----7-5-6-|

E|------------------------------------|
B|------------------------------------|
G|------------------------------------|
D|-----------9---------7---------5--7-|
A|-------------------------------5--7-|
E|-7-7-7-7-----7-7-7-----7-7-7--3--5--|

E|------------------------------------|
B|------------------------------------|
G|----------------------------0-------|
D|----------2--------0----------2-0-1-|
A|-2-2-2-2-----2-2-2----2-2-2---------|
E|-0-0-0-0-----0-0-0----0-0-0---------|

E|------------------------------------|
B|----------------------------------2-|
G|----------------------------------2-|
D|----------2---------0-------------2-|
A|-2-2-2-2-----2-2-2-----2-2-2--------|
E|-0-0-0-0-----0-0-0-----0-0-0---3b---|

When that changes, go into this:

E|----------------------|
B|-2----2---2-----------|
G|-2----2---2-----------|
D|-2----2---2-----------|
A|----------------------|
E|--------------3--2--0-|
Continue with main riff

When that changes, go into this:
(2x)
E|--------------------------------------|
B|--------------------------------------|
G|-7------------------------------------|
D|-7------------------7-----------------|
A|-5------------------7-----------------|
E|------8-8-8-8-7-7-7-5---3-3-3-3-2-2-2-|

E|--------------------------------------|
B|--------------------------------------|
G|-9------------------------------------|
D|-9--------------------9---------------|
A|-7--------------------9---------------|
E|----10-10-10-10-9-9-9-7-5-5-5-5-4-4-4-|

The last change is just this(more or less):

E|-----------|
B|-2---2---2-|
G|-2---2---2-|
D|-2---2---2-|
A|-----------|
E|-----------|(repeat)

Вверх

Subway

intro/main riff-
E-----------------------------------------------|
B-----------------------------------------------|
G----7---7----79-9-9-9----4----7----------------|
D----7---7----79-9-9-9----4----7----------------|
A----5---5----57-7-7-7----2----5---0---0-1-2----|
E--0---0---0--------------------------3-------3-|

E-----------------------------------------------|
B-----------------------------------------------|
G----7---7---79-9-9-9---------------------------|
D----7---7---79-9-9-9---------------------------|
A----5---5---57-7-7-7--7-7-7-7-7-7-7--5-5-5-5---|
E--0-------0-------------5-5-5-5-5-5-5--3-3-3-3-|

E------------|
B------------|
G------------|
D---------2--|
A-4-4-4-4-2--|
E-2-2-2-2-0--|

Repeat that until the change, then play something like this:
(palm mute throughout)
E-------------------------------------------|
B-------------------------------------------|
G-------------------------------------------|
D------------9---------7--------------------|
A--------------------------------5----------|
E--7-7-7-7-----7-7-7-----7-7-7-----7-5-6----|

E--------------------------------------|
B--------------------------------------|
G--------------------------------------|
D------------9---------7---------5--7--|
A--------------------------------5--7--|
E--7-7-7-7-----7-7-7-----7-7-7--3--5---|

E---------------------------------------|
B---------------------------------------|
G-------------------------------0-------|
D-----------2---------0-----------2-0-1-|
A--2-2-2-2-----2-2-2-----2-2-2----------|
E--0-0-0-0-----0-0-0-----0-0-0----------|

E---------------------------------------|
B-----------------------------------2---|
G-----------------------------------2---|
D-----------2---------0-------------2---|
A--2-2-2-2-----2-2-2-----2-2-2----------|
E--0-0-0-0-----0-0-0-----0-0-0---3b-----|

When that changes, go into this:

E---------------------------------------|
B---2----2---2--------------------------|
G---2----2---2--------------------------|
D---2----2---2--------------------------|
A---------------------------------------|
E----------------3--2--0----------------|
Continue with main riff

When that changes, go into this:
(2x)
E---------------------------------------|
B---------------------------------------|
G--7------------------------------------|
D--7------------------7-----------------|
A--5------------------7-----------------|
E-------8-8-8-8-7-7-7-5---3-3-3-3-2-2-2-|

E---------------------------------------|
B---------------------------------------|
G--9------------------------------------|
D--9---------------------9--------------|
A--7---------------------9--------------|
E------10-10-10-10-9-9-9-7-5-5-5-5-4-4-4|

The last change is just this(more or less):

E--------------|
B---2---2---2--|
G---2---2---2--|
D---2---2---2--|
A--------------|
E--------------|(repeat)

Continue with the main riff until the end.

Вверх

Sunshine

F#m       B          D           A
I SOLD MY SOUL FOR A ONE NIGHT STAND
F#m        B           D     A
I FOLLOWED ALICE INTO WONDERLAND
F#m        B             D                A
I ATE THE MUSHROOM AND I DANCED WITH THE QUEEN
D         A               C#   C#/B C#/A C#/G#
YEAH WE DANCED IN BETWEEN ALL THE LINES

I FOLLOWED DAYLIGHT RIGHT INTO THE DARK
TOOK TO THE HATTER LIKE A WALK IN THE PARK
BUT THEN I MET HER YEAH SHE FELT SO RIGHT
NO CHILD A THE NIGHT YEAH WAS SHE

F#  D   B
THEY CALL HER SUNSHINE
G#            F#    D
THE KIND THAT EVERBODY KNOWS
C#   B
Yeah yeah
F   D   B
SUNSHINE
G#           F#      D
SHE FINER THAN A PAINTED ROSE
C#   B
Yeah yeah
C#   B    A   A/G
SUNSHINE YEAH

HER KINDA LOVE?S WHAT I ADORE
WHAT KINDA TROUBLE AM I IN FOR
MY KINDA HEAVEN LIES AT HELL?S BACK DOOR
AND I GOT MORE THAN I NEED

?CAUSE I NEED SUNSHINE
THE KIND THAT EVERBODY KNOWS
Yeah yeah
MY SUNSHINE
SHE FINER THAN A PAINTED ROSE
Yeah yeah
SUNSHINE YEAH
yeah yeah yeah

I GOT THE KARMA BUT IT DON?T COME FREE
I CHASED THAT RABBIT UP THE OLD OAK TREE
THE CATERPILLER?S TRYIN? TA COP A PLEA
BUT THE SMOKE AIN?T GOT NOTHIN? ON ME
yeah

YA GOTTA HAVE MY SUNSHINE
THE KIND THAT EVERYBODY KNOWS
Yeah yeah
AN? SUNSHINE
SHE FINER THAN A PAINTED ROSE
Yeah yeah
IT?S SUNSHINE
THE KIND THAT EVERYBODY KNOWS
Sunshine
Yeah yeah
MY SUNSHINE
Sunshine
SHE FINER THAN A PAINTED ROSE
Sunshine
Yeah yeah
SUNSHINE
SUNSHINE YEAH

Вверх

Sweet Emotion

A             D      A
S w e e t   E m o -  t i o n

Verse
E|-----------------|-----------------|
B|-3---------------|-----------------|
G|-2---2-----2-----|---------2-------|
D|-0---2-----2-----|---------2-------|
A|-----0-----0-----|-3p0-----0-------|
E|-----------------|-----3------(3)--|
talk about things and nobody cares.. etc.

Between verses
E|-----------------|-----------------|
B|-----------------|-----------------|
G|-----------------|-----------------|
D|-----------------|-----------------|
A|-5p3p0-----------|-----------------|
E|-------0-2-2---0-|-3-3---0-4---5---|

Outro (solo mainly in E dorian)
E|-----------------|-----------------|
B|-----------------|-----------------|
G|---------7-----9-|---9-----2-2-----|
D|-2---2---7-----9-|---9-----2-2-----|
A|-2---2---5-----7-|---7-----0-0-----|
E|-0---0-------0---|-------0-----3-4-|

Вверх

The Hop

 -Intro

Starts with song drums

e|-------------------------------|
b|-------------------------------|
g|--------------4--------------7-|
d|----4-7--4----4----4-7--4----7-|
a|-5---------5-----5--------5----|
e|-------------------------------|

e|-------------------------------|
b|-------------------------------|
g|--------------9----9--9--7-----|
d|----4-7--4----9----9--9----9-9-|
a|-5---------5-------------------|
e|-------------------------------|

- verse

e|------------------|
b|------------------|
g|--------------4---| play 4 times
d|----4-7--4----4---| then play this...
a|-5---------5------|
e|------------------|

e|------------------|
b|------------------|
g|----------------9-| play this 4 times
d|----9-12--9-----9-|
a|-10---------10----|
e|------------------|

Repeat the whole verse until it goes to the 2nd
"Cant stop a rockin tonight" part were you play

e|------------------|
b|------------------|
g|-4---4---4---4--6-|
d|-------7---7------|
a|------------------|
e|------------------|

That leads to the solo that goes...

e|---------------------------12--10----12-|
b|-9--9--9--9--9--9--9---12---------12----|
g|----------------------------------------|
d|----------------------------------------|
a|----------------------------------------|
e|----------------------------------------|

e|-12-10-----12--12-10------12---12-10----|
b|-------12-------------12-------------12-|
g|----------------------------------------|
d|----------------------------------------|
a|----------------------------------------|
e|----------------------------------------|

e|----------------------------------------|
b|--12--12-12--12-12--12-12--12-12--12-12-|
g|----------------------------------------|
d|----------------------------------------|
a|----------------------------------------|
e|----------------------------------------|

e|-----------------------15-16------15-16-|
b|-12-12--12-12--12--17--15-----17--15----|
g|----------------------------------------|
d|----------------------------------------|
a|----------------------------------------|
e|----------------------------------------|

e|----15-16----15-16------15-16-----15-16-|
b|-17-15----17-15-----17--15-----17-15----|
g|----------------------------------------|
d|----------------------------------------|
a|----------------------------------------|
e|----------------------------------------|

e|-----15-16------15-16-|
b|-17--15-----17--15-15-|
g|----------------------|
d|----------------------|
a|----------------------|
e|----------------------|

Repeat the intro then play the bridge

Lyin on my back tonight I watch her moon...
e|--10---10------------10----------------------|
b|----------12--12--12-----12--12---12--12--12-|
g|---------------------------------------------|
d|---------------------------------------------|
a|---------------------------------------------|
e|---------------------------------------------|

I may be eatin out tonight but I just aint...
e|------------------------10---------------------|
b|--12--12-12-12--12--12------12-12-10-10-10--12-|
g|-----------------------------------------------|
d|-----------------------------------------------|
a|-----------------------------------------------|
e|-----------------------------------------------|

repeat the same guitar part with different lyrics.

Then theres song little guitar solo, an amazing
harmonica solo, and another little guitar solo.

The lyrics go...

Thinkin about the night life in the ladies powder room
My brothers like a howlin wolf by
the light of the silvery room
Joeys like a Pavlovs dog when he starts to lasivate
A harley man gets off his hog to shake his rattle snake

Chorus-

And me I got a brand new band
you know something just aint right
Say Yeah, Yeah, cant stop rockin tonight.

Hangin at the Shopin mall with a wise mouthfull of sass
Leave your smile outside the door
cause the kids been kickin ass
My own boot heels be smockin ya really got to understand
Were burnin down the town tonight
when our new shit hits the fan

Chorus

Solo

Livin on my back tonight I watched her moon eclipse
I may be eatin out tonight but I just aint leavin tips
So you best watch out what you do and a who you do it with
Cause you all be kickin ass tonight with the boys in Aerosmith

That is all....

Вверх

Toys In The Attic

Toys in the Attic

G|-----------------|---------------|---------------|---------|
D|-----------------|---------------|---------------|---------|
A|---7-5---5-------|--7-5---5------|--7-5---5------|--5------|
E|-0-----7---7-3-0-|------7---7-3-0|------7---7-3-0|5----3-5-|

opening riff (repeat) also used in chorus

G|-------|------|------|-----|--------------|-------|
D|-------|------|------|-----|---3---3---3-5|-------|
A|-------|------|-/5---|5----|-----5---5----|-5-----|
E|-5-----|-5--0-|------|---5-|3-------------|-----5-|

lights|voices|scream|

G|-------------|---------------|------------|---------------|
D|----------9-7|>--------------|---------9-7|---------------|
A|----5-7-9----|--9->----------|---5-7-9----|------------5-6|
E|-7-----------|------7->-7-5-6|7-----------|>-7->-7->-7----|

G|----------------|-------------------------------------------|
D|----------------|repeat previous measure through verse into-|
A|-7-7-7-7-7-7-7-7|-line for lights etc....-------------------|
E|----------------|-------------------------------------------|

G|----------------|---------------|---------------|
D|----------------|---------------|----------10-8-|
A|----------------|---------------|---6-8-10------|
E|-7-7-7-7-7-7-7-7|8-8-8-8-8-8-8-8|8--------------|

Bridge          repeat 8X

G|-----------------|--------------|-----------------|
D|-----------------|----------10-8|-----------------|
A|-10-8-6----------|---6-8-10-----|10-8-6-----------|
E|--------8-1-2-3-7|8-------------|-------8-1-2-3-7-|

G|---------------|----------------|--------------|
D|-----------10-8|----------------|----------10-8|
A|----6-8-10-----|10-8-6----------|---6-8-10-----|
E|-8-------------|-------8-1-2-3-7|8-------------|

G|-----------------|-------------|-----------------------|
D|-----------------|-------------|repeat verse and chorus|
A|-10-8-6---------5|5/6-7-7-7-7-7|-----------------------|
E|--------8-3-7-8--|-------------|-----------------------|

Вверх

Train Kept A Rollin

Intro: Play Twice
e|--------------------------|
B|-15~~~-----------12-------|
G|-14b(16r15.5b14)---12---9-|
D|---------------------12^9-|
A|--------------------------|
E|--------------------------|

Riff 1
e|----------------|-------|------------------|-----------------|
B|----------------|-------|------------------|-----------------|
G|----------------|-Play--|------------------|-----------------|
D|-5-5-5-5-5-5-5-5^-Twice-^-7-7-7-7-7-7-7--7-|-5--5-5-5-5--5-5-|
A|-5-5-5-5-5-5-5-5|-------|-7-7-7-7-7-7-7--7-|-5--5-5-5-5--5-5-|
E|-3-0-0-3-3-0-3-0|-------|-5-0-0-5-5-0-5--0-|-3--0-0-3-3--0-3-|

e|----------------------------|-------------|
B|----------------------------|-------------|
G|----------------------------|-Repeat-from-|
D|-7-7--7--7-9--99-97---5--4--|----Start----|
A|-7-7--7--7-9--99-97---5--4--|-------------|
E|-5-5--5--5^0--77-05---3--2--|-------------|

Interlude 1:   6 Times
e|-------|--------------------------------------------|
B|-------|--------------------------------------------|
G|-------|--------------------------------------------|
D|-2-----|----------5-------------2-2------------2-2--|
A|-2-----|-----5-----^7^5---------2-2------------2-2--|
E|-0~~~--|--5^7--^7-------^7^53~--0-0--0--2--3~~-0-0--|

E  A  B  Chord Progression
e|-----5--7------------------------------|---------|
B|-----5--7------------------------------|-Back-to-|
G|-----6--8------------------------------|-Riff-1--|
D|-----7--9------------------------------|--Over---|
A|-----7--9------------------------------|--Solo---|
E|--0--5-7--7-8-9-10~~-10-11-12-13-15~~~-|---------|

Riff 2:  Same as Riff 1 but faster and less blues.  also the
into the same but loose the ending of it.  the interlude 2is the
same but with out the 1st fast run.

Riff 1
Well, on a train, I met a dame,
She rather handsome, but kind of looked the same.
She was pretty, from New York City
Im walkin down that old fair lane,
Im in heat, Im in love,
But I just couldnt tell her so

I said, train kept a-rollin all night long
Train kept a-rollin all night long
Train kept a-rollin all night long
Train kept a-rollin all night long
With a "heave!", and a "ho!"
But I just couldnt tell her so, no, no, no... (lead)

Well, get along, sweet little woman get along
On your way, get along, sweet little woman get along
On your way,
Im in heat, Im in love,
But I just couldnt tell her so, no, no, no

(Interlude 1, and solo)

Drum role, lead, fast guitar.

Riff 2
Well, on a train, I met a dame,
She rather handsome, but kind of looked the same.
She was pretty, from New York City
Im walkin down that old fair lane,
Im in heat, Im in love,
But I just couldnt tell her so

I said, train kept a-rollin all night long
Train kept a-rollin all night long
Train kept a-rollin all night long
Train kept a-rollin all night long
With a "heave!", and a "ho!"
But I just couldnt tell her so, no, no, no

solo

Well, get along, sweet little woman get along
On your way, get along, sweet little woman get along
On your way,
Im in heat, Im in love,
But I just couldnt tell her  yah...ayh....

Interlude 2, solo

Riff 2
Well, we made a stop in Albequerque
She musta thought I was a real cool jerk
Got off the train, and put her hands up
Lookin so good jack couldnt let her go   oOOooo..
But I just couldnt tell her so

I said, train kept a-rollin all night long  (lead)
Train kept a-rollin all night long          (lead)
Train kept a-rollin all night long          (lead)
Train kept a-rollin all night long          (lead)
Im in heat, Im in love,
But I just couldnt tell her   ayh...ayh...

Вверх

Uncle Salty

intro-
A     D     A7    D
E|-0-----2-----0-----2-|
B|-2-----3-----1-----3-|
G|-2-----2-----0-----2-|
D|-2-----0-----2-----0-|
A|-0-----------0-------|
E|---------------------|

Repeat that a couple of times and then play this little
riff:
E|------------------------|
B|------------------------|
G|----1--2------1--2---21-|
D|-0---------0------------|
A|------------------------|
E|------------------------|

Try this for the verse:

rhythm guitar plays A chord

lead plays the following

E|---------------------------------------3-5-----3-0-|
B|--------4h5----------4h5---------4h5---------------|
G|---------------------------------------------------|
D|----7/-----------7/----------7/--------------------|
A|-0------------0------------0---------0------0------|
E|---------------------------------------------------|

G
But when she cried  at night
A
no one came      (fill 1)

The chords are similar for the rest of the song changing only
to F and then E when Steven says "went insane."

For the little fill that sounds like the verse, either play that
part of the verse that is relevant or try this:

fill 1-
E|-------------------------|
B|------------8h10-----8/5-|
G|----8h9------------------|
D|-------------------------|
A|-0-------0--------0------|
E|-------------------------|

1st bridge riff:

E|-------0--3p2-------2-------3----------0--5(1)-|
B|-----------------------------------------------|
G|-----------------------------------------------|
D|----2-------------------------------2----------|
A|-0--------------0-------0--------0-------------|
E|-----------------------------------------------|

2nd bridge riff:

E|----3------1------0--------1------3-|
B|------3------3------3--------3------|
G|-0------0------0------0-0------0----|
D|------------------------------------|
A|------------------------------------|
E|------------------------------------|

Solo(distortion with pickup switch at(or around) top position)-
E|-----------------------------------------------|
B|------------------10-12-12b--10--10----10-1013-|
G|-5b---r---7b--11-------------------------------|
D|--------7--------------------------------------|
A|-----------------------------------------------|
E|-----------------------------------------------|

E|--------------------------------------------------|
B|-13--13-13----------------------------------------|
G|----------13h15--15-18-13-15-18-13-15-18-18-15-13-|
D|--------------------------------------------------|
A|--------------------------------------------------|
E|--------------------------------------------------|

E|--------------------------------------------------|
B|-----------------------------13-15-13-15-15b-r-13-|
G|-15-18b--18b--18-15----1315-----------------------|
D|--------------------------------------------------|
A|--------------------------------------------------|
E|--------------------------------------------------|

E|---------------------------14-16-16b-r-16b-r--16b-rp13-16b-|
B|-----13----13-15-13--1517----------------------------------|
G|-15-----15-------------------------------------------------|
D|-----------------------------------------------------------|
A|-----------------------------------------------------------|
E|-----------------------------------------------------------|

Вверх

Walk On Down

E|--------------------|----------------------|
B|--------------------|----------------------|
G|--------------------|----------------------|
D|-------2--------2---|-------2--------2---2-|
A|-0-1-2----0-1-2-----|-0-1-2----0-1-2-------|
E|------------------0-|------------------3---|

E|--------------------|----------------------|
B|--------------------|----------------------|
G|--------------------|--------------------2-|
D|-------2--------2---|-------2--------2---2-|
A|-0-1-2----0-1-2-----|-0-1-2----0-1-2-----0-|
E|------------------0-|----------------------|

Вверх

Walk This Way

G|---|----------------------|---------------------|
D|---|----------------------|---------------------|
A|-0-|-3--3-13----------1---|-3----13--------1--1-|
E|---|-----------01-13-3--3-|---------01--3----3--|

G|----------------------|---------------------|
D|----------------------|---------------------|
A|-3----13----------1---|-3----13--------1--1-|
E|-----------01--3-3--3-|---------01--3----3--|

G|----------------------|---------------------|
D|----------------------|---------------------|
A|-3----13----------1---|-3--3-13--------1--1-|
E|-----------01--3-3--3-|----------1--3----3--|

G|----------------------|-----------------|
D|----------------------|-----------------|
A|-3----13----------1---|-3----13-------0-|
E|-----------01-13-3--3-|----------0-3----|

G|---------------|------|------|---------------|
D|----2-----2----|--0/--|--0/--|----2-----2----|
A|-012---012-----|--/0--|--/0--|-012---012---0-|
E|-------------0-|------|------|---------------|

G|----------------------|---------------------|
D|----------------------|---------------------|
A|-3----13----------1---|-3----13--------1--1-|
E|-----------01-13-3--3-|---------01--3----3--|

G|----------------------|---------------------|
D|----------------------|---------------------|
A|-3--3-13----------1---|-3--3-13--------1--1-|
E|-----------01--3-3--3-|---------01--3----3--|

G|----------------------|---------------------|
D|----------------------|---------------------|
A|-3--3-13----------1---|-3----13--------1--1-|
E|-----------01--3-3--3-|---------01-13-3--3--|

G|----------------------|---------------------|
D|----------------------|---------------------|
A|-3--3-13----------1---|-3--3-13--------1--1-|
E|-----------01--3-3--3-|---------01--3----3--|

G|----------------------------3------|------|
D|----------------1233333-3335-531---|--0/--|
A|-3---3---3--3-33----------------31-|--/0--|
E|-----------------------------------|------|

G|----------------------|-----------------------|
D|----------------------|------------------1314-|
A|-3--3-13----------1---|-3-3-3/-13--131315-----|
E|-----------01--3----3-|-----------------------|

G|----------------------|-----------------|
D|----------------------|-----------------|
A|-3--3-13----------1---|-3--3-13-------0-|
E|-----------01-13-3--3-|----------0-3----|

G|---------------|------|------|---------------|
D|----2-----2----|--0/--|--0/--|----2-----2----|
A|-012---012-----|--/0--|--/0--|-012---012---0-|
E|-------------0-|------|------|---------------|

G|----------------------|---------------------|
D|----------------------|---------------------|
A|-3--3-13----------1---|-3--3-13--------1--1-|
E|-----------01-13-3--3-|---------01--3----3--|

G|----------------------|---------------------|
D|----------------------|---------------------|
A|-3----13----------1---|-3--3-13--------1--1-|
E|-----------01--3-3--3-|---------01--3----3--|

G|----------------------|---------------------|
D|----------------------|---------------------|
A|-3----13----------1---|-3----13--------1--1-|
E|-----------01--3-3--3-|----------1--3----3--|

G|----------------------|-----------------|
D|----------------------|-----------------|
A|-3----13----------1---|-3--3-13-3-----0-|
E|-----------01-13-3--3-|----------0-03---|

G|---------------|------|------|---------------|
D|----2-----2----|--0/--|--0/--|----2-----2----|
A|-012---012-----|--/0--|--/0--|-012---012---0-|
E|-------------0-|------|------|---------------|

G|----------------------|---------------------|
D|----------------------|---------------------|
A|-3----13----------1---|-3----13--------1--1-|
E|-----------01-13-3--3-|---------01--3----3--|

G|----------------------|---------------------|
D|----------------------|---------------------|
A|-3----13----------1---|-3----13--------1--1-|
E|-----------01--3-3--3-|---------01--3----3--|

G|----------------------|---------------------|
D|----------------------|---------------------|
A|-3----13----------1---|-3----13--------1--1-|
E|-----------01--3-3--3-|----------1--3----3--|

G|----------------------|---------------------|
D|----------------------|---------------------|
A|-3----13----------1---|-3----13--------1--1-|
E|-----------01-13-3--3-|---------01--3----3--|

G|----------------------------3------|------|
D|----------------1233333-3335-531---|--0/--|
A|-3---3---3--3-33----------------31-|--/0--|
E|-----------------------------------|------|

G|----------------------------3------|
D|----------------1233333-3335-531---|
A|-3---3---3--3-33----------------31-|
E|-----------------------------------|

G|----------------------------------------12-|
D|-----------------10------------------123---|
A|-3---3---3---3/10--109---------------------|
E|-------------------------1---1---1---------|

G|----------------------|---------------89-|
D|----------------------|-------10--8910---|
A|-3--3-13----------1---|-3--3/---10-------|
E|-----------01-13-3--3-|------------------|

G|----------------------|-----------------|
D|----------------------|-----------------|
A|-3--3-13----------1---|-3--3-13-------0-|
E|-----------01-13-3--3-|----------0-3----|

G|---------------|-------------------|
D|----2-----2----|----2-----2--------|
A|-------012-----|-------012---0-(0)-|
E|-034---------0-|-034---------------|...

Вверх

What It Takes

G                                      D
There goes my old girlfriend, theres another diamond ring.
Em                        D
And, uh, all those late night promises
C
I guess they dont mean a thing.
G                           D
So baby whats the story? Did you  find another man ?
Em
Is it easy to sleep in the bed that we made?
D         C
When you dont look back I guess the
D
feeling starts to fade away.
G                                    Em
I used to feel your fire but now its cold inside.
D           C
And youre back on the street like you
didnt miss a beat, yeah.

A#                                 F
Tell me what it takes to let you go.
A#                                   F
Tell me hows the pain supposed to go.
A#               A+               Dm            Dm/C
Tell me how it is  that you can sleep, in the night
Dm/B
Without thinking you lost evrything that was good in your
A#
life to the toss of the dice?,
C#                 F
Tell me what it takes to let you go,  yeah.

Girl before I met you I was F.I.N.E, fine
But your love made me a prisoner,
yeah my hearts been doing time.
You spent me up like money then you hung me out to dry.
It was easy to keep all your lies in disguise,
Cause you had me in deep with the devil in your eyes.

Tell me what it takes...

C                                             G
Tell me that youre happy that youre on your own. Yeah, yeah
A#                                          F
Yeah, tell me that is better when youre all alone.
Fm                              D#    C#
Tell me that your body doesnt miss my touch.
G#
Tell me that my loving didnt mean that much.
C
Tell me you aint dying when youre crying for me.
A#
Tell me what it takes to let you...
...everything that was good in your life
to the toss of the dice.
A#                C#                    F
Tell me whos to blame for thinking twice.    No, no no no.
A#                   C#            F       Dm
Cause I dont wanna burn in paradise.    Oh
A#                      F
Let go, let go, let go  I dont wanna burn in paradise.
Dm                        A#    F
Let it go, let it go, let it go...
(one million times, fading)

Вверх

When I Needed You

 main riff-
E|----------------------------------------|
B|----5-----5-----4-------4/5-----5-----4-|
G|-0-----0-----0-------0-------0-----0----|
D|----------------------------------------|
A|----------------------------------------|
E|----------------------------------------|

Repeat that riff where appropriate. Its pretty much evident
throughout the song. The lyrics and chord changes for the verse
are as follows:

When I needed you
To be my girl
When I needed you
A5
To give me a whirl

chorus

G5
When I wanted all you had
(main riff)
And what you gave me turned out all bad
C5      A   Bb5 C5  D5
I needed all your love

Youll have to listen to the music to understand how the chords
fit in with the song. Here are all the chords used in this post
for those who arent familiar:
A5  G5  C5   A   Bb5   D5   D    G
E|------------------------------2----3-------|
B|---------------2--------------3----3-------|
G|-----------5---2---3-----7----2----0-------|
D|---7---5---5---2---3-----7---------0-------|
A|---7---5---3-------1-----5---------2-------|
E|---5---3---------------------------3-------|

When I wanted you all for my own
When I wanted you
but you just left me alone

(chorus)

solo 1(turn on distortion)-
E|------------------------------------------------|
B|------------------------------------------------|
G|---------------------------------12b-12rp10-----|
D|---------------9--10--9------9---------------12-|
A|---12--10--12------------12---------------------|
E|------------------------------------------------|

E|------------------------------------------------|
B|--------------12brp10---------------------------|
G|--10------10----------12-12brp10----10--12b-r-12|
D|------12-------------------------12-------------|
A|------------------------------------------------|
E|------------------------------------------------|

E|------------------------------------------------|
B|------------------------------------------------|
G|-p10------10--------------------------9--10--9--|
D|------12------12--10--10--12--10--12------------|
A|------------------------------------------------|
E|------------------------------------------------|

E|------------------------------------------------|
B|---------12b-12rp10-----------------14-14-14-14-|
G|------9--------------12--12b-12rp10-12-12-12-12-|
D|--12--------------------------------------------|
A|------------------------------------------------|
E|------------------------------------------------|

E|----------------------------|
B|-14-12-12-12-12-14-14-14-14-|
G|-12-12-12-12-12-12-12-12-12-|
D|----------------------------|
A|----------------------------|
E|----------------------------|

(chorus)

(Steven yells "ow!")

(solo 2,basically the same as solo 1 except with a few changes
that are too minor to transcribe)

(chorus)

I needed all your love(3x)

(end on D-A-G-D(or something very similar))

Вверх