Evanescence

Bring Me To Life
Going Under
Hello
Taking Over Me
Вверх

Bring Me To Life

вступление, куплеты:

Fm - palm muting

1:-1--
2:-1--
3:-1--
4:-3--
5:-3--
6:-1--



припев:

Fm G# Dm# Bb G#

1:-1-4--6---6---4---
2:-1-4--6---6---4---
3:-1-5--8---6---4---
4:-3-6--8---8---6---
5:-3-6--6---8---6---
6:-1-4--6---6---4---



после 2ого припева ( 1.58 )

Cm# Dm# Fm (рубить акккорд с палм мутингм как в куплете)

после второго раза - идет такое:

Fm G# Am Hm


потом вокалистка начинает орать: "frozen inside.." и идет

Hm Am G# Am# - G# Am Hm (Надеюсь поймете эту фишку, играется быстро)

1:-13-11-10-12----10-11-13---
2:-13-11-10-12----10-11-13---
3:-15-13-12-14----12-13-15---
4:-15-13-12-14----12-13-15---
5:-13-11-10-12----10-11-13---
6:-13-11-10-12----10-11-13---


Hm Am G# Cm...

1:-13-11-10-15--
2:-13-11-10-15--
3:-15-13-12-17--
4:-15-13-12-17--
5:-13-11-10-15--
6:-13-11-10-15--



когда начинает вокалист читать:

Fm - p.m , потом когда вокалистка - Am Hm   x2

1:--8----------------------------------11-13----
2:--8----------------------------------11-13----
3:--10---------------------------------13-15----
4:--10---------------------------------13-15----
5:--8----------------------------------11-13----
6:--8----------------------------------11-13----


припев

Fm G# Dm# Bb G#,  Cm# Dm# Fm  ( Fm G# Am Hm ) Cm# Dm# Fm

1:-1--4--6---6--4----4--6---8------8--10-11-13---4---6----8----
2:-1--4--6---6--4----4--6---8------8--10-11-13---4---6----8----
3:-1--5--8---6--5----6--8---10-----10-12-13-15---6---8----10---
4:-3--6--8---8--6----6--8---10-----10-12-13-15---6---8----10---
5:-3--6--6---8--6----4--6---8------8--10-11-13---4---6----8----
6:-1--4--6---6--4----4--6---8------8--10-11-13---4---6----8----



how can you see into my eyes like open doors
leading you down into my core
where I-ve become so numb without a soul my spirit sleeping somewhere cold
until you find it there and lead it back home

(Wake me up)
Wake me up inside
(I can-t wake up)
Wake me up inside
(Save me)
call my name and save me from the dark
(Wake me up)
bid my blood to run
(I can-t wake up)
before I come undone
(Save me)
save me from the nothing I-ve become

now that I know what I-m without
you can?t just leave me
breathe into me and make me real
bring me to life

(Wake me up)
Wake me up inside
(I can-t wake up)
Wake me up inside
(Save me)
call my name and save me from the dark
(Wake me up)
bid my blood to run
(I can-t wake up)
before I come undone
(Save me)
save me from the nothing I-ve become

frozen inside without your touch without your love darling only you are the life among
the
dead

all this time I can?t believe I couldn?t see
kept in the dark but you were there in front of me
I-ve been sleeping a thousand years it seems
got to open my eyes to everything
without a thought without a voice without a soul
don?t let me die here
there must be something more
bring me to life

(Wake me up)
Wake me up inside
(I can-t wake up)
Wake me up inside
(Save me)
call my name and save me from the dark
(Wake me up)
bid my blood to run
(I can-t wake up)
before I come undone
(Save me)
save me from the nothing I-ve become

(Bring me to life)
I-ve been living a lie, there-s nothing inside
(Bring me to life)

Вверх

Going Under

Аккорды писал с акустического выступления - у их гитариста
гитара настроена на полтона ниже моей электрогитары - зато в
один тон с акустикой =)

если я не ошибаюсь - гитара должна быть настроена как у
Металлики (типа на полтона ниже стандартного строя)

вообщем вступление и куплеты играются на одном аккорде - который
похож на Hm но гитарист держит только указательный палец на
барре и мизинец... бой сами подберите - я со 2ого раза понял
как его играть...

вообще гитарист на барре только Hm брал - остальные обычные
аккорды но под электрогитару надо всё на барре брать

Intro, version:

Hm
1:---4---
2:---4---
3:---4---
4:---4---
5:---2---
6:---2---

Pre-chorus

G Am Hm Em
1:-3-0--2--0---
2:-0-1--3--0---
3:-0-2--4--0---
4:-0-2--4--2---
5:-2-0--2--2---
6:-3-0--2--0---

Chorus

Hm  G  D   A
1:--2---3--2---0---
2:--3---0--3---2---
3:--4---0--2---2---
4:--4---0--0---2---
5:--2---2--0---0---
6:--2---3--0---0---

after 2nd chorus

G Fm# Hm Am   G Fm# Hm
1:--3-2---2--0----3--2--2---
2:--0-2---3--1----0--2--3---
3:--0-2---4--2----0--2--4---
4:--0-4---4--2----0--4--4---
5:--2-4---2--0----2--4--2---
6:--3-2---2--0----3--2--2---

во время соло играется припев

now i will tell you what i?ve done for you
50 thousand tears i?ve cried
screaming deceiving and bleeding for you
and you still won?t hear me
don?t want your hand this time i?ll save myself
maybe i?ll wake up for once
not tormented daily defeated by you
just when i thought i?d reached the bottom
i?m dying again

i?m going under
drowning in you
i?m falling forever
i?ve got to break through
i?m going under

blurring and stirring the truth and the lies
so i don?t know what?s real and what?s not
always confusing the thoughts in my head
so i can?t trust myself anymore
i?m dying again

i?m going under
drowning in you
i?m falling forever
i?ve got to break through

so go on and scream
scream at me i?m so far away
i won?t be broken again
i?ve got to breathe i can?t keep going under

Вверх

Hello
mp3

     Hm#                              Bb                Gm
1:----------------------------------------------------------------
2:----4--4----3-----4--4----3-----3---3-------------3----4---3----
3:----------5-------------5---------3---3-------------3----3---3--
4:--5--5--5-------5--5--5-------3---------3-------5---------------
5:-3-------------3------------1-------------1---5-----------------
6:----------------------------------------------------------------

Вверх

Taking Over Me
mp3

Intro, Version:

Bb Bb  F# Fm

1:-6--6--2--1---
2:-6--6--2--1---
3:-6--6--3--1---
4:-8--8--4--3---
5:-8--8--4--3---
6:-6--6--2--1---


after 2nd version:

F# Bb Fm

1:-2--6--1---
2:-2--6--1---
3:-3--6--1---
4:-4--8--3---
5:-4--8--3---
6:-2--6--1---



Chorus:

Bb Gm# F#   Bb Fm F#

1:-6---4---2---6--1--2--
2:-6---4---2---6--1--2--
3:-6---4---3---6--1--3--
4:-8---6---4---8--3--4--
5:-8---6---4---8--3--4--
6:-6---4---2---6--1--2--



after 2nd chorus:

F# F# Bb Bb F# F# Fm Fm Bb ..

1:-2--2--6--6--2--2--1--1--6--
2:-2--2--6--6--2--2--1--1--6--
3:-3--3--6--6--3--3--1--1--6--
4:-4--4--8--8--4--4--3--3--8--
5:-4--4--8--8--4--4--3--3--8--
6:-2--2--6--6--2--2--1--1--6--



акустика:

intro, version:

Am Am F Em

after 2nd version

F Am Em

chorus:

Am Em F

after 2nd chorus:

F F Am Am F F Em Em Am


you don?t remember me but i remember you
i lie awake and try so hard not to think of you
but who can decide what they dream?
and dream i do...

i believe in you
i?ll give up everything just to find you
i have to be with you to live to breathe
you?re taking over me

have you forgotten all i know
and all we had?
you saw me mourning my love for you
and touched my hand
i knew you loved me then

i believe in you
i?ll give up everything just to find you
i have to be with you to live to breathe
you?re taking over me

i look in the mirror and see your face
if i look deep enough
so many things inside that are just like you are taking over

Вверх