Gary Moore

Parisienne Walkways
Still Got The Blues
The Prophet
Вверх

Parisienne Walkways

Intro(вступление)
(1)
|----------------------------------------------------------
|-----------17b-15--------------17-15b~~15b----------------
|-----------------17-16--14----------------17-16-14--------
|--------------------------17-15b------------------17-15-14
|-12/------------------------------------------------------
|----12/-8/------------------------------------------------
(2)
|----------------------------------------------------------
|-13h15p13b------------------------------------------------
|----------14-16-17b-16-14-----------16h17p16~-16-14-13----
|-------------------------17-15-14---------------------15--
|---------------------------------17-----------------------
|----------------------------------------------------------
(3) intro ended!!!            [     к у п л е т     ]
|----------------------------------------------------------
|----------------------------------------Здесь можно играть
|--------------------------------------/-простую гамму-----
|-14-----------------------------------/--только-----------
|---17-15/-----12/---------------------/---------в---------
|-----------------12/---8/-------------/-----------ноты !!!
[продолжение после куплета]
|----------------------------------------------------------
|-14-15-17-20b---20b--18b--18b/-12-13-15b-18b--18b--17b-17b/
|----------------------------------------------------------
|----------------------------------------------------------
|----------------------------------------------------------
|----------------------------------------------------------

|----------------------------------------------------------
|----12-13--17b--17b-15b-15b----------12--15b-15b~~~~~-----
|-14----------------------------13-14----------------------
|----------------------------------------------------------
|----------------------------------------------------------
|----------------------------------------------------------
Быстрого соло!
<<[начало]>>
|----------------------------------------------------------
|-12-12-13-12-10-12-10--10---------------------------------
|---------------------12--12-10-12-10--12-10--10-----------
|------------------------------------12-----12--12-10-12-10
|---в этом куске не уверен---------------------------------
|----------------------------------------------------------
<<[концовка]>>          [      к у п л е т      ]
|----------------------------------------------------------
|----------------------------------------------------------
|------------------------------[improvise]-----------------
|---10-----------------------------------------------------
|-12--12-10-12---------------------------------------------
|----------------------------------------------------------
[ Эту ноту нужно тянуть примерно 31 секунду ]
|----------------------------------------------------------
|--[pause]---17bpbpbpbpbpbp~~~~~~~bpbpbpbpbpbpb~~~~bbbbbbbb
|----------------------------------------------------------
|----------[можно попытаться болтать струну----------------
|--------------вверх вниз!!!]------------------------------
|----------------------------------------------------------

|-------------------------------12-13----------------------
|--------------15b-------------------14-(13h14-14b-14b-15b)
|---------//----17-16-14--------------[В скобках Т.к. я--
|---------//------------17-15-----------не-уверен-в------
|---------//-------------------/-----правильности-подбора]
|---------//-------------------/-------------------------

|----------------------------------------------------------
|-15~~-13---------15h17----------------------------12h13p13
|--------16-14---------17~~-14-16-17-16-14-12--------------
|-------------17-15--------14---------------15h14-12-------
|----------------------------------------------------------
|----------------------------------------------------------

|----------------------------------------------------------
|----------------12----------------5----------12-----------
|13-14------12h14--12-----------5h7-5----12h14--12---------
|---------------------14pb~pb--------7p------------14/17/14
|----------------------------------------------------------
|----------------------------------------------------------

|-------------дальше идет непереводимая игра...!-----------
|-----5----------------------------------------------------
|-5h7--5------------[improvise like Gary Moore]------------
|-------7r-------------------------------------------------
|----------------------------------------------------------
|----------------------------------------------------------

Вверх

Still Got The Blues

in 6/8 time which is 2 triplets per measure.
Intro and verse progression:

Dm7                  Dm7/G              Cmaj7              Fmaj7
|----------1-------|----------1-------|----------0-------|----------0-------
|-------1-----1----|-------1-----1----|-------0-----0----|-------1-----1----
|----2-----------2-|----2-----------2-|----0-----------0-|----2-----------2-
|-0----------------|------------------|------------------|-3----------------
|------------------|------------------|-3----------------|------------------
|------------------|-3----------------|------------------|------------------

Bm7b5               E7                  Am
|----------1-------|----------0-------|------------------|---------------|
|-------3-----3----|-------0-----0----|----------1-------|---------------|
|----2-----------2-|----1-----------1-|-------2-----2----|---------------|
|------------------|------------------|----2-----------2-|---------------|
|-2----------------|------------------|-0----------------|-0----------7--|
|------------------|-0----------------|------------------|-------5--8----|

Chorus:   ("So long, it was so long ago......")
|Am      |Em    |Am    |D9    |F9    |E7#9    |Am    |      |

Bridge:
|Bm7  |Bm/E |Am Am/B |Am/C |Bm7  |Bm7/E |Fmaj7 Em7|Dm7 |Am

Chords
Dm7   Dm7/G   Cmaj7   Fmaj7   Bm7b5   D9   F9   E7#9  Bm7  Em7
-1------1-------0-------0-------1----------------------2----0
-1------1-------0-------1-------3------5---8------8----3----0
-2------2-------0-------2-------2------5---8------7----2----0
-0------0-------2-------3--------------4---7------6----4----0
----------------3---------------2------5---8------7----2----2
--------3---------------------------------------------------0

Here is the lead riff you hear for the intro and repeated
with slight changes throughout. Listen to the record for the
timing. 17b18 means bend the 17th fret to the 18th fret. 18r17
means release the bend from the 18th to the 17th fret.

Dm7                      Dm7/G              Cmaj7
-----------|------------------------|------------------|--------------------
----15--17-|-17b18--------18r17--17-|-15--------13--15-|-15b17------15b17---
-14--------|------------------------|------------------|--------------------
-----------|------------------------|------------------|--------------------
-----------|------------------------|------------------|--------------------
-----------|------------------------|------------------|--------------------

Fmaj7                 Bm7b5                 E7                 Am
|--------------------|--------------------|------------------|--------------
|-13------10--12--13-|-13b15-------13b15--|-12--------10-----|--------------
|--------------------|--------------------|---------------12-|-12b14--------
|--------------------|--------------------|------------------|--------------
|--------------------|--------------------|------------------|--------------
|--------------------|--------------------|------------------|--------------

|------|
|------|
|-(12)-|
|------|
|------|
|------|

Verse 1
Used to be so easy to give my heart away.
But I found out the hard way,
there's
a price you have to pay.

V2
I found out that love, is no friend of mine.
But I should've known time
after
time.

Chorus:
So long it was so long ago, but I still got the blues for you.

V3
Used  to be so easy to fall in love again.
But I found out the hard way,
it's
a road that leads to pain.

V4
But I found that love was more than just a game,
You're playin' to win but
you
lose just the same.

repeat chorus.

Bridge:
So many years since I've seen your face,
but hear in my heart there's an
empty
space where you used to be.

Repeat chorus.

ALternate chorus:
Though the days come and go, there is one thing I know,
I still got the
blues
for you.

Вверх

The Prophet

(0:33)				            slowly release
E|---------------------------------------------------|
B|-----10brb------10--8--8b------10--8--10--10b--8br-|
G|---------------------------------------------------|
D|-12--------12--------------12----------------------|
A|---------------------------------------------------|
E|---------------------------------------------------|

E|-----------------------------------------------------------|
B|-----13--11--11b------11--10--10b------10brb--11b--10b--8b-|
G|-----------------------------------------------------------|
D|-12---------------12---------------12----------------------|
A|-----------------------------------------------------------|
E|-----------------------------------------------------------|

(1:15)					        slowly release
E|-----------------------------------------------------------|
B|-----15--13--15------15brb------16--15--15b--16b--15br--15-|
G|-----------------------------------------------------------|
D|-14--------------14---------14-----------------------------|
A|-----------------------------------------------------------|
E|-----------------------------------------------------------|

E|-------------------------------------------------|
B|-----13--11--13------10brb------10--8--8b--9b--8-|
G|-------------------------------------------------|
D|-12--------------12---------12-------------------|
A|-------------------------------------------------|
E|-------------------------------------------------|

(1:53)

pick scratch
E|------------------------------------------------------|
B|---------13br--13--11--11--13--15--16--15--13--11--13-|
G|------------------------------------------------------|
D|-12--12-----------------------------------------------|
A|------------------------------------------------------|
E|------------------------------------------------------|

E|-------------------------------------------|
B|---------11b--11--10--10--11--13--13b--13b-|
G|-------------------------------------------|
D|-12--12------------------------------------|
A|-------------------------------------------|
E|-------------------------------------------|

slowly release
E|---------------------------------------------|
B|---------16b--16--15--15--15h16h18--16br--16-|
G|-12--12--------------------------------------|
D|---------------------------------------------|
A|---------------------------------------------|
E|---------------------------------------------|

E|-------------------------|
B|-15--13--13b--13--11--13-|
G|-------------------------|
D|-------------------------|
A|-------------------------|
E|-------------------------|

(2:34)

E|---------21b--20--18--18--20--22--22b--20br--18--20-|
B|-15--15---------------------------------------------|
G|----------------------------------------------------|
D|----------------------------------------------------|
A|----------------------------------------------------|
E|----------------------------------------------------|

E|---------18b--18--17--17--18--20--20b--20b--20b-|
B|-15--15-----------------------------------------|
G|------------------------------------------------|
D|------------------------------------------------|
A|------------------------------------------------|
E|------------------------------------------------|

slowly release
E|---------23b--23--22--22--23--23br--23-|
B|-15--15--------------------------------|
G|---------------------------------------|
D|---------------------------------------|
A|---------------------------------------|
E|---------------------------------------|

E|---------22b--22--20--20--22--23--23--20b-|
B|-16--16-----------------------------------|
G|------------------------------------------|
D|------------------------------------------|
A|------------------------------------------|
E|------------------------------------------|

E|-------------20b--20--18--18--18--20--22--22b--20-|
B|-15--15--15---------------------------------------|
G|--------------------------------------------------|
D|--------------------------------------------------|
A|--------------------------------------------------|
E|--------------------------------------------------|

slowly slide down
E|-18--17--18--17p15--17--17-|
B|---------------------------|
G|---------------------------|
D|---------------------------|
A|---------------------------|
E|---------------------------|

(3:38)

E|-------------------------------------------------------------|
B|----11-10-10b----10-8--8b------10--8--10--10b--8b-8-6b-8-----|
G|---------------------------------------------------------6br-|
D|-12-----------12-----------12--------------------------------|
A|-------------------------------------------------------------|
E|-------------------------------------------------------------|

E|-------------------------------------------------|
B|-----13--11--11b------11--10--10b------9brb--8br-|
G|-------------------------------------------------|
D|-12---------------12---------------12------------|
A|-------------------------------------------------|
E|-------------------------------------------------|

(4:20)

E|-22-18-17-17b------18-17-17b----18-17--17b------18--17--17b-|
B|---------------17------------17-------------17--------------|
G|------------------------------------------------------------|
D|------------------------------------------------------------|
A|------------------------------------------------------------|
E|------------------------------------------------------------|

E|-15b--13b--11b--11--13b--13t14--11--8b-|
B|---------------------------------------|
G|---------------------------------------|
D|---------------------------------------|
A|---------------------------------------|
E|---------------------------------------|

(5:04)

E|-------------------------------------------------------------|
B|-8b-8brb-8brb------------------------------8b--12b--13brbrbr-|
G|--------------10brbrbr-8brbr-10brbrbr-8brb-------------------|
D|-------------------------------------------------------------|
A|-------------------------------------------------------------|
E|-------------------------------------------------------------|

<-------------------fade out--------------------->

E|-12b--12b--15b--20brb--20brbrb--17b--17b--17b-|
B|----------------------------------------------|
G|----------------------------------------------|
D|----------------------------------------------|
A|----------------------------------------------|
E|----------------------------------------------|

Вверх