Gorillaz

12d3
5/4
Clint Eastwood
Re-Hash
Starshine
Tomorrow Comes Today
Вверх

12d3
mp3

2--------3-----------------
3---0-0------0-2-0-3-0-----
4---0-0------0-2-0-3-0-----

I?m 2D
Won?t you buy me
Piano chord
Dictionary

One two D three
One two D three
One two D three
One two D three

Mmm (x8)

One two D three
One two D three
One two D three
One two D three

I?m 2D (One two D three)
Won?t you buy me (One two D three)
Piano chord (One two D three)
Dictionary (One two D three)

One two D three

I?m 2D (One two D three)
Won?t you buy me (One two D three)
Piano chord (One two D three)
Dictionary (One two D three)

One two D three

I?m 2D (One two D three)
Won?t you buy me (One two D three)
Piano chord (One two D three)
Dictionary (One two D three)

Вверх

5/4

intro:
G|----------------------------|
D|--5-5---8-8-8--4-4---7-7-7--|
A|--3-3---6-6-6--2-2---5-5-5--| 2 раза

G|--5-5---8-8-8--4-4---7-7-7--|
D|--5-5---8-8-8--4-4---7-7-7--|
A|--3-3---6-6-6--2-2---5-5-5--| 2 раза

Magic for me
Magic make no sound
It good for me
It good for me underground

Magic on me
Really got me down
Invade the city
It make my heart beat no sound

Chorus:

And let me tell myself
Tell on
She turned my dad on
She turned my dad on
Dad on
Dad on

Magic for me
Magic get me through
We pledge it money
People seem to walk through you

Magic?s funny
Magic get me through
All good for me
When people seem to always walk through you

Chorus

Вверх

Clint Eastwood

          Am          F
I ain?t happy, I?m feeling glad
Am       F
I got sunshine, in a bag
Am        F
I?m useless, but not for long
Am        B
The future is coming on
I ain?t happy, I?m feeling glad
I got sunshine, in a bag
I?m useless, but not for long
The future is coming on
It?s coming on
It?s coming on
It?s coming on

Yeah... Ha Ha!
Am               F
Finally someone let me out of my cage
Now, time for me is nothing cos I?m counting no age
Now I couldn?t be there
Now you shouldn?t be scared
I?m good at repairs
And I?m under each snare
Intangible
Bet you didn?t think so I command you to
Panoramic view
Look I?ll make it all manageable
Pick and choose
Sit and lose
All you different crews
Chicks and dudes
Who you think is really kickin? tunes?
Picture you gettin? down in a picture tube
Like you lit the fuse
You think it?s fictional
Mystical? Maybe
Spiritual
Hearable
What appears in you is a clearer view cos you?re too crazy
Lifeless
To know the definition for what life is
Priceless
For you because I put you on the hype shit
You like it?
Gunsmokin? righteous with one token
Psychic among those
Possess you with one go

Chorus:

I ain?t happy, I?m feeling glad
I got sunshine, in a bag
I?m useless,but not for long
The future is coming on
I ain?t happy, I?m feeling glad
I got sunshine, in a bag
I?m useless, but not for long
The future is coming on
It?s coming on
It?s coming on
It?s coming on

The essence the basics
Without it you make it
Allow me to make this
Child, like in nature
Rhythm
You have it or you don?t that?s a fallacy
I?m in them
Every sprouting tree
Every child apiece
Every cloud you see
You see with your eyes
I see destruction and demise
Corruption in disguise
From this fuckin? enterprise
Now I?m sucking to your lies
Through Russ, though not his muscles
but the percussion he provides
With me as a guide
But y?all can see me now cos you don?t see with your eye
You perceive with your mind
That?s the inner
So I?m gonna stick around with Russ and be a mentor
With a few rhymes so mother fuckers
Remember where the thought is
I brought all this
So you can survive when law is lawless
Feelings, sensations that you thought were dead
No squealing, remember
(that it?s all in your head)

Chorus:

I ain?t happy, I?m feeling glad
I got sunshine, in a bag
I?m useless, but not for long
The future is coming on
I ain?t happy, I?m feeling glad
I got sunshine, in a bag
I?m useless, but not for long
My future is coming on
It?s coming on
It?s coming on
It?s coming on
It?s coming on
My future is coming on
It?s coming on
It?s coming on
It?s coming on
It?s coming on
My future is coming on
It?s coming on
It?s coming on
It?s coming on
It?s coming on
My future is coming on
It?s coming on
It?s coming on
My future is coming on
It?s coming on
It?s coming on
My future is coming on
It?s coming on
It?s coming on
My future

Вверх

Re-Hash

intro
играется с дребезжанием
1--x-x-x-x-x-x-x-x-x-x-x-x-x-x-x--x-x-x--
2--x-x-x-x-x-x-x-x-x-x-x-x-x-x-x--x-x-x--
3--x-x-x-x-x-x-x-x-x-x-x-x-x-x-x--x-x-x--
4--5-5-5-5-5-3-3-3-3-3-3-5-5-5-3--3-4-5--
5--5-5-5-5-5-3-3-3-3-3-3-5-5-5-3--3-4-5--
6--3-3-3-3-3-1-1-1-1-1-1-3-3-3-1--1-2-3--  x4

4--5-5-5-5-5-3-3-3-3-3-3-5-5-5-3-----3-4-5-
5--5-5-5-5-5-3-3-3-3-3-3-5-5-5-3-----3-4-5-riff 1
6--3-3-3-3-3-1-1-1-1-1-1-3-3-3-1-----1-2-3-

It?s a sweet sensation over the dub

4--5-5-5-5-5-8-8-8-8-8--10-10-10-----8---8-
5--5-5-5-5-5-8-8-8-8-8--10-10-10-----8---8-riff 2
6--3-3-3-3-3-6-6-6-6-6--8--8--8------6---6-

I want a situation but  don?t want to stop
riff 1
It?s the drugs for sober over the dub
riff 2
With the sweetest inspiration don?t want to stop

chorus:
riff 1
It?s the money as dub (x8)
It?s the eye of the storm

куплет как первый

chorus

Bah bah bah bah bah bah

3|------3--6--3--8--3-3--6--3--8--8--6---x  раз 10
chorus

Вверх

Starshine
mp3

E|-------------------------------------------------|
B|-------------------------------------------------|
G|-----------2---------1---------------------------|
D|---0-0-0-0-----0-1-0---4-2-----------3-------3-2-|
A|-----------------------------0-0-0-1---0h1-1-----|
E|-------------------------------------------------|
второй раз немного подругому

E|------------------------------------|
B|------------------------------------|
G|---------1--------------------------|
D|-0-0-0-0---4-2----------3-------3-2-|
A|----------------0-0-0-1---0h1-1-----|
E|------------------------------------|

Вверх

Tomorrow Comes Today
mp3

intro:
1-------------------------------
2--7--10--7--10--7--10--12--12--
3-------------------------------
Am                Em
Everybody here with me
Am              Em
Got no camera to see
Am                             Em
Don?t think i?m not all in this world
C                     Em
The camera won?t let me go
C                               Em
And the verdict doesn?t love our soul
C                       Am
The digital won?t let me go

Chorus:
Am
Yeah Yeah Yeah
Dm
I?ll pay (yeeah)
G6
When tomorrow
F
Tomorrow comes today

Solo:
1----------------------------------
2--7--10--7--10--7--10--12--7------x2
3----------------------------------

1-------------------------------------------------------
2--3--5--3--5--3--5--7--3-------3--5--3--5--3--5--3--0--
3-------------------------------------------------------

Stereo i want it all
It?s taken me far too long
Don?t think i?m not all in this world
I don?t think i?ll be here too long
I don?t think i?ll be here too long
I don?t think i?ll be here too long

Chorus

Вверх