Green Day

Blood, Sex And Booze
Fashion Victim
Good Riddance
Macys Day Parade
Macys Day Parade (2 вариант)
Time Of Your Life (Good Riddance)
Waiting
Warning
Welcome To Paradise
When I Come Around
Worry Rock
Вверх

Blood, Sex And Booze

Intro: E

Verse:
E
Waiting in a room
All dressed up and bound and gagged
C
Up to a chair it?s so unfair
E
I won?t dare move for the pain she puts me through
C                                Em
Is what i need, so make it bleed

Chorus:
C#m
I?m in distress, oh mistress I confess
E
So do it one more time, these handcuffs are too tight, well
C#m
You know I will obey, so please don?t make me beg
A                   B
For blood, sex and booze you give me

Post-chorus:
E                                 D
Some say i?m disturbed, but it?s what i deserve
C#m
Another lesson to be learned ...
A    B
From a girl called kill

Verse:
My head is in the gutter
Thank you sir, strike up another mandolin
Of discipline
Throw me to the dogs
Let them eat my flesh down
To the wood
It feels so good

Chorus:

Post-Chorus:

Bridge:
Oh...
E  E  E  E  C G C G C G C G

Chorus:

Bridge:

Outro:  E   D   C#m  C  B

Вверх

Fashion Victim

Intro: A#

Verse:
A#            D      G
He?s a victim of his own time
D#       D        F
In his "vintage suit" and tie
He?s a casualty dressed to the teeth
In the latest genocide

The new seasons come and go
At the dog and pony show
Gonna sit and beg and fetch the names
And follow the dress code
WHAT?S IN A NAME?...HEY!

She?s a scented magazine
Looking sharp and living clean
Living well and dressed to kill
But she looks like hell to me

When you?re dancing through your wardrobe
Do the anorex - a go-go
Cloaked with style
For paedophiles as the credit card explodes

Chorus: X2

C                 G#
When you auctioned off you life
F
For the "most" expensive price
A#
Going once
A#
Going twice
G           F
Now it?s gone

Verse:
What?s in a name, hey?
What?s in a name, hey?
What?s in a name?

Вверх

Good Riddance

    Gsus2 Em       Cadd9   D      C
E|--3-----0--------0-------2------0--|
B|--3-----0--------3-------3------3--|
G|--0-----0--------0-------2------0--|
D|--0-----2--------2-------0------2--|
A|--2-----2--------3-------x------3--|
E|--3-----0--------x-------x------x--|

Gsus2
e|----------------------------------|
A|--------0--------------------0----|
D|-----0-----0-------------0------0-|
G|----------------------------------|
B|----------------------------------|
E|--3------------------3------------|
BJ makes a mistake while playing this, and is not very
pleased.
Then the song really starts.
Gsus2                         Cadd9             D
e|-------------------------------------------------------------|
A|-------3------------3----------------3---------------3-------|
D|----0-----0------0-----0----------0-----0---------2-----2----|
G|-----------------------------------------------0-----------0-|
B|-----------------------------3---------------3---------------|
E|-3-----------3-3----------3----------------------------------|
play 4 times(2,3,4th time the same, but substitute the
first 3 on the E-string for a 0 on the D string)
first and second time without singing
3:another          turning point a fork stuck in the
road
4:Time grabs you   by the wrist   directs you where to
go

Em             D            C                  D
e|-------------------------------------------------------------|
A|-------0-------------3-------------1-----------------3-------|
D|----0-----0-------2-----2-------2-----2-----------2-----2----|
G|-2-----------2-0----------0--------------------0-----------0-|
B|----------------------------3----------------3---------------|
E|-------------------------------------------------------------|
play 2 times
1:So make the   best of this test and dont ask   why
2:It?s not a    question but a lesson learned in time

Em                   Gsus2         Em             Gsus2
e|-------------------------------------------------------------|
A|-------0------------------3---------------0------------3-----|
D|----0-----0------------0-----0---------0-----0-------0---0---|
G|-2----------------2----------------2-------------2-----------|
B|-------------------------------------------------------------|
E|---------------------3-----------3-----------------3-------3-|

It?s something unpredictable, but in the end its right,

Em                D
e|-----------------------------------|
A|---------0-----------------3-------|
D|------0-----0-----------2-----2----|
G|----2--------------2-0-----------0-|
B|-----------------------------------|
E|-----------------------------------|
I hope you had the Time of your

Now play in same rythem, but now play the chords totaly.

Gsus2  Gsus2 Cadd9 D
Live
Gsus2  Gsus2 Cadd9 D

Gsus2       Gsus2          Cadd9                D
So take the fotographs and still frames in your mind
Gsus2        Gsus2         Cadd9           D
Hang it on a shelf of good health amd good time
Em         D            C            D
Tattoos of memories and dead skin on trial
Em           D            C             D
For wat it?s worth it was worth all the while
Em                  Gsus2         Em              Gsus2
It?s something unpredictable, but in the end it?s right
Em               D            Gsus2
I hope you had the time of your live

Now a bridge starts, with the violin
Gsus2 Gsus2 Cadd9 D (4 times)
Em C D Gsus2(2 times)
Em                  Gsus2         Em              Gsus2
It?s something unpredictable, but in the end it?s right
Em               D            Gsus2
I hope you had the time of your live
Gsus2 Gsus2 Cadd9 D (2 times)
Now The end:
Em               Gsus2         Em             Gsus2
e|-----------------------------------------------------------|
A|------0---------------3---------------0-------------3------|
D|---0-----0---------0-----0---------0-----0-------0-----0---|
G|-2------------2----------------2-------------2-------------|
B|-----------------------------------------------------------|
E|-----------------3-----------3-----------------3---------3-|

It?s something unpredictable, but in the end its right,

Em                D
e|-----------------------------------|
A|---------0-----------------3-------|
D|------0-----0-----------2-----2----|
G|----2--------------2-0-----------0-|
B|-----------------------------------|
E|-----------------------------------|
I hope you had the Time of your

Gsus2        Gsus2         Cadd9        D
e|-------------------------------------------------------|
B|-------3------------3-------------3------------3-------|
G|----0-----0------0-----0-------0----0-------2-----2----|
D|-----------------------------------------0-----------0-|
A|----------------------------3----------3---------------|
E|-3----------3-3-----------3----------------------------|
Live

Gsus2       Gsus2         Cadd9        D      Gsus2
e|-----------------------------------------------------------3-|
B|------3------------3-------------3------------3-----------3--|
G|---0-----0------0-----0-------0----0-------2-----2-------0---|
D|----------------------------------------0-----------0----0---|
A|---------------------------3----------3-----------------2----|
E|-3---------3-3-----------3------------------------------3----|

Thats it
Last Gsus2 is a slowely downward stroke on the strings

Вверх

Macys Day Parade

В процессе всей игры  немного глушите.
Сам темп песни - спокойный.
Точность попадания - гарантирую (100%). (Советую играть в 2 гитары, классно выйдет)
Riff a (В начале небольшой проигрыш 5 раз)
C
Days of  Macy?s Day Parade
Am
The night of the living dead is on its way
Dm                G                C
With the credit report for two day call

При желании аккорд G можно брать на тон выше.
Может кому понравится как я закрутил ( по-моему будет лучше звучать)
Хотя кто как играет.

Опять небольшой проигрыш (4 раза)
C
It?s a lifetime guarantee
Am
Stuffed in a coffin, ten percent more free
Dm          G                  C
Red light special at the mausoleum
Dm
Give me something that I need
G                          Dm
Satasfaction guaranteed to you
Dm
What?s the consolation prize
G                        C
Economy sized dreams of hope

Riff b (Играется также как и Riff a)
С
When I was a kid I thought
Am
I wanted all the things that I haven?t got
Dm           G                  C
Oh,  but I learned the hardest way
C                        Am
Then I realized what it took
Am                                       Dm
Tell the difference between thieves and crooks
Dm      G             C
Lesson learned me and you
Dm
Give me something that I need
G
Satisfaction guaranteed
C             G        Am
Сause I?m thinking of a brand new hope
G               Dm
The one I?ve never known
G                   C
Cause now I know it?s all that I wanted

После этого идет проигрыш: C  Am  Dm  G  C (Play Two Times)

Dm
What?s the consolation prize
G                        Dm
Economy sized dreams of hope
Dm
Give me somethig that I need
G
Satisfaction guaranteed
C             G        Am
Cause I?m thinking of a brand new hope
G               Dm
The one I?ve never known
G
And where it goes
C             G     Am
And I?m thinking of the only road
G                Dm
The one I?ve never known
G
And where it goes
C             G        Am
And I?m thinking of a brand new hope
G                Dm
The one I?ve never known
G                   C
Cause now I know it?s all that I wanted

В конце проигрыш 7 раз (аккорд С)

Вверх

Macys Day Parade (2 вариант)

 H
Today?s the Macy?s Day Parade
G#m
The night of the living dead is on it?s way
E               F#            H
With a credit report for duty call

It?s a lifetime guarantee
Stuffed in a coffin "10% more free"
Red light special at the mausoleum
E
Give me something that I need
F#                          E
Satasfaction guaranteed to you

What?s the consolation price
F#                       H
Economy sized dreams of hope

When I was a kid I thought
I wanted all the things that I haven?t got
Oh, I learned the hardest way

Then I realized what it took
To tell the difference between thieves and crooks
When all along it was me and you

Give me something that I need
Satisfaction guaranteed
H                F#       G#m
Because I?m thinking about a brand new hope
F#               E
The one I?ve never known
F#                   H
?Cause now I know it?s all that I wanted

Проигрыш: H G#m E F# |2 times

What?s the consolation prize
Economy sized dreams of hope
Give me somethig that I need
Satisfaction guaranteed
H                F#       G#m
Because I?m thinking about a brand new hope
F#               E
The one I?ve never known
F#
And where it goes

And I?m thinking about the only road
The one I?ve never known
And where it goes
H                F#       G#m
Because I?m thinking about a brand new hope
F#               E
The one I?ve never known
F#                   H
?Cause now I know it?s all that I wanted

Вверх

Time Of Your Life (Good Riddance)

FIRST INTRO PART (X2)
E--------------E
B--------------B
G--------0-----G
D-----------0--D
A--------------A
E--3--3--------E

INTRO PART 2 (PLAY ONCE, OR ANOTHER TIME AS 1ST VERSE)
*FINGERING HERE IS REAL EASY, JUST MOVE INDEX(1) NOT RING(3)
E-------------------------------------------E
B------3-------------3-------------3--------B
G--------0---0---------0---0---0-0---0---0--G
D--0-0-----0-----0-0-----0-----X-X-----0----D
A--X-X-----------X-X-----------3-3----------A
E--3-3-----------3-3------------------------E

E---------------E
B------3--------B
G--2-2-2-2---0--G
D--0-------0----D
A---------------A
E---------------E

RIFF A
E----------------------------------E
B--333333--333333--333333--333333--B
G--000000--000000--000000--222222--G
D--000000--000000--XXXXXX--000000--D
A--XXXXXX--XXXXXX--333333----------A
E--333333--333333------------------E     (PLAY TWICE)

RIFF B                       G5
E--000000--------------------------E
B--000000--333333--333333--333333--B
G--000000--222222--000000--000000--G
D--222222--000000--XXXXXX--000000--D
A--222222----------333333--XXXXXX--A
E--000000------------------333333--E     (PLAY TWICE)

CHORUS       G5              G5                      G5
E--000000----------000000----------000000--333333----------E
B--000000--333333--000000--333333--000000--222222--333333--B
G--000000--000000--000000--000000--000000--333333--000000--G
D--222222--000000--222222--000000--222222--000000--000000--D
A--222222--XXXXXX--222222--XXXXXX--222222----------XXXXXX--A
E--000000--333333--000000--333333--000000----------333333--E

OK, NOW, HERE?S THE ORDER
*IMPORTANT-listen to song to get all strumming patterns

INTRO 1
INTRO 2
RIFF A
RIFF B
CHORUS
RIFF A
RIFF A
RIFF B
CHORUS
RIFF A
RIFF B
INTRO 2
INTRO 2
chord G5, let ring

Вверх

Waiting

Verse1:
A     D    B         D
I?ve been waiting a long time
A    D   B         D
For this moment to come
A    D
I?m destined
B              D
For anything at all

Downtown lights will be shining
On me like a new diamond
Ring out under the midnight hour
And I can?t turn my back
It?s too late ready or not at all

Chorus:
F#  F               Em
I?m so much closer than
B
I have ever known...
Wake up

Bridge:
G|-777-----777-----77---|
D|-777-777-777-777-77-7-|
A|-555-777-555-777-55-7-|
E|-----555-----555----5-|

Verse2:
Dawning of a new era
Calling don?t let it catch you falling
Ready or not at all
So close enough to taste it
Almost I can embrace this
Feeling on the tip of my tongue

Chorus:
Bridge:
Thank your lucky stars

Solo:
e|---------------------------------------------------------------|
B|---------------------------------------------------------------|
G|-9--6---4-6-7-6-4----9--6----4-6-7-6-4----6--2----4-6-7-6-4-4~-|
D|---------------------------------------------------------------|

Chorus:
Bridge:
Thank your lucky stars

Verse1:
A     D    B         D
I?ve been waiting a long time
A    D   B         D
For this moment to come
A    D
I?m destined
B              D
For anything at all

Dumbstruck
Colour me stupid
Good luck
You?re gonna need it
Where I?m going if I get there...
At all... wake up

Вверх

Warning

  A  D  G
Куплет:
A                   D                 G
This is a public service anouncement, this is only a test.
A           D         G
Emergency evacutation protest.
A               D          G
May impair your ability to operate machinery,
A           D              G
Can?t quite tell just what it means to me.
A           D              G
Blah, blah, blah... can?t make it out.
A          D               G
Get your philosophy from a bumber sticker.

Припев
A          D            G
Warning... live without warning
Warning... live without warning


Better homes and safety-sealed communities?
Did you remember to pay the utility?
Caution.. Police line.. You better not cross
Is it the cops or am I the one that?s
really dangerous?
Sanitation, Expiration date, Questions everything?
Or shut up and be the victim of authority

Припев

Better homes and safety-sealed communities?
Did you remember to pay the utility?
Caution.. Police line.. You better not cross
Is it the cops or am I the one that?s
really dangerous?
Sanitation, Expiration date, Questions everything?
Or shut up and be the victim of authority

Припев

This was a public service announcement
this was only a test

Вверх

Welcome To Paradise

Intro
----------------------------------------------
----------------------------------------------
-8-6------------------------------------------
-8-6-6----------------------------------------
-6-4-6----------------------------------------
-----4----------------------------------------

**********************************************
A gunshot rings...
----------------------------------------------
----------------------------------------------
-8-6-8----------------------------------------
-8-6-8----------------------------------------
-6-4-6----------------------------------------
----------------------------------------------

Another urchin snaps...
----------------------------------------------
----------------------------------------------
-8-6------------------------------------------
-8-6-4-8--------------------------------------
-6-4-4-8--------------------------------------
-----2-6--------------------------------------
These two segments blocked of are repeated
**********************************************
**********************************************
Chorus

Pay attention to
----------------------------------------------
----------------------------------------------
-8-6---4--------------------------------------
-8-6-6-4--------------------------------------
-6-4-6-2--------------------------------------
-----4----------------------------------------

Some call it..
----------------------------------------------
----------------------------------------------
-8-6------------------------------------------
-8-6-8----------------------------------------
-6-4-8----------------------------------------
-----6----------------------------------------
These two segments blocked of are repeated
**********************************************

Solo

----------------------------------------------
-x-x-8-x-x-11-x-x-10-x-x-9-x-x----------------
-x-x-8-x-x-11-x-x-10-x-x-9-x-x----------------
-x-x-8-x-x-11-x-x-10-x-x-9-x-x----------------
----------------------------------------------
----------------------------------------------
This is also repeated.

These are just the chords i didn't want to take an hour to put in the
rythem.  If you can't figure it out kill yourself.  I did put the rythem
for the solo in.  Please put some new songs in here.  I don't want to see
any more.
TAB: Solo Enter Sandman
Please give me your comments on this masterpiece.  Ha ha.
Love,
Tub Ring 2

Вверх

When I Come Around

Verse
G5   D5   E5   C5  (x8)
e|---------------------------------------------------------------|
B|---------------------------------------------------------------|
G|------7----9----5----------------------------------------------|
D|-5----7----9----5----------------------------------------------|
A|-5----5----7----3----------------------------------------------|
E|-3-------------------------------------------------------------|

Chorus
A5   C5   (x2)
e|---------------------------------------------------------------|
B|---------------------------------------------------------------|
G|------5--------------------------------------------------------|
D|-7----5--------------------------------------------------------|
A|-7----3--------------------------------------------------------|
E|-5-------------------------------------------------------------|

Bridge
(played over verse chords)
e|-----------3-------5-------3-----5--0-0-0--0-0-5--0-0-0--------|
B|-------------3---3---3---3---3------0------0-------------5b--2b|
G|-(verse x2)----0-------0-------0-------------------------------|
D|---------------------------------------------------------------|
A|---------------------------------------------------------------|
E|---------------------------------------------------------------|


Order

Intro (verse chords palm muted x2, 1 guitar)
Verse 1
Chorus
Verse 2
Chorus
Bridge
Chorus
End on verse chords x4 ("When I come around)


Lyrics

I heard you cry it loud
All the way across town
You?ve been searchin
For that someone
And it?s me out of the crowd
As you sit around
Feeling sorry for yourself
(Verse 1)
So don?t get lonely now
And dry your whinin eyes
I?m just roamin for the moment
Sleazin my backyard so don?t get
So uptight you?ve been thinkin
About ditchin me

No time to search the world around
Cuz you know where I?ll be found        (Chorus)
When I come around

I heard it all before
So don?t knock down my door
I?m a loser, and a user
So I don?t need no accuser
To try and slag me down
Because I know you?re right
(Verse 2)
So go do what you like
Make sure you do it wise
You may find out that your self-doubt
Means nothing was ever there
You can?t go forcing something
If it?s just not right

(Chorus)
(Bridge)
(Chorus)

Вверх

Worry Rock

Verse 1 w/ VERSE
E5             H5           A5           E5
Another sentimental argument, and bitter love.
A5               E5         A5                    H5
Fucked without a kiss again and dragged it through the mud.
Yelling at brick walls and punching windows made of stone.
The worry rock has turned to dust, and fallen on our pride.

Chorus w/ CHORUS
C#5             G#5
A knocked down dragged out fight.
A5                E5
Fat lips and open wounds.
C#5          G#5
Another wasted night,
F#5                      H5
And no one will take the fall.

Where do we go from where?
and what did you do with the directions?
Promise me no dead end streets and I?ll guarantee we?ll have the road.

Solo w/ SOLO
e:-----------------:-----------------:-----------------:-----------------:
b:-----------------:-----------------:-----------------:-----------------:
g:-----------------:-----------------:-----------------:-----------------:
d:-----------------:-----------------:-----------------:-----------------:
a:-------------2---:----/6---4---2---:-0---4---2---0---:-2---------------:
e:-0-----4-5-------:-4---------------:-----------------:---5-4-----------:

e:-----------------:-----------------:-----------------:-----------------:
b:-----------------:-----------------:-----------------:-----------------:
g:-----------------:-----------------:-----------------:-----------------:
d:-----------------:-----------------:-----------------:-----------------:
a:-----4---2-------:-2---------------:-----------------:-----------------:
e:-5-----------5---:-----4---0-------:-5---5---5---4---:-4---2-----------:

e:-----------------:-----------------:-----------------:-----------------:
b:-5-5-5-5-5-4-4-4-:-5/7---5-5-0-2-2-:-2-0-2-2-2-0-2-2-:-4-2---0-0-0-2-2-:
g:-----------------:-----------------:-----------------:-----------------:
d:-----------------:-----------------:-----------------:-----------------:
a:-----------------:-----------------:-----------------:-----------------:
e:-----------------:-----------------:-----------------:-----------------:

e:-----------------:-----------------:--------------/7-:-7-5-5-4-4-2----:
b:-2-0-2-2-2-0-2-2-:-4-2---0-0---2-2-:-4-4-5-5-5-5-5/7-:-7-5-5-4-4-2----:
g:-----------------:-----------------:-----------------:-----------------:
d:-----------------:-----------------:-----------------:-----------------:
a:-----------------:-----------------:-----------------:-----------------:
e:-----------------:-----------------:-----------------:-----------------:

Вверх