Guano Apes

Dodel Up
Dont You Turn Your Back On Me
Dytybom
Innocent Greed
Living In A Lie
Lords Of The Boards
Open Your Eyes
Pretty In Scarlet
Rain
Rain (2 вариант)
Вверх

Dodel Up

intro
e|------------------------|
b|------------------------|
g|----------12--11-9--11--|
d|--12--11--12--11-9--11--|
a|--12--11--10--9--7--9---|
e|--10--9-----------------|

e|---------------------|
b|---------------------|
g|--11--11---11--(12)--|
d|--11--11---11--(12)--|
a|--9---9----9---(10)--|
e|---------------------|

это играется со специальной примочкой (прозрачные спецэффекты)

Припев:
e|----------------|
b|----------------|
g|----------------| это играется два раза
d|--4-4---4-4--5--|
a|--4-4---4-4--5--|
e|--2-2---2-2--3--|

e|---------------------------|
b|---------------------------|
g|----------------4-3--------|
d|--4-4---4-4--5--4-3-5-4-2--|
a|--4-4---4-4--5--2-1-5-4-2--|
e|--2-2---2-2--3------3-2-0--|

Do you really feel the same
With your sigaretes lying beetween your lips
Why do you always need some stars
They drestic or I do find themselfes

Why do we never ever hah?
My life is steping far ahead

Love Might be so cool
Ye,that might be cool
I might be awfull in your eyes
Love Might be so cool
Ye,that might be cool
I might be awfull in your arms

Dodel up,dodel up,dodel up-hue
I?m lachter but I?m bore

I really need all this:
See your shining eyes down in a crowd
And I really made for miss
I think it feels good to be around

Why do we never ever hah?
My life is steping far ahead

Love Might be so cool
Ye,that might be cool
I might be awfull in your eyes
Love Might be so cool
Ye,that might be cool
I might be awfull in your arms

Dodel up,dodel up,dodel up-hue
I?m lachter but I?m bore

Am I made for yoga?
Never end it,never end it

Dodel up,dodel up,dodel up-hue
Never end it,never end it

Вверх

Dont You Turn Your Back On Me

1 ------------5-------------------

2 ----6---------------6-------5---

3 ------7-------7-------7-------7-

4 --7-------7-------8-------8-----

5 5-------5-------5-------5-------

6 --------------------------------



Dm(5)

Boy you killing me with your funny smile
my heart is beating louder sell i am diving in your ayes
my all live is upside and down waiting chains down my skin
more i run away from you the closer you run iiiiiin
Take me to the actual felling hard agains my skin
Show me places i have knowed for same to me it seemed
Look intends inside my head your toch will set me free
I hold until the sun comes out if you be there for me
I wounder if you love me
dontt you turn back on me
Take your look and who you whant to be
do not be skierd ill  brush seeea
the only thing thats killing you is me
oooooooohhhhhhhh
chch p ta
Now you leaving me with your angry ayes
My love getts lost with you i wanna saving you last night
the love intends inside my head the trust is set us free
more you run away from me the closer you from meeee
I wounder if you love me
dontt you turn back on me
Take your look and who you whant to be
do not be skierd ill  brush seeea
Only one thing thats killing you is me

Вверх

Dytybom

Dm(5)
Boy you?re killin? me
with your funny smile
my heart is beatin? loud as hell
I?m divin? in your eyes

My whole life is upside and down
when you?re chasin? down my skin
the more I run away from you
the closer you draw near

Take me to the age of feelin?
heart against my skin
show me places I have longed for
in santity and sin

Locked intense inside my head
your touch will set me free
I hold until the sun comes up
if you?ll be there for me

I wonder if let me (4x)

Don?t you turn your back on me
take a look at where you wanna be
don?t be scared of what you see
Oh, the only thing that?s killin? you is me

Now your livin? me
with your angry eys
my love gets lost with you
I was savin? you last night

Locked intense inside my head
your trust will set us free
the you run away from me
the closer I draw near

I wonder... (4x)

Don?t you...

Вверх

Innocent Greed

--- INTRO ---

It?s just strumming power chords, you have to strum each chord for about two seconds and
a half.

D#7 D#7  B7 C#7

-x- -x- -x- -x-
-x- -x- -x- -x-
-8- -8- -x- -6-
-8- -8- -9- -6-
-6- -6- -9- -4-
-6- -6- -7- -4-


Right after she sings the "wohhh" intro, you play once the D#7 chord and let it fade
while the bass and drums are playing alone.
Then there?s distorsion on the bass, and it makes the rythm, while the guitar plays
little notes in the back (the guitar is clean for these notes) :
Listen carefully to the bass rhythm, because you are going to use the same rhythm right
after.

--- VERSE ---

Your ground      is deep

G -------------------------------------------------------------
D -------------------------------------------------------------
A ---6-----------4---6-----------4---6-----------4---6---6---4-
E -------------------------------------------------------------

E -------------------------------------------------------------
B -------------------------------------------------------------
G -------------------------------20----------------------------
D ----------------20----------------------------20-------------
A --18---------------------------------------------------------
E -------------------------------------------------------------


my  greed       is deeper

G -------------------------------------------------------------
D -------------------------------------------------------------
A ---6-----------4---6-----------4---6-----------4---6---6---4-
E -------------------------------------------------------------

E -------------------------------------------------------------
B -------------------------------------------------------------
G -------------------------------18----------------------------
D ----------------18----------------------------18-------------
A --16---------------------------------------------------------
E -------------------------------------------------------------

Hope you got the picture, it goes like this for the first verse :


"Your ground is deep
my greed is deeper
I can see everything
nothing’s between us
you will see through my eyes
I will see through your veins
don’t you wanna listen
what the cause is"

Then, the distorsion is applied again to the guitar, which follows the same pattern as
the bass :

You hate!! (I will see it through your eyes)

E -------------------------------------------------------------
B -------------------------------------------------------------
G -------------------------------------------------------------
D -------------------------------------------------------------
A ---6-----------4---6-----------4---6-----------4---6---6---4-
E -------------------------------------------------------------

and it goes like this for the pre-chorus :

"You hate!!
(I will see it through your eyes)
Too late!! (I will see it through your veins)
Awake!!
Take me to the end of it"


Then it?s powerchord time :

--- CHORUS ---

Rage        I feel ashamed now         ?cos I can see deep in me nothing

D#7   F7    D#7   F7                     B7   A#7           C#7        C#7

--x- --x-   --x- --x-                    --x- --x-          --x-       --x-
--x- --x-   --x- --x-                    --x- --x-          --x-       --x-
--8- -10-   --8- -10-                    -16- -15-          -18-       -18-
--8- -10-   --8- -10-                    -16- -15-          -18-       -18-
--6- --8-   --6- --8-                    -14- -13-          -16-       -16-
--6- --8-   --6- --8-                    -14- -13-          -16-       -16-


You can also do it like this :

Rage        I feel ashamed now         ?cos I can see deep in me nothing

D#7   F7    D#7   F7                     B7   A#7           C#7        C#7

--x- --x-   --x- --x-                    --7- --6-          --9-       --9-
--x- --x-   --x- --x-                    --7- --6-          --9-       --9-
--8- -10-   --8- -10-                    --8- --7-          -10-       -10-
--8- -10-   --8- -10-                    --9- --8-          -11-       -11-
--6- --8-   --6- --8-                    --9- --8-          -11-       -11-
--6- --8-   --6- --8-                    --7- --6-          --9-       --9-

But you have to emphasize on strumming the highest strings for the four last chords as
they sound higher pitched than the first ones.

So you play the whole chorus :

"Rage I feel ashamed now
?cos I can see deep in me nothing
Rage I feel ashamed now
?cos I can see deep in you nothing"


And you do the whole thing again for the chorus, the pre-chorus and the verse :

"you’ve hurt me twice
you’ve shared it
ignored my pain
I’m scared of it
You will walk into my life
and I’ll promise you the same
don’t you wanna listen
what your love is

You hate!!
(You will walk into my life)
Too late!!
(But I’ll promise you the same)
Awake!!
Take me to the end of it

Rage I feel ashamed now
?cos I can see deep in me nothing
Rage I feel ashamed now
?cos I can see deep in you nothing"

You reached now the bridge which is much quieter than the rest, you have to play only
two chords and a few notes: (I guess the chords and the notes have been recorded
separately but you can easily play them all with one guitar)

--- BRIDGE ---

I do...

D#7

--x--------------------------------------------------------------------------------------
--x--------------------------------------------------------------------------------------
--8--------------------------------------------------------------------------------------
--8--------------------------------------------------------------------------------------
--6----11---9---------9---8---------8---9--------6----11---9---------9---8---------8---9-
--6--------------------------------------------------------------------------------------


...believe

F#7

--x--------------------------------------------------------------------------------------
--x--------------------------------------------------------------------------------------
-11--------------------------------------------------------------------------------------
-11--------------------------------------------------------------------------------------
--9----11---9---------9---8---------8---9--------6----11---9---------9---8---------8---9-
--9--------------------------------------------------------------------------------------

It repeats like this a couple of times :

"I do believe
my greed is deeper than your love"

Then you play the chorus again !

"Rage I feel ashamed now
?cos I can see deep in me nothing
Rage I feel ashamed now
?cos I can see deep in you nothing
Don?t you wanna save me
Don?t you wanna hate me
ooh now... nothing!
Don?t you wanna hate me
Don?t you wanna save me
aayyeee...your greed..."

And you end on the last sentence by playing the following chord :

--6-
--7-
--8-
--8-
--6-
--6-

Вверх

Living In A Lie

Intro:


e|----------------------------------------
b|----------------------------------------
g|------0------------0--------------------
d|----------------------------------------
a|----2----3p2-2(h)3---3------------------
e|--0-------------------------------------


e|----------------------------------------
b|----------------------------------------
g|------0------------0--------------------
d|----------------------------------------
a|----2----3p2-2(h)3---3------------------
e|--0-------------------------------------


e|---------------------------------------
b|---------------------------------------
g|------0--------------------------------
d|---------------------------------------
a|--3-2----3-----------------------------
e|---------------------------------------


e|----------------0----------------------
b|----------------3----------------------
g|--0-------0-----0----------------------
d|---------------------------------------
a|----3-3-2---3--------------------------
e|---------------------------------------

Про "h" я не уверен, но попробуйте играть так.
Эта же тема, как и intro, идет до припева.


В припеве что-то вроде этого:


e|---------------------------------------
b|---3-3-3-3-----------------------------
g|---0-0-0-0-----------------------------
d|---0-0-0-0-----------------------------
a|---3-3-3-3-----------------------------
e|---------------------------------------

После второго припева и проигрыша идет примерно так:


e|---------------------------------------
b|---------------------------------------
g|--5--4----4--5---4--5-----4--5---------
d|--5--4----4--5---4--5-----4--5---------
a|--3--2--0-2--3---2--3--0--2--3---------
e|---------------------------------------


e|-----------------------0----------------
b|-----------------------2----------------
g|--5--4----4--5---4--5--2----------------
d|--5--4----4--5---4--5--2----------------
a|--3--2--0-2--3---2--3--0----------------
e|----------------------------------------

Don’t give me names
You’ve got it all,you took it all away
Drive me insane
Who’d come down to earth, releasing me
Healing my wounds
Why don’t you close the door when you’re leaving me
now you run
running all the way back to me again

It?s not to end a shame
to fight an endless lie
I’m not to play your game
I won’t be on your side

Found a way
to reach myself again but all I saw was shame
Drive me away
’cos something deep in me waiting to escape
you think you know me
so why don’t you close the door when you’re here with me

I’m here to end the game
I’m living in a lie
it’s hard to give the same
I won’t be on your side,
won?t be on your side

I loved you a lie
to need you a lie
I leave you a lie...

I?m live,I?m living in a lie...

I’m here to end the game
I’m living in a lie
it’s hard to give the same
I won’t be on your side,
won?t be on your side

I loved you a lie
to need you a lie
I leave you a lie...

Вверх

Lords Of The Boards

	Вступление:
H A H C(баррэ) H А H  -На трех нижних струнах
С А
Проигрыш: H C H C A  x2 раза

Riff:
3|----4--5--4-0-|
I?ve got the snowboard under my feet
I can fly so high, I can fall so deep
But who do I see comin? up the track
A little green man with the snowboard on his back

H	 A   H	    C	 H	  A	 H	A
He said: And now I?m flying like an angel to the sun
H	 C   H	    A	 H		C
My feet are burning and I grab into another world
H
With the lord of the boards you?ll come and get around
H						  C
With the lord of the boards you?ll come and get around
H
With the lord of the boards you?ll come and get around
C	A H
With the lord of the boards you?ll come and get around
C
With the lord of the boards you?ll come and get around
H						   C  A
With the lord of the boards, go mad like a clown

riff:
I can stay behind him if I can
I wanna be a little more than an "also-ran"
Through every curve He?s got me beat
And maybe it?s time that I accept defeat


H	 A   H	    C	 H	  A	 H	A
He said: And now I?m flying like an angel to the sun
H	 C   H	    A	 H		C
My feet are burning and I grab into another world
H
With the lord of the boards you?ll come and get around
H						  C
With the lord of the boards you?ll come and get around
H
With the lord of the boards you?ll come and get around
C	A H
With the lord of the boards you?ll come and get around
C
With the lord of the boards you?ll come and get around
H						   C  A
With the lord of the boards, go mad like a clown

Вверх

Open Your Eyes

E||------------------|------------------|------------------------|
B||------------------|------------------|------------------------|
G||------------------|------------------|------------------------|
D||------------------|------------------|--9----------4--4-4--5--|
A||------------------|------------------|--7----2-----2--2-2--3--|
E||------------------|------------------|-------0----------------|

------------------------|------------------------|------------------------|
------------------------|------------------------|------------------------|
------------------------|------------------------|------------------------|
--5----5-----7--7-7--9--|--9----------4--4-4--5--|--5----5-----7--7-7--9--|
--3----3-----5--5-5--7--|--7----2-----2--2-2--3--|--3----3-----5--5-5--7--|
------------------------|-------0----------------|------------------------|

------------------------|------------------------|------------------------|
------------------------|------------------------|------------------------|
------------------------|------------------------|------------------------|
--9----------4--4-4--5--|--5----5-----7--7-7--9--|--9----------4--4-4--5--|
--7----2-----2--2-2--3--|--3----3-----5--5-5--7--|--7----2-----2--2-2--3--|
-------0----------------|------------------------|-------0----------------|

------------------------|-------------------|------------------|
------------------------|-------------------|------------------|
------------------------|-------------------|------------------|
--5----5-----7--7-7--9--|--2----------------|------------------|
--3----3-----5--5-5--7--|--2----------------|------------------|
------------------------|--0----------------|------------------|

------------------|------------------|------------------------|
------------------|------------------|------------x-x-x-x-x-x-|
------------------|------------------|------------x-x-x-x-x-x-|
------------------|------------------|------------x-x-x-x-x-x-|
------------------|------------------|------------------------|
------------------|------------------|------------------------|

------------------------|------------------------|----------------------|
------------x-x-x-x-x-x-|------------x-x-x-x-x-x-|------------8-8---8-8-|
------------x-x-x-x-x-x-|------------x-x-x-x-x-x-|------------7-7---7-7-|
------------x-x-x-x-x-x-|------------x-x-x-x-x-x-|------------5-5---5-5-|
------------------------|------------------------|------------5-5---5-5-|
------------------------|------------------------|----------------------|

------------------------|------------------------|------------------------|
------------x-x-x-x-x-x-|------------x-x-x-x-x-x-|------------x-x-x-x-x-x-|
------------x-x-x-x-x-x-|------------x-x-x-x-x-x-|------------x-x-x-x-x-x-|
------------x-x-x-x-x-x-|------------x-x-x-x-x-x-|------------x-x-x-x-x-x-|
------------------------|------------------------|------------------------|
------------------------|------------------------|------------------------|

----------------------|------------------------|------------------------|
------------8-8---8-8-|------------x-x-x-x-x-x-|------------x-x-x-x-x-x-|
------------7-7---7-7-|------------x-x-x-x-x-x-|------------x-x-x-x-x-x-|
------------5-5---5-5-|------------x-x-x-x-x-x-|------------x-x-x-x-x-x-|
------------5-5---5-5-|------------------------|------------------------|
----------------------|------------------------|------------------------|

------------------------|----------------------|------------------------|
------------x-x-x-x-x-x-|------------8-8---8-8-|------------x-x-x-x-x-x-|
------------x-x-x-x-x-x-|------------7-7---7-7-|------------x-x-x-x-x-x-|
------------x-x-x-x-x-x-|------------5-5---5-5-|------------x-x-x-x-x-x-|
------------------------|------------5-5---5-5-|------------------------|
------------------------|----------------------|------------------------|

------------------------|------------------------|--------------------|
------------x-x-x-x-x-x-|------------x-x-x-x-x-x-|--------------------|
------------x-x-x-x-x-x-|------------x-x-x-x-x-x-|--------------------|
------------x-x-x-x-x-x-|------------x-x-x-x-x-x-|----------5---------|
------------------------|------------------------|----------3----4----|
------------------------|------------------------|---------------2----|

------------------------|------------------------|------------------------|
------------------------|------------------------|------------------------|
------------------------|------------------------|------------------------|
-------------4--4-4--5--|--5----5-----7--7-7--9--|--9----------4--4-4--5--|
--2----2-----2--2-2--3--|--3----3-----5--5-5--7--|--7----2-----2--2-2--3--|
--0----0----------------|------------------------|-------0----------------|

------------------------|------------------------|------------------------|
------------------------|------------------------|------------------------|
------------------------|------------------------|------------------------|
--5----5-----7--7-7--9--|--9----------4--4-4--5--|--5----5-----7--7-7--9--|
--3----3-----5--5-5--7--|--7----2-----2--2-2--3--|--3----3-----5--5-5--7--|
------------------------|-------0----------------|------------------------|

------------------------|------------------------|-------------------|
------------------------|------------------------|-------------------|
------------------------|------------------------|-------------------|
--9----------4--4-4--5--|--5----5-----7--7-7--9--|--2----------------|
--7----2-----2--2-2--3--|--3----3-----5--5-5--7--|--2----------------|
-------0----------------|------------------------|--0----------------|

------------------------|------------------------|------------------------|
------------x-x-x-x-x-x-|------------x-x-x-x-x-x-|------------x-x-x-x-x-x-|
------------x-x-x-x-x-x-|------------x-x-x-x-x-x-|------------x-x-x-x-x-x-|
------------x-x-x-x-x-x-|------------x-x-x-x-x-x-|------------x-x-x-x-x-x-|
------------------------|------------------------|------------------------|
------------------------|------------------------|------------------------|

----------------------|------------------------|------------------------|
------------8-8---8-8-|------------x-x-x-x-x-x-|------------x-x-x-x-x-x-|
------------7-7---7-7-|------------x-x-x-x-x-x-|------------x-x-x-x-x-x-|
------------5-5---5-5-|------------x-x-x-x-x-x-|------------x-x-x-x-x-x-|
------------5-5---5-5-|------------------------|------------------------|
----------------------|------------------------|------------------------|

------------------------|----------------------|------------------------|
------------x-x-x-x-x-x-|------------8-8---8-8-|------------x-x-x-x-x-x-|
------------x-x-x-x-x-x-|------------7-7---7-7-|------------x-x-x-x-x-x-|
------------x-x-x-x-x-x-|------------5-5---5-5-|------------x-x-x-x-x-x-|
------------------------|------------5-5---5-5-|------------------------|
------------------------|----------------------|------------------------|

------------------------|------------------------|----------------------|
------------x-x-x-x-x-x-|------------x-x-x-x-x-x-|------------8-8---8-8-|
------------x-x-x-x-x-x-|------------x-x-x-x-x-x-|------------7-7---7-7-|
------------x-x-x-x-x-x-|------------x-x-x-x-x-x-|------------5-5---5-5-|
------------------------|------------------------|------------5-5---5-5-|
------------------------|------------------------|----------------------|

------------------------|------------------------|------------------------|
------------x-x-x-x-x-x-|------------x-x-x-x-x-x-|------------x-x-x-x-x-x-|
------------x-x-x-x-x-x-|------------x-x-x-x-x-x-|------------x-x-x-x-x-x-|
------------x-x-x-x-x-x-|------------x-x-x-x-x-x-|------------x-x-x-x-x-x-|
------------------------|------------------------|------------------------|
------------------------|------------------------|------------------------|

--------------------|------------------------|------------------------|
--------------------|------------------------|------------------------|
--------------------|------------------------|------------------------|
----------5---------|-------------4--4-4--5--|--5----5-----7--7-7--9--|
----------3----4----|--2----2-----2--2-2--3--|--3----3-----5--5-5--7--|
---------------2----|--0----0----------------|------------------------|

------------------------|------------------------|------------------------|
------------------------|------------------------|------------------------|
------------------------|------------------------|------------------------|
--9----------4--4-4--5--|--5----5-----7--7-7--9--|--9----------4--4-4--5--|
--7----2-----2--2-2--3--|--3----3-----5--5-5--7--|--7----2-----2--2-2--3--|
-------0----------------|------------------------|-------0----------------|

------------------------|------------------------|------------------------|
------------------------|------------------------|------------------------|
------------------------|------------------------|------------------------|
--5----5-----7--7-7--9--|--9----------4--4-4--5--|--5----5-----7--7-7--9--|
--3----3-----5--5-5--7--|--7----2-----2--2-2--3--|--3----3-----5--5-5--7--|
------------------------|-------0----------------|------------------------|

------------------------|-----------------------|-----------------------|
------------------------|-----------------------|-----------------------|
------------------------|-----------------------|-----------------------|
------------------------|-----------------------|-----------------------|
--2--2----2--2----2--2--|----2--2----2--2----2--|--2----2--2----2--2----|
--0--0----0--0----0--0--|----0--0----0--0----0--|--0----0--0----0--0----|

------------------------|-----------------------|-----------------------|
------------------------|-----------------------|-----------------------|
------------------------|-----------------------|-----------------------|
------------------------|-----------------------|-----------------------|
--2--2----2--2----2--2--|----2--2----2--2----2--|--2----2--2----2--2----|
--0--0----0--0----0--0--|----0--0----0--0----0--|--0----0--0----0--0----|

------------------------|-----------------------|------------------------|
------------------------|-----------------------|------------------------|
------------------------|-----------------------|------------------------|
------------------------|-------------5---------|-------------4--4-4--5--|
--2--2----2--2----2--2--|----2--2--2--3----4----|--2----2-----2--2-2--3--|
--0--0----0--0----0--0--|----0--0--0-------2----|--0----0----------------|

------------------------|------------------------|------------------------|
------------------------|------------------------|------------------------|
------------------------|------------------------|------------------------|
--5----5-----7--7-7--9--|--9----------4--4-4--5--|--5----5-----7--7-7--9--|
--3----3-----5--5-5--7--|--7----2-----2--2-2--3--|--3----3-----5--5-5--7--|
------------------------|-------0----------------|------------------------|

------------------------|------------------------|------------------------|
------------------------|------------------------|------------------------|
------------------------|------------------------|------------------------|
--9----------4--4-4--5--|--5----5-----7--7-7--9--|--9----------4--4-4--5--|
--7----2-----2--2-2--3--|--3----3-----5--5-5--7--|--7----2-----2--2-2--3--|
-------0----------------|------------------------|-------0----------------|

------------------------|------------------------|------------------------|
------------------------|------------------------|------------------------|
------------------------|------------------------|------------------------|
--5----5-----7--7-7--9--|-------------4--4-4--5--|--5----5-----7--7-7--9--|
--3----3-----5--5-5--7--|--2----2-----2--2-2--3--|--3----3-----5--5-5--7--|
------------------------|--0----0----------------|------------------------|

------------------------|------------------------|------------------------|
------------------------|------------------------|------------------------|
------------------------|------------------------|------------------------|
--9----------4--4-4--5--|--5----5-----7--7-7--9--|--9----------4--4-4--5--|
--7----2-----2--2-2--3--|--3----3-----5--5-5--7--|--7----2-----2--2-2--3--|
-------0----------------|------------------------|-------0----------------|



------------------------|------------------------|------------------------|
------------------------|------------------------|------------------------|
------------------------|------------------------|------------------------|
--5----5-----7--7-7--9--|--9----------4--4-4--5--|--5----5-----7--7-7--9--|
--3----3-----5--5-5--7--|--7----2-----2--2-2--3--|--3----3-----5--5-5--7--|
------------------------|-------0----------------|------------------------|

------------------------||
------------------------||
------------------------||
--2--2----2--2----2--2--||
--2--2----2--2----2--2--||
--0--0----0--0----0--0--||

Вверх

Pretty In Scarlet

  D5         F5      F5         C5      D5         F5      F5  E5  C5
e|5-5-5-5-5----------8-8-8-8-8--3-3-----5-5-5-5-5----------8---7---3-3-----|
B|3-3-3-3-3----------6-6-6-6-6--1-1-----3-3-3-3-3----------6---5---1-1-----|
G|2-2-2-2-2--5-5-----5-5-5-5-5--0-0-----2-2-2-2-2--5-5-----5---4---0-0-----|
D|-----------3-3-----------------------------------3-3---------------------|
A|-----------3-3-----------------------------------3-3---------------------|
E|-------------------------------------------------------------------------|

Pre-chorus(?cause nothing?s good I can explain...)
D5   F5                        C5
e|---------------------------|  |-------------------|
B|---------------------------|  |-------------------|
G|7--7-10-10--10-10-10101010-|  |5--5-5-5--5-5-5555-|
D|7--7-10-10--10-10-10101010-|  |5--5-5-5--5-5-5555-|
A|5--5-8--8---8--8--8-8-8-8--|  |3--3-3-3--3-3-3333-|
E|---------------------------|x3|-------------------|
D5   F5                        distorted
e|---------------------------|  |-------------------|
B|---------------------------|  |-------------------|
G|7--7-10-10--10-10-10101010-|  |-------------------|
D|7--7-10-10--10-10-10101010-|  |55555555555555-----|
A|5--5-8--8---8--8--8-8-8-8--|  |33333333333333-----|
E|---------------------------|x3|-------------------|

Chorus(distorted):
D5     F5           D5     F5           D5     F5           F5         C5
e|----------------------------------------------------------------------------------|
B|----------------------------------------------------------------------------------|
G|7--7----------------7--7----------------7--7----------------10--10-5-5--5-5-5-5-5-|
D|7--7-3-3--3-3-3-3-3-7--7-3-3--3-3-3-3-3-7--7-3-3--3-3-3-3-3-10--10-5-5--5-5-5-5-5-|
A|5--5-3-3--3-3-3-3-3-5--5-3-3--3-3-3-3-3-5--5-3-3--3-3-3-3-3--8---8-3-3--3-3-3-3-3-|
E|-----1-1--1-1-1-1-1------1-1--1-1-1-1-1------1-1--1-1-1-1-1-----------------------|

Lyrics:

We slept a while
To turn it off and get it off our minds
I slept a while
To get it all
It seems alright
To find the place without a single lie
Where is the night
We ran into

?cause nothing?s good I can explain
Fallin? down and cought up the rain
I turned myself into changes
The nigth I kissed you good bye
?cause nothing?s good I can explain
Fallin? down and cought up the rain
I turned myself into changes
Your death is over

You wanna leave a lie (I?m pretty in scarlet)
Come on
You wanna wash it down (I?m pretty in scarlet)
I turned myself to say goodbye
You wanna leave it (I?m pretty in scarlet)
Come on
You wanna wash it down (I?m pretty in scarlet)
I turned myself to say

It?s ok doesn?t count
Farther place deeper sound
Let me dive alone
Let me dive alone
You get me wine
To poison me and take away my time
I can you cry
I want know why

ause nothing?s good I can explain
Fallin? down and cought up the rain
I turned myself into changes
The nigth I kissed you good bye
?cause nothing?s good I can explain
Fallin? down and cought up the rain
I turned myself into changes
Your death is over

You wanna leave a lie (I?m pretty in scarlet)
Come on
You wanna wash it down (I?m pretty in scarlet)
I turned myself to say goodbye
You wanna leave it (I?m pretty in scarlet)
Come on
You wanna wash it down (I?m pretty in scarlet)
I turned myself to say goodbye

And if you throw a stone at me
And if you need some fantasy
And if you leave a lie
I will run I will run I will run away
And if you throw a stone at me
And if you need some fantasy
And if you leave a lie
I will run

Вверх

Rain

1|-8----8--------------1------1-
2|-6----6-----------------------
3|-7--7-------------------------
4|-5-5--------------------------
5|-5------0-2-3-2----1----1-1---
6|-5----------------1-----------

-8----8---------------1-----1-|
-6----6-----------------------|
-7--7-----4-5-4---------3-3---|
-5-5------4-5-4--3-3----3-3---|
-5------0-2-3-2--3-3----1-1---|
-5---------------1-1----------|


1 куплет:
I believe
I still believe in your warm rain
I?m alone
can?t sleep until I feel your rain
so unreal, can?t find another place of your rain
I believe
I still believe in your warm rain
so untrue
help me to find through your warm rain

Припев:
I send out my wishes
you gave me promises
why don?t you feel the same
I?m sad, I feel like a little child,
somebody left, there is no rain

2 куплет:
Oh no, I?m waiting
how about your rain?
I can?t believe
I still believe in your rain
like in heaven
I can?t wait until I feel your rain
so where?s your life
who?s living the rest of your life

Припев:
I can?t see in your eyes
can?t change it, no more
tries
leave everyone with a smile
and you?re sad, you feel like a
little child
somebody?s left there is no rain

Вверх

Rain (2 вариант)

e|-3------3-|-----------|---1-------1-----------
b|-1----1---|-----------|-----------------------
g|-2--2-----|-----------|-----------------------
d|-0--------|-----------|-----------------------
a|-0--0-----|--0-2-3-2--|-1----1--1-------------
e|-0--------|----------1------------------------




e|-3------3-|------------|---1-----1-------------
b|-1----1---|------------|-----------------------
g|-2--2-----|----4-5-4---|-3---3-3---------------
d|-0--------|----4-5-4-3-|-3---3-3---------------
a|-0--0-----|--0-2-3-2-3-|-1---1-1---------------
e|-0--------|----------1-|-----------------------

I?m alone
can?t wait until I feel your rain
so
unreal
can?t find another place of your rain
I believe
I still
believe in your warm rain
I?m alone
can?t sleep until I feel your
rain


How can I find
Love, Faith and Trust inside of your rain
so
unreal, can?t find another place of your rain
I believe
I still
believe in your warm rain
so untrue
help me to find through your
warm rain


I send out my wishes
you gave me promises
why don?t you feel the
same
(I?m sad, I feel like a little child,
somebody left, there is
no rain)


Oh no, I?m waiting
how about your rain?
I can?t believe
I
still believe in your rain
like in heaven
I can?t wait until I feel
your rain
so where?s your life
who?s living the rest of your life


I can?t, I can?t,
I can?t live this life, I can?t live this
life
I can?t see in your eyes
can?t change it, no more
tries
leave everyone with a smile
and you?re sad, you feel like a
little child
somebody?s left there is no rain


I send out my wishes ...

Вверх