Guns N Roses

14 Years
Aint It Fun
Always On The Run
Back Off Bitch
Civil War
Civil War (2 вариант)
Coma
Crash Diet
Dead Horse
Don’t Cry
Double Talkin Jive
Down On The Farm
Dust N Bones
Estranged
Estranged
Hair Of The Dog
I Dont Care About You
Its So Easy
Knocking On Heavens Door
Knockin On Heavens Door
Live And Let Die
Live And Let Die
Locomotive
Locomotive
Mama Kin
Move To The City
Mr. Brownstone
My Michelle
New Rose
New Rose (2 вариант)
Nice Boys
Nightrain
November Rain
November Rain (2 вариант)
One in a Million
Only Women Bleed
Paradise City
Paradise City
Patience
Perfect Crime
Reckless Life
Right Next Door To Hell
Rocket Queen
Since i dont have you
Sweet Child Mine
Sweet Child Mine (2 вариант)
Sympathy For The Devil
The Godfather Theme
Under The Bridge (2 вариант)
Used To Love Her
Welcome To The Jungle
Whole Lotta Rosie
Word Up
Yesterdays
Yesterdays (2 вариант)
You Aint The First
You Could Be Mine
You Could Be Mine (2 вариант)
Вверх

14 Years

  Rest for 4 measures                                  3rd time
Fill 3
G|-----|------|------|------|--------|---------|---------|-----|
D|-----|------|------|------|--------|---------|---------|-----|
A|-----|------|------|------|--------|---------|---------|-----|
E|-5---|-3----|-1----|-0----|-5------|-3-------|-1-------|-0---|

Come with lyrics

G|-------------|--------------|------------|-------------------|
D|---7-------7-|----5-------5-|----3-----3-|---------2-2-2-0---|
A|-------------|--------------|------------|-----------------0-|
E|-5---5--5----|-3-----3-3----|-1----1-1---|-0-0-3H4-----------|
Bass Fig.1
2nd time Fill 1     3rd time Fill4
G|-------------|-----------------|-----------|-----------------|
D|---7-------7-|-----5---------5-|---3-----3-|---------2-2-----|
A|-------------|-----------------|-----------|-----------------|
E|-5----5-5----|-3------3---3----|-1---1-1---|-0-0-3H4-----0-0-|
end Bass Fig.1

Pre-Chorus                                     3rd time Fill 5
G|-------------|-------------|-------------|-------------------|
D|-------------|-------------|-------------|-------------------|
A|-0-0-0-0-0-0-|-3-3-3-3-3-3-|-5-5-5-5-5-5-|-5-----------------|
E|-------------|-------------|-------------|----0--2-0-3-0-4-0-|

3rd time Fill 6
G|-------------|-------------|-------------|-------------------|
D|-------------|-------------|-------------|-----7-7-5-5-------|
A|-0-0-0-0-0-0-|-3-3-3-3-3-3-|-5-5-5-5-5-5-|-5-0----------7--7-|
E|-------------|-------------|-------------|-------------------|

3rd time to Coda
G|-------------|-------------|-------------|-------------------|
D|-------------|-------------|-------------|-------------------|
A|-0-0-0-0-0-0-|-3-3-3-3-3-3-|-5-5-5-5-5-5-|-5--0--5---5--0--5-|
E|-------------|-------------|-------------|-------------------|

2nd time Fill 2
G|-------------|-------------|-------------|-------------------|
D|-------------|-------------|-------------|-------------------|
A|-0-0-0-0-0-0-|-3-3-3-3-3-3-|-5-5-5-5-5-5-|-5-5-5--5--5--5--5-|
E|-------------|-------------|-------------|-------------------|

Chorus
G|----|----|----|----|----|----|----|--------------------------|
D|----|----|----|----|----|----|----|--------------------------|
A|-0--|----|-5--|----|-0--|----|-5--|-(5)--5-------------------|
E|----|-3--|----|----|----|-3--|----|---------2--0--3--0--4--0-|

Well. Now You play  Bass Fig. 1, Pre-chorus, Chorus with Fills.
Then the guitar solo which is

G|-------------|-------------|-------------|-------------------|
D|-------------|-------------|-------------|-------------------|
A|-0-0-0-0-0-0-|-------------|-5-5-5-5-5-5-|-5-----------------|
E|-------------|-3-3-3-3-3-0-|-------------|---0-2-0-3-0--4--0-|

G|-----------|-------------|-----------------|-----------------|
D|-----------|-------------|-----------------|------7-7-9-7----|
A|-0-0-0-0-0-|-------------|-5-5-5-5-5-5-5-5-|(7)/9---------9--|
E|-----------|-3-3-3-3-3-0-|-----------------|-----------------|

G|-------------|----------------------|------------------------|
D|-------------|----------------------|------------------------|
A|-0-0-0-0-0-0-|-3--3--3--3--3--3--3--|-5--5--5--5--5--5--5--5-|
E|-------------|----------------------|------------------------|

G|-------------------------|
D|-------4--4--5--5--6--6--|
A|-5--5--------------------|
E|-------------------------|

G|------------|---------------|---------------|----------------|
D|------------|---------------|---------------|----------------|
A|0-0-0-0-0-0-|-3-3-3-3-3-3-3-|-5-5-5-5-5-5-5-|-5-5-5-5-5-5-5-5|
E|------------|---------------|---------------|----------------|
----------------------/
Repeat this measure
6 more times
Coda
G|---------|---------|-------------|-------------------|
D|---------|---------|----------10-|-10---9--9--7------|
A|-0-------|-3-------|-(3)---------|----------------10-|
E|---------|---------|-------------|-------------------|

G|---------|---------|-----------|------|
D|---------|---------|-----------|------|
A|-0-------|-3-------|-(3)-------|-(3)--|
E|---------|---------|-----------|------|

Fill 1                                    Fill 2
G|-----------------|-------------------| G|-------------------|
D|-----3-----------|-------2-2-0-0-----| D|-------4---5---6---|
A|---------------3-|---------------2---| A|-5--0--------------|
E|-1------1---1----|-0--0------------0-| E|-------------------|

Fill 3                Fill 4
G|-----------------|  G|-------------------|
D|-----2--0--------|  D|---------2-0-------|
A|-----------------|  A|-------------2p0-0-|
E|-0----------2--0-|  E|-0-0-3H4-----------|

Fill 5                       Fill 6
G|-----------------------|  G|-------------------|
D|--------7---7--9--7----|  D|-------------------|
A|-(7)/9---------------9-|  A|-5-----------------|
E|-----------------------|  E|---0-2-0-3-0--4--0-|

Вверх

Aint It Fun

Gilby parts
E|-------------------------------------------------------------|
B|-------------------------------------------------------------|
G|---4-------4-------7-------2-------4-------4-------4-------4-|
D|-4---4---4-------7---7---2---2---5---5---5---5---4---4---4--4|
A|2------2-----4-5-------0-----------------------2-------2-----|
E|-------------------------------3-------3---------------------|

Slash parts
E|---------------------------------------------------5---7-5-7-|
B|------------------------------------------5-/-7--------------|
G|---------------------------2---4------4---7---7--------------|
D|---------------------2-4-------------------------------------|
A|-2----------2-4-5--------------------------------------------|
E|-------------------------------------------------------------|

and so...
E|------10-p12-b14---14-r12-10-b12-r10-----10-----------|
B|-12-----------------------------------------12-10-b12-|
G|------------------------------------------------------|
D|------------------------------------------------------|
A|------------------------------------------------------|
E|------------------------------------------------------|

Вверх

Always On The Run

VERSE - Main riff
E|-------------------------------------------------------------|
B|-------------------------------------------------------------|
G|-------------------------------------------------------------|
D|--------------------5p0--2------------------0------------0h2-|
A|----7--54-----5-----------------7--54---5------2p0-----------|
E|-0---------0-----0----------0---------0-------------3p0------|

This is doubled by a second riff:
E|-------------------------------------------------11/12-12-12-|
B|-------------------------------------------------11/12-12-12-|
G|-------------------------------------------------11/12-12-12-|
D|--x-x-x-x-x-x-x-x-x--x-x-x-x---x-x-x-x-x-x-x-x-x-------------|
A|--x-x-5-x-7-x-x-x-x--x-5-x-x---x-x-5-x-7-x-x-x-x-------------|
E|--x-x-x-x-x-x-5-x-7--x-x-x-5h7-x-x-x-x-x-x-5-x-7-------------|

Theres a variation on the main riff now and then, and it goes:
E|-------------------------------------------------------------|
B|-------------------------------------------------------------|
G|-------------------------------------------------------------|
D|-----------------7b8r7~~-5------------------0------------0h2-|
A|---7--54---5---------------7-----7--54---5-----2p0-----------|
E|-0--------0---0---------------0---------0-----------3p0------|

CHORUS - Power chords

G5      A5            riff
But Im always on the run (always on the run)

SOLO - Played over A5, riff, B5, riff

A5
E|------------------------------------------------0-0-0-0-0-0-0|
B|-------------------------------------------------------------|
G|------------(0)5(0)7-(0)-7b9-5-7-(0)-5-(0)-7b9-7-------------|
D|-------5(0)7-------------------------------------------------|
A|--4-5-7------------------------------------------------------|
E|/5-----------------------------------------------------------|

riff
E|-------------------------------------------------------------|
B|15b17~-17p15----------------------------------14-17----14----|
G|------------16-16b19-16-15-14-15p14p12--14b16.......16....r14|
D|--------------------------------------14---------------------|
A|-------------------------------------------------------------|
E|-------------------------------------------------------------|

B5
E|-------------------------------------------------------------|
B|------12----------------------14h17p14-----------------------|
G|12--------12-14-12------14b16~-------------------14b16r15b16~|
D|---12---14--------12(10)--------------12b13r12-10------------|
A|-------------------------------------------------------------|
E|-------------------------------------------------------------|

riff
E|--------------------------------12-15~--12------15~-------15~|
B|--17b19r17-16-17-16-17/19~~-/12-----------15p12-----15p12----|
G|-------------------------------------------------------------|
D|12-----------------------------------------------------------|
A|-------------------------------------------------------------|
E|-------------------------------------------------------------|

E|12-----15----------------------------------------------------|
B|--15p12--15p14p12-15-----------------------------------------|
G|--------------------16p15p14-16p15p1412-15p14p12-------------|
D|------------------------------------------------14p12--------|
A|-----------------------------------------------------14p13p12|
E|-------------------------------------------------------------|

E|--------------------|
B|--------------------|
G|-------------12-12--|
D|-------------12-12--|
A|--------------------|
E|--15p12~~~~---------|

Вверх

Back Off Bitch

E|----------------|----------|-0-----|-------0-------------|
B|----------------|----------|-0-----|---------------------|
G|----------------|----------|-------|-2fb-----2--r--0-----|
D|-2-0------------|----------|-------|-----------------2-0-|
A|-----2-0--------|-2--------|-------|---------------------|
E|---------3fb----|-0--------|-------|---------------------|

E|----------------|------------------|---------------------|
B|----------------|------------------|---------------------|
G|----------------|------------------|---------------------|
D|-(0)h2------0---|--2s4-4-4s5-5-5s7-|-7-7s9-9-9s12-12h14--|
A|----------------|------------------|---------------------|
E|----------------|------------------|---------------------|

E|-----|--------------------|---------|--------------------|
B|-----|-12-14--14hb---14hb-|-14hb----|-14hb---------------|
G|-----|-12-14--14hb---14hb-|-14hb----|-14hb--12-----------|
D|-14--|--------------------|---------|----------14---14p0-|
A|-----|--------------------|---------|--------------------|
E|-----|--------------------|---------|--------------------|

E|-------------------------|------15----17-15--|-17fb---r--|
B|----------------------15-|-17----------------|-----------|
G|-------12-14-14s16-16----|-------------------|-----------|
D|-12-14-------------------|-------------------|-----------|
A|-------------------------|-------------------|-----------|
E|-------------------------|-------------------|-----------|

E|-17fb--r-|-17fbr-17fbr-17fbr--17fbr-17fbr-17fbr-|-(17)fb-|
B|---------|--------------------------------------|--------|
G|---------|--------------------------------------|--------|
D|---------|--------------------------------------|--------|
A|---------|--------------------------------------|--------|
E|---------|--------------------------------------|--------|

Вверх

Civil War
mp3

Intro

Look at your young men fighting...
Gb|------|----------------------------------------------|
Db|------|----------------------------------------------|
Ab|------|----7h9-7------------------9--7-7-7-----------|
Eb|-12/9-|-0---------3~-----------------------3-2-1-0~--|

Gb|--------------------------------------------------------|
Db|--------------------------------------------------------|
Ab|--------------------------------------------------------|
Eb|-3-2--0~-----3-3--0~-----3-2~----0-0--3-3-2-0-0---3-2~--|

Verse

My hands are tied...   (heavily distorted guitars come in)
Gb|----------------------------------|
Db|----------------------------------|
Ab|----------------------------------|
Eb|-5-55-5--5-55-5--5-55-5--5-55-5---|

Gb|----------------------------------|
Db|----------------------------------|
Ab|----------------------------------|
Eb|-0-0-00-0-0-0--3-3p0-3-3-3-3-3-2--|

Gb|-------------------------------------------|
Db|-------------------------------------------|
Ab|-------------------5-5---------------------|
Eb|-0-0-00-0-0-0--3-3-----2-1-0--0-0-00-0-0-0-|
^^^^^
Fast

Gb|-----------------------------------------------|
Db|-----------------------------------------------|
Ab|-------------------------------------------5-5-|
Eb|-3-3p0-3-3-3-3-3-2--0-0-00-0-0-0-3-3-----5~----|


Play this twice over the first guitar solo:

Gb|------------------------------------------------------------|
Db|------------------------------------------------------------|
Ab|--------------------------------------------------------5-5-|
Eb|-0-0-00-0-0-0--3-3p0--3-3-33-3-2--0-0-00-0-0-0--3-3-2-1-0---|
And end with:

Gb|------|
Db|------|
Ab|--5~--|
Eb|------|

Theres no bass for a few bars at this point.  When Axl sings
"So I never fell for Vietnam...", play the following once:

Gb|------------------------------------------------------------|
Db|------------------------------------------------------------|
Ab|-----------2~----------------------------2~----------3-3-5-5|
Eb|-3~-----------------0----0-----3~----------------0----------|

Chorus

Play all of this twice:

Gb|-------------------------------------------|
Db|-------------------------------------------|
Ab|---------2--2-2--------7p6p5--7-7--7-7p6p5-|
Eb|-3--3-3----------0-------------------------|

Gb|-------------------------------------------|
Db|-------------------------------------------|
Ab|---------2--2-2----------3-3-5-5-----------|
Eb|-3--3-3----------0-0-0---------------------|

Over Slashs second solo, play the chorus again twice, but
replacing

Gb|---------|          Gb|-------|
Db|---------|          Db|-------|
Ab|-3-3-5-5-|   with   Ab|-3---5-|
Eb|---------|          Eb|-------|

And ending with this after the second repetition:

Gb|----|
Db|----|
Ab|----|
Eb|-0~-|

Look at the blood were spilling...
Gb|-------------------------------------------------|
Db|-------------------------------------------------|
Ab|-------------------------7h9-7-------------------|
Eb|-3----0----3--2----0-----------------3-2-0--3--2-|

Now play the verse once, then the chorus twice, followed by
this outro played four times:

Outro

Gb|---------------------------------|
Db|---------------------------------|
Ab|---------2-2-2-2-----------------|
Eb|-3-3-3-3---------0-00-0-00-0-0---|

Gb|---------------------------------|
Db|---------------------------------|
Ab|---------2-2-2-2---------3-3-5-5-|
Eb|-3-3-3-3---------0-00-0----------|

And then end the song on:

Gb|----|
Db|----|
Ab|----|
Eb|-3~-|

Вверх

Civil War (2 вариант)
mp3

 Em
Rhy.Fig 1
E|---------------------------------|
B|---------------------------------|
G|-------0---------------0---------|
D|---2-----2---2-----2-----2-----0-|
A|-----2-----2-----2---2-----0h2---|
E|-0-------------0-----------------|
G
E|---------------------------------|
B|---------------------------------|
G|-------0---------------0---------|
D|---0-----0---0-----0-----0-----2-|
A|-----2-----2-----2---2-----0h2---|
E|-3-------------3-----------------|

Em                      G
E|-----------------------|------------------------|
B|-----------------------|------------------------|
G|------0---------0------|------0-----------2-0-2-|
D|---2---2-2---2---2---2-|---0---2---0---0-----2--|
A|--2-2---2---2-2---0h2--|--2-2---0h2---0-0-------|
E|-0---------0-----------|-3-----------2----------|

Riff A
Em                  G      Em               G
E|-12----10--------|--------|-12--10----------|---------------||
B|-----------10-11-|---12---|-----------10-11-|12-----10s8s7s-||
G|-----------------|--------|-----------------|---------------||
D|-----------------|--------|-----------------|---------------||
A|-----------------|--------|-----------------|---------------||
E|-----------------|--------|-----------------|---------------||

E|-------------------|------------------|-------------------|
B|-------------------|------------------|-------------------|
G|-----0-------0-----|----0-------0-----|-----0-------0-----|
D|---2--2-2--2--2---2|--0--0-0--0--0---0|---2--2-2--2--2---2|
A|--2-2--2--2-2--0h2-|---2--2--2-2--0h2-|--2-2--2--2-2--0h2-|
E|-0-------0---------|-3------3---------|-0-------0---------|

E|-------------------||
B|-------------------||
G|-----0--------2-0-0||
D|---0--0-----0----2-||
A|--2-2--2-0-0-0-----||
E|-3--------2--------||

1st verse
w/Rhy.fig 1(3 times)
Em  (end Riff A) G
E|----|
B|s5--|
G|----|
D|----|
A|----|
E|----|

w/Riff A
Em                     G
E|------0---------0----|-------0---------------0-|
B|---5---5-5---5---5-0-|---3----3---3---3-----3--|
G|--4-4---4---4-4---4--|--4------------4-----0---|
D|-5---------5---------|-5---5----5---5---5-4----|
A|---------------------|-------------------------|
E|---------------------|-------------------------|
Em
E|------0---------0-------|
B|---5---5-5---5---5--3---|
G|--4-4---4---4-4---------|
D|-5---------5------4-----|
A|------------------------|
E|------------------------|



G           D/F#             G Em G D/F#
E|-------0-----------0--------|
B|---3----3---3---3---3-----0-|
G|--4------------2-0----------|
D|-5---5----5---4-------4s2---|
A|----------------------------|
E|----------------------------|

A5                                     A5#4 A5
E|----------0------0-----|---------3-0---0-------3-2---||
B|------5---4-------4----|---------------4-----3----3s5||
G|-2-2---2------2------2-|-2---2-------------2---------||
D|-2--2---5----4-4----4--|---5---5-----5----4----------||
A|-0----------0----------|-----------------0-----------||
E|-----------------------|-----------------------------||

Rfy.Fig 2
E5      G      D/F# E5          G       D  E G F#
E|----0--|-----------|-------0---|-----2--2-------|
B|----0--|-0---------|-------0---|-0---3--3-------|
G|-------|-0---------|-----------|-0---2--2-------|
D|-------|-0---------|-----------|-0---0----------|
A|-2-----|-----------|-----------|----------------|
E|-0-----|-3----3-2b-|-0---0-----|-3---------0-2b-|

E5
E|-----0-----------------|
B|---0---0---------------|
G|-----------0-0---------|
D|-----------0-0---------|
A|-----------------------|
E|-0---------------------|

G            E5              G        D
E|------------|-------0-------|---------2---------|--------|
B|-0----------|-0-----0-------|-0-------3--3------|-0----4-|
G|-0----------|-----------0-0-|-0-------2--2------|-2----4-|
D|-0----------|-2---------0-0-|-0---0-0-0---------|-2----0-|
A|------------|-2--2----------|---------------0-0-|-0------|
E|-3-----3-2b-|-0--0----------|-3-----------------|--------|

w/Rhy Fig. 2
E5
E|------------------||----0------0---3-(3)b--0------0-----|
B|------0-----------||------0-3b---0-3-(3)b----0-3b---0---|
G|-2--0-0--2--2-----||-2b-------------------------------0-|
D|-2----0--2--2-----||------------------------------------|
A|-0-------0--0-----||------------------------------------|
E|---------------5s-||------------------------------------|

G        D/F# E5
E|-------------|----0------0---3--0------0-----|
B|-8-----------|------0-3b---0-3----0-3b---0---|
G|-7-----------|-2b--------------------------0-|
D|----2s4sxs14-|-------------------------------|
A|--------xs14-|-------------------------------|
E|-------------|-------------------------------|

G
E|--------------------------|
B|-8-8-7h8p7----------------|
G|-7---------9-7-7-7-7------|
D|--------------7------10s--|
A|--------------------------|
E|--------------------------|

E5                           G
E|----0------0---3-0------0---|------------------------|
B|------0-3b---0-3---0-3b--0--|-8--6-7-8-10-13s-s10s15-|
G|-2b-----------------------0-|-7--5-6-7--9-12s-s9-----|
D|----------------------------|------------------------|
A|----------------------------|------------------------|
E|----------------------------|------------------------|

Rhy. Fig. 3
E5                          G   D
E|---0------0---3-0-----0---|--------|
B|-----0-3b---0-3--0-3b--0--|-8---7--|
G|-2----------------------0-|-7---7--|
D|--------------------------|--------|
A|--------------------------|--------|
E|--------------------------|--------|

G
E|-----------------------------------|
B|-8-----3----0---------3-----0------|
G|-7--0-----0-------0-----0----------|
D|-----0----------4---4-----4--------|
A|--------------2--------------------|
E|-3---------------------------------|

Em                           G            Bm(b6)
E|----------------------------|-----------------------------|
B|----------------------------|-------3---0---------3-----0-|
G|------------------0-0-------|---0-----0-------0-----0-----|
D|---2--2---2---2-----------0-|-----0---------4---4-----4---|
A|--------2-------2-----0h2---|-------------2---------------|
E|-0---0------0---------------|-3---------------------------|

w/Rhy Fig. 3
Em              C            D     G           Bm(b6)
E|--------------------------0------|-------------------------0-|
B|--------------------3-1------3-0-|-------3---0-------3-----0-|
G|--------0----------------------0-|-----0---------------0-----|
D|---2------2---2---2-----0--------|---0-----0------4------4---|
A|------2-----2---3----------------|-------------2-------------|
E|-0-------------------------------|-3-------------------------|

Em                             G             Bm(b6)
E|-------0---0------------------|----------3-------------------|
B|-------0-0--------------------|--------3-------------3-----0-|
G|-------0-------------0--------|------0-----0-----0-----0-----|
D|---2---------------2--------0-|-0--0-------------4-4-----4---|
A|-----------------2-----0h2----|--------------2---------------|
E|-0------------0---------------|-3----------------------------|

Em                  C          D       G5 B5 A
E|--------------------0--0-------2--2---|
B|--------------------1--1----3--3--3---|
G|--------------------0--0-0--2--2--2---|
D|---2--2-------------2--2-------0--0---|
A|--------2-2-2-2--3--3--3-------0--0-0-|
E|-0------0-0-0-0-----3--3-------2--2---|
I dont need your civil war

E5       G5                B5               A E5 C D
It feeds the rich while it burries the poor.
G5             B5                        E5              E    E5
Your power hungry selling soldiers in a human grocry store
aint that fresh
G5           B5          a E5    C     D
I dont need your civil war.   oo no no no no

Guitar solo
G              B5              E5
|------------------------------|-----------------------|
|------15----------------------|-------------------15s-|
|-14b-----14(14)p12-14---12-14-|-14b(14)p12------------|
|------------------------------|------------14-14------|
|------------------------------|-----------------------|
|------------------------------|-----------------------|

G            B5             E5            C           D
E|-------------------------|-----------------------------------|
B|----3------------3-------|-----6s5-5-3-5p3s1-3-1-3p1p0---0-8b|
G|-2b---2-0-2--2s4---4s2p0-|-2-0-------------------------0-----|
D|-------------------------|-----------------------------------|
A|-------------------------|-----------------------------------|
E|-------------------------|-----------------------------------|

G             B5              E5
E|--------5------------------8b|(8)-8-7-8-7h8p7p5---7---7-7----|
B|(8)-(8)---8-7-7b-7-7p5---5---|------------------8---8--------|
G|-----------------------7-----|----------------------------9-7|
D|-----------------------------|-------------------------------|
A|-----------------------------|-------------------------------|
E|-----------------------------|-------------------------------|

G                       B5
|----------------------------------12------|
|---------15-------------15-15b-15b--15-12-|
|-14b-14b----14b-12-14s16------------------|
|------------------------------------------|
|------------------------------------------|
|------------------------------------------|

3rd verse
w/Rhy Fig 1(2 times)
E5                             C         D             E5
E|-----------------------------------------------------||------|
B|-----------------------------------------------------||------|
G|-14b-14-p12------------------------------------------||------|
D|------------14-14--12--------------------------------||------|
A|----------------------14s12p10-12-10-12b-12-10-------||------|
E|-----------------------------------------------12-10-||-12---|
Look at the ..
G
Look at the blood were spilling
Em
Look at the world were killing the
G                 D/f#
way were always done before

Em               G                          G            D/F#
E|-12----10-------|--------|-12-----10-------|-----------------|
B|----------10-11-|-12-----|-----------10-11-|-12-----------10-|
G|----------------|--------|-----------------|-----------------|
D|----------------|--------|-----------------|-----------------|
A|----------------|--------|-----------------|-----------------|
E|----------------|--------|-----------------|-----------------|
I dont want to hear no more

4th verse
w/Rhy Figs 2 & 2A

A5    A5#4  A5   E5
My hands are tied. For
G                                      D/F#
all Ive seen has changed my mind, but still the
E5
wars go on as the as the years go by with no
G              D         E G
love of God or human rights.
F#    E5
Cause all these dreams are swept aside by
G                                  E5
bloody hands of the hypnotized who carry the cross of homicide.
G                      D
And histry bears the scars of our civil wars.

w/Rhy Fig. 2
E5
E|---------------|---------------------|
B|---------------|---------------------|
G|-7h9-----5---2-|-----2-------2-------|
D|-7-------5---2-|---0-2-2-2-2-2-------|
A|-0---------0---|-0---0-0-0-0-0-------|
E|---------------|-----------------12s-|

E|---0------0---3---0------0-----|
B|-----0-3b---0-3-----0-3b---0---|
G|-2---------------------------0-|
D|-------------------------------|
A|-------------------------------|
E|-------------------------------|

G                           D/F#
E|-3---0-3p0-2h3p2p0----0---------------|
B|-3--------------------0-3p0---0-3p0---|
G|-------------------2b-------3-------2b|
D|--------------------------------------|
A|--------------------------------------|
E|--------------------------------------|

E5
E|---0----0---3--0-----0-----|
B|---0-3b---0-3----0-3---0---|
G|(2)----------------------0-|
D|---------------------------|
A|---------------------------|
E|---------------------------|

G           D E G F# E5
E|------------------|---0------0---3--0------0-----|
B|-8--7h8p7p5-7--7s-|-----0-3b---0-3----0-3b---0---|
G|-7----------------|-2--------------------------0-|
D|------------------|------------------------------|
A|------------------|------------------------------|
E|------------------|------------------------------|

G
E|----------------|
B|-3----3---------|
G|-2b---2--2(2)p0-|
D|----------------|
A|----------------|
E|----------------|

E5                         G       D     A5            B/A
E|-0------0---3-0------0----|-------------|----------------|
B|---0-3b---0-3---0-3b---0--|-8--7h8-7--7s|10-------------4|
G|2------------------------0|-7--7---7--7s|9/2------------4|
D|--------------------------|-------------|--2-------------|
A|--------------------------|-------------|--0--0-0-0-0-0--|
E|--------------------------|-------------|----------------|
Am
E|--------------|
B|--------------|
G|-------------5|
D|-------------5|
A|-0-0-0-0-0-0--|
E|--------------|

E|-----------------|-----------------------|
B|-----------------|-----------------------|
G|-----------------|-----------------------|
D|-----------------|-----------------------|
A|-0-0-0-0-0-0-0-0-|-0-0-0-0-0-0-0-0-0-0-0-|
E|-----------------|-----------------------|

F/A                Am
E|------------------|----------------|-----------------|
B|------------------|----------------|---------------5-|
G|--------------7---|-------7-----10-|-------10------5-|
D|------------------|-------7-----10-|-------10--------|
A|-0-0-0-0-0-0------|-0-0-0-0-0-0----|-0-0-0-----0-0---|
E|------------------|----------------|-----------------|

C5
E|------------------|
B|------------------|
G|-------5---5--0---|
D|-------5---5--0---|
A|-0-0-0-----3--0---|
E|------------------|

E|------------------------|-------------|---------------|
B|------------------------|-------------|---2-----------|
G|------------------------|-------------|---2---------7-|
D|------------------------|-------------|---2-----0---7-|
A|--0-0-0-0-0-0-0-0-0-0-0-|-0-0---0-0-0-|-0-----0---8---|
E|------------------------|-----3b-3----|---------------|

E|-----------------|
B|-------5--5s3----|
G|---9---5--5s4----|
D|---7-------------|
A|-8---9-----------|
E|-----------------|

Rhy Fig. 4
E5         C     D      G         B5              E5
no no no no no no no no  no I dont need your civil war!

D  G           B5              E5 C D
I dont need your civil war

G             B5                         E5
Your power hungry selling soldiers in a human grocry store,
aint that fresh!

(end Rhy Fig 4)
G          B5              B5                       C       D
I dont need your civil war, no no no no no no no no no no ah

Outro solo
W/Rhy Fig 4
G                                  B5
E|-----------------------------------------|
B|-----12-15----12-15----12-12-15----12-15-|
G|-14b-------14-------14----------14-------|
D|-----------------------------------------|
A|-----------------------------------------|
E|-----------------------------------------|

E5
E|-----------------------------------------|
B|-----12-15----12-15-----12-15-----15-----|
G|-14b-------14-------14b-------14b----14b-|
D|-----------------------------------------|
A|-----------------------------------------|
E|-----------------------------------------|

E|-----------------------------------------------|
B|----15----12-----12-15-----12-15-----12-15-----|
G|-14----14----14b-------14b-------14b-------14b-|
D|-----------------------------------------------|
A|-----------------------------------------------|
E|-----------------------------------------------|

G
E|---------------------------------|
B|----15----12-15p12----12-15b-15b-|
G|-14----14----------14------------|
D|---------------------------------|
A|---------------------------------|
E|---------------------------------|

B5
E|-12-----12----------------------------|
B|----15b----15p12----15-12-13h15p13p12-|
G|-----------------12------------------1|
D|--------------------------------------|
A|--------------------------------------|
E|--------------------------------------|

E5
E|------------------------------------15b-|
B|----12----------------------------------|
G|-15----15-14-14b-14-p12----14----12-----|
D|------------------------14----14--------|
A|----------------------------------------|
E|----------------------------------------|

E|-15b-15-14-15-14h15p14p12-|
B|--------------------------|
G|--------------------------|
D|--------------------------|
A|--------------------------|
E|--------------------------|

C                  D
E|-15----12h14p12----12-14b-14s-----|----20b-----20-|
B|----15----------15------------s15-|-17----(20b)---|
G|----------------------------------|---------------|
D|----------------------------------|---------------|
A|----------------------------------|---------------|
E|----------------------------------|---------------|

E5
E|-19-20-19h20p18p17-19--17-----|-----------------------------|
B|--------------------------19b-|-19-17-19b--19-p17----17-15b-|
G|------------------------------|-------------------16--------|
D|------------------------------|-----------------------------|
A|------------------------------|-----------------------------|
E|------------------------------|-----------------------------|

G             B5
E|----12-------------------|-17b--17-15-17-17-|
B|-15----15-12-------------|------------------|
G|-------------14-14-12----|------------------|
D|----------------------14-|------------------|
A|-------------------------|------------------|
E|-------------------------|------------------|

E5
E|-17--15-17-15-17b-p15-17-15|
B|---------------------------|
G|---------------------------|
D|---------------------------|
A|---------------------------|
E|---------------------------|

C           D
E|-17b--15b---------------|----12-------------------||
B|----------17--15h17-15b-|-15----15-12-------------||
G|------------------------|-------------14----12----||
D|------------------------|----------------14----14-||
A|------------------------|-------------------------||
E|------------------------|-------------------------||

G
E|-------------------------|-------------------|
B|-------------------------|-------------------|
G|-12--7s9s7--4--4---------|---7s9-9-----------|
D|-----------------7s9s7s5-|-----------7s9s7s5-|
A|-----5s7s5--2--2---------|---5s7-7-----------|
E|-----------------5s7s5s3p|0----------5s7s5s3-|

E|---------------------|
B|---------------------|
G|---7s9s5-4-4---------|
D|-5-----------7s9s7s5-|
A|---5s7s5-2-2---------|
E|-3-----------5s7s5s3p|

E|----------------|----------------------|-----------------|
B|----------------|----------------------|-----------------|
G|--7s9-----------|----7s9s7-4-4---------|--7s9s7----------|
D|--------7s9s7s5-|-5------------7s9s7s5-|---------7s9s7s5-|
A|--5s7-----------|----5s7s5-2-2---------|--5s7s5----------|
E|0-------5s7s5s3-|-3------------5s7s5s3p|0--------5s7s5s3-|

E|---------------------|------------------|-------------||
B|---------------------|------------------|-------------||
G|---7s9s7-4-4---------|----7s9-----------|----7s9s7-4--||
D|-5-----------7s9s7s5-|----------7s9s7s5-|-5-----------||
A|---5s7s5-2-2---------|----5s7-----------|----5s7s5-2--||
E|-3-----------5s7s5s3p|0---------5s7s5s3-|-3-----------||

Вверх

Coma

 intro: w/ heartbeat
Riff A
E|-------------------------------------------------------------|
B|-------------------------------------------------------------|
G|-------------------------------------------------------------|
D|-6---5---4-4-----5---6---5-----------5---6---5-----------5-5-|
A|-4-0-3-0-6-6-0-0-3-0-4-0-3-0-4-7-4-0-3-0-4-0-3-0-4-7-4-0-3-3-|
E|-------------------------------------------------------------|

E|---------------|
B|---------------|
G|---------------|
D|-4---6---5---6-|
A|-2-0-4-0-3-0-4-|
E|---------------|

E|---------------------|
B|--------13-13--12-12-|
G|--------14-14--12-12-|
D|-14-14--14-14--12-12-|
A|-12-12--12-12--10-10-|
E|---------------------|
hey, you caught me in a coma an i dont think i wanna

E|---------------------|
B|-11-11--10-10---9--9-|
G|-12-12--10-10--10-10-|
D|-12-12--10-10--10-10-|
A|-10-10---8--8---8--8-|
E|---------------------|
ever come back to this world again kinda like it in a coma

E|-----|
B|-----|
G|-x-x-|
D|-x-x-|
A|-x-x-|
E|-----|
cause no ones ever gonna

Ab5         Eb5             G5          D5
oh make me come back to this  world again now i feel as if im

floating away i cant feel

E|------------|
B|-5-5---4-4--|
G|-5-5---5-5--|
D|-5-5---5-5--|
A|-3-3---3-3--|
E|------------|
all the pressure and i like it this way but my bodys callin

Eb5          Bb5              D5        A5
my bodys callin wont ya come back to this world again
suspended deep

E|-3-3-|
B|-3-3-|
G|-4-4-|
D|-5-5-|
A|-5-5-|
E|-3-3-|
in a sea of black ive got the light at the end ive got the
bones

B5
E|-3-3-|
B|-3-3-|
G|-3-3-|
D|-5-5-|
A|-5-5-|
E|-3-3-|
on the mast well ive gone sailing ive
gone sailing i could leave

F#5  B5                      C5 C#5
so easily while friends are callin
D5                    A5
back to me i said theyre leaving

E5            G5                D5      C#5 C5
it all up to me when all i needed was clarity an

B5 C5  B5  C5  B5  C5  B5  C5   B5 C5 B5 C5
someone to tell me what the fuck is goin on

w/ heartbeat
E|-------------------------------------------------------------|
B|-------------------------------------------------------------|
G|-------------------------------------------------------------|
D|6---5---4-4----5---6---5-----------5---6---5----------5-5-4--|
A|4-0-3-0-6-6-0-03-0-4-0-3-0-4-7-4-0-3-0-4-0-3-0-4-7-4-03-3-2-0|
E|-------------------------------------------------------------|

E|-------------------------|
B|-------------------------|
G|-------------------------|
D|-6---5-----------5-5-4-3-|
A|-4-0-3-0-4-7-4-0-3-3-2-1-|
E|-------------------------|
God  -   damn  -   it!

w/EKG
E|-----|-------|---|---|----|-----------|
B|-----|-------|-7-|-8-|-11-|-(11)~~~~~-|
G|-----|-------|-7-|-7-|-10-|-(10)~~~~~-|
D|-2-2-|-------|---|---|----|-----------|
A|-0-0-|-0~~~~-|---|---|----|-----------|
E|-----|-------|---|---|----|-----------|

F5
slipin farther an farther an farther away its
C5
a miracle how long

B5  A#5  B5   A#5   B5   A#5
we can stay in a world our minds cre - at - ed
B5 A#5 B5   A#5    B5  A#5 B5
in  a world thats full of shit

Riff B
E|----------------------|
B|----------------------|
G|-4---3----4-4-----3---|
D|-2---1----2-2-----1---|
A|---0---0------3-0---0-|
E|----------------------|
Help me                Help me      Help me
[medical dialogue & sound effects]
w/Riff B(3x) & RiffA

A. D5.      A.  A5..   B5.
please understand me im climbing throught the wreckage of all

F#5
my twisted dreams but this cheap investigation
just cant stifle

F#.   C#.  F#. G5..
all my screams an im waiting at the
D.                     E5..
crossroads wainting for you

E5..                          A5..
waiting for you______________(where are you?)

half time feel
E|---0--------3-|----|-------0-|--------|-5------|-5---|
B|--------0-3---|----|-0h2-----|--------|---5----|---5-|
G|------0-------|-r4-|---------|------2-|-----r4-|-----|
D|----4---------|----|---------|-2h4----|--------|-----|
A|-0------------|----|---------|--------|--------|-----|
E|--------------|----|---------|--------|--------|-----|

E|--------------3-----------------------------2--------5-------|
B|----5--4--2----------3-------------------------------------2-|
G|-----------------0-------2--------------0-------2------------|
D|------------------------------------4------------------------|
A|-0------------------------------0----------------------------|
E|-------------------------------------------------------------|
no ones gonna bother me anymore no ones gonna mess with
my head no more

E|---------------3-------------------|
B|-----5--4--2----------3-------5/75-|
G|------------------0-------2--------|
D|-----------------------------------|
A|-0---------------------------------|
E|-----------------------------------|
i cant understand what all the fightins for

E|----0--------2--------5------------------|
B|-----------------------------2-----------|
G|---------0-------2-------2------------r2-|
D|-----------------------------------------|
A|-0---------------------------------------|
E|-----------------------------------------|
but its so nice here down off the shore

E|---------------3-----------------2--------5------0---------0-|
B|-----5--4--2----------3----------------------------0-----2---|
G|-------------------0-----------------0-------2-------2-------|
D|-----------------4-------------------------------------------|
A|-0----------------------------0------------------------------|
E|-------------------------------------------------------------|
wish you could see this cause theres nothing to see its
peacefull here and its fine with me

E|-------------3------------0h2---0-----2---5------------------|
B|----5--4--2--------3---------------------------3-2tr(3)~~~~~-|
G|----------------0------------------0----2---2----------------|
D|---------------------4---------------------------------------|
A|-0----------------------------0------------------------------|
E|-------------------------------------------------------------|
not like the world where i used to live i never really wanted
to live

E|-------------3---------------------------3--5-------------|
B|----5--4--2----------3--3-------------3-----------------2-|
G|------------------0--------0-------0--------------------2-|
D|---------------4---------------4----------------4---2---2-|
A|-0--------------------------------------------------------|
E|----------------------------------------------------------|

E|---------------------------------------------------------|
B|---------------------------------------------------------|
G|---------------------------------------------------------|
D|-6---5---4-4-----5---6---5-----------5---6---5-----------|
A|-4-0-3-0-6-6-0-0-3-0-4-0-3-0-4-7-4-0-3-0-4-0-3-0-4-7-4-0-|
E|---------------------------------------------------------|

E|---------------------------------|
B|---------------------------------|
G|---------------------------------|
D|-5-5-4---6---5-------------------|
A|-3-3-2-0-4-0-3-0-4-3-2-1-0-------|
E|---------------------------0-1-2-|

guitar solo:
E|----------3---------3---------3---------3---------3-------3-|
B|-6p3----3---6-----3---6-----3---6-----3---6-----3---6--6^---|
G|-----5^--------5^--------5^--------5^--------5^-------------|
D|------------------------------------------------------------|
A|------------------------------------------------------------|
E|------------------------------------------------------------|

E|--------|
B|-6p3-6^-|
G|--------|
D|--------|
A|--------|
E|--------|

E|3---3-6-3---3-6p3---3-6p3---3-6p3---3-6p3---3-6p3---3-6p3----|
B|--6-------6-------6-------6-------6-------6-------6-------6p3|
G|-------------------------------------------------------------|
D|-------------------------------------------------------------|
A|-------------------------------------------------------------|
E|-------------------------------------------------------------|

E|7p4-----8p5-----9p6-----10p7---------------------------------|
B|----7p4-----8p5-----9p6------12^-r12p10----12^-r12-p10----12~|
G|----------------------------------------11-------------11----|
D|-------------------------------------------------------------|
A|-------------------------------------------------------------|
E|-------------------------------------------------------------|

E|---------------------------10--------------------------------|
B|-/15-(15)-13p12-13-1211------13^---------r-----10-(10)---r13-|
G|---------------------------------------------10--------------|
D|-------------------------------------------------------------|
A|-------------------------------------------------------------|
E|-------------------------------------------------------------|

E|------------------------------------13-----------------------|
B|-11--(11)h13p1110---11-10--9---13^----13-(13)~~~~~~~------13-|
G|-----------------------------------------------------12h14---|
D|-------------------------------------------------------------|
A|-------------------------------------------------------------|
E|-------------------------------------------------------------|

E|----------|
B|-(13)~~~~-|
G|----------|
D|----------|
A|----------|
E|----------|

E|------------------15-----------------------------------------|
B|----13-15^--(15)-----r15-(15)~~~~~-------15-(15)~~~~~~----15-|
G|-12--------------------------------14h16---------------14----|
D|-------------------------------------------------------------|
A|-------------------------------------------------------------|
E|-------------------------------------------------------------|

E|----------17----|
B|-17^-(17)---r17-|
G|----------------|
D|----------------|
A|----------------|
E|----------------|

E|-------------------------------------------------------------|
B|-15^-15^-(15)-(15)~~-(15)-r(15)p13----15^-(15)-(15)-(15)-r15-|
G|-----------------------------------14------------------------|
D|-------------------------------------------------------------|
A|-------------------------------------------------------------|
E|-------------------------------------------------------------|

E|-------------------------------------------------------------|
B|13h15--------------------------------------------------------|
G|------14^-(14)-12-14----12-(12)~~~-------------------14----12|
D|---------------------14------------------12-14-12-14----14---|
A|-----------------------------------13-14---------------------|
E|-------------------------------------------------------------|

E|-------------------------------------------------------13----|
B|-----12-15-----12-----12---------------------15-----13----13-|
G|-14^-------14^----14^----14^r-12----14----12-14^-14----------|
D|---------------------------------14----14--------------------|
A|-------------------------------------------------------------|
E|-------------------------------------------------------------|

E|-13----------|
B|----16^-(16)-|
G|-------------|
D|-------------|
A|-------------|
E|-------------|

E|-15-14-13----------------------------13-14-15--------18^r^~~-|
B|----------16^(gradual bend)-(16)--17----------r15-13---------|
G|-------------------------------------------------------------|
D|-------------------------------------------------------------|
A|-------------------------------------------------------------|
E|-------------------------------------------------------------|

E|-17^--(17)-r^----17^r^-----17^//////--17^--(17)-|
B|------------------------------------------------|
G|------------------------------------------------|
D|------------------------------------------------|
A|------------------------------------------------|
E|------------------------------------------------|

w/ bitching
E|----------------------|----|
B|----------------------|----|
G|----------------------|-%--|
D|-4---3----4-4-----3---|-3x-|
A|-2---1----2-2-----1---|----|
E|---0---0------3-0---0-|----|

E|-------------------------------------------------------------|
B|-------------------------------------------------------------|
G|-------------------------------------------------------------|
D|-6---5---4-4-----5---6---5-----------5---6---5-----------5-5-|
A|-4-0-3-0-6-6-0-0-3-0-4-0-3-0-4-7-4-0-3-0-4-0-3-0-4-7-4-0-3-3-|
E|-------------------------------------------------------------|

E|---------------|
B|---------------|
G|---------------|
D|-4---6---5---6-|
A|-2-0-4-0-3-0-4-|
E|---------------|

E|------------------------------------|
B|------------------------------------|
G|------------------------------------|
D|-6-----5-----------------5--5--4--3-|
A|-4--0--3--0--4--7--4--0--3--3--2--1-|
E|------------------------------------|

Вверх

Crash Diet

E|-----------------------------------------|
B|-----------------------------------------|
G|-------0--------0----------0-------0-----|
D|-----4---4----2---2------2---2---0---0---|
A|---5--------4-------4--3-------2-------2-|
E|-----------------------------------------|

To get the rhythm right listen to the recording, also I havent
got a clue if this is right or not so dont bother sending me
mails about it being in the wrong key or octave or whatever,
play around with it in a different key until you get it sounding
like you want it to sound.

Вверх

Dead Horse

Intro:
A5                B5 G#5  F#5      G#5   A5  G#5 A5 G#5 A5
sick of this life,     not that youd care
B5      E5
im not the only one with

F#5 G5 G#5 A5      B5        C#5 G#5
whom these feelings i share       nobody understands
A5   B5   A5
quite why were here

G#5 A5 G#5 A5          G#5  A5  B5     E5
were searchin for answers  that never appear
F#5 G5 G#5 A5
but maybe if i looked

G#5       F#5 G#5 A5   G#5 A5 G#5 A5
real hard id, id see ya tryin to,
B5                  E5
to understand this life,

F#5 G5 G#5 A5 B5 G#m A A
that were all goin through

A                           B     E   Esus4
(then when she said she was gonna like wreck
my car i didnt know what to do) woh!

Chorus:
A5                        E5
sometimes i feel like im beating a dead horse and i
A5
dont know why
E5                A5
youd be bringing me down, id like to think that our
E5
loves worth
A5                   E5
a tad more it may sound funny but youd think
F#5
by now id be smiling
G#5 A5                          E5 E6 E5 E6 E5
i guess some things never change
E6 E5 E6  E5  E6 E5 E6 E5 E6 E5 E6
woh,  never change

Verse:
A5           B5     G#5                    A5 G#5 F#5 E5 A5
i met an old cowboy, i saw the look in his eyes  something
tells me
B5                     E
hes been here before cause
E5                         A5
experience makes you wise, i was only a
B5                    G#5
small child when the thought first came
A5
to me that im the son of a
B5                E5
gun and the gun of a son that brought back the devil in me

[chorus]

Bridge:
C#m                        F#
i aint quite what youd call an old soul
C#m                  F#
still wet behind the ears i
C#m                F#
been around this track a couple of times
A5
but now the    dust is starting
B5
to clear_______ oh_______  yeah!

Solo:
E|----------------------------------------------------0--------|
B|-14fbrp12----9/10~---------12-----0-9/10~~----------0--------|
G|----------14-------11hbr-9----9~~----------11hbr-9-11-(11)fb-|
D|-------------------------------------------------------------|
A|-------------------------------------------------------------|
E|-------------------------------------------------------------|

E|--------------------------------------------------9-hbfb-r-9-|
B|-0-10-9/10~~~~~--10---------12---0-10fb-10fb~~-12------------|
G|--------------------11fbr-9----9-----------------------------|
D|-------------------------------------------------------------|
A|-------------------------------------------------------------|
E|-------------------------------------------------------------|

E|-------------------------------------9-12----14fbrp12-14-14~-|
B|-12-11-(11)p9-----------9--12fb-12~-------9------------------|
G|--------------11-11~~~~--------------------------------------|
D|-------------------------------------------------------------|
A|-------------------------------------------------------------|
E|-------------------------------------------------------------|

E|---------9-------12fb---9-----------9------12--9------19-19~-|
B|-0-12fb----12-9-----------12-9-12-----12-9-------12-9--------|
G|-------------------------------------------------------------|
D|-------------------------------------------------------------|
A|-------------------------------------------------------------|
E|-------------------------------------------------------------|

E|-19-21-21hb-21fb~-(21)---------------------------------------|
B|------------------------------------------------------19-----|
G|-----------------------16-18-hbfb-18-18-16-18-18fbr-16--18fb-|
D|-------------------------------------------------------------|
A|-------------------------------------------------------------|
E|-------------------------------------------------------------|

chorus: A5                        E5
E|-------------------------------------------------------------|
B|-16------16--------------------------------------------------|
G|----18fb----18-16-18-16-----14~~~~~~~~~~~~~~~~~~(14)13~~~~~~-|
D|-------------------------------------------------------------|
A|-------------------------------------------------------------|
E|-------------------------------------------------------------|
some times i feel like im beating a dead

A5                      E5
E|------------------------------------------------------|
B|------------------------------------------------------|
G|-11fb----------------------r--------9~~~~~~~~~~~~~~~~-|
D|------------------------------------------------------|
A|------------------------------------------------------|
E|------------------------------------------------------|
horse and i dont know why youd be bringing me down

A5                          E5                        A5
id like to think that our loves worth a tad more it may sound
E5
funny but youd think by now id be
A5     E5               A5
smiling Ooh yeah id be smilin

E5             A5               E5             A5
E|-----------------------------------------------------------|
B|-------------------------------------------12--------------|
G|-9rfb---------(9)~~~~~~(9)/13-(13)-------------------------|
D|-----------------------------------------------14fb-----r--|
A|-----------------------------------------------------------|
E|-----------------------------------------------------------|
no way id be smiling             ooh        smil  -  lin

E|-------------------------------------------------------------|
B|----------------------19---17-16-17---16~~~~----------19-----|
G|---------------------------------------------18fb--18----r18-|
D|-9/119~~~~~~~~-(9)/------------------------------------------|
A|-------------------------------------------------------------|
E|-------------------------------------------------------------|

E|-----------------------------------------|
B|----------------19-----------------------|
G|-16-18-16-18fb-----16----------16--------|
D|---------------------------18------19fb-~|
A|-----------------------------------------|
E|-----------------------------------------|

A5                B5 G#5  F#5     G#5   A5  G#5 A5 G#5 A5 B5 E5
sick of this life, not that youd care im not the only one with
F#5 G5 G#5 A5
whom these feelings i share

Version 2: (intro)

Tune down half step

A5                  B5               G#5         F#5 G#5  A5
E|-----------------------|----------------|--------------------|
B|-----------------------|----------------|--------------------|
G|-----------------------|----------------|--------------------|
D|-7----7---------7----9-|-9------9-----6-|-6-------4-/-6----7-|
A|-7----7---------7----9-|-9------9-----6-|-6-------4-/-6----7-|
E|-5----5----x----5----7-|-7---x--7-----4-|-4---x---2-/-4----5-|
Sick of this life not that youd care

G#5 A#5 G#5 A#5         B5            E5
E|--------------------|------------------|---------------------|
B|--------------------|------------------|---------------------|
G|--------------------|------------------|---------------------|
D|-7----6-/-7---6-/-7-|-7-----7--9--9----|-9--2--2-----2-----2-|
A|-7----6-/-7---6-/-7-|-7-----7--9--9----|-9--2--2-----2-----2-|
E|-5-x--4-/-5---4-/-5-|-5--x--5--7--7--x-|-7--0--0--0--0--0--0-|
Im not the only one with whom these feelings I share

F#5   G    G#5   A5          B5    C#5 G#5    A5  B5 A5
E|--------------------------|-----------------|----------------|
B|--------------------------|-----------------|----------------|
G|--------------------------|-----------------|----------------|
D|-2------------------------|-7----7--9-9---11|-6-6---7-/-9--7-|
A|-2--2--4--4--5--5--6--6--7|-7----7--9-9---11|-6-6---7-/-9--7-|
E|-0--0--2--2--3--3--4--4--5|-5-x--5--7-7-x--9|-4-4-x-5-/-7--5-|
Nobody understands quite why were here...

Вверх

Don’t Cry
mp3

This is the main guitar line.  It, or minor variations of it, repeats
Throughout the song.

Am            Dm            G
E|-------0-------------1---------------3-----------------------|
B|---------1---------3---3---------------3---------------------|
G|-----2-----2-----2-------2---------0-----0-------0-----0-----|
D|---2---------0-0-----------------0-------------0-----0-------|
A|-0-------------------------0---2-----------0-3-----2-----3-2-|
E|-----------------------------3-------------------------------|

The chorus is basically:

F  G  Am

And, according to Guitar for the Practicing Musician, the loud
Distorted chords in the middle of the song are:

C5  G/B  A5  G5  F5  G5  A5

Double Talkin' Jive
(Guns N Roses - Use Your Illusion I)

Main Riff:

E|----------------------------------------------|
B|----------------------------------------------|
G|----------------------------------------------|
D|---2--2------2--2-----------------------------|
A|---2--2------2--2----------------2p--0--------|
E|---0--0---0----------0---3p--0----------3p--0-|

Palm mute the 6th string slightly.


Solo:

-----------------------------------------------------------|
----------------------------------------------H-P-----H----|
---------[[1]]----[[1]]---H-P----4~~~~~-/-7-5-7-5--4-5~~~~-|
2-/-3~~~-3---3~~~-3---3-2-3-2------------------------------|
------------------------------2----------------------------|
-----------------------------------------------------------|

------------------H-P-----H-----------------------H--P---------H-|
--8--6-5-6--/-8-6-8-6--5-6----/-12--/-15~~~-13--15-13----12-13---|
5---------------------------4------------------------------------|
-----------------------------------------------------------------|
-----------------------------------------------------------------|
-----------------------------------------------------------------|
H[[1]]            H  P
---15--13-13-12-13----13-12~~~-12-13-1210--H--|
13-----------------------------------------12-|
----------------------------------------------|
----------------------------------------------|
----------------------------------------------|
----------------------------------------------|
[[1/2]]
---H-P-----------------------------------------[[1]]------19------19~~~-|
8-12-8--H--P--------H-P-----------------------18----18-17---------------|
-------11-10-----9-10-9---1210---/14~~~--/17----------------------------|
------------------------------------------------------------------------|
------------------------------------------------------------------------|
------------------------------------------------------------------------|
[[1]]
-20---20~~------------20-19-20------------[[1/2]]-----19-18-19-|
------------18-17-18------------18-17-18-17-----17~~-----------|
---------------------------------------------------------------|
---------------------------------------------------------------|
---------------------------------------------------------------|
---------------------------------------------------------------|
rake
---19----19--------x--------------------------------------------|
17----17----17------x--------[[1]]------------------------------|
---------------------x-9-12-10----10(10)(10)~~~--12--10--12--10-|
----------------------------------------------------------------|
----------------------------------------------------------------|
----------------------------------------------------------------|

------------------------------------------------------------------------|
------------------------------------------------------------------------|
X-x-10 9-(9)-(9)~~~--4-(4)-(4)-(4)~~~-----------------------------------|
---------------------------------------6-(6)-(6)~~~-2-(2)-(2)~~~--2-/-3-|
------------------------------------------------------------------------|
------------------------------------------------------------------------|

--------------------------------------------7~~~~-|
----------------3-/-6~~~--5-6-5-6-5-6-------------|
-------2--3--5------------------------6--4--------|
-3--5---------------------------------------------|
--------------------------------------------------|
--------------------------------------------------|


[Stuff Missing] -accoustic

Notes:
[[x]] - x step bend
~~~   - vibrato
H     - Hammer on
P     - Pull off
/    - Slide
(x)   - Strike note while last one still ringing

Вверх

Double Talkin Jive

E|-----------------------------------------------------------|
B|----------------------------------------------H-P-----H----|
G|---------[[1]]----[[1]]---H-P----4~~~~~-/-7-5-7-5--4-5~~~~-|
D|2-/-3~~~-3---3~~~-3---3-2-3-2------------------------------|
A|------------------------------2----------------------------|
E|-----------------------------------------------------------|

E|---------------H-P----H-----------------------H--P---------H-|
B|---8-6-5-6/8-6-8-6-5-6----/-12--/-15~~~-13--15-13----12-13---|
G|-5----------------------4------------------------------------|
D|-------------------------------------------------------------|
A|-------------------------------------------------------------|
E|-------------------------------------------------------------|
H[[1]]            H  P
E|---15--13-13-12-13----13-12~~~-12-13-1210--H--|
B|13-----------------------------------------12-|
G|----------------------------------------------|
D|----------------------------------------------|
A|----------------------------------------------|
E|----------------------------------------------|
[[1/2]]
E|---H-P------------------------------------[[1]]------19-19~~-|
B|8-12-8--H--P-----H-P---------------------18----18-17---------|
G|-------11-10--9-10-9--1210--/14~~~--/17----------------------|
D|-------------------------------------------------------------|
A|-------------------------------------------------------------|
E|-------------------------------------------------------------|
[[1]]
E|-20--20~~------------20-19-20-----------[[1/2]]-----19-18-19-|
B|-----------18-17-18-----------18-17-18-17-----17~~-----------|
G|-------------------------------------------------------------|
D|-------------------------------------------------------------|
A|-------------------------------------------------------------|
E|-------------------------------------------------------------|
rake
E|---19----19--------x-----------------------------------------|
B|17----17----17------x--------[[1]]---------------------------|
G|---------------------x-9-12-10----10(10)(10)~~~--12-10-12-10-|
D|-------------------------------------------------------------|
A|-------------------------------------------------------------|
E|-------------------------------------------------------------|

E|-------------------------------------------------------------|
B|-------------------------------------------------------------|
G|x-x-10 9-(9)-(9)~-4-(4)-(4)-(4)~~~---------------------------|
D|-----------------------------------6-(6)-(6)~-2-(2)-(2)~-2/3-|
A|-------------------------------------------------------------|
E|-------------------------------------------------------------|

E|--------------------------------------------7~~~~-|
B|----------------3-/-6~~~--5-6-5-6-5-6-------------|
G|-------2--3--5------------------------6--4--------|
D|-3--5---------------------------------------------|
A|--------------------------------------------------|
E|--------------------------------------------------|

Вверх

Down On The Farm

Intro :-
(1st Guitar repeats four times)
(2nd Guitar does short vertical pickslides on D string approx.
1" from pickup)
E|-----------------------|---------------|
B|-----------------------|---------------|
G|---------2--------4----|-2--------4----|
D|--(2)(2)-2--4--2--2--2-|-2--4--2--2--2-|
A|--(2)(2)----2--2-----2-|----2--2-----2-|
E|-----------------------|---------------|

(2nd Guitar repeat twice)
(Enter at start of third repetition of 1st Guitar)
E|-----------------------|---------|
B|-----------------------|---------|
G|------------2----------|-2-------|
D|--(2)(2)(2)-2--4--2----|-2--4--2-|
A|--(2)(2)(2)----2--2----|----2--2-|
E|-----------------------|---------|

(1st Guitar pickslides)
(Both play) Riff before verse (Repeat twice) :-
E|------------------------------------------|
B|------------------------------------------|
G|------------------------------------------|
D|--2----------------5--3----------5--7-----|
A|--2------7--5------3--1----------3--5-----|
E|---------5--3-----------------------------|

(Both play) Riff during verse (Repeat four times):-
E|------------------------------------------|
B|------------------------------------------|
G|------------------------------------------|
D|--2----------------5--7----------5--------|
A|--2------7--5------3--5----------3--7-----|
E|---------5--3-----------------------5-----|

(Both play) Riff before verse (Repeat twice):-
E|------------------------------------------|
B|------------------------------------------|
G|------------------------------------------|
D|--2----------------5--3----------5--7-----|
A|--2------7--5------3--1----------3--5-----|
E|---------5--3-----------------------------|

(Both play) Riff during verse (Repeat four times):-
E|------------------------------------------|
B|------------------------------------------|
G|------------------------------------------|
D|--2----------------5--7----------5--------|
A|--2------7--5------3--5----------3--7-----|
E|---------5--3-----------------------5-----|

(1st Guitar) Riff during solo (Repeat four times):-
E|------------------------------------------|
B|------------------------------------------|
G|------------------------------------------|
D|--4--4----4--4----4--3------------7-------|
A|--2--2----2--2----2--1--7--5------5-------|
E|------------------------5--3--------------|

(Both play) Riff before verse (Repeat twice) :-
E|------------------------------------------|
B|------------------------------------------|
G|------------------------------------------|
D|--2----------------5--3----------5--7-----|
A|--2------7--5------3--1----------3--5-----|
E|---------5--3-----------------------------|

(Both play) Riff during verse (Repeat nine times):-
E|------------------------------------------|
B|------------------------------------------|
G|------------------------------------------|
D|--2----------------5--7----------5--------|
A|--2------7--5------3--5----------3--7-----|
E|---------5--3-----------------------5-----|

(Both play) Final Riff :-
E|------------------------------------------|
B|------------------------------------------|
G|------------------------------------------|
D|--2----------------5--7-7-7-7-7-etc..--2--|
A|--2------7--5------3--5-5-5-5-5-etc..--2--|
E|---------5--3-----------------------------|

(2nd Guitar) Solo in the middle of the song (b slight bend)
(Repeat twice) :-
E|------------------------------------------|
B|------15-------15-------15----------------|
G|--16b------16b------16b-----14--14h16-14--|
D|------------------------------------------|
A|------------------------------------------|
E|------------------------------------------|

E|------------------------------------------|
B|------------------------------------------|
G|------10-------10-------10----------------|
D|--11b------11b------11b-----9---9h11---7--|
A|------------------------------------------|
E|------------------------------------------|

All I need is some inspiration,
Before I do somebody some harm.
I feel just like a vegetable,
Down here on the farm.
No body comes to see me,
No body here to turn me on.
I aint even got a lover,
Down here on the Farm.

They told me to get healthy,
They told me to get some sun.
But boredom eats me like cancer,
Down here on the farm.
Drinking lemonade shandy,
Aint nobody here to do me harm.
But Im like a fish out of water.
Down here on the farm.

I write a thousand letters,
til my fingers all go numb.
But I, never see no postman,
Down here on the farm.
I called my baby on the telephone,
I say come down and have some fun,
But she knows what the score is,
Down here on the farm.
I cant fall in love with the wheat field!
I cant fall in love with the barn!
When everything smells like horses%!#
Down here on the farm.
Blue skies and swimming pools,
Add so much charm,
But Id rather be back in Soho,
Than down here on the farm.

On the f%&*!? farm!

Are you born in a f%&*!? barn or what?
Baaaa!

Hold still...

Вверх

Dust N Bones

Intro:
E5                                                    A5
He lost his mind today he left it out back on the high -
G    D/F#    E5
way on sixty five

E|-x---0---------3^-0----0-(0)---------------------------------|
B|-x---0-3^-3^-3------3^-------0-0-0-0-------0-3---0-----------|
G|-------------------------------------2-0-2^----2---2^-2-0-2-0|
D|-------------------------------------------------------------|
A|-------------------------------------------------------------|
E|---0---------------------------------------------------------|

E|---------|
B|---------|
G|---0-----|
D|-2---2-0-|
A|---------|
E|---------|

1st verse:
E|---------------------------------------------------0----0----|
B|---------------------------------------------------0-3^------|
G|----------------------------------------------------------2^-|
D|-7^r-5-7-5-5-----7^r-5-7-5-----5-7-7-5---5-------------------|
A|-------------7-------------5-7---------7---5^-5^-------------|
E|---------------0---------------------------------0-----------|

E|-0----0---------|
B|---3^---0-------|
G|----------2^rp0-|
D|----------------|
A|----------------|
E|----------------|

she loved him yesterday yesterdays over i said okay thats
alright time moves on thats the way we live an hope to see
the next day thats

alright
chorus:
D2   D2     D   Dsus4      D    D2  D2
sometimes these things they are so easy (to Coda)
D2   D2     D   Dsus4      D    D2  Em
sometimes these things they are so cold
D2   D2     D   Dsus4      D    D2  C5               C5
sometimes these things just seem to rip you right in two
B5 B5  B5  B5   B5   B5  B5 B5 B5
oh no man dont let em get ta you
E|---------|---0-----------------------------------------------|
B|---------|2----2--------------2------------------------------|
G|--------o|2^-----r2-2p0-2-x-2-2^-2-0-2-0-2-0-2^-2-0-2-0------|
D|4-------o|----------------------------------------------2p0--|
A|2-0------|--------------------------------------------------2|
E|----3-2--|---------------------------------------------------|
2nd verse:

E|-------------------------------------------------------------|
B|-------------------------------------------------------------|
G|-------------------------------------------------------------|
D|---7^r-5--7-5--5--------7^r-5--7-5-----5-7----7-5---5--------|
A|-----------------7-----------------5-7------------7---5^--5^-|
E|-------------------0-----------------------------------------|
She loved him yesterday he laid her sister she said ok an
thats...
buried her things today way back out deep behind the drive
way and...
(Coda)
E|---0-----0----0-----0---------|
B|---0--3^--------3^----0-------|
G|-----------2^-----------2^rp0-|
D|------------------------------|
A|------------------------------|
E|-0----------------------------|
alright
thats alright
chorus:
D2   D2     D     Dsus4  D    D2  D2
sometimes these   women are so easy (to Coda)
D2   D2     D   Dsus4  D    D2  Em
sometimes these women  are so cold
D2   D2     D   Dsus4   D   D2  C5               C5
sometimes these women  seem to rip you right in two
B5 B5  B5  B5   B5   B5  B5  B5 B5
only   if you  let  em  get ta you
bridge:
E
ya get out on your own and you take all that you own and you
E
forget agout your home and then youre just fuckin gone
Guitar solo:
B5   D5    A5 B5    D5  E5 A5 B5      D5     A5  B5
E|-----------------------------------17-----17-----------------|
B|-10--10--10----7---------------17^----17^----r17-------15----|
G|--9^--9^----r9---7-------7--------------------------14----16-|
D|-------------------9~-9----97--------------------14----------|
A|-------------------------------------------------------------|
E|-------------------------------------------------------------|

D5   E5    A5     B5                D5    A5
E|----------10-----------10-------10---------------------------|
B|-------10----10----10^----7-10^----7-10p9-7---7--------10----|
G|-0-/11--------------------------------------9---7-9^-9----9^-|
D|-------------------------------------------------------------|
A|-------------------------------------------------------------|
E|-------------------------------------------------------------|
B5
E|---7-7-|
B|---7-7-|
G|-9-----|
D|-------|
A|-------|
E|-------|
D5  E5      A5    B5
E|---7----7----------------------------------------------------|
B|10^--10^--10-7---7---7-------------9~---------------6-7-6---7|
G|---------------10--9---9^r-7---9p7-9~-7-9---9---7-9-------9--|
D|-----------------------------9------------9---9--------------|
A|-------------------------------------------------------------|
E|-------------------------------------------------------------|

D5         A5       B5                  D5  E5(7)  A5
E|-------------------------------------------------------------|
B|-6---7-------------------------------------------------------|
G|---9---9^r-7---9---7-6~-7p6-7-6---6-6------------------------|
D|-------------9---9--------------9-----9-7---7----------------|
A|------------------------------------------9----7^--7^rp5-7-7-|
E|-------------------------------------------------------------|

E|-------------------------------------------------------------|
B|-------------------------------------------------------------|
G|-------------------------------------------------------------|
D|-----------------5-------------------------5-6---------------|
A|-----7~~~~-7-5-----7-5---5-7---7~~~~-7-5-------7-5----5------|
E|-0-0-----------7-------7-----0-----------7---------/7---75-3-|

3rd verse:
E|-------------------------------------------------------------|
B|-------------------------------------------------------------|
G|-------------------------------------------------------------|
D|-7^r-5--7-5--5-----7^r-5--7-5-----5-7---7-5---5--------------|
A|---------------7--------------5-7-----------7------5^--5^----|
E|-----------------0-----------------------------------------0-|
theres no logic here today do as you got to go your own way i
said...
times short your lifes your own and in the end we are just
dust n...
E|--0-----0----0-----0---------|
B|--0--3^--------3^----0-------|
G|----------2^-----------2^rp0-|
D|-----------------------------|
A|-----------------------------|
E|-----------------------------|

thats right
bones
outro:
E|-------------------------------------------|
B|-------------------------------------------|
G|------------------------------------7-9-12-|
D|--------------------------5-7-8-9----------|
A|--------------------5-7--------------------|
E|-0-3---5p0-6p0----7-----0------------------|

thats alright dust n bones
E|---------------------------------------------------|
B|-14-14---(14)/x-x--14-14-14-14---12-(12)-----------|
G|-14-14---(14)/x-x--14-14-14-14---12-(12)-----------|
D|-----------------------------------------12--12h14-|
A|---------------------------------------------------|
E|---------------------------------------------------|

thats alright    dust n bones          thats alright
E|--------------------------------|--|---------------------|--|
B|-x-14-14-14-14-12-(12)----------|--|-14-14-x-x-12-12-x-x-|--|
G|-x-14-14-14-14-12-(12)----------|%-|-14-14-x-x-12-12-x-x-|%-|
D|-----------------------12-12h14-|6x|---------------------|5x|
A|--------------------------------|--|---------------------|--|
E|--------------------------------|--|---------------------|--|

E|-----------------------------------------------|
B|-14-(14)-14---14-----12--(12)----(12)--------9-|
G|-14-(14)-14---14-----12--(12)----(12)--------9-|
D|-----------------------------------------------|
A|-----------------------------------------------|
E|-----------------------------------------------|
just__ dust  n___ bones___________     yeah.___

Вверх

Estranged
mp3

Gm7         C              Gm7         C
E|---|----|------|--------|-----|----|------|--------|---------|
B|---|----|------|--------|-----|----|------|--------|---------|
G|---|----|------|--------|-----|----|------|--------|-----12b-|
D|---|----|------|--------|-----|----|------|--------|---------|
A|---|-10-|-(10)-|-(10)s3-|--3--|-10-|-(10)-|-(10)s3-|-(3)-----|
E|---|----|------|--------|-----|----|------|--------|---------|

G5                                 C5
E|-----------|-------13b-10-----|-----------13-----|-----------|
B|----11-15b-|----11---------13-|-13-13-13b----13b-|-13--(13)s-|
G|-12--------|-12---------------|------------------|-----------|
D|-----------|------------------|------------------|-----------|
A|-----------|------------------|------------------|-----------|
E|-----------|------------------|------------------|-----------|

G5                                      C5
E|------------------|-------13b---10-----|-------------13------|
B|-----11--15b-(15)-|----11----------13b-|-13-(13)-13b----13---|
G|-s12--------------|-12-----------------|---------------------|
D|------------------|--------------------|---------------------|
A|------------------|--------------------|---------------------|
E|------------------|--------------------|---------------------|

Bb5             C5          G5
E|-----------------------|---------13----|------------|--------|
B|-13--13b15p11-13p11----|-11--13b----13-|-13-13--12b-|(12)bbbb|
G|--------------------12-|---------------|------------|--------|
D|-----------------------|---------------|------------|--------|
A|-----------------------|---------------|------------|--------|
E|-----------------------|---------------|------------|--------|

Bb5            C5          G5
E|--------------------|--------13----|-----------|------|------|
B|(12)-13p12-13b13p12-|-11-13b----13-|-13-13-----|------|------|
G|--------------------|--------------|-------14b-|-(14)-|-(14)-|
D|--------------------|--------------|-----------|------|------|
A|--------------------|--------------|-----------|------|------|
E|--------------------|--------------|-----------|------|------|

Riff A
Eb5 F5          G5                    C5           Eb5   F5
E|--|------------|--------------------|------------------------|
B|11|-(11)-(11)s-|---------13s15-(15)s|-------13s15-(15)-13p12-|
G|--|------------|------12------------|----12------------------|
D|--|------------|---12---------------|-10---------------------|
A|--|------------|10------------------|------------------------|
E|--|------------|--------------------|------------------------|

G5                             Eb5  F5    G5
E|-------------------|---------------------|-------------------|
B|13p12----(15)-(15)s|-----13s15-(15)-13p12|13p12-------15-(15)|
G|-----12------------|---12----------------|------12-----------|
D|-------12----------|10-------------------|---------12--------|
A|-------------------|---------------------|-------------------|
E|-------------------|---------------------|-------------------|

(end Riff A)
Eb5 F5  G5    Eb5 F5     Gm   F      Eb     G
E|------|-----|----------|----|------|------|------|-----15-17b|
B|15s13-|-13b-|-11-11p10-|----|------|------|------|-----------|
G|------|-----|----------|-12-|-(12)-|-(12)-|-(12)-|-(12)------|
D|------|-----|----------|----|------|------|------|-----------|
A|------|-----|----------|----|------|------|------|-----------|
E|------|-----|----------|----|------|------|------|-----------|

F      Eb                           G5  F5           G5
E|-(17)-|---------------------|----------|------------|------|
B|------|-s13--11-10---11br10s|8------8--|------------|------|
G|------|---------------------|----------|-10b---(10)-|-(10)-|
D|------|---------------------|----------|------------|------|
A|------|---------------------|----------|------------|------|
E|------|---------------------|----------|------------|------|

F5                                   G5
And what more could you ask from me?

F5
How could you say that I never need-

G5          Eb5                   D5
-ed you_    when you took everything

F5
said you took everything from me?

w/Riff A
G5        C5 Eb5    F5  G5        C5   Eb5     F5 G5   Eb5 F5
E|---------|-------------|---------|---------------|----|------|
B|---------|-------------|---------|---------------|----|------|
G|---------|-------------|---------|---------------|----|------|
D|---------|---1-1-1-1-3-|-5-------|-----1-1-1-1-3-|-5--|--(5)-|
A|---5-6-5-|-3-----------|---5-6-5-|--3------------|----|------|
E|-3-------|-------------|---------|---------------|----|------|

G5   Eb5  Gm    F      Eb     Gm                    F
E|---|-----|----|------|------|------|-----15-15s17-|-18-18s20-|
B|---|-----|----|------|------|------|--------------|----------|
G|---|-----|-12-|-(12)-|-(12)-|-(12)-|-(12)---------|----------|
D|(5)|-(5)-|----|------|------|------|--------------|----------|
A|---|-----|----|------|------|------|--------------|----------|
E|---|-----|----|------|------|------|--------------|----------|

Eb                 Gm   Gm7               C
E|-(20)-18-17-18-15-|-15-|-(15)----|-(15)-|------------|-------|
B|------------------|----|---------|------|------------|-------|
G|------------------|----|---------|------|------------|----12b|
D|------------------|----|---------|------|------------|-------|
A|------------------|----|------10-|-(10)-|-(10)-10-s3-|-(3)---|
E|------------------|----|---------|------|------------|-------|

G5                                C5
E|-------------|-------13b--10-----|---------------13----|
B|----11--15b--|----11---------13b-|-13--(13)-13b-----13-|
G|-12----------|-12----------------|---------------------|
D|-------------|-------------------|---------------------|
A|-------------|-------------------|---------------------|
E|-------------|-------------------|---------------------|

Bb5               C5
E|--------13----------------|----------13----|-----------------|
B|-13-13b----13br(13)p11----|-11---13b----13-|-(13)---13---12b-|
G|-----------------------12-|----------------|-----------------|
D|--------------------------|----------------|-----------------|
A|--------------------------|----------------|-----------------|
E|--------------------------|----------------|-----------------|

G5                           Bb5             C5
E|----------|-----------------|----------13---|--------13-15-|
B|-(12)-----|-------13p12--12-|-11--13b----13-|-13-13b-------|
G|-------14b|-(14)------------|---------------|--------------|
D|----------|-----------------|---------------|--------------|
A|----------|-----------------|---------------|--------------|
E|----------|-----------------|---------------|--------------|

G5                    C5
E|-(15)-|-(15)---13p12-|-----|------||
B|------|--------------|-13--|--13--||
G|------|--------------|-----|------||
D|------|--------------|-----|------||
A|------|--------------|-----|------||
E|------|--------------|-----|------||

(Bass gtr & piano)

C5         Eb5                C5        Eb5
E|-----------|-----------------|---------|---------------------|
B|-----------|--------4-4p3----|3--------|---------4-4p3-4p3---|
G|-----5-----|------3-------5p3|----5----|-------3----------5p3|
D|---5-------|--3h5------------|--5------|---3h5---------------|
A|-3-----3-5-|6----------------|------3-5|-6-------------------|
E|-----------|-----------------|---------|---------------------|

C5          Eb5               Bb    F             C
E|-----------|-----------------|----|-1-----------|-0----------|
B|-3---------|---------4-3-----|-3--|-1-----------|-1--------1-|
G|-----5-----|-------3-----5-3-|----|-2---------2-|-0------0---|
D|---5-------|---3-5-----------|----|-3-------3---|-2----2-----|
A|-------3-5-|-6---------------|----|-3-----3-----|-3--3-------|
E|-----------|-----------------|----|-1---1-------|------------|

G             Bb    C    Bb  C   Bb  F           G/F
E|-------------|----|-----|---|-0-|---|-----------|------------|
B|-3-----------|-3--|--1--|-3-|-1-|-3-|-1---------|-3----------|
G|-0---------0-|-3--|--0--|-3-|-0-|-3-|-2-------2-|-0--------0-|
D|-0-------0---|-3--|--2--|-3-|-2-|-3-|-3-----3---|-0------0---|
A|-2-----2-----|-1--|--3--|-1-|-3-|-1-|-3---3-----|-2----2-----|
E|-3---3-------|----|-----|---|---|---|-1-1-------|-3--3-------|

Bb/F          F               C           G              Bb/F
E|------------|---------------|------------|--------------|----|
B|-3--------3-|-1---------1---|-1--------1-|-3------------|-1--|
G|-3------3---|-2-------2---0-|-0------0---|-0--------0-0-|-3--|
D|-3----3-----|-3-----3-------|-2----2-----|-0------0-----|-3--|
A|-1--1-------|-3---3---------|-3--3-------|-2----2-------|-3--|
E|------------|-1-------------|------------|-3--3---------|-1--|

C G F
E|-------------------------|-0-|
B|-------------------------|-1-|
G|-------------------------|-0-|
D|-------3-------------3---|-2-|
A|-------------------------|-3-|
E|-1--1----1--1--1--1----1-|---|

C                           G
E|--------------------|-0--|-----------|-0--------|------------|
B|--------------------|-0--|--1--1-----|-1--------|-3----------|
G|--------------------|-0--|--0-----0--|-0------0-|-0--------0-|
D|-----3----------3---|-2--|--2--------|-2----2---|-0------0---|
A|--------------------|-3--|--3--------|-3--3-----|-2----2-----|
E|-1-1---1-1-1-1----1-|----|-----------|----------|-3--3-------|

F          C          G            F             C
E|-----------|-0-------|------------|------------|--0----------|
B|-1-------1-|-1-------|-3----------|-1--------1-|--1--------1-|
G|-2-----2---|-0-----0-|-0--------0-|-2------2---|--0------0---|
D|-3---3-----|-2---2---|-0------0---|-3----3-----|--2----2-----|
A|-3-3-------|-3-3-----|-2----2-----|-3--3-------|--3--3-------|
E|-1---------|---------|-3--3-------|-1----------|-------------|

G  F    C             G            F            C
E|------|--0----------|-------------|------------|-0-----------|
B|-3--1-|--1--------1-|--3----------|-1--------1-|-1---------1-|
G|-0--2-|--0------0---|--0--------0-|-2------2---|-0-------0---|
D|-0--3-|--2----2-----|--0------0---|-3----3-----|-2-----2-----|
A|-2--3-|--3--3-------|--2----2-----|-3--3-------|-3---3-------|
E|-3--1-|-------------|--3--3-------|-1----------|-------------|

G             F            C           G   F
E|------------|------------|-----------|-------||
B|-3----------|-1--------1-|-1-------1-|-3---1-||
G|-0--------0-|-2------2---|-0-----0---|-0---2-||
D|-0------0---|-3----3-----|-2---2-----|-0---3-||
A|-2----2-----|-3--3-------|-3-3-------|-2---3-||
E|-3--3-------|-1----------|-0---------|-3---1-||

Guitar solo I
C                           Am
E|---------------------------|---------------------------|
B|---------------------------|---------------------------|
G|-5----------------5h7p5----|--5b---5-----------5h7p5---|
D|-------------5h7--------(7)|--------------5h7-------(7)|
A|---------------------------|---------------------------|
E|---------------------------|---------------------------|

C                            F
E|---------------------------|------------------------------|
B|-8-------------------------|----------------------------6-|
G|-----7b---7--5h7p5s4-5p4---|------------------------5s7---|
D|-------------------------5-|--5b-3-5---3--5--3--5s7-------|
A|---------------------------|---------5--------------------|
E|---------------------------|------------------------------|

C
E|-----6---6------8-8-8-----8-----8----|-----------------------|
B|-6s8---8---8s10-------11b---11b---11b|-11--------------------|
G|-------------------------------------|----------17h19p17-----|
D|-------------------------------------|----17h19---------(19)-|
A|-------------------------------------|-----------------------|
E|-------------------------------------|-----------------------|

G                                     F
E|---------------------------------|---------------------------|
B|---------------------------------|-----20-------------20p18--|
G|-17b--17----------17h19p17-------|-19b------17-17--19--------|
D|----------17h19-------------(19)-|---------------------------|
A|---------------------------------|---------------------------|
E|---------------------------------|---------------------------|

E|-----------------------------------|-------------------------|
B|18p17-18p17-18p17----17---17-------|--------17-18-20-18b-----|
G|------------------19---19b--19-17--|19b~-19--------------17b~|
D|---------------------------------19|-------------------------|
A|-----------------------------------|-------------------------|
E|-----------------------------------|-------------------------|

Pre-solo
/-w/delay-------F5------------
E|------------------------|------------------------------------|
B|13b-13b-------------13b-|15b-15-p13--15b--15b-15-13--13-15-13|
G|--------12b-12b-12b-----|----------14---14---------14--------|
D|------------------------|------------------------------------|
A|------------------------|------------------------------------|
E|------------------------|------------------------------------|

Guitar solo II
C5                              G5
E|------18----------18-----------|----18----------18-----------|
B|-18b-----18----18----18--16----|-18b---18----18----18--16----|
G|----------------------------17-|--------------------------17-|
D|-------------------------------|-----------------------------|
A|-------------------------------|-----------------------------|
E|-------------------------------|-----------------------------|

F5                       C5      G5           C5
E|---------------------|-------------------|-------------------|
B|-15-15---------------|-------------------|-------------------|
G|-------17-15---------|-------------------|-------15----------|
D|-------------17-15-13|----15b----------13|(13)-15b-15b-13-15b|
A|---------------------|-15--------13h15---|-------------------|
E|---------------------|--------15---------|-------------------|

G5
E|---------------------------------------15---|
B|---------------------15h16p15--15-16-18--18-|
G|------15-17-17--15-17--------17-------------|
D|-15-17--------17----------------------------|
A|--------------------------------------------|
E|--------------------------------------------|

F5
E|-18--15h18p15--15---------------------|
B|---18--------15---18b--18--16--16-----|
G|-----------------------------17--17p15|
D|--------------------------------------|
A|--------------------------------------|
E|--------------------------------------|

E|---------------------------------|
B|---------------------------------|
G|-17-17-15--15--------------------|
D|---------17--17-15-13-15-13----15|
A|---------------------------15-13-|
E|---------------------------------|

C5
E|------|------|-------------|
B|------|------|----------13-|
G|------|------|-------12----|
D|-(15)-|-(15)-|----14-------|
A|------|------|-15----------|
E|------|------|-------------|

G               F             C
E|--------------|-------------|---------10s12-|
B|-12--------12-|-10-------10-|-8-------------|
G|-12------12---|-10-----10---|-9-------------|
D|-12----12-----|-10---10-----|-10------------|
A|-10--10-------|-8---8-------|---------------|
E|--------------|-------------|---------------|

G                 F            C                G5
E|--10------------|------------|-0------------|-0--||
B|----------13s15-|--10--13s15-|-1s13---------|-1--||
G|-------12-------|------------|-0------------|-0--||
D|-----10---------|------------|-2------------|-2--||
A|----------------|------------|-3----0-------|-3--||
E|----------------|------------|---------3--0-|----||

A5               G5                 F5      G5
I knew the storm was getting clo-        er
A5                G5               F5       G5
And all my friends said I was high._________
A5            G5             F5
But evrything weve ever knowns here.
G5 A5     G5            F5 E
I never wanted it to die

Вверх

Estranged
mp3

     Gm7         C              Gm7         C
E|--|----|------|--------|-----|----|------|--------|--------------------||
B|--|----|------|--------|-----|----|------|--------|--------------------||
G|--|----|------|--------|-----|----|------|--------|-----12b------------||
D|--|----|------|--------|-----|----|------|--------|--------------------||
A|--|-10-|-(10)-|-(10)s3-|--3--|-10-|-(10)-|-(10)s3-|-(3)----------------||
E|--|----|------|--------|-----|----|------|--------|--------------------||

G5                                 C5
E|------------|-------13b----10-----|----------------13-----|-------------|
B|----11--15b-|----11------------13-|-13--13-----13b----13b-|-13---(13)s--|
G|-12---------|-12------------------|-----------------------|-------------|
D|------------|---------------------|-----------------------|-------------|
A|------------|---------------------|-----------------------|-------------|
E|------------|---------------------|-----------------------|-------------|

G5                                      C5
E|------------------|-------13b---10-----|-------------13----|
B|-----11--15b-(15)-|----11----------13b-|-13-(13)-13b----13-|
G|-s12--------------|-12-----------------|-------------------|
D|------------------|--------------------|-------------------|
A|------------------|--------------------|-------------------|
E|------------------|--------------------|-------------------|

Bb5             C5                G5
E|------------------------||---------13----|-----------------|------------|
B|-13---13b15p11-13p11----||-11--13b----13-|-13------13--12b-|--(12)bbbb--|
G|---------------------12-||---------------|-----------------|------------|
D|------------------------||---------------|-----------------|------------|
A|------------------------||---------------|-----------------|------------|
E|------------------------||---------------|-----------------|------------|

Bb5                C5             G5
E|---------------------|------------13----|--------------|------|---------|
B|(12)-13p12--13b13p12-|-11----13b-----13-|---13--13-----|------|---------|
G|---------------------|------------------|----------14b-|-(14)-|-(14)----|
D|---------------------|------------------|--------------|------|---------|
A|---------------------|------------------|--------------|------|---------|
E|---------------------|------------------|--------------|------|---------|

Riff A
Eb5  F5              G5                   C5           Eb5   F5
E|----|--------------||----------------------|------------------------|
B|-11-|-(11)---(11)s-||----------13s15-(15)s-|-------13s15-(15)-13p12-|
G|----|--------------||-------12-------------|----12------------------|
D|----|--------------||----12----------------|-10---------------------|
A|----|--------------||-10-------------------|------------------------|
E|----|--------------||----------------------|------------------------|

G5			              Eb5  F5     G5
E|-----------------------|------------------------|-----------------------|
B|-13p12------(15)-(15)s-|-------13s15-(15)-13p12-|-13p12--------15-(15)--|
G|-------12--------------|----12------------------|-------12--------------|
D|----------12-----------|-10---------------------|----------12-----------|
A|-----------------------|------------------------|-----------------------|
E|-----------------------|------------------------|-----------------------|

(end Riff A)
Eb5 F5  G5     Eb5   F5      Gm   F      Eb     G
E|-------|------|------------||----|------|------|------|---------15--17b-|
B|-15s13-|-13b--|-11---11p10-||----|------|------|------|-----------------|
G|-------|------|------------||-12-|-(12)-|-(12)-|-(12)-|-(12)------------|
D|-------|------|------------||----|------|------|------|-----------------|
A|-------|------|------------||----|------|------|------|-----------------|
E|-------|------|------------||----|------|------|------|-----------------|

F      Eb                           G5  F5           G5
E|-(17)-|---------------------|----------|------------|-------------------|
B|------|-s13--11-10---11br10s|8------8--|------------|-------------------|
G|------|---------------------|----------|-10b---(10)-|-(10)--------------|
D|------|---------------------|----------|------------|-------------------|
A|------|---------------------|----------|------------|-------------------|
E|------|---------------------|----------|------------|-------------------|

F5                                   G5
And what more could you ask from me?

F5
How could you say that I never need-

G5          Eb5                   D5
-ed you_    when you took everything

F5
Said you took everything from me?

w/Riff A
G5           C5  Eb5    F5  G5             C5   Eb5     F5 G5   Eb5 F5
E|------------|--------------|--------------|---------------|----|--------|
B|------------|--------------|--------------|---------------|----|--------|
G|------------|--------------|--------------|---------------|----|--------|
D|------------|----1-1-1-1-3-|--5-----------|-----1-1-1-1-3-|-5--|--(5)---|
A|-----5--6-5-|-3------------|------5---6-5-|--3------------|----|--------|
E|-3----------|--------------|--------------|---------------|----|--------|

G5    Eb5   Gm    F      Eb     Gm                     F
E|-----|-----||-----|------|------|------|-----15--15s17-|-18----18s20-|
B|-----|-----||-----|------|------|------|---------------|-------------|
G|-----|-----||-12--|-(12)-|-(12)-|-(12)-|-(12)----------|-------------|
D|-(5)-|-(5)-||-----|------|------|------|---------------|-------------|
A|-----|-----||-----|------|------|------|---------------|-------------|
E|-----|-----||-----|------|------|------|---------------|-------------|

Eb                     Gm     Gm7                C
E|-(20)---18--17-18--15-|-15--||-(15)-----|-(15)--|-------------|--------||
B|----------------------|-----||----------|-------|-------------|--------||
G|----------------------|-----||----------|-------|-------------|----12b-||
D|----------------------|-----||----------|-------|-------------|--------||
A|----------------------|-----||-------10-|-(10)--|-(10)--10-s3-|-(3)----||
E|----------------------|-----||----------|-------|-------------|--------||

G5                                C5
E|-------------|-------13b--10-----|---------------13----|
B|----11--15b--|----11---------13b-|-13--(13)-13b-----13-|
G|-12----------|-12----------------|---------------------|
D|-------------|-------------------|---------------------|
A|-------------|-------------------|---------------------|
E|-------------|-------------------|---------------------|

Bb5               C5
E|-----------13------------------||-----------13----|---------------------|
B|-13----13b-----13br(13)p11-----||-11---13b-----13-|-(13)---13---12b-----|
G|----------------------------12-||-----------------|---------------------|
D|-------------------------------||-----------------|---------------------|
A|-------------------------------||-----------------|---------------------|
E|-------------------------------||-----------------|---------------------|

G5			      Bb5               C5
E|----------|-----------------|------------13---|------------13--15-------|
B|-(12)-----|-------13p12--12-|-11----13b----13-|--13---13b---------------|
G|-------14b|-(14)------------|-----------------|-------------------------|
D|----------|-----------------|-----------------|-------------------------|
A|----------|-----------------|-----------------|-------------------------|
E|----------|-----------------|-----------------|-------------------------|

G5		       C5
E|-(15)-|-(15)---13p12-|-----|------||
B|------|--------------|-13--|--13--||
G|------|--------------|-----|------||
D|------|--------------|-----|------||
A|------|--------------|-----|------||
E|------|--------------|-----|------||


C5           Eb5                    C5            Eb5
E|------------|----------------------|-------------|----------------------|
B|------------|----------4---4p3-----|-3-----------|---------4--4p3-4p3---|
G|-----5------|--------3---------5p3-|-----5-------|-------3-----------5p3|
D|---5--------|----3h5---------------|---5---------|---3h5----------------|
A|-3------3-5-|-6--------------------|---------3-5-|-6--------------------|
E|------------|----------------------|-------------|----------------------|

C5           Eb5                   Bb      F              C
E|------------|---------------------|----|--|-1------------|-0------------|
B|-3----------|-----------4--3------|-3--|--|-1------------|-1--------1---|
G|-----5------|--------3-------5--3-|----|--|-2---------2--|-0------0-----|
D|---5--------|---3--5--------------|----|--|-3-------3----|-2----2-------|
A|--------3-5-|-6-------------------|----|--|-3-----3------|-3--3---------|
E|------------|---------------------|----|--|-1---1--------|--------------|

G             Bb   C     Bb    C     Bb    F             G/F
E|-------------|----|-----|-----|--0--|-----|-------------|---------------|
B|-3-----------|-3--|--1--|--3--|--1--|--3--|--1----------|-3-------------|
G|-0---------0-|-3--|--0--|--3--|--0--|--3--|--2--------2-|-0--------0----|
D|-0-------0---|-3--|--2--|--3--|--2--|--3--|--3------3---|-0------0------|
A|-2-----2-----|-1--|--3--|--1--|--3--|--1--|--3----3-----|-2----2--------|
E|-3---3-------|----|-----|-----|-----|-----|--1--1-------|-3--3----------|

Bb/F          F               C            G              Bb/F
E|------------|---------------|-------------|--------------|----|
B|-3--------3-|-1---------1---|-1---------1-|-3------------|-1--|
G|-3------3---|-2-------2---0-|-0-------0---|-0--------0-0-|-3--|
D|-3----3-----|-3-----3-------|-2-----2-----|-0------0-----|-3--|
A|-1--1-------|-3---3---------|-3---3-------|-2----2-------|-3--|
E|------------|-1-------------|-------------|-3--3---------|-1--|

C    G           F
|-------------------------|-0--|-----------|---------|
|-------------------------|-1--|-----------|---------|
|-------------------------|-0--|-----------|---------|
|-------3-------------3---|-2--|-----------|---------|
|-------------------------|-3--|-----------|---------|
|-1--1----1--1--1--1----1-|----|-----------|---------|

C			       G
E|-------------------------|-0--|-----------|-0--------|------------------|
B|-------------------------|-0--|--1--1-----|-1--------|-3----------------|
G|-------------------------|-0--|--0-----0--|-0------0-|-0--------0-------|
D|-------3-------------3---|-2--|--2--------|-2----2---|-0------0---------|
A|-------------------------|-3--|--3--------|-3--3-----|-2----2-----------|
E|-1--1----1--1--1--1----1-|----|-----------|----------|-3--3-------------|

F            C            G             F             C
E|------------|--0--------|-------------|-------------|--0----------------|
B|-1--------1-|--1--------|--3----------|--1--------1-|--1--------1-------|
G|-2------2---|--0------0-|--0--------0-|--2------2---|--0------0---------|
D|-3----3-----|--2----2---|--0------0---|--3----3-----|--2----2-----------|
A|-3--3-------|--3--3-----|--2----2-----|--3--3-------|--3--3-------------|
E|-1----------|-----------|--3--3-------|--1----------|-------------------|

G   F     C              G            F            C
E|--------|--0-----------|-------------|------------|-0-------------------|
B|-3---1--|--1---------1-|--3----------|-1--------1-|-1---------1---------|
G|-0---2--|--0-------0---|--0--------0-|-2------2---|-0-------0-----------|
D|-0---3--|--2-----2-----|--0------0---|-3----3-----|-2-----2-------------|
A|-2---3--|--3---3-------|--2----2-----|-3--3-------|-3---3---------------|
E|-3---1--|--------------|--3--3-------|-1----------|---------------------|

G             F            C           G   F
E|------------|------------|-----------|-------||
B|-3----------|-1--------1-|-1-------1-|-3---1-||
G|-0--------0-|-2------2---|-0-----0---|-0---2-||
D|-0------0---|-3----3-----|-2---2-----|-0---3-||
A|-2----2-----|-3--3-------|-3-3-------|-2---3-||
E|-3--3-------|-1----------|-0---------|-3---1-||

Guitar solo
C                           Am
E|---------------------------|---------------------------|
B|---------------------------|---------------------------|
G|-5----------------5h7p5----|-------------------5h7p5---|
D|-------------5h7--------(7)|--------------5h7-------(7)|
A|---------------------------|---------------------------|
E|---------------------------|---------------------------|

C			      F
E|---------------------------|------------------------------|
B|-8-------------------------|----------------------------6-|
G|-----7b---7--5h7p5s4-5p4---|------------------------5s7---|
D|-------------------------5-|--5b-3-5---3--5--3--5s7-------|
A|---------------------------|---------5--------------------|
E|---------------------------|------------------------------|

C
E|-----6---6------8-8-8-----8-----8----|-------------------------------|
B|-6s8---8---8s10-------11b---11b---11b|-11----------------------------|
G|-------------------------------------|------------------17h19p17-----|
D|-------------------------------------|------------17h19---------(19)-|
A|-------------------------------------|-------------------------------|
E|-------------------------------------|-------------------------------|

F5
E|------------------------------------||
B|15b-15-p13--15b--15b-15-13--13-15-13||
G|----------14---14---------14--------||
D|------------------------------------||
A|------------------------------------||
E|------------------------------------||

Guitar solo II
C5                              G5
E|------18----------18-----------|----18----------18----------------------|
B|-18b-----18----18----18--16----|-18b---18----18----18--16---------------|
G|----------------------------17-|--------------------------17------------|
D|-------------------------------|----------------------------------------|
A|-------------------------------|----------------------------------------|
E|-------------------------------|----------------------------------------|

F5                          C5        G5            C5
E|---------------------------|----------------------|---------------------|
B|-15--15--------------------|----------------------|---------------------|
G|--------17----15-----------|----------------------|--------15-----------|
D|------------------17-15-13-|-----15b-----------13-|(13)--15b-15b-13-15b-|
A|---------------------------|-15----------13h15----|---------------------|
E|---------------------------|----------15----------|---------------------|

G5
E|---------------------------------------15---|
B|---------------------15h16p15--15-16-18--18-|
G|------15-17-17--15-17--------17-------------|
D|-15-17--------17----------------------------|
A|--------------------------------------------|
E|--------------------------------------------|

F5
E|-18--15h18p15--15---------------------|---------------------------------|
B|---18--------15---18b--18--16--16-----|---------------------------------|
G|-----------------------------17--17p15|-17-17-15--15--------------------|
D|--------------------------------------|---------17--17-15-13-15-13----15|
A|--------------------------------------|---------------------------15-13-|
E|--------------------------------------|---------------------------------|

C5
E|------------|-----------------------------|----------------------------||
B|------------|-----------------------------|----------------------13----||
G|------------|-----------------------------|-------------------12-------||
D|-(15)-------|-(15)------------------------|----------------14----------||
A|------------|-----------------------------|-------------15-------------||
E|------------|-----------------------------|----------------------------||

G               F             C
E|--------------|-------------|---------10s12-----|
B|-12--------12-|-10-------10-|-8-----------------|
G|-12------12---|-10-----10---|-9-----------------|
D|-12----12-----|-10---10-----|-10----------------|
A|-10--10-------|-8---8-------|-------------------|
E|--------------|-------------|-------------------|

G                 F            C                G5
E|--10------------|------------|-0------------|-0--||
B|----------13s15-|--10--13s15-|-1s13---------|-1--||
G|-------12-------|------------|-0------------|-0--||
D|-----10---------|------------|-2------------|-2--||
A|----------------|------------|-3----0-------|-3--||
E|----------------|------------|---------3--0-|----||

A5               G5	             F5           G5
I knew the storm was getting clo-        er

A5                G5               F5             G5
And all my friends said I was high._________

A5            G5             F5         G5 A5     G5            F5      E
But evrything we've ever known's here.     I never wanted it to die


D5  C5   F    	       C
E|---|---|-1---|-(1)--|-0-||
B|---|---|-1---|-(1)--|-1-||
G|---|---|-2---|-(2)--|-0-||
D|---|---|-3---|-(3)--|-2-||
A|---|---|-3---|-(3)--|-3-||
E|---|---|-1---|-(1)--|---||

I DonUt Care About You		GNR

Remember tune down 1/2 step
the spaghettii incident
The whole song is basically

|C   |G   |D///|D///|
And the verse is

Heavy palm mute:
E|-------------|
B|-------------|
G|---------000-|
D|---------000-|
A|--2222222222-|
E|-------------|

Вверх

Hair Of The Dog

intro

Gb|--------------------------------------------------------|
Db|------------2-----------------------------2-------------|
Ab|----------2------------5-7--------------2-----------5-7-|
Eb|-0--0-3-4--------0-3-0--------0---0-3-4-------0-3-0-----|

verse

play into through twice followed by

Gb|--------------------------------------------------------|
Db|--------------------------------------------------------|
Ab|---------------------------------------------3----------|
Eb|--5-5-5-5-5-5-5-5-5-5--0-3-4-5-5-5-5-5-5-5-5---5-3-0----|

play intro once

*end verse*

chorus

Gb|---------------------------------------------------------|
Db|---------------------------------------------------------|
Ab|----------------7----5-7-7--------------------7---5-7-7--|
Eb|--0----3--5--------------------0----3---5----------------|

Вверх

I Dont Care About You

|C   |G   |D///|D///|
and the verse is

heavy palm mute:
E|------------|
B|------------|
G|--------000-|
D|--------000-|
A|-2222222222-|
E|------------|

Вверх

Its So Easy

 Riff 1
E|-------------|--------------|
B|-------------|--------------|
G|-------------|--------------|
D|-------------|-14-14--12-14-|
A|-7---5-5---2-|-14-14--12-14-|
E|-5---3-3---0-|--------------|

In this riff, you can include dead notes to give
it this funky feeling.

Riff 2
E|---------------------|
B|----------10p9p7--11-|
G|-9-9-7-9----------9--|
D|-9-9-7-9-------------|
A|---------------------|
E|---------------------|

Cool Riff (actually, i didnt know how to name it...)
E|------------------------------------------------|
B|------------------------------------------------|
G|-----------------------------0----0-----0-----0-|
D|-----0-----0-----0-----0---0----0-----0-----0---|
A|---0-----0-----0-----0---2----2-----0-----0-----|
E|-3-----3-----2-----2----------------------------|

First solo
B|-12b---12----------------------------|-------------------|
G|----------15----15b-12-12------------|-------12----------|
D|----------14b-------------14b-p12-14-|-12-14----12-------|
A|-------------------------------------|-------------14-14-|
E|-------------------------------------|-------------------|

E|--------------------------------------------|
B|--------------------------------------15b---|
G|----12-14br-14br-14br--12-14-12-------------|
D|-14------------------------------14---------|
A|--------------------------------------------|
E|--------------------------------------------|

E|-----------------------------------|
B|-15br-15br-15br--12-12--12----17b--|
G|-----------------------------------|
D|-----------------------------------|
A|-----------------------------------|
E|-----------------------------------|

Its just the beginnig: the first solo is not perfect and the
end should come later...

Version 2:

Tuned down half a step...

Intro: Clean Electric
E|-------------------------| Play a basic E5 chord on the 5th
B|-------------------------| string, 7th fret with minor
G|-------------------------| variations as the intro builds up.
D|-----------------9-9-9-9-| Other guitars distorted guitars
A|-7-7-7-7-7-7-7-7-7-9-9-9-| come in also with an E5. Some
E|-------------------------| played on the 6th string.

Verse: Dist.
Bb5  G5   E5     E5    / /
E|------------------------------|
B|------------------------------| Repeat this with minor
G|------------------9----------o| variations and palm mutes
D|-8----5----2------9--x--9-9--o| during the last E5 chord...
A|-8----5----2------7--x--7-7---|
E|-6----3----0------------------|
I see your sister in her Sunday dress...

Chorus:
A5      G5  A5  Bb5 (NC)         E5    (E5)
E|-------------------------------------|---------|
B|-------------------------------------|---------|
G|-14--14--12--14--15--15-p-14-p-12----|--------o|
D|-14--14--12--14--15---------------14-|--(14)--o|
A|----------------------------------14-|--(14)---|
E|----------------------------------12-|--(12)---|
Its so easy baby...

Bridge:
F#5               G5
E|-----------------|-----------------|
B|-----------------|-----------------|
G|-----------------|-----------------|
D|-----4---4-------|-----5---5-------|
A|---4---4---4---4-|---5---5---5---5-| Play this figure once
E|-2-----------2---|-3-----------3---| through, strum these
power chords the second
B5                A5                time, and end with an
E|-----------------|-----------------| E5 as shown in Bridge
B|-----------------|-----------------| Ending Fill.
G|-----------------|-----------------|
D|-----9---9-------|-----7---7-------|
A|---9---9---9---9-|---7---7---7---7-|
E|-7-----------7---|-5-----------5---|

Bridge Ending Fill:
E5
E|--------------------|
B|--------------------|
G|-----------9--9-9-9-| Just basically play an E5 for the
D|-9--9-9-9--9--9-9-9-| two bars or whatever it is... listen
A|-7--7-7-7--7--7-7-7-|  to the CD...
E|-0--0-0-0--0--0-0-0-|

Solos:
Im not about to figure out solos. The solos are in G major and
played over the verse riff... The last solo, right before the
end of the song ends on something like this...
E5
E|---------------------------------------|
B|-8-------------------------------------|
G|----9--7---------------9---9-9--9--9--o|
D|----------9--8--7------9-x-9-9--9--9--o|
A|-------------------10--7-x-7-7--7--7---|
E|---------------------------------------|
slight P.M.--|

Вверх

Knocking On Heavens Door

This is the picking at the very beginning of the song.  The picking varies
Throughout, and you should do whatever feels best instead of trying to
Restrict yourself to how it sounds on record.  GN'R is constantly mutating
This song in concert anyway (even doing it with a reggae beat).
G5            D                C
E|-3---3--------------2-0-------|-----------------0--------------------|
B|-3-----3---3------3-----3---3-|----------1--------------1------------|
G|-0-------0------2---------2---|-0------0---0----------0---0-0------0-|
D|-0------------0---------------|-0-2----------2------2-------0-2------|
A|------------------------------|--H---3-----------------------H---3---|
E|-3----------------------------|--------------------------------------|

This is the picking for the first line.  Again, the picking will vary
Throughout the song.
G5              D                  Am
E|-3--------------2-------2-0-------|-0-----H-------0----------------------|
B|-3---3-------3--3-------3-------0-|-1----0-1-------------1---------------|
G|-0---0-----0----2----2-------2----|-2--2-----2---------2---2------0---0--|
D|-0---0-----0----0----0------------|-2----------2-----2-------0-2----2----|
A|----------------------------------|-0-------------------------H----------|
E|-3--------------------------------|--------------------------------------|


Song goes like this:

Intro:
Twice with picking      G5 D C
Twice just power chords G5 D C

Verse 1 (with picking)
G5         D               Am
Mamma take this badge from me
G5         D         C
I can't use it anymore
G5                D             Am
It's getting dark, too dark to see
G5             D                       C
Feels like I'm knockin' on heaven's door

Chorus (if you're really concerned about playing it like the
CD, listen to it for rhythm.  But this song has been done by so
many people so differently that you might as well give it your own
feel.)
G5            D5                     C5
Knock, knock, knockin' on heaven's door,
C5
Hey, hey, hey, hey, yeah
G5            D5                     C5
Knock, knock, knockin' on heaven's door,
C5
(no lyrics)
G5                 D5                     C5
Ooh, knock, knock, knockin' on heaven's door
C5
Ooh yeah

G5            D5                     C5
Knock, knock, knockin' on heaven's door
C5
Hey, hey, hey, hey, yeah

First Guitar Solo
G                  D          C
E|----------------------------------------------------|
B|----^^---P---------15--^------~~~~~~~~~~~~----------|
G|-12-14-14-12-14-------14-12-12-------------------12-|
D|------------------------------------------13/14-----|
A|----------------------------------------------------|
E|----------------------------------------------------|

G                     D           C
E|---------------P------------P--------P------------------15----|
B|15/17---15---13-12-13/15--13-12---13--12----------12-13----13-|
G|-------------------------------------------~~~~~~~------------|
D|-----------------------------------------14-------------------|
A|--------------------------------------------------------------|
E|--------------------------------------------------------------|
G              ^^  D   ^^  ^^  C
E|--~~~-------15-17--17--17--17--15-|
B|12---15/17------------------------|
G|----------------------------------|
D|----------------------------------|
A|----------------------------------|
E|----------------------------------|

G ^^              ^^ D             C
E|--20-20-19-20--19-20--20-20-20---~~~~~--------------------------------|
B|-------P-----------------------17------^^----^^-----------------------|
G|---------------------------------------19-19-19-19-^-----^------------|
D|---------------------------------------------------19-19-19-19--------|
A|---------------------------------------------------------------17--17-|
E|----------------------------------------------------------------------|

Additional lyrics:
Mama, put my guns in the ground
I can't shoot them anymore
That cold black cloud is comin' down
Feels like I'm knockin' on heaven's door

Basically there are lots of knockin' on heaven's doors throughout the rest

Вверх

Knockin On Heavens Door

fill 2 (used on intro and verses)
G5            D
E|-3---3--------------2-0-------|
B|-3-----3---3------3-----3---3-|
G|-0-------0------2---------2---|
D|-0------------0---------------|
A|------------------------------|
E|-3----------------------------|

C
E|-----------------0--------------------|
B|----------1--------------1------------|
G|-0------0---0----------0---0-0------0-|
D|-0h2----------2------2-------0h2------|
A|------3---------------------------3---|
E|--------------------------------------|

fill 1 (used only in verses)
G5              D
E|-3--------------2-------2-0-------|
B|-3---3-------3--3-------3-------0-|
G|-0---0-----0----2----2-------2----|
D|-0---0-----0----0----0------------|
A|----------------------------------|
E|-3--------------------------------|

Am
E|-0-------------0---------------------|
B|-1----0h1-------------1--------------|
G|-2--2-----2---------2---2------0---0-|
D|-2----------2-----2-------0h2----2---|
A|-0-----------------------------------|
E|-------------------------------------|

Song goes like this:

Intro: Twice with picking fill 2  G5 D C
Twice just power chords    G5 D C

Verse 1 (with fill 1)
G5         D               Am
Mamma take this badge from me

(with fill 2)
G5         D         C
I cant use it anymore

(with fill 1)
G5                D             Am
Its getting dark, too dark to see

(with fill 2)
G5             D                       C
Feels like Im knockin on heavens door

Chorus:
G5            D5                     C5
Knock, knock, knockin on heavens door,
C5
Hey, hey, hey, hey, yeah
G5            D5                     C5
Knock, knock, knockin on heavens door,
C5
(no lyrics)
G5                 D5                     C5
Ooh, knock, knock, knockin on heavens door
C5
Ooh yeah
G5            D5                     C5
Knock, knock, knockin on heavens door
C5
Hey, hey, hey, hey, yeah

Solo 1: (over G D and C chords)
E|--------------------------------------------------------|
B|--------------------15fb--------------------------------|
G|-12-14fb-14p12-14---------14-12-12~~~----------------12-|
D|------------------------------------------13/14---------|
A|--------------------------------------------------------|
E|--------------------------------------------------------|

E|-------------------------------------------------------15----|
B|-15/17--15---13p12-13/15--13p12---13p12----------12-13----13-|
G|-------------------------------------------------------------|
D|-----------------------------------------14~~~---------------|
A|-------------------------------------------------------------|
E|-------------------------------------------------------------|

E|--------------15-17fb--17--17fb--17fb--15----20fb-20p19-20-|
B|12~~~---15/17----------------------------------------------|
G|-----------------------------------------------------------|
D|-----------------------------------------------------------|
A|-----------------------------------------------------------|
E|-----------------------------------------------------------|

E|-19-20fb-20-20-20--------------------------------------------|
B|------------------17~~---------------------------------------|
G|-----------------------19fb-19-19fb-19-----------------------|
D|---------------------------------------19fb-19-19fb-19-------|
A|-------------------------------------------------------17-17-|
E|-------------------------------------------------------------|

Solo 2:
E|-----------------------------------------------------|
B|--19b~~~~~~~r-19---19brp17-19-1717----20-17--20-17br-|
G|-----------------------------------------------------|
D|-----------------------------------------------------|
A|-----------------------------------------------------|
E|-----------------------------------------------------|

E|----------------------------------------16---18b-18p16-|
B|-1517--1517--------1517---------------13--16-----------|
G|-----------------------------------/13-----------------|
D|-----17----19br1719----19br19br17----------------------|
A|-------------------------------------------------------|
E|-------------------------------------------------------|

E|-16-18p16-16-20-19-20-22b-20-19-20-22b--20-19-20-22b-22b-22b-|
B|-------------------------------------------------------------|
G|-------------------------------------------------------------|
D|-------------------------------------------------------------|
A|-------------------------------------------------------------|
E|-------------------------------------------------------------|

E|--------|
B|-20-22b-|
G|--------|
D|--------|
A|--------|
E|--------|

E|-------------------------------------------------------------|
B|--20-22br-20-22-22b-20-22-20--20~~---20-19--19br-17-19-17-17-|
G|-------------------------------------------------------------|
D|-------------------------------------------------------------|
A|-------------------------------------------------------------|
E|-------------------------------------------------------------|

E|------------------------------------------------------|
B|-2017--17~~15~~12~~~~~~-------------------------------|
G|------------------------12~--11~---11br-9~---7--5/4---|
D|----------------------------------------------------5-|
A|------------------------------------------------------|
E|------------------------------------------------------|

Solo 2 (another version)
E|-------------------------------------------------------------|
B|-------20~~-20-19~~-19b(20)r19-17-19p17-17~~--20-15b(17)--20-|
G|-17----------------------------------------------------------|
D|----17-------------------------------------------------------|
A|-------------------------------------------------------------|
E|-------------------------------------------------------------|

E|----------------------15---------------------15--------------|
B|15b(17)r(15)-13-15-12~---15-10b(12)r10---------15-10/12-10/12|
G|---------------------------------------12/14-----------------|
D|-------------------------------------------------------------|
A|-------------------------------------------------------------|
E|-------------------------------------------------------------|

E|------------15--17/19-17p15h17p15-20p19-20b(22)-20p19-20b(22)|
B|----------15--15---------------------------------------------|
G|-12~-14/16---------------------------------------------------|
D|-------------------------------------------------------------|
A|-------------------------------------------------------------|
E|-------------------------------------------------------------|

(Hold bend)
E|-20p19-20-22b(24)-22b(24)-----------22-----------------------|
B|--------------------------20-22b(24)--22-r22-20-22pb(24)r22b-|
G|-------------------------------------------------------------|
D|-------------------------------------------------------------|
A|-------------------------------------------------------------|
E|-------------------------------------------------------------|

E|-----------|
B|(24)r22-20-|
G|-----------|
D|-----------|
A|-----------|
E|-----------|

E|-------------------------------------------------------------|
B|-20~-20-19-19b(20)r19-17-19p17--17~-20-15b(17)-20-15b(17)-13-|
G|-------------------------------------------------------------|
D|-------------------------------------------------------------|
A|-------------------------------------------------------------|
E|-------------------------------------------------------------|

E|--------------------------------------------------------|
B|-15-12~~------------------------------------------------|
G|--------12~~~--11~~~-11b(12)r11/9--9~~~-----------------|
D|---------------------------------------12~~9b(10)r9-----|
A|-----------------------------------------------------10-|
E---------------------------------------------------------|

Вверх

Live And Let Die
mp3

Intro (Piano arr. for guitar):
G           Bm                C              D      D(b9)
e|-3---------------------------|--0--------------2--------2----|
B|-3---3--------------3--------|---------------------3----4----|
G|-4---4-----------22------2-0-|--------1--------------------2-|
D|-5---5--------4--------------|-----0--0--0-0-----------------|
A|-5-------5----2--------------|--3-----2--------0-------------|
E|-3---------------------------|-------------------------------|

G             Bm             C             D    D(b9)
e|-3--3-----------------------|------0--------2----------------|
B|-3--------0----------3------|------------0-------3---4-------|
G|-0-----0----------2--2----2-|---0-----0--------2---2---2-2-0-|
D|-0-------------4-----4------|---------------0----------------|
A|---------------2------------|-3------------------------------|
E|-3--------------------------|--------------------------------|

G                 Bm
e|-3------3---------------------2---------|
B|-3------3-------0-----------3---------0-|
G|-0------0----0-----------2---------2----|
D|-0------0-----------4-------------------|
A|--------------------2-------------------|
E|-3------3-------------------------------|

C                   A            D
e|--------0------------------0----|-2-------2-----|
B|--------1-------1-0-------------|-3-----3-------|
G|----0-------0--------2--2-----2-|-2---2---------|
D|---------------------2----------|-0-----------0-|
A|-3-------------------0----------|---------------|
E|--------------------------------|---------------|

D   E  F    ...End Intro
e|-0---0--1----0--0--1-|
B|-3-----------3-------|
G|-2-----------2-------|
D|-0-----------0-------|
A|---------------------|
E|---------------------|

G               Bm                 C
When you were young  and your heart

C           D          D(b9)
was  an open book,

G            Bm                  C
you used to say live and let live

C              D           D(b9)
You know you did, you know you did,

G
you know you  did

G            Bm
But if this ev   er chan  in  world.

C                 A
in which we live in

A        D               D  E  F
makes you   give in and  cry,

w/Distortion    G5        C5       G(b5)        G5v
e|--------------------------------------------------------|
B|--------------------------------------------------------|
G|--------------------------5---------6-----------7-------|
D|----------------5---------5---------5-----------5-------|
A|----------------5---x-x---3---x-x---4----x-x----5---x-x-|
E|-20----3p0------3---x-x---3---x-x---3----x-x----3---x-x-|

G5
say, live and let die,
C5  ...   G(b5) ...  G5v
G5
live and let   die.
C5  ...   G(b5) ...  G5v

* Twice
e|-----------------------|---------------|
B|-------15--(15)--------|-10------------|
G|-12-14-15--(15)---7--9-|-10------5-3-0-|
D|-12-14-15--(15)---7--9-|-10------5-3-0-|
A|-----------------------|---------------|
E|-----------------------|---------------|

* Twice
e|-----------------------|---------------|
B|-------15--(15)--------|-10------------|
G|-12-14-15--(15)---7--9-|-10----5-----3-|
D|-12-14-15--(15)---7--9-|-10----5-----3-|
A|-----------------------|---------------|
E|-----------------------|---------------|
* Synth. sound effects

** Half time Reggae feel **
C.........................     G..................... [P.M.]
e|-----------------------------|[P.M.]--------------3-3---3--3-|
B|-5-x-x-x-5-5-x--5---5--x-x-5-|-3-3-x-x-x-x-x-x----3-3---3--3-|
G|-5-x-x-x-5-5-x--5---5--x-x-5-|-4-4-x-x-x-x-x-x---------------|
D|-5-x-x-x-5-5-x--5---5--x-x-5-|-5-5-x-x-x-x-x-x---------------|
A|-----------------------------|-------------------------------|
E|-----------------------------|-------------------------------|

D..........................   (E5)........   (F5).........
e:|[P.M.]---10-[......P.M......]|------------------------------|
B|-7-7--x-x-10--12--10----------|------------------------------|
G|-7-7--x-x-----12--10----------|--9-------x--x--10------(10)--|
D|-7-7--x-x------------12---7-7-|--9-------x--x--10------(10)--|
A|------------------------------|--7-------x--x---8------( 8)--|
E|------------------------------|------------------------------|

** Half time Reggae feel **

C                                 G
What does it   mat - ter to ya,
G
When you got a job   to do
D        D
ya got to do it well.
E5                     F5
You got to give the oth-er fel-la hell.

Fill w/harmonizer
e|---------------------------------|----------------------|
B|----------------15---17fb---(17)-|-15p13-12hb-----------|
G|-14hb-fb-------------------------|------------14fb-(14)-|
D|---------------------------------|----------------------|
A|---------------------------------|----------------------|
E|---------------------------------|----------------------|

e|-----------------|
B|-----------------|
G|-----------------|
D|-12---(12)~~~~~~-|
A|-----------------|
E|-----------------|

G         Bm                  C
Used to say live and let live
C              D              D(b9)
You know you did, you know you did,
G
you know you  did.
G             Bm
But if this ev    er chan  in  world.
C                 A
in which we live in
A             D          D  E  F
makes you  give in and  cry,

w/Distortion
e|------------15-17-18~~-------|-----------------------|
B|-----------------------15-17-|-18~~------------------|
G|-----------------------------|---------15fb-(15)--12-|
D|-----------------------------|-----------------------|
A|-----------------------------|-----------------------|
E|-20--3p0---------------------|-----------------------|

e|-15-17-18~~----------|-------------|
B|------------15-17-18-|-------------|
G|---------------------|-15fb---15~~-|
D|---------------------|-------------|
A|---------------------|-------------|
E|---------------------|-------------|

e|-15-17-18~~--------|-----------------------|
B|------------15-17--|-18~~------------------|
G|-------------------|--------15fb--(15)--12-|
D|-------------------|-----------------------|
A|-------------------|-----------------------|
E|-------------------|-----------------------|

e|-15-17-18~~----------|-18fb---18~~-|
B|------------15-17-18-|-------------|
G|---------------------|-------------|
D|---------------------|-------------|
A|---------------------|-------------|
E|---------------------|-------------|

Вверх

Live And Let Die
mp3

Tuned half step down

Intro (Piano arr. for guitar):
G               Bm                C              D      D(b9)
e|-3------------------------------|--0--------------2--------2------|
B|-3----3----------------3--------|---------------------3----4------|
G|-4----4-------------22------2-0-|--------1--------------------2---|
D|-5----5----------4--------------|-----0--0--0-0-------------------|
A|-5---------5-----2--------------|--3-----2--------0---------------|
E|-3------------------------------|---------------------------------|

G                Bm               C             D     D(b9)
e|-3---3--------------------------|-------0--------2---------------------|
B|-3-----------0----------3-------|-------------0--------3----4----------|
G|-0--------0----------2--2----2--|----0-----0--------2-----2----2--2--0-|
D|-0----------------4-----4-------|----------------0---------------------|
A|------------------2-------------|--3-----------------------------------|
E|-3------------------------------|--------------------------------------|

G                 Bm
e|-3------3---------------------2----------|
B|-3------3-------0-----------3---------0--|
G|-0------0----0-----------2---------2-----|
D|-0------0-----------4--------------------|
A|--------------------2--------------------|
E|-3------3--------------------------------|

C                   A            D
e|--------0------------------0----|-2-------2------------|
B|--------1-------1-0-------------|-3-----3--------------|
G|----0-------0--------2--2-----2-|-2---2----------------|
D|---------------------2----------|-0-----------0--------|
A|-3-------------------0----------|----------------------|
E|--------------------------------|----------------------|

D   E  F    ...End Intro
e|-0---0--1----0--0--1----|
B|-3-----------3----------|
G|-2-----------2----------|
D|-0-----------0----------|
A|------------------------|
E|------------------------|

G               Bm                 C
When you were young  and your heart___

C           D          D(b9)
___was  an o___pen book,_____

G            Bm                  C
you used to say live and let live___

C              D           D(b9)
You know you did, you know you did,

G
___you know you  did____

G            Bm
But if this ev___er chan__in  world._____

C                     A
___in which we live in___

A        D               D  E  F
makes you___give in and__cry,_____

w/Distortion    G5        C5       G(b5)        G5v
e|------------------------------------------------------------|
B|------------------------------------------------------------|
G|---------------------------5---------6-----------7----------|
D|-----------------5---------5---------5-----------5----------|
A|-----------------5---x-x---3---x-x---4----x-x----5---x-x----|
E|-20----3p0------3---x-x---3---x-x---3----x-x----3---x-x-----|

G5
_______say, live and let die,____

C5  ...   G(b5) ...  G5v

G5
________  live and let   die.__

C5  ...   G(b5) ...  G5v

* Twice ...
e|-------------------------|----------------|
B|--------15--(15)---------|-10-------------|
G|--12-14-15--(15)---7--9--|-10-------5-3-0-|
D|--12-14-15--(15)---7--9--|-10-------5-3-0-|
A|-------------------------|----------------|
E|-------------------------|----------------|

* Twice ...
e|-------------------------|----------------|
B|--------15--(15)---------|-10-------------|
G|--12-14-15--(15)---7--9--|-10----5-----3--|
D|--12-14-15--(15)---7--9--|-10----5-----3--|
A|-------------------------|----------------|
E|-------------------------|----------------|
* Synth. sound effects..................

** Half time Reggae feel **
C...........................     G..................... [P.M.]
e|-------------------------------|[P.M.]--------------3-3---3--3--|
B|-5-x-x-x-5-5-x---5---5---x-x-5-|-3-3-x-x-x-x-x-x----3-3---3--3--|
G|-5-x-x-x-5-5-x---5---5---x-x-5-|-4-4-x-x-x-x-x-x----------------|
D|-5-x-x-x-5-5-x---5---5---x-x-5-|-5-5-x-x-x-x-x-x----------------|
A|-------------------------------|--------------------------------|
E|-------------------------------|--------------------------------|

D..........................   (E5)...........   (F5).........
e:|[P.M.]----10-[......P.M......]|---------------------------------|
B|-7-7--x-x-10--12--10----------|---------------------------------|
G|-7-7--x-x-----12--10----------|--9----------x--x--10------(10)--|
D|-7-7--x-x------------12---7-7-|--9----------x--x--10------(10)--|
A|------------------------------|--7----------x--x---8------( 8)--|
E|------------------------------|---------------------------------|

** Half time Reggae feel **

C                                 G
What does it   mat - ter to ya,_____

G
When you got a job__ to do_____

D        D
ya got to do it well.__________

E5                     F5
You got to give the oth-er fel-la hell._____

Fill w/harmonizer
e|----------------------------------|-----------------------------|
B|-----------------15---17fb---(17)-|---15p13-12hb----------------|
G|--14hb-fb-------------------------|-----------------14fb---(14)-|
D|----------------------------------|-----------------------------|
A|----------------------------------|-----------------------------|
E|----------------------------------|-----------------------------|

e|-------------------------------|
B|-------------------------------|
G|-------------------------------|
D|--12-------------(12)~~~~~~----|
A|-------------------------------|
E|-------------------------------|

G         Bm                  C
Used to say live and let live___

C              D              D(b9)
You know you did, you know you did,

G
___you know you  did.__

G             Bm
But if this ev____er chan__in  world._____

C                     A
___in which we live in___

A             D          D  E  F
makes you__give in and__cry,_____

w/Distortion
e|------------15-17-18~~-------|-------------------------|
B|-----------------------15-17-|-18~~--------------------|
G|-----------------------------|---------15fb-(15)--12---|
D|-----------------------------|-------------------------|
A|-----------------------------|-------------------------|
E|-20--3p0---------------------|-------------------------|

e|-15-17-18~~-----------|--------------------------------|
B|------------15-17-18--|--------------------------------|
G|----------------------|-15fb---15~~--------------------|
D|----------------------|--------------------------------|
A|----------------------|--------------------------------|
E|----------------------|--------------------------------|

e|-15-17-18~~--------|-----------------------------------|
B|------------15-17--|-18~~------------------------------|
G|-------------------|--------15fb--(15)--12-------------|
D|-------------------|-----------------------------------|
A|-------------------|-----------------------------------|
E|-------------------|-----------------------------------|

e|-15-17-18~~-----------|--18fb---18~~-------------------|
B|------------15-17-18--|--------------------------------|
G|----------------------|----------------------The-------|
D|----------------------|----------------------End.....--|
A|----------------------|--------------------------------|
E|----------------------|--------------------------------|

Вверх

Locomotive

 intro
E|-------------------|-------------------------|
B|-------------------|-------------------------|
G|-------------------|-------------------------|
D|-------------------|-------------------------|
A|-0-0---0-0---0-0---|-0---0-0---0-0-0---0-----|
E|-----3-----3-----2-|---2-----2-------2---3-5-|

E|--------------------------|
B|--------------------------|
G|--------------------------|
D|--------------------------|
A|-0---0-0---0-0-0---0-0----|
E|---3-----3-------0-----2--|

E|-------------------------|-------------------------|
B|-------------------------|-------------------------|
G|-----------------------5-|-2-----------------------|
D|-----------------------5-|-2-----------------------|
A|-0---0-0---0-0-0---0-----|---0-0-0---0-0-0---0-----|
E|---2-----2-------2---3---|---------3-------3---0-2-|

E|-------------------|
B|-------------------|
G|-------------------|
D|-------------------|
A|0---0-0---0-0------|
E|--2-----2-----3-2-0|

E|-------------------|-----|-----|-----------------|
B|-------------------|-----|-----|-----------------|
G|-7h9--7h9-7---7--9-|-----|-----|-9--7h9----------|
D|-7h9--7h9-7---7--9-|--s--|--s--|-9--7h9---5----5-|
A|-7----7---7---7--7-|-----|-----|-7--7-----5----5-|
E|-------------------|-----|-----|----------3----3-|

One in a Million

Acoustic guitar..

Beginning of song..

Strum

[E-1] (slide) [E-2] [D] [C#]  (play twice)

[C]

second guitar...comes in after acoustic finishes.

(fill)
E|-------|
B|-------|
G|-5-5-5-|
D|-5-5-5-|
A|-3-3-3-|
E|-------|

(Main guitar riff)
E|---------------------------------------------------------|
B|-2-2h3p2-2-2---1-1---------------------------------------|
G|-2-2-----2-2-2-0-0-0-0-3p0---0-0-0-0-----4-0-------------|
D|-2-2h4p2-2-2-2-2-2-2-2-2---2-0-0-0-0---3---0-------------|
A|---------------3-3-3-3-3---3-2-2-2-2-2-------3---3---3/5-|
E|-----------------------------3-3-----3-------1-0-1-0-1/3-|

play it over and over until youre fingers bleed

(this is distorted guitar..light distortion)

that was how I played it....I dont know if its right or not..

E-1  022100
E-2  x7990x

Вверх

Locomotive

 intro
E|-------------------|-------------------------|--------------------------|
B|-------------------|-------------------------|--------------------------|
G|-------------------|-------------------------|--------------------------|
D|-------------------|-------------------------|--------------------------|
A|-0-0---0-0---0-0---|-0---0-0---0-0-0---0-----|-0---0-0---0-0-0---0-0----|
E|-----3-----3-----2-|---2-----2-------2---3-5-|---3-----3-------0-----2--|

E|--------------------------|-------------------------|-------------------|
B|--------------------------|-------------------------|-------------------|
G|------------------------5-|-2-----------------------|-------------------|
D|------------------------5-|-2-----------------------|-------------------|
A|-0---0-0---0-0-0---0------|---0-0-0---0-0-0---0-----|0---0-0---0-0------|
E|---2-----2-------2---3----|---------3-------3---0-2-|--2-----2-----3-2-0|

E|-------------------|-----|-----|-----------------|
B|-------------------|-----|-----|-----------------|
G|-7h9--7h9-7---7--9-|-----|-----|-9--7h9----------|
D|-7h9--7h9-7---7--9-|--s--|--s--|-9--7h9---5----5-|
A|-7----7---7---7--7-|-----|-----|-7--7-----5----5-|
E|-------------------|-----|-----|----------3----3-|

Вверх

Mama Kin

Intro
E|---------|-----------------------------------------------|
B|---------|-----------------------------------------------|
G|-x--x--x-|-9--9--9--9--9---------------------------------|
D|-x--x--x-|-9--9--9--9--9--9--9--9--9--9----7--7--7--7--7-|
A|-x--x--x-|-7--7--7--7--7--9--9--9--9--9----7--7--7--7--7-|
E|---------|----------------7--7--7--7--7----5--5--5--5--5-|

For the verses you play: (thanks Monica)
E|------------------------------|
B|------------------------------|
G|------------------------------|
D|-2-2--4--2-2---5-4--2-2-4-2-2-|
A|-2-2--4--2-2---5-4--2-2-4-2-2-|
E|------------------------------|

Chorus      Keepin touch with mama kin...
E|---------|---------|
B|---------|---------|
G|---------|-------9-|
D|-2--2--2-|-9--9--9-|
A|-2--2--2-|-9--9--7-|
E|-0--0--0-|-7--7----|

Chords:
First verse:

E5            B5.
it aint easy livin like a gypsy
A5                       E5.
tell ya honey how it feels
E5                  B5
ive been dreaming floatin down stream
A5                            E5
and losin touch with all thats real
B5
whole lotta lover keepin under cover
A5                      E
never knowin where you been
E5                  B5
oo yeah  youve been fadin always out paradin
A5
keep in touch with mama
E  F#5 G5 G#5   A5
kin            you always got your tail
E5             A5
on the wag    spittin fire from your
E5          F#5 G5 G#5
mouth just like a drag - on         you
A5                    E5
act like a perpetual drag
F#5
you better check it out cause someday soon
youll have to climb back on the
B5
wag - on.

Guitar solo:
E|-17--------17--------17--------17-17--------17--------17-|
B|----20p17-----20p17-----20p17--------20p17-----20p17-----|
G|---------------------------------------------------------|
D|---------------------------------------------------------|
A|---------------------------------------------------------|
E|---------------------------------------------------------|

E|--------17--------17-------|
B|-20p17-----20p17-----20p17-|
G|---------------------------|
D|---------------------------|
A|---------------------------|
E|---------------------------|

E|-------------------------------------------------------------|
B|-17h20p17----17h20p17----17h20p17----17----------------------|
G|----------20----------20----------20----20p19-17----19p17h18-|
D|-------------------------------------------------19----------|
A|-------------------------------------------------------------|
E|-------------------------------------------------------------|

E|------------------17----20~~~|
B|---------------17----17-19~~~|
G|-19-17h18-17h18--------------|
D|-----------------------------|
A|-----------------------------|
E|-----------------------------|

Вверх

Move To The City
mp3

 Intro: Gtr.1
E|-----------------------12-(12)----------------------12-(12)--|
B|-x---x--x-x--x---x-x-x-12-(12)---14qb-12-14qb-12-14-12-(12)--|
G|-x---x--x-x--x---x-x-x-12-(12)---14qb-12-14qb-12-14----------|
D|-------------------------------------------------------------|
A|-------------------------------------------------------------|
E|-------------------------------------------------------------|

E|------------------12-(12)------------------------------12(12)|
B|14qbp1214qbp12-14-12-(12)14-12-14qb-12-14-12-12-12-x-x-12(12)|
G|14qbp1214qbp12-14--------14-12-14qb-12-14-12-12-12-x-x-12(12)|
D|-------------------------------------------------------------|
A|-------------------------------------------------------------|
E|-------------------------------------------------------------|

E|---------------------12-(12)----------------------12---(12)--|
B|--14qb-12-14qb-12-14-12-(12)--14qbp12-14qbp12-14--12---(12)--|
G|--14qb-12-14qb-12-14----------14qbp12-14qbp12-14-------------|
D|-------------------------------------------------------------|
A|-------------------------------------------------------------|
E|-------------------------------------------------------------|

E|------------------------------------------12-(12)-12---------|
B|-14qb-12-14qb-12-14p12-14hb-(14)-rbp12-14-12-(12)-12-14-x-12-|
G|-14qb-12-14qb-12-14p12-14fb-(14)-rbp12-14-12-(12)----14-x-12-|
D|-------------------------------------------------------------|
A|-------------------------------------------------------------|
E|-------------------------------------------------------------|

E|----12-(12)-|
B|-14-12-(12)-|
G|-14-12-(12)-|
D|------------|
A|------------|
E|------------|

E|----------------------12-(12)-----------------------------|
B|-14qbp12-14qb-12-14qb-12-(12)-14-12-14qb-12-14-12--12--12-|
G|-14qbp12-14qb-12-14qb---------14-12-14qb-12-14-12--12--12-|
D|----------------------------------------------------------|
A|----------------------------------------------------------|
E|----------------------------------------------------------|

E|-----12-(12)-|
B|-x-x-12-(12)-|
G|-x-x-12-(12)-|
D|-------------|
A|-------------|
E|-------------|

E|--------------------12-(12)------------------12-14-12--12-|
B|-14qb-12-14qb-12-14-12-(12)-14-12-14qb-12-14-12----12--12-|
G|-14qb-12-14qb-12-14---------14-12-14qb-12-14--------------|
D|----------------------------------------------------------|
A|----------------------------------------------------------|
E|----------------------------------------------------------|

E|-(12)----------------|
B|-(12)---0-3p2p0------|
G|-----------------2p0-|
D|---------------------|
A|---------------------|
E|---------------------|

E|-------------------------------------------------------------|
B|-------------------9-9-----9-9----10-9-9-9-------------------|
G|-------------------9-9-x-x-9-9-x-x-9-9-9-9--7-(7)-7-7-6--6-6-|
D|-0-2p0-------------9-9-x-x-9-9-x-x-9-9-9-9--7-(7)-7-7-6--6-6-|
A|-------0-----------7-7-x-x-7-7-x-x-7-7-7-7--5-(5)-5-5-4--4-4-|
E|---------3qb-0-(0)-------------------------------------------|

E|--------------------------|
B|--------------------------|
G|-4-(4)-4-4---7--7-8-9-(9)-|
D|-4-(4)-4-4---7--7-8-9-(9)-|
A|-2-(2)-2-2---5--5-6-7-(7)-|
E|--------------------------|

E|-------------------------------------------------------------|
B|----9-----9-9-(9)---9-9-9-9----------------------------------|
G|----9-----9-9-(9)---9-9-9-9-7-(7)-7-7-6-6-6-4-(4)-4-4-7-7-8-9|
D|x-x-9-x-x-9-9-(9)-x-9-9-9-9-7-(7)-7-7-6-6-6-4-(4)-4-4-7-7-8-9|
A|x-x-7-x-x-7-7-(7)-x-7-7-7-7-5-(5)-5-5-4-4-4-2-(2)-2-2-5-5-6-7|
E|-------------------------------------------------------------|
trem.bar
Guitar solo:                                              2 1/2
E|---------------------------2-------2-----------------------|
B|-------------------------2---2-5fb---5-2-4hb---------------|
G|-4fb(slow bend)--4fb-(4)-----------------4hb--4fb-----(4)--|
D|-----------------------------------------------------------|
A|-----------------------------------------------------------|
E|-----------------------------------------------------------|

E|--/---------------------------|
B|-/----/-----------------------|
G|------4---4hbrp2-4fb-2-(2)~~~-|
D|------------------------------|
A|------------------------------|
E|------------------------------|

E|------------------------------------------------------------|
B|------------------------------------------------------------|
G|-2-4p2------------------------------------------------------|
D|-------2-4p2---4---2-----2-----4---------2/4--(4)~~-4----14-|
A|-------------4---3---3h4---3p2---42------------------/16----|
E|------------------------------------5-2---------------------|

E|---------------|
B|---------------|
G|----------16---|
D|-16p14-16---16-|
A|---------------|
E|---------------|

E|------------14-----------14----------------------|
B|---------14----14--17fb-----17-14----------17fbr-|
G|-14-16fb--------------------------16fbr-14-------|
D|-------------------------------------------------|
A|-------------------------------------------------|
E|-------------------------------------------------|

Вверх

Mr. Brownstone
mp3

Figure 1 (intro noise) (w/ wah)
e|-----------------------------|-------------------------------|
b|-----------------------------|-------------------------------|
g|-----------------------------|-------------------------------|
d|-----------------------------|-------------------------------|
a|-x-x-x-x-x-x-x-x-x-x-x-x-x-x-|-x-x-x-x-x-x-x-x-x-x-x-x---x-x-|
e|-x-x-x-x-x-x-x-x-x-x-x-x-x-x-|-x-x-x-x-x-x-x-x-x-x-x-x---x-x-|

e|------|---------------------------------|
b|------|---------------------------------|
g|------|---------------------------------|
d|------|---------------------------------|
a|------|---------------------------------|
e|-12--|-0////////////////////////////12-|

Figure 2 (Riff version 1)
e|---------------------------------|-------------------------|
b|---------------------------------|-3p2p0-------------------|
g|-------------------------2-------|-------2p0---------------|
d|-------------------------2-------|-----------2p0---------2-|
a|-------2p0---------------0-------|---------------2p0-----2-|
e|-0-3-4-----0-3-4-0---3-4---------|-------------------3h4-0-|

e|---------------------------------|-----------------------|
b|---------------------------------|-3---------------------|
g|-------------------------2-------|-2-----2---------------|
d|-------------------------2-------|-0-----2-----2---------|
a|-------2p0---------------0-------|-------0-----2-------b-|
e|-0-3-4-----0-3-4-0---3-4---------|-------------0-------3-|

Figure 2 (Riff version 2)
e|---------------------------|-----------------------------0-|
b|---------------------------|-----------------------------0-|
g|-------------------------2-|-7---x-6---x-4-----------------|
d|-------------------------2-|-7---x-6---x-4-----------------|
a|-------2p0---------------0-|-5---x-4---x-2-----b-----------|
e|-0-3-4-----0-3-4-0---3-4---|-------------------3-----0-----|

e|---------------------------|---------------------------|
b|---------------------------|---------------------------|
g|-------------------------2-|-7---x-6---x-4-------------|
d|-------------------------2-|-7---x-6---x-4---------2---|
a|-------2p0---------------0-|-5---x-4---x-2-----------5-|
e|-0-3-4-----0-3-4-0---3-4---|-------------------3b4-----|

Figure 3 (Verse)
e|-----------------------------|-----------------------------|
b|-----------------------------|-----------------------------|
g|-----------------------------|-----------------------------|
d|---------------------5---5h7-|-5h7---5-----7-------5-------|
a|-5h7---5-----7-----7---7-----|-----------------------4-4h7-|
e|-----------------------------|-----------------------------|

e|-----------------------------|---------------------------|
b|-----------------------------|---------------------8---5-|
g|-----------------------------|-----------------------6---|
d|---------------------5---5h7-|-5h7---5-----7-------------|
a|-5h7---5-----7-----7---7-----|---------------------------|
e|-----------------------------|---------------------------|

Figure 4 (Chorus)
e|-------------------|-------------------|
b|-------------------|-7---x-5-------x-7-|
g|-4---x-2-------x-4-|-7---x-5-------x-7-|
d|-5---x-3-------x-5-|-7---x-5-------x-7-|
a|-5---x-3-------x-5-|-5---x-3-------x-5-|
e|-3---x-1-------x-3-|-------------------|

e|-------------------|---------------------------------|
b|-9---x-7-------x-9-|---------------------------------|
g|-9---x-7-------x-9-|-----------------------------7h9-|
d|-9---x-7-------x-9-|-------4-------5-----6---7h9-----|
a|-7---x-5-------x-7-|-5-------------------------------|
e|-------------------|---------------------------------|

e|---------------------------|--------------------------------|
b|---------------------------|--------------------------------|
g|---------------------------|--------------------------------|
d|---------------------------|----------------5b6d5-----------|
a|-7-7-7--7-7--7--7-7----5h7-|-7-7-7--7-7-----------7-----5h7-|
e|-0-0-0--0-0--0--0-0--7-----|-0-0-0--0-0---------------7-----|

e|---------------------------------|-----------------------|
b|---------------------------------|-----------------------|
g|---------------------------------|-----------------------|
d|-----------------7b8d7-5---------|-----------------------|
a|-7-7-7---7-7-----------------5h7-|-7---5---4---2---0-----|
e|-0-0-0---0-7---------------7-----|---------------3---3-0-|

Figure 5 (Bridge)
e|---------------------------|--------------------------------|3
b|---------------------------|--------------------------------|3
g|---------------------------|--------------------------------|3
d|-9-x-7-x-9-x-x-------------|-7--x-5---x-7---x-x-------------|3
a|-9-x-7-x-9-x-x-5-6-9---x-x-|-7--x-5---x-7---x-x-3-4-5---x-x-|3
e|-7-x-5-x-7-x-x-----7---x-x-|-5--x-3---x-5---x-x-----3---x-x-|3

e|---------------|
b|---------------|
g|---------------|
d|-9---x-7---x-9-|
a|-9---x-7---x-9-|
e|-7---x-5---x-7-|

Figure 6 Solo
e|------------------------------|-----------------------------|3
b|------------------------------|-----------------------------|3
g|------------------4---2h3-----|-----------------2---0h1-----|3
d|----4-----2-------4-------4-2-|----2----0-------2-------2-0-|3
a|--------4-------4-2-----------|-------2-------2-0-----------|3
e|-2----------------------------|-0---------------------------|3

e|---------------------------------|-------------------|
b|---------------------------------|-------------------|
g|---------------------4---2h3-----|-------------------|
d|-------4-----2-------4-------4---|-9---x-7-------x-9-|
a|-----------4-------4-2-----------|-9---x-7-------x-9-|
e|-2-------------------------------|-7---x-5-------x-7-|

e|-----3---B-3-------------------3-|
b|-B-3---3-6---6-3-b-d-------B-3---|
g|-5---------------5-5p3-5p3-5-----|
d|---------------------------------|
a|---------------------------------|
e|---------------------------------|

E|-----8---B-8-11-------------------8-|
B|-B-8---8-11----8--b-d-----------8---|
G|-10--------------10-10p8-10-8h9-----|
D|------------------------------------|
A|------------------------------------|
E|------------------------------------|

e|-B-10-13----------------------------------|
b|-13-----10--------------------------------|
g|----------12-(14)d12p10----12----10-10-10-|
d|------------------------12----12----------|
a|------------------------------------------|
e|------------------------------------------|

e|---------------------------|----------------------------|
b|---------------------------|----------------------------|
g|-7---x-6-----x-4-----------|----------------------------|
d|-7---x-6-----x-4-----------|----------------------------|
a|-5---x-4-----x-2---------b-|-x-x-x-x---x---x-x-x-x-x----|
e|-------------------------3-|-x-x-x-x---x---x-x-x-x-x-15-|

Figure 7 (Outtro)
e|---------------------------------|---------------------------|
b|---------------------------------|---------------------------|
g|-------4---------------4---------|-------4-------------------|
d|---5-6---7---5-6---5-6---7---5-6-|---5-6---7---5-6-----5-6-7-|
a|-7---------7-----7---------7-----|-7---------7-----7---------|
e|---------------------------------|---------------------------|

e|---------------------------------|---------------------------|
b|-3p2p0-----------3p2p0-----------|-3p2p0---------------------|
g|-------2---0-----------2---0-----|-------2---0---------------|
d|-------------2p0-------------2p0-|-------------2p0---------2-|
a|---------------------------------|-----------------2p0-b---2-|
e|---------------------------------|---------------------3---0-|

e|-----------|
b|-0h2---0h3-|
g|-----------|
d|-----------|
a|-----------|
e|-----------|

Вверх

My Michelle
mp3

  fig.1
E|-------------------------------------------------------------|
B|------2-------------0-------0--------------------------------|
G|----2---2---------2-------2---------2---------------2--------|
D|--2-------2--2--2-------4---------4---4-----------4---4------|
A|4-----------4-3-------2---------4-------4---4---4-------4---4|
E|------------------------------2-----------2---2-----------2--|

w/fig.1
E|-9-8-7-5-|-9-8-7-5-5-5-5-5-5-5-5-5-9-9-9-9-8-8-8-0-7-7-7-0-5-|
B|---------|---------------------------------------------------|
G|-9-8-7-6-|-9-8-7-6-6-6-6-6-6-6-6-6-9-9-9-9-8-8-8-0-7-7-7-0-6-|
D|---------|---------------------------------------------------|
A|---------|---------------------------------------------------|
E|---------|---------------------------------------------------|

Riff A
E|----------------------------------------------|
B|----------------------------------------------|
G|----------------------------------------------|
D|----------------------------------------------|
A|-4--/4--3-2-3p2-0-----------------------------|
E|------------------2-2-2-0-2-5~~~--5-0-1-2-0-2-|

fig.2
E|------------------------------------------|
B|-6--6-5--4--2---------------2--x----------|
G|-6--6-5--4--2---------------2--x----------|
D|-6--6-5--4--2--4--4--4-2-4--2--x-2-4--x-x-|
A|-4--4-3--2-----4--4--4-2-4-------2-4--x-x-|
E|---------------------------------0-2------|

/=Riff B
E|------------------------------------| |----------------------|
B|------------------------------------| |----------------------|
G|------------------------------------| |----------------------|
D|------------------------------------| |----------------------|
A|-8--8-7-6-4-6-4-----------4~~-4-----| |-8--8-7--6-7-6-4--4hb-|
E|----------------6-6-6-4-6-------5-6-| |----------------------|

verses: 1,2,3 (x2)
E|---------------------|---------------------------------------|
B|-6-6-6-6-5-5-x-4-x-2-|-6-6-6-6-5-5-x-4-4---------------------|
G|-6-6-6-6-5-5-x-4-x-2-|-6-6-6-6-5-5-x-4-4---------------------|
D|-6-6-6-6-5-5-x-4-x-2-|-6-6-6-6-5-5-x-4-4---------------------|
A|-4-4-4-4-3-3-x-2-x---|-4-4-4-4-3-3-x-2-2-4-4-4-5-4-(4)/------|
E|---------------------|----------------------------------(19)-|

chorus:
D5    E5   B5      C#5  E5    A5     D5  C#5  B5   A5  G5  A5
well well well you just cant tell, well well well my michelle

W/Riff A & fig.2

fbr=full bend release
hbr=half bend release
E|---------------------------|
B|-4-hbr-hbr-hbr-hbr-hbr-hbr-|
G|-4-fbr-fbr-fbr-fbr-fbr-fbr-|
D|---------------------------|
A|---------------------------|
E|---------------------------|

fill 4
E|-----------5-------5------------------|
B|---------5---5-8fb---8-5--------------|
G|-7fb-(7)-----------------7fbrp5-7-5---|
D|------------------------------------7-|
A|--------------------------------------|
E|--------------------------------------|

[verse 2]

chorus:(x2)

D5   E5(7)   B5    C#5  E5(7)  A5     D5  C#5  B5   A5  G5  A5
well well well you just cant tell, well well well my michelle
^
w/fill 4 (2nd time)--

E5(7) D5        A5  B5       G5        E5
everyone needs love you know that its true
E5(7) D5        A5                  B5
someday youll find someone thatll fall in love with you
E5(7)      D5       A5     B5         G5  E5
but oh the time it takes, when youre all alone
E5(7) D5       A5
someday youll find someone that
B5
you Can call your own but til then you better

w/fig.2

SOLO:
E|---------------------------------7---7--------7--------------|
B|-16hb-16hb-16-16---------------7---7----10fb~---10p9-9b(1.5)-|
G|-16fb-16fb-16-16p14----14----------------------------9b(1.5)-|
D|--------------------16----16~~-------------------------------|
A|-------------------------------------------------------------|
E|-------------------------------------------------------------|

E|-7-----------7-----------0-----------------------------------|
B|---10----------10----------0---------------------------------|
G|------r9(3/4)-----r9(3/4)------------------------------------|
D|--------------------------------------------------------7----|
A|-----------------------------10b(2)rb(2)rb(2)rb(2)r~-7fb-7fb-|
E|-------------------------------------------------------------|

E|-------------------------------------------------------------|
B|-------------------------------------------------------------|
G|-------------------------------------------------------------|
D|-------------------------------------0---5fbr--5--5--(5)~~~~-|
A|-7-5------------------------2---4hb--------------------------|
E|-----7-5-4-3-3fb-3~~~~-5fb----5------------------------------|

[3rd verse]

chorus:(3x)
D5   E5(7)   B5    C#5  E5(7)  A5     D5  C#5  B5   A5  G5  A5
well well well you just cant tell, well well well my michelle

G#5 A5 G#5 A5   G#5 A5                C5 %
my   my   my        mi - chelle   / 1X

E|--------------------------------------------------------|
B|--------------------------------------------------------|
G|-4p2p0-------4p2p0-------4p2p0-------4fbrp2-----------2-|
D|-------4p2p0-------4p2p0-------4p2p0--------4p2p0-----0-|
A|--------------------------------------------------------|
E|--------------------------------------------------------|
mi -chelle!___

Вверх

New Rose

Intro:[D5 B5 E5 A5]
[F#5 G#5 E5] x 2
C5
I got a feeling inside of me,

A5
its kind of strange like storme sea,

C5
I dont know why, I dont Konw why,

A5
Iguess these things have got to be

[F#5 G#5 E5] Ive got a new rose, I got her god,

[F#5 G#5 E5] guess I knew that I always good,

[F#5 G#5 E5] I cant stop this mess around,

[F#5 G#5 E5] I got a brand new rose in town

See the sun, see the sun, it shines
dont get too close or itll burn your eyes,
dont you run away that way
you can come back another day

A5  B5    C#m
I never thogh this culd happen to me,

A5  B5     C#m
all we said is washing machine,

A5  B5  C#m
I dont deserve somebody insane,

A5  B5  C#m
I never, never be too late

Вверх

New Rose (2 вариант)

Intro: (Riff 1)
D   B   E   A
E|------------------------------------------|
B|------------------------------------------|
G|--X-X--7--4-4--9-9------------------------| Repeat
D|--X-X--7--4-4--9-9-7-7--------------------| 5X
A|--X-X--5--2-2--7-7-7-7--------------------|
E|-------------------5-5--------------------|

Riff 2
|------------------------------------------------|
|------------------------------------------------|
|------------------------------------------------| Repeat
|-10/1210-10-10--10-10-109/10-10-10-109/10-10-10-| 2x
|--8/108---8--8---8--8--87/8---8--8--87/8---8--8-|
|------------------------------------------------|

D                             DB
Ive got a feeling inside of me
B                                     B/D
Its gotta stay its gotta some way stay
D                              DB
I dont know why I dont know why
B                             B/D
Special things shes got for me

Riff 2
Ive got a new rose Ive got a gun

Riff 2
Yeah I knew that I always would

Riff 2
I cant stop to mess around

Riff 2
Ive got a brand new rose in town

D                                DB
See the sun see the sun n the sky
B                                   B/D
Forget the rose and the_______ rides
D                         DB
Dont you run away that way
B                          B/D
Im coming back another day

Riff 2
Ive got a new rose Ive got a gun

Riff 2
Yeah I knew that I always would

Riff 2
I cant stop to mess around

Riff 2
Ive got a brand new rose in town

|------------------------------------------|
|------------------------------------------|
|--X-X--7--4-4--9-9------------------------| Repeat
|--X-X--7--4-4--9-9-7-7--------------------| 5X
|--X-X--5--2-2--7-7-7-7--------------------|
|-------------------5-5--------------------|

|------------------------------------------------|
|------------------------------------------------|
|------------------------------------------------| Repeat
|-10/1210-10-10--10-10-109/10-10-10-109/10-10-10-| 2x
|--8/108---8--8---8--8--87/8---8--8--87/8---8--8-|
|------------------------------------------------|

In this next part play chord B, right after the lyrics end play
what is tabbed below the lyric line.......

B
I never thought this would happen to me
|----------------------------------------------|
|----------------------------------------------|
|--------------------------------------19B////-|
|----------------------------------------------|
|----------------------------------------------|
|----------------------------------------------|

B
On the same_______ machine
|-----------------------------------|
|-----------------------------------|
|-------------------------19B////21-|
|-----------------------------------|
|-----------------------------------|
|-----------------------------------|

B                            Repeat 2x [---------]
I never serve somebody in the same
|-----------------------------------------------------|
|------------------------------17B(17)-15-17-15-17-15-|
|-----------------------------------------------------|
|-----------------------------------------------------|
|-----------------------------------------------------|
|-----------------------------------------------------|

B
I never never never be too late
|------------------------------------------------------|
|------------------------------17B(17)-15-17-15-17-19B-|
|------------------------------------------------------|
|------------------------------------------------------|
|------------------------------------------------------|
|------------------------------------------------------|

|------------------------------------------|
|------------------------------------------|
|--X-X--7--4-4--9-9------------------------| Repeat
|--X-X--7--4-4--9-9-7-7--------------------| 5X
|--X-X--5--2-2--7-7-7-7--------------------|
|-------------------5-5--------------------|

D                             DB
Ive got a feeling inside of me

B                                     B/D
Its gotta stay its gotta some way stay

D                              DB
I dont know why I dont know why

B                             B/D
Special things shes got for me

Riff 2
Ive got a new rose Ive got a gun

Riff 2
Yeah I knew that I always would

Riff 2
I cant stop to mess around

Riff 2
Ive got a brand new rose in town

|------------------------------------------------|
|------------------------------------------------|
|------------------------------------------------| Repeat
|-10/1210-10-10--10-10-109/10-10-10-109/10-10-10-| Several times
|--8/108---8--8---8--8--87/8---8--8--87/8---8--8-|
|------------------------------------------------|

|--------|
|--------|
|--------|
|-9-7-7--|
|-9-7-7--|
|-7-5-5--|

Вверх

Nice Boys

 Intro
E|-------------------------------------------------------------|
B|-/16-16-16-16-16------------14----14-----------9------9------|
G|-/16-16-16-16----16------------14----14------9---9------8/9--|
D|-/16-16-16-16-------16--/14------------14-/9-----9---------9-|
A|-------------------------------------------------------------|
E|-------------------------------------------------------------|

E|-------------------------------------------------------------|
B|-9-9------/16-16-16-16--------/14-14-14-14--------20/21------|
G|-9-9-8/9--/16-16-16-16-16-----/14-14-14-14-14-----------21---|
D|----------/16-16-16-16----16-/14-14-14-14-----14/---------21-|
A|-------------------------------------------------------------|
E|-------------------------------------------------------------|

E|-------------------------------------------------------------|
B|-20/21---------/16-16-16-16--------------/14-14-14-14--------|
G|-------21------/16-16-16-16----16--------/14-14-14-14--14----|
D|----------21--/16-16-16-16-------16----/14-14-14-14------14/-|
A|-------------------------------------------------------------|
E|-------------------------------------------------------------|

E|-----------------97-(7)------------------------------------|
B|-------9-(9)-------------97---7/9--/16-16-16-16------------|
G|-97----------9---------------9------/16-16-16-16----16-----|
D|-----9-------------------------------/16-16-16-16-------16-|
A|-----------------------------------------------------------|
E|-----------------------------------------------------------|

E|-----------------------------|
B|-/14-------14-14----21-21~~~-|
G|--/14-14-------14------------|
D|--/14----14----14/21---------|
A|-----------------------------|
E|-----------------------------|

verse 1,2,3
B5                  A5           E5
she hit town like a rose in bloom,
A5 B5
smellin sweet said sweet perfume
A5        E5
the colour faded and the petals died,
A5 D
down in the city no one cried
E5(7)           E    E5(7)  E
in the streets the garbage lies protected by a million flies
B5                      A5                 E5
the roaches so big you know that they got bones
E6  E E5      E6  E E5   E6   E5
theY moved in and made a tenement home

CHORUS:
A5  B5                           A5   B A B A A
i said nice boys dont play rock and roll
B5                              A5           E5
nice boys dont play rock and roll im not a nice boy
A5  B5                           A5   B A B A A
i said nice boys dont play rock and roll
B5                              A5
nice boys dont play rock and roll
E5
im not a nice boy and i never was

[VERSE 2]

[CHORUS]

Slide guitar solo
E|-------------------------------------------------------------|
B|-------------------------------------------------------------|
G|-1614-------14~-14------1413-----14-14-----------------------|
D|------14/16--------14-14-----13/14-----14-14-1412------14-14-|
A|--------------------------------------------------12/14------|
E|-------------------------------------------------------------|

E|-------|
B|-------|
G|-------|
D|-------|
A|-14-14-|
E|-------|

E|-------------------------------------------------------------|
B|8/9---9-(9)/-----------16-----------------14---------------21|
G|8/9-9-------1614---------16----1413--------14---------21-21--|
D|-----------------14/16------16------13/14----14-14/21--------|
A|-------------------------------------------------------------|
E|-------------------------------------------------------------|

E|-------------------------------------------------------------|
B|---------19/21-----------17/18-(18)/(19)-----16-(16)/17-19/21|
G|21----21------21----19/20---------------17/18----------------|
D|---21------------21------------------------------------------|
A|-------------------------------------------------------------|
E|-------------------------------------------------------------|

E|---------------24-24------------------17-------/19/24--(24)~-|
B|----------------------/16/19-19-16/17-----17------24--(24)---|
G|-21----------------------------------------------------------|
D|----2119/21/x/-----------------------------------------------|
A|-------------------------------------------------------------|
E|-------------------------------------------------------------|

[verse 3]

[chorus] 3x

Вверх

Nightrain
mp3

 Tune 1/2note down.
E|-------------------------------------------------------------|
B|-------------------------------------------------------------|
G|2-12-12-11-x11-9-9-9-7-x-7-5-7-7-7-5-x-5-4-5-4-2-0-2---------|
D|2-12-12-11-x9--9-7-7-7-x-5-3-5-5-5-5-x-3-2-3-2-0-0-2/7p.harm~|
A|-------------------------------------------------------------|
E|-------------------------------------------------------------|

E|-----------------------------------------------------|
B|-----------------------------------------------------|
G|-12-12-11-x-11-9-9-9-7-x-7-5-7-7-7-5-x-5-4-5-4-2-0-2-|
D|-12-12-11-x-9--9-7-7-7-x-5-3-5-5-5-5-x-3-2-3-2-2-0-2-|
A|-----------------------------------------------------|
E|-----------------------------------------------------|S.
and then itgoes on A and G (5or7) chord with pinch harmonics.

[fill] An I can tell you honey,You can make my money tonight.
p.harmonic.
E|----------------------------------------|-----------------|
B|----------------------------------------|-----------------|
G|---12-12-12-11-11-9-x-x-9-7-7-5-0-2-----|-----------------|
D|---12-12-12-11-9--9-x-x-7-7-5-5-0-2///--|--7~~5~~7^fb-5~~-|
A|----------------------------------------|-----------------|
E|----------------------------------------|-----------------|S.

Here is Another version:

1/2 Dropped Tuning

Intro:
Rhy. Fig. 1
E|--3---3--2--2--3--|--(3)----3--|--3--3--3--1--|--(1)----3--|
B|--5---5--3--3--5--|--(5)----5--|--5--3--3--1--|--(1)----3--|
G|--2---2--2--2--5--|--(5)----5--|--5--4--4--2--|--(2)----4--|
D|------------------|------------|--------------|---------5--|
A|------------------|------------|--------------|------------|
E|------------------|------------|--------------|------------|

End Rhy. Fig. 1
G5 A5
E|--------------------|
B|-3------------------|
G|-4-4-5-4-5-4-2-0-2-o| Heres the catchy little intro riff.
D|-5---5-5-5-5-2-0-2-o| Play it twice through.
A|-----------------0--|
E|--------------------|

Verse:
Rhy. Fig. 2         End Rhy. Fig. 2  End on:
A5   (NC) A5    (NC) A5      A5         D
E|-------------------------------------||--2-| Slash & Izzy
B|-------------------------------------||--3-| both do lots
G|-2-2-2-----2-2-2------2-2-2---2-2-2-o||--2-| of variations
D|-2-2-2-----2-2-2------2-2-2-x-2-2-2-o||--0-| to this riff
A|-0-0-0-----0-0-0------0-0-0-x-0-0-0--||----| so just im-
E|-------0-3--------0-3----------------||----| provise a bit.
Im a west-cost...
A5
E|--3----------------------|--------------------------|
B|--5----7--5--7--5--5--3--|--5----3------------------|
G|-------7--5--7--5--5--4--|--5----4----5------------o|
D|-------------------------|---------------7--5--/7--o|
A|-------------------------|---------------------/7---|
E|-------------------------|---------------------/5---|
can tell you honey...

2nd Verse:
Rhy. Fig. 2
End Rhy. Fig. 2 w/Rhy. Fig. 1
Play G5 rather than A5 as the very last chord in Rhy. Fig. 1.

Chorus:
Rhy. Fig. 3a    End Rhy. Fig. 3a
E|-------------------------------|
B|-------------------------------|
G|------------------------------o| Listen to the recording
D|-7--------------7-------------o| for the riff changes...
A|-7--------------7--------------|
E|-5-5-8-5-8-5-3/-5-5-8-5-8-5-3--|
Nightrain, bottoms up...

Rhy. Fig. 3b                      End Rhy. Fig. 3b
E|-------------------------------------------------|
B|-------------------------------------------------|
G|------------------------------------------------o|
D|-3----------------------3-----------------------o|
A|-3-------3--2--3--2--0--3-------3--2--3--2--0----|
E|-1----1-----------------1----1-------------------|
...burn, I never learn...

Outro Chorus:
-Rhy. Fig. 3a
-Rhy. Fig. 3b
-Rhy. Fig. 3c

Rhy. Fig. 3c   End Rhy. Fig. 3c
E|-----------------------------|
B|-----------------------------|
G|-----------------------------| Again, listen to the
D|-5-------------5-------------| recording for the riff
A|-5---3-2-3-2-0-5---3-2-3-2---| changes!
E|-3-3-----------3-3---------3-|

Вверх

November Rain
mp3

Fmaj7                  Dm9                       C      Csus4  C
When I look in to your eyes i can see a love restrained
Fmaj7              Dm9                                 C Csus4 C
but darlin when i hold you, dont you know i feel the same?
Dm               G                                     C
nothing lasts for ever and we both know hearts can change
Dm                        G                            C
and its hard to hold a candle in the cold november rain
Fmaj7
weve been through this such a long
Dm
long time just tryin to kill the pain
C Csus4  C   Fmaj7
oh_ yeah___  but lovers always come
Dm
and lovers always go and no ones
C    Csus4        C
really sure whos letting go today__  walking a way__
Fmaj7
if we could take the time to lay
Dm
it on the line, i could rest my head
C  Csus4        C     Dm
just knowing that you were mine  all mine
G                             C
so if you want to love me, then darlin dont refrain
Dm                      G                           C
or ill just end up walkin in the cold november rain
F                    G
do you need sometime on your own
F                  G
do you need sometime all alone
F                          G
ooh, everybody needs sometime on their own
F                     G
ooh, dont you know you need some time all alone
E5            F5            C5        E5                F5
i know its hard to keep an o-pen heart when even friends seem

D5                     E5 F5 C5
E|------------------------|
B|------3-5-5br-3---------|
G|-----------------4br~~~-|
D|------------------------|
A|------------------------|
E|------------------------|
out to harm you          but if you could heal a broken heart

E|----------------------------|
B|----------------------------|
G|-/5~~~~-------4br~~~~--2--0-|
D|----------------------------|
A|----------------------------|
E|----------------------------|

E5             F5              G5
wouldnt time be out to charm you woh

Guitar solo 1:
E|----------8-----------------------8------------8~~~~~~-------|
B|-b8--r8b----8--r(8)p6--8brbr--r8b---r8--5br~~----------5brbr-|
G|-------------------------------------------------------------|
D|-------------------------------------------------------------|
A|-------------------------------------------------------------|
E|-------------------------------------------------------------|

E|-------------------------------------------------------------|
B|-5~~----------8---------------------8------------------------|
G|-----7p5--7/9---97--5---b8----r8b----8--r(8)p6--8brb-----r8b-|
D|-------------------------------------------------------------|
A|-------------------------------------------------------------|
E|-------------------------------------------------------------|

E|-8-8br-10b(hold)-8h10p8----8-----13p12----13p12----13b-13~~~-|
B|------------------------10---11b-------13-------13-----------|
G|-------------------------------------------------------------|
D|-------------------------------------------------------------|
A|-------------------------------------------------------------|
E|-------------------------------------------------------------|

E|----12--13-12h13p12---------12-13br-13-12-12b-12~~-20--(20)~-|
B|-15-----------------15~~-15----------------------------------|
G|-------------------------------------------------------------|
D|-------------------------------------------------------------|
A|-------------------------------------------------------------|
E|-------------------------------------------------------------|

E|-19-19--1917--1715--1513--13--1312--12--12h13p12-----12h13~~~|
B|------------------------------------------------------15-----|
G|-------------------------------------------------------------|
D|-------------------------------------------------------------|
A|-------------------------------------------------------------|
E|-------------------------------------------------------------|

E|-12-13-12h13p12-------12-------------------------------------|
B|----------------15p13---13-15h17p15-15-12h13-12h13p12-----12-|
G|-----------------------------------------------------14p12---|
D|-------------------------------------------------------------|
A|-------------------------------------------------------------|
E|-------------------------------------------------------------|

E|-------------------------------------------------------------|
B|----10-----------------------------13~~~~--------------13~~~-|
G|-12----10--12--10--9~~~~--12p109-----------10h12p109---------|
D|-------------------------------------------------------------|
A|-------------------------------------------------------------|
E|-------------------------------------------------------------|

E|--------------------15--------------------|
B|-------------15b-------r15---13-----(13)b-|
G|-10h12p109--------------------------------|
D|------------------------------------------|
A|------------------------------------------|
E|------------------------------------------| (end of solo 1)

F                    G                   F
E|----------------------------------------------------------|
B|-13-----------(13)b-------------------6-5-----------------|
G|----------------------------5h7p5----------5---------5h7--|
D|-----------------------------------7----------7-----------|
A|----------------------------------------------------------|
E|----------------------------------------------------------|
need some time on my own  sometimes i need sometime all alone

G                  F               G
E|----------------------------------------------------------|
B|------6b--6p5--6---5--------------------------------------|
G|---------------------5-----------5h7-------------5h7p5----|
D|-7-5--------------------7--------------------7----------7-|
A|----------------------------------------------------------|
E|----------------------------------------------------------|
ooh, everybody needs sometime on their own  ooh, dont you
know you

F                G
E|----------------------------------------------------------|
B|-6--5-----------------------------------------------------|
G|------5---------------------7--9--10--12--14--16--17--19--|
D|--------7-------------------------------------------------|
A|----------------------------------------------------------|
E|----------------------------------------------------------|
need sometime all alone

Guitar solo 2:
E|--------------------------------20-----------20--------19b-|
B|-----------------------18~~-20b----r20-(20)b----18-17~-----|
G|-7-9-10-12-14-16-17-19-------------------------------------|
D|-----------------------------------------------------------|
A|-----------------------------------------------------------|
E|-----------------------------------------------------------|

w/Fill 2.
E|---------------------17--------------------------------------|
B|17b-rb-r----17-18-20----18-20-17-18-20-17br-17---------------|
G|---------19------------------------------------19brp17-19p17-|
D|-------------------------------------------------------------|
A|-------------------------------------------------------------|
E|-------------------------------------------------------------|

E|-------|
B|-------|
G|----17-|
D|-19----|
A|-------|
E|-------|

E|-------------------------------------------------------------|
B|-20----------20---------------20b-20-18h20p18p17-18-17h18p17-|
G|----17-17--17--17-17-17----17--------------------------------|
D|---------19-------------19-----------------------------------|
A|-------------------------------------------------------------|
E|-------------------------------------------------------------|

E|-----------------------------|
B|-----17------20--------------|
G|-19-----19b------19---17~~~~-|
D|-----------------------------|
A|-----------------------------|
E|-----------------------------| (end of solo 2)

Fmaj7                      Dm                     C Csus4    C
and when your fears subside and shadows still remain  oh_ yeah_

Fmaj7                Dm
i know that you can love me when theres no one left to blame

C Csus4 C  Dm
ah
G                          C
so nevermind the darkness we still can find a way

Dm                G                          C5 G/B
nothing lasts forever even cold november rain


G    G G   G G   G

A5 G5 F5 G5 C5 G/B A5 G F5 G5 C5

C5
youre not the only one youre not the only one
G5
dont ya think that you need somebody
F5                        Eb5
dont ya think that you need someone
Ab5            Bb5
everybody needs somebody

(play the above part til the end of song)

Fill 2.
E|-12-13----12----------------------------------------|
B|-------15----13-15-12-13-----12---------------------|
G|--------------------------14----12-14-10-12-9-10----|
D|--------------------------------------------------9-|
A|----------------------------------------------------|
E|----------------------------------------------------|

Вверх

November Rain (2 вариант)
mp3

Intro:
E Abm/Eb C#m B
E C#m    B   B

E                        C#m
When I look into your eyes
B
I can see a love restrained
E                  C#m
But darlin when I hold you
B
Dont you know I feel the same
C#m           F#
Cause nothin lasts forever
B
And we both know hearts can change
C#m                     F#
And its hard to hold a candle
B
In the cold November rain
C#m                            F#
Weve been through this such a long long time
B
Just tryin to kill the pain
C#m
But lovers always come and lovers always go
F#                                          B
And no ones really sure whos lettin go today
Walking away
C#m
If we could take the time
to lay it on the line
F#
I could rest my head
B
Just knowin that you were mine
All mine
E              C#m
So if you want to love me
B
then darlin dont refrain
E                   C#m
Or Ill just end up walkin
B
In the cold November rain
E                        F#
Do you need some time...on your own
E                      F#
Do you need some time...all alone
E
Everybody needs some time...
F#
on their own
E                      F#
Dont you know you need some time...all alone
Ebm         E               B
I know its hard to keep an open heart
Ebm       E                   C#m
When even friends seem out to harm you
Ebm    E                C#m
But if you could heal a broken heart
Ebm      E              F#
Wouldnt time be out to charm you
E                      F#
Sometimes I need some time...on my own
E                      F#
Sometimes I need some time...all alone
E
Everybody needs some time...
F#
on their own
E                      F#
Dont you know you need some time...all alone

And when your fears subside
And shadows still remain
I know that you can love me        {just use the chords from
When theres no one left to blame   the beginning verse here
So never mind the darkness          also...  No big changes }
We still can find a way
Cause nothin lasts forever
Even cold November rain

Вверх

One in a Million

Acoustic guitar..

[E-1]         [E-2]       [D]       [C#]       [C]
EADGBE        EADGBE     EADGBE     EADGBE     EADGBE
022100        x7990x     x5770x     x4660x     x355xx

Beginning of song..

Strum

[E-1]      (slide) [E-2]           [D]             [C#]            (play twice)
|    | |  ||||  / ||     | |   |||| ||    | |  |||| ||    | |  ||||

[C]
||   | |  |||||||||||||||
^
(slow distortion comes in)

Second guitar...comes in after acoustic finishes.

E|-------|---------------------------------------------------------|
B|-------|-2-2h3p2-2-2---1-1---------------------------------------|
G|-5-5-5-|-2-2-----2-2-2-0-0-0-0-3p0---0-0-0-0-----4-0-------------|
D|-5-5-5-|-2-2h4p2-2-2-2-2-2-2-2-2---2-0-0-0-0---3---0-------------|
A|-3-3-3-|---------------3-3-3-3-3---3-2-2-2-2-2-------3---3---3/5-|
E|-------|-----------------------------3-3-----3-------1-0-1-0-1/3-|
(fill)   (Main guitar riff)

^(accented notes)

Play it over and over until you're fingers bleed

(this is distorted guitar..light distortion)

That was how I played it....I don't know if it's right or not..

This part, with distorsion sounds more authenticy!

Note for Beginers or quickly readings: if you think that the Tab of the
Introduction is difficult to play , you can try that:

Chords: G  C  F  C  G

F.E. with G chord:
Play the chord up to down (6th string to 1st, E to E) quickly, and
The strings E A D E A D ; change to C and do the same; BUT with F, C
Chord play the strings : E A D (only one time) and G to end...Come to
The G initial and repeat ... (Is better you listen de Tape, CD or LP).

Вверх

Only Women Bleed

Tune half step down
E|-------------------------------------------------------------|
B|---12----12----12----10----10----10-----10----10----10-----8-|
G|-------------------------------------------------------------|
D|-12----12----12----11----11----11-----10----10----10-----9---|
A|-------------------------------------------------------------|
E|-------------------------------------------------------------|

E|-------------------10---------------10-----------------9-----|
B|---8---8------12-----12--12-----12-----12---12-----10----10--|
G|------------0-----------0-----0-----------0------0---------0-|
D|-9---9---12------12--------12-----12----------11-----11------|
A|-------------------------------------------------------------|
E|-------------------------------------------------------------|

E|------|
B|-10---|
G|------|
D|---11-|
A|------|
E|------|

E|------9---------------8---------------8---------------7-----|
B|--10----10--10----10----10--10----10----10--10----8-----8---|
G|0---------0-----0---------0-----0---------0-----0---------0-|
D|----11--------10----10--------10----10--------9-----9-------|
A|------------------------------------------------------------|
E|------------------------------------------------------------|

E|-------|
B|-8-----|
G|-----0-|
D|---9---|
A|-------|
E|-------|

E|----7-----------------6---------------6---------------5-----|
B|8-----8---8-------8-----8---8-----8-----8---8-----6-----6---|
G|--------0-------0---------0-----0---------0-----0---------0-|
D|--9-----------8-----8---------8-----8---------7-----7-------|
A|------------------------------------------------------------|
E|------------------------------------------------------------|

E|-------|
B|-6-----|
G|-----0-|
D|---7---|
A|-------|
E|-------|

C
E|----5---------------4---------------------------------------|
B|6-----6---6-----6-----6---6-----5-----4-----3-----------1---|
G|--------0-----0---------0-----------------------------0---0-|
D|--7---------6-----6---------/-5---/-4---/-3---0-H-2---------|
A|----------------------------------------------------3-------|
E|------------------------------------------------------------|

E|-------|
B|-------|
G|---0---|
D|-2-----|
A|-----1-|
E|-------|

G
E|----------------------------3-|
B|----------------------------3-|
G|--0-----0---0---------0-----0-|
D|3-----3---------------5-----0-|
A|----1-----1-----1-/-3-3-----2-|
E|----------------------------3-|

Вверх

Paradise City
mp3

Tune down 1/2 step

All the parts are here - its easy to figure out the order.
I left the outro part incomplete, as you basically just
improvise after the common first part - I included the first
four parts Duff plays on the CD.

Intro 1
Gb|--------------------------------|
Db|-------------------3------------|
Ab|----------3-------------3-------|
Eb|-3---------------------------3~-|

Intro 2
Gb|-----------------------------------------------|
Db|-------------------3---------------------------|
Ab|----------3-------------3-------10-10-10-6p5p4-|
Eb|-3---------------------------3-----------------|

Intro 3
Gb|---------------------------------|
Db|-------------------3-------------|
Ab|----------3-------------3----10~-|
Eb|-3-------------------------------|

Verse 1
Gb|---------------------|
Db|---------------------|
Ab|-----------------3p1-|
Eb|-3-1-2-3-1-2-3-1-----|

Verse 2
Gb|----------------------|
Db|----------------------|
Ab|-----------------3--1-|
Eb|-3-1-2-3-1-2-3-1------|

Bridge
Gb|-----------------------------------------|
Db|-----------------------------------------|
Ab|-----------------3~---------6p5p4--------|
Eb|-3-1-2-3-1-2-3-1-----------------6p5p4-3-|
Tell me who youre gonna believe/
Take it to the end of the line...

Chorus 1
Gb|-----------------------------------------------------|
Db|-----------------------3-3---------------------------|
Ab|------------3-3p0-3-3-------3-3-------10-10-10-6p5p4-|
Eb|-3-3p0-3-3-----------------------3-3-----------------|

Chorus 2
Gb|-------------------------------------|
Db|-----------------------3-3-----------|
Ab|------------3-3p0-3-3-------3-3--10~-|
Eb|-3-3p0-3-3---------------------------|

Solo
Gb|---------------------|
Db|---------------------|
Ab|-----------------5p3-|
Eb|-5-3-4-5-3-4-5-3-----|

So far away...  Section 1
Gb|---------------------------------------|
Db|---------------------------------------|
Ab|---------------------------------------|
Eb|-5-5-5-5--5-5-5-5--3-3-3-3--3-3-3-3--4-|

So far away...  Section 2
Gb|------------------------------|
Db|------------------------------|
Ab|----------------------3-----1-|
Eb|-5-5-5-5--5-5-5-5-------------|

Outro
Gb|------------------------------------------------------------|
Db|-------------------------------3-3-3-3----------------------|
Ab|----------------3-3-3-3-3-3-3-3-------3-3-3-3---------------|
Eb|-3-3-3-3-3-3-3-3-----------------------------3-3-3-3-3-3-3-3|

Gb|------------------------------------------------------------|
Db|---------------------------------3-3-3-3------------9-10-11-|
Ab|-----------------3-3-3-3-3-3-3-3---------3-3-3-3/10---------|
Eb|-3-3-3-3-3-3-3-3--------------------------------------------|

Eb|------------|
Bb|----9-10-11-|
Gb|-10---------|
Db|------------|

Gb|-----------------------------------------------------------|
Db|---------------------------------3-3-3-3-------------------|
Ab|-----------------3-3-3-3-3-3-3-3---------3-3-3-3/10-10/17~-|
Eb|-3-3-3-3-3-3-3-3-------------------------------------------|

Gb|------------------------------------------------------------|
Db|---------------------------------3-3-3-3--------------------|
Ab|-----------------3-3-3-3-3-3-3-3---------3-3-3-3-10~-----10~|
Eb|-3-3-3-3-3-3-3-3-------------------------------------3-3----|

Вверх

Paradise City
mp3

      G                              C                              F
E|-------3-----3---------3----------------3------3------3-------------|
B|--------------------------3--------3----------------------3-------3-|
G|----------0---------0---------0----0--------0------0----------0---2-|
D|----0------------------------------2------------------------------3-|
A|-----------------------------------3--------------------------------|
E|----3------------3--------------------------------------------------|

C                G
E|----3-------3--------3------3---------3------3-------3------3-|
B|--------3-------1--------3-------3--------3-------------------|
G|----------------0----------------0-----------------------0----|
D|----------------2----------------2----------------0-----------|
A|----------------3----------------3----------------------------|
E|--------------------------------------------------3-----------|

This is the end of first part (introduction, guitar-solo), after the
Sound of the whistle the guitar continues like that
(like, not equal...):

E|-3---1---2---3---1---2---3---1---3---1---------|
B|-----------------------------------------3---1-|
G|-----------------------------------------------|
D|-----------------------------------------------|
A|-----------------------------------------------|
E|-----------------------------------------------|

This part, with distorsion sounds more authenticy!

Note for Beginers or quickly readings: if you think that the Tab of the
Introduction is difficult to play , you can try that:

Chords: G  C  F  C  G

F.E. with G chord:
Play the chord up to down (6th string to 1st, E to E) quickly, and
The strings E A D E A D ; change to C and do the same; BUT with F, C
Chord play the strings : E A D (only one time) and G to end...Come to
The G initial and repeat ... (Is better you listen de Tape, CD or LP).

Вверх

Patience
mp3

Intro:
C G A D    C G A D
C G C Em   C G D D

C
Shed a tear cause Im missing you
G
Im still allright to smile
A                            D
Girl I think about you every day now

C
Was a time when I wasnt sure
G
But you set my mind at ease
A                               D
There is no doubt, youre in my heart now

C          G
Sad woman take it slow
C               Em
It will work itself out fine
C              G               D
All we need is just a little patience

C          G
Sad sugar make it slow and
C              Em
It comes together fine
C              G               D
All we need is just a little patience

Sit here on the stairs
Cause Id rather be alone
If I cant have you right now
Ill wait dear

Sometimes I get so candescent
But I cant speed up the time
You know love, theres one more thing
To consider

Sad woman take it slow
And things will be just fine
You and I just use a little patience

Sad sugar take the time
Cause the lights are shining bright
You and I got what it takes to make it

D
We dont fake it
D
Ahh and never break it
D
Cause I cant take it

Solo

G    C
A little patience
G    C
Mhh Yeah

G
Ive been walking the streets tonight
C
Just trying to get it right
G
Its hard to see with so many around
C
you know I dont like being stuck in a crowd
G
And the streets dont change but maybe the name
C
I aint got time for the game
G
Cause I need you
C
Yeah Yeah cause I need you
G
Uh I need you
D
Woh I need you
G   C  G
Uhh this time

Вверх

Perfect Crime

  Intro:
Rhy.Fig.1(Gtr.1)
E|-----------------------------------|----|   E|---------|
B|-8-------5^------------------------|----|   B|---------|
G|-8-7--7--5^------------------------|-%--|   G|-5--3--0-|
D|-----(7)---7-5-7-(7)-7-7-7-5h7-7-7-|-2x-|   D|----3--0-|
A|-------------0-0-(0)-0-0-0-0---0-0-|----|   A|---------|
E|-----------------------------------|----|   E|---------|

Rhy.Fig.1A(Gtr.2)
E|-----------------------------------|----|   E|---------|
B|-----------------------------------|----|   B|-5--3--0-|
G|-8p7--5-5--------------------------|-%--|   G|-5--3--0-|
D|-----------7-5-7-(7)-7-7-7-5h7-7-0-|-2x-|   D|---------|
A|-----------------------------------|----|   A|---------|
E|-----------------------------------|----|   E|---------|

[1st verse]
[2nd verse]
1st chorus:

C5     Bb5   G5  A5 G5 Bb  G5 A5   G5 C5    Bb5   G5
per - fect crime god  damn it its a  per - fect crime

A5   G5  Bb  G5 A5  G5 C5    Bb5   G5   A5 G5 Bb  G5
moth-er fuck-er its a per - fect crime  i   said
A5   G5 C5  Bb5  G5
its    per - fect

[bridge]

2nd chorus:
C5  Bb5     G5  A5  G5 Bb G5 A5 G5 C5
bad side of me dont fuck   witda bad
Bb5     G5     A5 G5  Bb  G5  A5  G5  C5
side o me stay   a - way    from the bad

Bb5      G5     A5 G5  Bb  G5 A5   G5 C5   Bb5  F5
side o me dont      fuck    wit da bad side

[half time]

Guitar solo:
E|-------------------------------------------------------------|
B|-20^r^r^~~-17h20p17----17h20p1716--t22p16--t24p1617h20p17----|
G|--------------------20------------------------------------20-|
D|-------------------------------------------------------------|
A|-------------------------------------------------------------|
E|-------------------------------------------------------------|

E|----------------------------20^-17----------20^-17h20p17-20^-|
B|-17h20p17---17h20p17---17h19-------17h20p17------------------|
G|---------20---------20---------------------------------------|
D|-------------------------------------------------------------|
A|-------------------------------------------------------------|
E|-------------------------------------------------------------|

E|-17-----20^-17--20p17-20p17-19h20p19p17----19-19-17-19p17----|
B|---20p17------19------------------------20----------------20-|
G|-------------------------------------------------------------|
D|-------------------------------------------------------------|
A|-------------------------------------------------------------|
E|-------------------------------------------------------------|

E|-17-------------------------------17-------------------------|
B|----20-19-20p19p17-----------17^^---r17-17p15----17-15^------|
G|-------------------19-1716~~~-----------------16--------16p14|
D|-------------------------------------------------------------|
A|-------------------------------------------------------------|
E|-------------------------------------------------------------|

E|-------------------------------------------------------------|
B|----------------------------------------------------------15-|
G|-16-16p14--14---------------------------14----16-16p14-------|
D|---------16---15p14-----------------/16----16----------16----|
A|--------------------17-(17)/////-17--------------------------|
E|-------------------------------------------------------------|

E|---------------------------------14-(14)--17p14-----17-17-17-|
B|-15-------17-17p15--17--15--17-------------------------------|
G|----16p14---------16--16--16--16--------16-----16-16---------|
D|-------------------------------------------------------------|
A|-------------------------------------------------------------|
E|-------------------------------------------------------------|

E|-17^-r-|
B|-------|
G|-------|
D|-------|
A|-------|
E|-------|

[3rd verse]
3rd chorus:

C5    Bb5    G5    A5   G5 Bb   G5  A5   G5    C5
wont ya let me be moth-er fuck-er just let me be

A5 G5  Bb G5   A5    G5    C5  Bb5  G5  A5    G5      C5    G5
god  damn it better let me be dont ya know ya better let me be

C5     Bb5   G5  A5 G5 Bb  G5 A5   G5 C5    Bb5   G5
per - fect crime god  damn it its a  per - fect crime

A5   G5  Bb  G5 A5  G5 C5    Bb5   G5   A5 G5
moth-er fuck-er its a per - fect crime dont
Bb  G5  A5   G5 C5 Bb5  G5
cha know its a  per - fect crime

Вверх

Reckless Life

E|-----------------------|----------------------|-x----2-------|
B|-----------------------|----------------------|-x----3-------|
G|-----------------2-2-2-|----------------2-2-2-|-x----2-------|
D|-----------------2-2-2-|----------------2-2-2-|------0-------|
A|--3qb-(0)-0------0-0-0-|-3qb-p0-0-------0-0-0-|--------------|
E|-------------3fb-------|----------3fb---------|--------------|

E|----------------|-----------------------|--------------------|
B|-5---x-(5)------|-----------------------|--------------------|
G|-5---x--5-------|-----------------2-2-2-|--------------2-2-2-|
D|-5---x--5-------|-----------------2-2-2-|--------------2-2-2-|
A|-3---x--3---0-0-|-3qb-0-(0)-------0-0-0-|-3qb-p0-0-----0-0-0-|
E|----------------|------------3fb--------|----------3fb-------|

E|-3-------------|-2---x---2----------|------------------------|
B|-3-------------|-3---x---3----------|------------------------|
G|-0-------------|-2---x---2----------|------------------2-2-2-|
D|-0-------------|-0---x---0----------|------------------2-2-2-|
A|---------------|---------------0--0-|-3qb-(0)-0--------0-0-0-|
E|-3-------------|--------------------|-----------3fb----------|

E|----------------------|-x----2------|------------------------|
B|----------------------|-x----3------|-5---x----(5)-----------|
G|----------------2-2-2-|-x----2------|-5---x-----5------------|
D|----------------2-2-2-|------0------|-5---x-----5------------|
A|-3qb-p0-0-------0-0-0-|-------------|-3---x-----3------0-0---|
E|-----------3fb--------|-------------|------------------------|

E|-------------------------|-----------------------|-3----|-2--|
B|-------------------------|-----------------------|-3----|-3--|
G|-------------------2-2-2-|-----------------2-2-2-|-0----|-2--|
D|-------------------2-2-2-|-----------------2-2-2-|-0----|-0--|
A|-3qb-0-(0)---------0-0-0-|-3qb-p0-0--------0-0-0-|------|----|
E|------------3fb----------|-----------3fb---------|-3----|----|

Вверх

Right Next Door To Hell

 Riff A
E|----------------|-----------------|----------------|---------|
B|----------------|-2^rp0-2^rp0-2p0-|----------------|-2^rp0-2~|
G|----------------|-2^rp0-2^rp0-2p0-|----------------|-2^rp0-2~|
D|-------2-0------|-----------------|------2-0-------|---------|
A|-----2----------|-----------------|-----2----------|---------|
E|-0-3-------0-3-0|-----------------|-0-3------0-3-0-|---------|

Riff A1
E|-------------------------|-----------------------|-----------|
B|-------------------------|-14^2p12-14^2p12-14p12-|-----------|
G|-------------------------|-14^2p12-14^2p12-14p12-|-----------|
D|---------------------2-0-|-----------------------|-------2-0-|
A|-------------------2-----|-----------------------|-----2-----|
E|-12-(12)--0-0--0-3-------|-----------------------|-0-3-------|

E|-------------|
B|-14^r12-14~~-|
G|-14^r12-14~~-|
D|-------------|
A|-------------|
E|-------------|

(end riff A1)
E|--------------------------|------------|-------------|
B|--14^2p12--14^2p12--14p12-|------------|-14^r12-14---|
G|--14^2p12--14^2p12--14p12-|------------|-14^r12-14---|
D|--------------------------|--------2-0-|-------------|
A|--------------------------|------2-----|-------------|
E|--------------------------|--0-3-------|-------------|
[verse 1]
G5            B5            D5
ill take a nicotine cafeine sugar fix jesus
B5              A5
dont ya git tired of turning tricks
my mama never really said much to me
she was much too young and scared ta be
A5             B5               D5
but when your innocence dies youll
B5                A5
find the blues seems all our heroes were
hell "freud" might say thats what i need
but all i really ever get is greed
G5  A5   B5
born to lose just walkin through time
D5                     B5
you believe this heat another empty house

an most my friends they feel the same hell
we dont even have ourselves to blame

A5                   G5   A5   B5
another dead end street gonna rest
D5                       B5
my bones sit for a spell this side of heaven
but times are hard and thrills are cheaper
as your arms get shorter your pockets

A5     G5  A5 E5  D5                 A5
this close to hell  right next door to hell
E5                            F#5
why dont ya write a letter to me
get deeper right next door to hell
why dont ya write a letter to me

D5                  A5
i said im right next door to hell
i said im right next door to hell

E5                   F#5       D5
an so many eyes are on me yeah right
A5  E5                  F#5
next door to hell got nowhere else to be
an so many eyes are on me yeah right
next door to hell i never thought this is
where id be

D5                   A5
right next door to hell feels like the
E5                      F#5
walls are closing in on me.
but im right next door to hell thinkintimell
stand still for me.

[play riff A(2x) then riff A1]

[verse 2]

GUITAR SOLO;
E|-2/----------12-12-------12-12-------12-------12-12-12-12-|
B|-2/----------12-12-------12-12-------12-------12-12-12-12-|
G|-2/-----14^---------14^---------14^------14^--------------|
D|----------------------------------------------------------|
A|----------------------------------------------------------|
E|----------------------------------------------------------|

E|-----12------12-12-12-12-|
B|-----12------12-12-12-12-|
G|-14^-----14^-------------|
D|-------------------------|
A|-------------------------|
E|-------------------------|

E|--------12-12------9-(9)--9-----11----12----11-----9----|
B|--------12-12------9-(9)--9--9---9--9--9--9--9--9--9----|
G|-14^-14--------14^-----------------------------------11-|
D|--------------------------------------------------------|
A|--------------------------------------------------------|
E|--------------------------------------------------------|

E|-9-9-9-----11----12----11-----9-|
B|-9-9-9--9---9--9--9--9--9--9--9-|
G|--------------------------------|
D|--------------------------------|
A|--------------------------------|
E|--------------------------------|

E|------12-12--------12-12-12-------12-12------12-12-12-12--|
B|------12-12--------12-12-12-------12-12------12-12-12-12--|
G|-14^---------14^-------------14^---------14^--------------|
D|----------------------------------------------------------|
A|----------------------------------------------------------|
E|----------------------------------------------------------|

E|---12-12----12-12----12-12----|
B|---12-12----12-12----12-12----|
G|14^------14^------14^-----14^-|
D|------------------------------|
A|------------------------------|
E|------------------------------|

E|-12-12-------9-(9)--9-----11----12----11-----9-----9-9-9-----|
B|-12-12-------9-(9)--9--9---9--9--9--9--9--9--9--9--9-9-9--9--|
G|-------14----------------------------------------------------|
D|-------------------------------------------------------------|
A|-------------------------------------------------------------|
E|-------------------------------------------------------------|

E|-11----12----11-----9-9-|
B|--9--9--9--9--9--9--9-9-|
G|------------------------|
D|------------------------|
A|------------------------|
E|------------------------|

w/riff A(2x)
E|-97-75-54-42-4-5-7-(7)---------------------------------------|
B|-97-75-54-42-4-5-7-(7)-12~~~~~~~~-5--6---7---(7)--6---7------|
G|-------------------------------------7^--8^--9^--(9)--8^--9^-|
D|-------------------------------------------------------------|
A|-------------------------------------------------------------|
E|-------------------------------------------------------------|

outro
G5              A5                  E5
E|-------------------------------------------------------------|
B|--8---------------10-----------------------------------------|
G|-10^--------------12^--------------7h9-----9-----9-----9-7h9-|
D|-------------------------------------------------------------|
A|-------------------------------------------------------------|
E|-------------------------------------------------------------|
not bad kids just stupid ones yeah thought wed own the world
an gettin

G5               A5                  E5
E|---------------------------------------------------------|
B|---------------------------------------------------------|
G|-------------------------------------8---------------10--|
D|----9-7h9---9---9---9---9---9----9--10^--------------12^-|
A|---------------------------------------------------------|
E|---------------------------------------------------------|
used was havin fun i said were not sad kids just lucid ones
yeah

E5                                         G5            A5
E|-------------------------------------------------------------|
B|-17---------------17---------17-----------------8--------10--|
G|-19^--------------19^--------19^~~~~~~~--------10^-------12^-|
D|-------------------------------------------------------------|
A|-------------------------------------------------------------|
E|-------------------------------------------------------------|
flowin through life not collectin anyone so much out there
still so much

E5                                                   G5
E|-----------------------------------------------------------|
B|-5------------------------------------------------------8--|
G|-7^----------------------------------------------------10^-|
D|-----------------------------------------------------------|
A|-----------------------------------------------------------|
E|-----------------------------------------------------------|
to see times too much to handle times too much for me it
drives me up the
A5                 E5
E|---------------------------------------------------------|
B|-10------17---17--17--17--17---17---17---17---20---(20)^-|
G|-12^-----19^--19^-19^-19^-19^--19^--19^--19^-------------|
D|---------------------------------------------------------|
A|---------------------------------------------------------|
E|---------------------------------------------------------|

Вверх

Rocket Queen
mp3

Intro

G|-------------------------------------------------|
D|-2---2h4----------------------------2---2h4------|
A|-------------------------------------------------|
E|--------------0---2------0---2----------------02-|

G|---------------------------------|
D|-----4---2---4-------4---2---1h2-|
A|---------------------------------|
E|-0---------------0---------------|

G|----------------------------------------|
D|*--------------------------------------*|
A|*-----------0h1-----------0h1---0h1----*|
E|----0---2---------0---2-----------------|

play 15 times, then

G|---------------------|
D|---------------------|
A|---------0h1---------|
E|-0---2---------2---0-|

Verse

riff 1
G|---------------------------------|
D|---------------------------------|
A|---------0h1-----------0h1---0h1-|
E|-0---2---------0---2-------------|

riff 2
G|-------------------------------------|
D|---------0h1---------------0h1---0h1-|
A|-0---2---------0---0---2-------------|
E|-------------------------------------|

riff 3
G|-------------------------------------|
D|---------2h3---------------2h3---2h3-|
A|-2---4---------2---2---4-------------|
E|-------------------------------------|

riff 4 (leads into chorus)
G|-----------------------------------------------|
D|-2---2---2---2---2---2---2---2---2---2---2---2-|
A|-----------------------------------------------|
E|-----------------------------------------------|

Chorus

G|------------------------------------------|
D|*-----------------------------------------|
A|*---2---0---------------------------------|
E|------------2---2---2---2---2---2---4---0-|

G|-------------------|
D|-2---2---2---2---2-|
A|-------------------|
E|-------------------|

G|--------------------------------------------|
D|-------------------------------------------*|
A|-0------2----------------------------------*|
E|---------------0------2------2---2---2---2--|

G|--------------------------------------------------|
D|-4---2--------------------------------------------|
A|---------4---3---2---0-------3---2---0------------|
E|-------------------------2---------------0------1-|

first time, return to verse

G|----------2h3---------------2h3---2h3--|
D|*-2---4---------2---2---4-------------*|
A|*-------------------------------------*|
E|---------------------------------------|

Guitar Solo

play riff 1 of verse


part after guitar solo

riff 1 of verse, then

G|---------------------|
D|---------------------|
A|---------0h1---------|
E|-0---2---------2---0-|

G|---------------------------------------|
D|*-------------------------------------*|
A|*---------3h4---------------3h4---3h4-*|
E|--3---5---------3---3---5--------------|

G|-------------------------------------|
D|-------------------------------------|
A|---------5h6---------------5h6---5h6-|
E|-5---7---------5---5---7-------------|

G|-----------------------|
D|-----------------------|
A|---------5h6---5h6-----|
E|-5---7---------------7-|

G|-------------------------------------------------|
D|*---------2h3-------------------------------2h3-*|
A|*-2---4---------4-------------------2---4-------*|
E|--------------------0---2---3---4----------------|

G|---------------------------------|
D|---------2h3---------------------|
A|-2---4---------4-----------------| first time, go to chorus
E|-------------------0---2---3---4-|

after chorus,

G|------------------------------------------------|
D|-------------------------4--4--4--4--4--4--4--4-|
A|------------------------------------------------|
E|-2--2--2--2--2--2--2--2-------------------------|

G|-------------|
D|*-----------*|
A|*---------7-*|
E|--0---0------|

G|------------------------------4---4---4---4---4---4---4-|
D|--------------------------------------------------------|
A|---------7-------0-------2------------------------------|
E|-0---0--------0-------0---------------------------------|

G|---------------------------------------------------|
D|---------------------------------------------------|
A|-------7--0--2--0--4--4--4--2p0-------2--4--4------|
E|-0--0----------------------------3h4-----------3h4-|

G|------------------------------------------------------|
D|------------------------------------0---1-------------|
A|-----7------0---1---2------2---4-----------2----------|
E|-0----------------------------------------------4---2-|

G|---------------------------------------------------------|
D|---------------------------------------------------------|
A|-----7---0---2---0---4------0--------------------------2-|
E|-0-------------------------------2------0---0---2---0----|

G|-------------------------------------------------------------|
D|---------7---------------------------------------------------|
A|-2---2----------2---4------4---6/7------0---2------2---2-----|
E|-----------------------------------------------------------3-|

G|----------------------------------------------|
D|-----2----------------------------------------|
A|---------2---4------4---4---6---7---7---9---2-|
E|-0--------------------------------------------|
Its such a lonely place...

G|---------4-----------------------------------|
D|---------------------------------------------|
A|-2---2-------7------2---4------4---4---4---6-|
E|---------------------------------------------|
If you need a shoulder...

G|-------------------------------------------------------------|
D|-------------------------------------------------------------|
A|-7---7---0---2-------------------7---2----4----4---4---4---6-|
E|-----------------0---4---2---0-------------------------------|

G|---------------------4---4---4---4---4-----------|
D|-----------------------------------------4h6---7-|
A|-7---7---9---2-----------------------------------|
E|-------------------------------------------------|

G|-----------------------------------------|
D|-----------------------------------------|
A|-7-------------2--------4----------------|
E|-------------------------------0---2---3-|
No one needs the sorrow....

G|-----------------------------------------------------|
D|-----------------------------------0---1-------------|
A|-----7---0---0------2------2---4-----------2---------|
E|-0---------------------------------------------4---2-|

G|---------------------------------------------------------|
D|---------------------------------------------------------|
A|-----7---2---4------4---4---6------7---7---0---0---1---2-|
E|-0-------------------------------------------------------|

G|-4---4---4---4---4---4---------------------|
D|-------------------------------------------|
A|-------------------------7---7-------2---4-|
E|---------------------------------4---------|

G|-----------------------------------|
D|-----------------------------------|
A|-4---4---0---------2---4---4-------|
E|-------------3h4---------------3h4-|

G|----------------------------------------------------------|
D|----------------------------------------0---1-------------|
A|---------7-----0---------2------2---4-----------2---------|
E|-0--------------------------------------------------4---2-|
or think I, I mean you harm...

G|------------------------------------------------------|
D|------------------------------------------------4-----|
A|-----7-------2---4------4---4---6---7---7---0-------2-|
E|-0-------4--------------------------------------------|

G|-------------------------4-----------------------|
D|-------------------------------------------------|
A|-2---2---2---2---2---2----------7------2---2---4-|
E|-------------------------------------------------|

G|---------------------------|
D|---------------------------|
A|-4---4----6------7---0---2-|
E|---------------------------|

G|-------------------------------------------------------------|
D|-------------------------------------------------------------|
A|------------------------7-------2---0---4------0---4---4---6-|
E|-0---4---0---2------0-------4--------------------------------|

G|----------------------------------------------------4-|
D|------------------------------------------------------|
A|-7---7---0---0---1---2------2---2---2---2---2---2-----|
E|------------------------------------------------------|

G|----------------------------------------------------------|
D|----------------------------------------------------------|
A|-7---7---2---4------4---4---4---4---6---7---7---0---0---2-|
E|----------------------------------------------------------|

G|-------------------------------------------|
D|--------0---1------------------------------|
A|-2---4-----------2---------------7---2---4-|
E|--------------------4---2---0--------------|

G|-------------------------------------------|
D|-------------------------------------------|
A|-4---4---4---4---6---7---7---0---0---1---2-|
E|-------------------------------------------|

G|-------------------------4-|
D|---------------------------|
A|-2---2---2---2---2---2-----|
E|---------------------------|

G|-------------------------------------------------------------|
D|-------------------------------------------------------------|
A|-7---7---6---6---4-----4---4---4---4---0---7---7---6---6---2-|
E|-------------------------------------------------------------|
Dont ever leave me...

G|-------------------------------------------------------------|
D|-------------------------------------------------------------|
A|-2---2---2---2---2---7---7---6---6---4-----4---4---2---2---0-|
E|-------------------------------------------------------------|
All I ever wanted...

G|---------------|
D|-----6---------|
A|---------------|
E|-4-------4---0-|
know that i care

G|---|
D|---|
A|---|
E|-0-|

Вверх

Since i dont have you

Intro:
E------------------------------------------------------------------|
B------------------------------------------------------------------|
G---19--21b--19--21-19h21p19p1715----19--21b--19--21-19h21p19p1715-|
D------------------------------------------------------------------|
A17--------------------------------17------------------------------|
E------------------------------------------------------------------|

E-----------------------------------------------------------------|
B-19///-17-19-17h19p1715------------------------------------------|
G--------------------------21//-19-21b-19h21p19p1715--------------|
D------------------------------------------------------15--h17p15-|
A-----------------------------------------------------------------|
E-----------------------------------------------------------------|

E------------------------------------|
B------------------------------------|
G------------------------------------|
D----15--17/1917--15-----------------|
A------------------------19--17---15-|
E------------------------------------|

A         D
I dont have pleasent scenes and
A         D
I dont have hopes and dreams
A         D           B                  E
I dont have anything since I dont have you and
A         D
I dont have fun desires and
A         D
I dont have happy hours
A         D           B                  E
I dont have anything since I dont have you
B           A
Happiness and I guess I never will again
B
When you walked out on me
A
You brought on misery and
B                      E
Its been here since then

Yeah were fucked

Solo:
E-----------------------------------------------------------------|
B-----------------------------------------------------------------|
G--19--21b--19-21--19h21p19p1715----19-21b--19--21--19h21p19p1715-|
D-----------------------------------------------------------------|
A17--------------------------------17-----------------------------|
E-----------------------------------------------------------------|

E------------------------------------------------------------------|
B-19///-17-19-17h19p1715-------------------------------------------|
G---------------------------21//-19-21b-19h21p19p1715--------------|
D-------------------------------------------------------15--h17p15-|
A------------------------------------------------------------------|
E------------------------------------------------------------------|

E---------------------------------------------------------|
B---------------------------------------------------------|
G---------------------------------------------------------|
D--15--17/19----21-21-21----19-19-19--17b-15--------------|
A--------------------------------------------------19--17-|
E---------------------------------------------------------|
A        D
I dont have love to share and
A        D
I dont have one who cares
A        D          B                  E    E E E E E E E
Idont have anything since I dont have you

You           You       You   ahh   ahh
E-----------------------------------------|
B-----------------------------------------|
G--------2--------------------------------| Repeat
D-2---2----4-4--2----------2---2/4--2-2/4-|   5x
A-0-------------0----------0--------------|
E-----------------------------------------|
You  You    ahh  yeeeeeeeeeeeeeeah
E---------|
B---------|
G---------|
D--2----2-|
A--0----0-|
E---------|

Вверх

Sweet Child Mine

Intro:
D
E|-------------15----14----|-------------15----14----|
B|----15-------------------|----15-------------------|
G|-------14-12----14----14-|-------14-12----14----14-|
D|-12----------------------|-12----------------------|
A|-------------------------|-------------------------|
E|-------------------------|-------------------------|

C
E|-------------15----14----|-------------15----14----|
B|----15-------------------|----15-------------------|
G|-------14-12----------14-|-------14-12----------14-|
D|-14----------------------|-14----------------------|
A|-------------------------|-------------------------| Play this
E|-------------------------|-------------------------| two times
and then
G                                                  go to the
E|-------------15----14----|-------------15----14----| finish
B|----15-------------------|----15-------------------| part
G|-12----14-12----14----14-|-12----14-12----14----14-|
D|-------------------------|-------------------------|
A|-------------------------|-------------------------|
E|-------------------------|-------------------------|

D
E|-------------15----14----|-------------15----14----|
B|----15-------------------|----15-------------------|
G|-------14-12----14----14-|-------14-12----14----14-|
D|-12----------------------|-12----------------------|
A|-------------------------|-------------------------|
E|-------------------------|-------------------------|

Intro finished (after intro twice)
D
E|--------------15----14-----|--------------15----14-----|
B|-----15--------------------|-----15--------------------|
G|--------14-12----14----14--|--------14-12----14----14--|
D|--12-----------------------|--12-----------------------|
A|---------------------------|---------------------------|
E|---------------------------|---------------------------|

C
E|--------------15----14-----|--------------15----14-----|
B|-----15--------------------|-----15--------------------|
G|--------14-12----------14--|--------14-12----------14--|
D|--14-----------------------|--14-----------------------|
A|---------------------------|---------------------------|
E|---------------------------|---------------------------|

E|--------------15----14-----|--------------15----14-----|
B|-----15--------------------|-----15--------------------|
G|--12----14-12----14----14--|--12----14-12----14----14--|
D|---------------------------|---------------------------|
A|---------------------------|---------------------------|
E|---------------------------|---------------------------|

E|--12------------12----14---|--15----14----12-------------14--|
B|---------15----------------|---------------------15------15--|
G|-----14------14----14---14-|-----14----14----14------14--14--|
D|---------------------------|---------------------------------|
A|---------------------------|---------------------------------|
E|---------------------------|---------------------------------|

Verse: Four strings arpeggio with the chords D C G D (twice)

Chorus:
A5                          C5
E|---------------------------|--------------12----10----|
B|--14-14-------15----14-----|--13-13-------------------|
G|--------14-------14----14--|--------12-10----12----12-|
D|-----------14--------------|--------------------------|
A|---------------------------|--------------------------|
E|---------------------------|--------------------------|

D5                          D5
E|--------------15----14-----|--------------15---14----|
B|-----15--------------------|-----15------------------|
G|--------14-12----14----14--|--------14-12---14----14-|
D|--12-----------------------|--12---------------------|
A|---------------------------|-------------------------|
E|---------------------------|-------------------------|

A5                          C5
E|---------------------------|--------------12----10----|
B|--14-14-------15----14-----|--13-13-------------------|
G|--------14-------14----14--|--------12-10----12----12-|
D|-----------14--------------|--------------------------|
A|---------------------------|--------------------------|
E|---------------------------|--------------------------|

D5       D5
E|-----------|
B|--------15-|
G|--12s14----|
D|-----------|
A|-----------|
E|-----------|

Fill 1:
E|----------------------------------------------------------|
B|---10---8--7-----10--8--7----10---8------10---8-----10--8-|
G|-------------------------------------9------------9-------|
D|----------------------------------------------------------|
A|----------------------------------------------------------|
E|----------------------------------------------------------|

E|------------------10--10^--(10)-----|
B|-10-^-(10)8--10-^--------------full-|
G|--------------------------------9-^-|
D|------------------------------------|
A|------------------------------------|
E|------------------------------------|

Verse & chorus: same as above

Fill 2:
E|----------------------------------------------------------|
B|---10---8--7-----10--8--7----10---8------10---8-----10--8-|
G|-------------------------------------9------------9-------|
D|----------------------------------------------------------|
A|----------------------------------------------------------|
E|----------------------------------------------------------|

E|--------------------------------10-------------------|
B|-10--8-7hb--(7)----7-^------------(7)-----10----8--7-|
G|------------------7----------------------------------|
D|-----------------------------------------------------|
A|-----------------------------------------------------|
E|-----------------------------------------------------|

E|------------------------10----10--8-------/12-|
B|-10---8----7-----/10-^------------------------|
G|----------------------------------------------|
D|----------------------------------------------|
A|----------------------------------------------|
E|----------------------------------------------|

E|-12---12--10---10-(10)-8---7-^--(7)-----------|
B|---------------------------------------8------|
G|-------------------------------------------7-~|
D|----------------------------------------------|
A|----------------------------------------------|
E|----------------------------------------------|

E|-----------------------10---10-^--(10)-------------17----(17)|
B|-10-^--(10)p8---10-^-------------------17-^---(17)-------(17)|
G|-------------------------------------------------------------|
D|-------------------------------------------------------------|
A|-------------------------------------------------------------|
E|-------------------------------------------------------------|

this is fill 3
Chorus: A5   C5   D5 (fill3)    E|------------------------|
A5   C5   D5            B|-7hb--------------------|
A5   C5   D5 (fill3)    G|-----7------------------|
A5   C5   D5 D5 D5 D5   D|-------7--5-/-4---0-----|
A|---------------------3^-|
E|------------------------|
Solo:
E|-17^--hold----15--14--h15p14----15-14-h15p14----------12--14-|
B|-----------------------------17--------------17-16-----------|
G|-------------------------------------------------------------|
D|-------------------------------------------------------------|
A|-------------------------------------------------------------|
E|-------------------------------------------------------------|

E|-------------------------------------------------------------|
B|-15^--12----------------------------------13-12-----h13p1210-|
G|---------14^--12-11h12-----------11-12-14--------------------|
D|------------------------14---14------------------------------|
A|-------------------------------------------------------------|
E|-------------------------------------------------------------|

E|-----------------------------------------15^-----------------|
B|-13^--13-----12--12-(12)-------12^----------------7^^--------|
G|-------------------------------------14-----------------9--9-|
D|-------------------------------------------------------------|
A|-------------------------------------------------------------|
E|-------------------------------------------------------------|

E|-------------------------------------------------------------|
B|--7^---------------------------------------------------------|
G|-------9--9-----8^----8/11---------11^---9-----------------9-|
D|--------------------------------------------9^---7---9-------|
A|-------------------------------------------------------------|
E|-------------------------------------------------------------|

E|-----------------------------------------------------------|
B|-7h8--p7----------------------------------------7^---7-10^-|
G|----------9------8^-----8------/11-----9^--8-9-----9-------|
D|-----------------------------------------------------------|
A|-----------------------------------------------------------|
E|-----------------------------------------------------------|

E|-7-8p7-11p7-8-11-12/14-11-12-14/15-12-14-15p14-12----14p11-|
B|--------------------------------------------------15-------|
G|-----------------------------------------------------------|
D|-----------------------------------------------------------|
A|-----------------------------------------------------------|
E|-----------------------------------------------------------|

E|-12h14p12---|
B|----------15|
G|------------|
D|------------|
A|------------|
E|------------|

with wah
E|-17----------------------------------------------------------|
B|----15^---15^---15^---15^---15^-p12-----15^---15^-15^-p12----|
G|------------------------------------14--------------------14-|
D|-------------------------------------------------------------|
A|-------------------------------------------------------------|
E|-------------------------------------------------------------|

E|----------------------------------15-------------------------|
B|--17^---17^--------17^----17^----------17^----17^-p15--15h17-|
G|-------------------17^---------------------------------------|
D|-------------------------------------------------------------|
A|-------------------------------------------------------------|
E|-------------------------------------------------------------|

E|------12-----------------------------------------------------|
B|-15^-------15--12--------------------------------------------|
G|-------------------14^-p12-14---12-14---12--14^----12--14--12|
D|-------------------------------------------------------------|
A|-------------------------------------------------------------|
E|-------------------------------------------------------------|

E|----15------------15-----15----15----------------------------|
B|----15-------15---15-----15------15--------------------------|
G|-14^--14--12-14^----14^----14^-----14^-p12----14p12--x-x-12^-|
D|-------------------------------------------14--------x-x-----|
A|-------------------------------------------------------------|
E|-------------------------------------------------------------|

E|-------------------------------------------------------------|
B|-------------------------------------------------------------|
G|--------------12h14p12----12^--------------12h14p12----12-12-|
D|-14p12-14-x-x----------14-----14p12-14-x-x----------14-------|
A|-------------------------------------------------------------|
E|-------------------------------------------------------------|

E|-------------------------------------12-12-------15-15p12-15-|
B|-----------------12-12-----15-15p12--------15p12-------------|
G|------14-14p12-14-----14p12----------------------------------|
D|-14p12-------------------------------------------------------|
A|-------------------------------------------------------------|
E|-------------------------------------------------------------|

E|-14--12h15p12------12--------12----------12----------12------|
B|---15--------15-15^--15p12-----15p12-15^----15p12-------15p12|
G|--------------------------14^---------------------14^--------|
D|-------------------------------------------------------------|
A|-------------------------------------------------------------|
E|-------------------------------------------------------------|

E|-----12-----------12-----------12--------------12-------15^-|
B|-15^----15p12--------15p12-15^----15p12-----12----15p12-----|
G|--------------14^-----------------------14^-----------------|
D|------------------------------------------------------------|
A|------------------------------------------------------------|
E|------------------------------------------------------------|

E|-15------12h15p12----12------12---------------------|
B|------------------15-----15^-----15p12--------------|
G|----------------------------------------14^-p12-14^-|
D|----------------------------------------------------|
A|----------------------------------------------------|
E|----------------------------------------------------|

E|-----------------------------------------|
B|-15--------------------------------------|
G|----14^-p12-14^----14p12--------------12-|
D|----------------14-------14--------------|
A|-----------------------------------------|
E|-----------------------------------------|

Following vocals ad lib over E F# G A B C D G chord sequence

Where do we go?_____ Where do we go_____now?
Where do we go?_____ Where do we go?
Where do we go____now?_____ Where do we go?
Where do we go?_____  CHILD !
Where do we go____now? Where do we go______now,
Now?_________________Where do  we go?

Ending:
E|-------------------------------------------------------------|
B|-----------------------------------------------------------9-|
G|---------------------------------------------------------9---|
D|-14-/-9----9/5----------------------------------------9------|
A|------------------10-/-7-/-2------------------------7--------|
E|----------------------------------5-/-3hb---3-/-0------------|

Вверх

Sweet Child Mine (2 вариант)

Intro:
The guitar plays alone for a few bars, and then the bass comes
in as;

G|-------------4-----------|---------------------|-----|---|
D|---4---4-5-7----7-5-4----|---5--3-2----3--2----|-----|-5-|
A|-5---5-----------------5-|-3---------3-------3-|-----|---|
E|-------------------------|---------------------|-3---|---|

G|------------------------------|
D|--5-4---5--4-----5-4----5--4--|
A|------5-------5-------5-------|
E|------------------------------|

Verse:
The basic pattern for the verses goes like this;

G|-------|--–-|----–|-----|
D|---5---|-3--|-----|-5---|
A|-------|----|-3---|-----|
E|-------|----|-----|-----|

With some of the licks added in it goes;
-the first note in each bar takes 3 of 4 beats.

G|--------------|---------------|--------------|------------|
D|------5-0-5-0-|------3-2------|--------------|-------5--4-|
A|-5------------|-3---------3-2-|------2-3-4-5-|-5----------|
E|--------------|---------------|-3------------|------------|

Chorus:

G|----------------|---------|--------------|--------|
D|----------------|---------|--------------|--------|
A|----------------|-5-5-----|--------------|-5-5----|
E|-----5-5--3-3---|---------|---5-5--3-3---|--------|
*woh, oh, oh, oh, sweet child o mine*

Вверх

Sympathy For The Devil
mp3

         Please allow me         to intro- -duce myself
E|------------------------|--------------------------------|
B|------------------------|--------------------------------|
G|*---------9-----9-----9-|-----------------7-----7-----7--|
D|*--9---9--9--9--9--9--9-|-9--9------7--7--7--7--7--7--7--|
A|---7---7-----7-----7----|-7--7------5--5-----5-----5-----|
E|------------------------|--------------------------------|

Im a man with wealth and taste
E|-------------------------------------------------------------|
B|-------------------------------------------------------------|
G|------------------------------------------------9-----9---9-*|
D|-7--7-----------7--7--7--7-----------7-9--9--9--9--9--9-9-9-*|
A|-5--5--7--7--7--5--5--5--5----x--x---5/7--7--7-----7----7----|
E|-------5--5--5-----------------------------------------------|

oooah Pleased to meet you  hope you guessed my name
E|---------------------|------------|
B|---------------------|------------|
G|---------------------|------------|
D|---------4---9--9-4--|--7-9--9--9-|
A|-/-------2---7--7/2--|--5/7--7--7-|
E|---------------------|------------|
(long slide)
But whats puzzling you is the
E|-----------------------------------------|-----------------|
B|-----------------------------------------|-----------------|
G|-9-----9-----9-------------9-----9-----9-|-----------------|
D|-9--9--9--9--9--7-9--9--9--9--9--9--9--9-|-4--------9--9-4-|
A|----7-----7-----5/7--7--7-----7-----7----|-2--------7--7/2-|
E|-----------------------------------------|-----------------|


nature of my game.
-----------------------------------------------|
-----------------------------------------------|
---------------------------9-----9-------------|
----------------7-9--9--9--9--9--9--9-----9-4--|
----------------5/7--7--7-----7-----7--x--7-2--|
-----------------------------------------------|

E                        D
Please allow me to introduce myself,
A                  E
Im a man of wealth and taste
E                       D
Ive been around for long, long years
A                           E
Ive stolen many a mans soul and faith
E                    D
I was around when Jesus Christ had His
A                     E
moments of doubt and pain
E                      D
I made damn sure that Pilate washed his
A                    E
hands and sealed his fate
B                      B                 E
Pleased to meet you, hope you guess my name,
D
but whats puzzling you, is
A               E
the nature of my game

I stuck around St. Petersburg when
I saw it was time for a change
I killed the Tzar and his ministers,
Anastasia screamed in vain
I rode a tank, held a genrals rank,
when the blitzkrieg raged and the
bodies stank Pleased to meet you,
hope you guess my name, but whats
puzzling you, is the nature of my game

I watched with glee while your kings
and queens, fought for ten decades for
the gods they made I shouted out
"Who killed the Kennedys?", when after all it
was you and me
So let me please introduce myself,
I am a man of wealth and taste
And I lay traps for troubadours,
who get killed before they reach Bombay
Pleased to meet you, hope you guess my name,
but whats puzzling you, is the
nature of my game

Pleased to meet you, hope you guess my name,
but whats confusing you, is
just the nature of my game

Just as every cop is criminal,
and all the sinners, Saints
As heads is tails, just call me Lucifer,
cause Im in need of some restraint
So if you meet me, have some courtesy,
have some sympathy and some taste
Use all your well-learned politesse,
or Ill lay your soul to waste
Pleased to meet you, hope you guess my name,
but whats puzzling you, is the
nature of my game

Вверх

The Godfather Theme

E|-------------------------------------------------------------|
B|-14-13-14-15-14-14----14-13-14-15-14-14---14-13-14-17^-14-13-|
G|-------------------14------------------13--------------------|
D|-------------------------------------------------------------|
A|-------------------------------------------------------------|
E|-------------------------------------------------------------|

E|--------|
B|-16^-14-|
G|--------|
D|--------|
A|--------|
E|--------|

E|----------------------------10-13-12-10-13-10-12-10----------|
B|-14^r------14^r----------10-------------------------11-13-10-|
G|------14^r------13-------------------------------------------|
D|-------------------------------------------------------------|
A|-------------------------------------------------------------|
E|-------------------------------------------------------------|

E|----10-13-12-10-13-10-12-10-----------------9-12^------9-10^-|
B|-10-------------------------5/10-9-8---8-11-------8-11-------|
G|-------------------------------------------------------------|
D|-------------------------------------------------------------|
A|-------------------------------------------------------------|
E|-------------------------------------------------------------|

Unsure about this. I modified it from the original score from
the godfather theme.

E|-------------------------------------|
B|-------13-11-10-13-11-11-11-10-------|
G|----10-------------------------------|
D|-12----------------------------11-12-|
A|-------------------------------------|
E|-------------------------------------|

E|-10-10-9-8-12-12-10----------------------------|
B|--------------------11-10---10-9-8---8h11-9-10-|
G|-----------------------------------------------|
D|-----------------------------------------------|
A|-----------------------------------------------|
E|-----------------------------------------------|

Вверх

Under The Bridge (2 вариант)

Introduction

Let ring                                       h           h p
E ---------------------|----------------------|--------------------
B -3-------3-----------|-2--------------------|-3-----------3-5-3--
G -----2-----2---------|---------3------------|-------------------2
D ---4---4-------------|-----4-----4--4-2-0---|-----4---2----------
A -5-----------4-2-0---|---4---4------------4-|-4-5---5---4--------
E -------------------4-|-2--------------------|--------------------
(D)                   (F#)                   (D)

s                               h
E --------|----------------------|--------------------------|
B --------|-2--------------------|-3-----------3------------|
G --------|---------3------------|---------2-----2----------|
D -4--6-6-|-----4-----4--4-2-0---|-----4-----4--------------|
A -5--7-7-|---4---4------------4-|-4-5---5----------4-2-0-4-|
E --------|-2--------------------|--------------------------|
(F#)                   (D)

h          h p     s
E ----------------------|---------------------------|-2------------
B -2--------------------|-3----------3-5-3----------|--------------
G ---------3------------|---------2--------2--------|--------3--3--
D -----4-----4--4-2-0---|-----4-----4--------4--6-6-|-----4---4--4-
A ---4---4------------4-|-4-5---5------------5--7-7-|---4---4--4--4
E -2--------------------|---------------------------|-2------------
(F#)                   (D)                         (F#)

Verses
(Use bar chords)

E           B             c#7          g#  A
Sometimes I feel like I don't have a partner
Sometimes I feel like my only friend,
E           B           c#7     A

E      B            c#7     g# A
Is the city I live in, the city of angel
Lonely as I am, together we cry
E         B       c#7       A

*(Special chord #1)*
Let ring
E ---------
B --9------
G --8------
D --9------
A --7------
E --0------
EM7 - (E addD#)

h p         s      p             h p
E ---------------------|----------------4--5--5-7-5---|-----------
B -9--9---7------------|-7--9-----------4--5--------5-|-9--9---7--
G -9--9---8--8-9-8---8-|-8--9-----------4--6----------|-9--9---8--
D -9--9---9--------9---|-9--11-11-9-11--6--7----------|-9--9---9--
A -7--7---9------------|-9--11-11-9-11--6--7----------|-7--7---9--
E -0--0---7------------|-7--9-----------4--5----------|-0--0---7--
E      B                 c#          g# A            E      B

h p         s      p
E ------------|-----------------5--5-----|
B ------------|-7--9------------5----5---|
G --8-9-8---8-|-8--9------------6------6-|
D --------9---|-9--11-11-9-11---7--------|
A ------------|-9--11-11-9-11---7--------|
E ------------|-7--9------------5--------|
c#           A

I drive on her streets cause she's my companion
I walk through her hills cause she knows who I am

She sees my good deeds and she kisses me windy
I never worry, now that is a lie

(Special chord #1 as above)

Chorus

(Use upper neck bar chords)
(The B chord should be played as notated below)
(Play chorus twice)

f#      E      B      f#
I don't ever wanna feel, like I did that day
Take me to place I love, take me all the way
f#       E     B      f#

E --11----
B --12----
G --11----
D --------
A --------
E --------
B

Verses

(1 verse) yah yah etc..

It's hard to believe that there's nobody out there
It's hard to believe that I'm all alone

At least I have her love, the city she loves me
Lonely as I am, together we cry

(Special chord #1)

Chorus (as above)

Closing

(Use open chords)
(Let the high E string sound through all of the chords)

A    a    G    F  (play three times)
F      E    G

A                a        G         F
Under the bridge downtown, is where I drew some blood
Under the bridge downtown, I could not get enough
A                a        G        F

A                a        G       F

Under the bridge downtown, I gave my life away
A                a        G       F

A    a    G    F   (play eight times)

Вверх

Used To Love Her
mp3

D           A      G               A
I used to Love her, but I had to Kill her (repeat as necessary)
G                A   G              A
She bitched so much, she drove me nuts,
G                    D
and now were happier this way.

Or something like that.  The order of the chords at Nevada is
accurate, if mine are not.

The album is tuned down  1/2 step.  What that means is that
each one of the strings on Izzys guitar was tuned one semitone
lower in pitch than "standard" (A=440 hz) tuning when playing.
So on the album what you actually hear instead of D A G A, etc
is Dflat Aflat Gflat, etc, even though its physically played
in the exact same way.

b = bend at first note to the pitch of the second note
r = release to second note from the pitch of first note
[] = note is not struck
() = optional note

Tune down 1/2 step

First Solo
D                    A        G                A
E|------10------------------------------------------|
B|---------10----------------------------10---------|
G|-9b11------[11]r9--7--9--------7--9--7----9b11--7-|
D|------hold----------------------------------------|
A|--------------------------------------------------|
E|--------------------------------------------------|

D                       A                       G
E|-------10-------10-------10----12b14-12-10-12-12------12-10-|
B|-10b12----10b12----10b12----10------------------------------|
G|------------------------------------------------------------|
D|------------------------------------------------------------|
A|------------------------------------------------------------|
E|------------------------------------------------------------|

A                             G
E|-17-------------------------14-15-16-17----------------------|
B|----17b19-17-15-17-15-17b19-------------17b19r17-15-17----15-|
G|-------------------------------------------------------16----|
D|-------------------------------------------------------------|
A|-------------------------------------------------------------|
E|-------------------------------------------------------------|

A                                G
E|-17b19-17----------------------------------------------------|
B|----------17b19r17-15-17----15----17b18r17-15-17----15----15-|
G|-------------------------16----------------------16----16----|
D|-------------------------------------------------------------|
A|-------------------------------------------------------------|
E|-------------------------------------------------------------|

A                   G                          A
E|-17b19-19-19-19r17---------17-------17-------17--------------|
B|-------hold----------17b19----17b19----17b19----19r17-15-17--|
G|--------------------------------------------hold-------------|
D|-------------------------------------------------------------|
A|-------------------------------------------------------------|
E|-------------------------------------------------------------|

D
E|--------------------------------------------10----------|
B|----15-17-15----15----15-15---------------(10)-----13---|
G|-16----------16-------------------12-10h11------11-(11)-|
D|--------------------------------------------------------|
A|--------------------------------------------------------|
E|--------------------------------------------------------|

Вверх

Welcome To The Jungle
mp3

Intro: Gtr.1 w/delay (see recomendations at bootom):
/-----call this Riff A------
E|-----------------------------|-----------------------------|
B|-----------------------------|-----------------------------|
G|---4-------4---------4-4-4---|--4--4-2--2-----------------:|
D|-----------------------------|------------4--4-2--2--0----:|
A|-----------------------------|--------------------------2--|
E|-----------------------------|-----------------------------|
--------only once----------/ ----repeat this 2 times----/

Guitar 2 & 3 starts here, with Gtr. 1 Riff A seven more times
(Play Guitar 1 Riff A until the last E5 chord)

Gtr.2: Play these Power chords B5 A5 G5 E5 B5 A5 E5

B5    A5       G5      E5      B5   A5  E5 D5  A5
E|--------------------------------------------------|
B|--------------------------------------------------|
G|-4--4---------------------------4------------7----|
D|-4--4--7--7-----5--5----2--2----4----7---2---7--7-| play this,
A|-2--2--7--7-----5--5----2--2----2----7---2---5--7-| riffs at
E|-------5--5-----3--3----0--0---------5---0------5-| the same
time in
Gtr.3:                                                guitar
E|-------------------------------7--7/5--5-0--------| 1, 2 & 3
B|-------------------------------7--7/5--5-0---7--5-|
G|-------7-9-9fb-7qb---------------------------7--6-|
D|-7h9-9---------------7h9--9s2----------------7--7-|
A|------------------------------------------------0-|
E|--------------------------------------------------|


Gtr.2: (faster Gtr 2. & 3 => Tempo=124)
B5      B5    B5      B5       B5     B5   B5
E|----------------------------------------------|
B|----------------------------------------------|
G|-4-------4-----4-------4--------4------4----4-|
D|-4-------4-----4-------4--------4------4----4-|
A|-2-------2-----2-------2--------2------2----2-| play this
E|----------------------------------------------| riffs at the
same time
Gtr.3:                                            in both
E|-------------------------------5--5-----------| guitars
B|-------------------3--5----5hb----5hb---3-----|
G|-------------2--4---------------------------4-|
D|-------2--4-----------------------------------|
A|-2--4-----------------------------------------|
E|----------------------------------------------|

Verse (same time in guitar 1, 2 & 3)

Gtr.1:    P.M.     P.M.                       Palm mute
E|--------------------------|---------------------------|
B|--------------------------|---------------------------|
G|--2------2--2--0----------|--2-x-x-----2-2--0---------|
D|--2------2--2--0----------|--2-x-x-----2-2--0---------|
A|--0------0--0-----------0-|--0-x-x-----0-0----------0-|
E|----3hb-----------3--2----|--------3hb--------3--2----|
Play this
Gtr.2:                                          two times
E|--------------------------|---------------------------|
B|--------------------------|---------------------------|
G|--------------------------|---------------------------|
D|--------------------------|---------------------------|
A|-7--7--5--7--7--7-5--4--2-|-7--7--5--7--7--7--5--4--2-|
E|-5--5--3--5--5--5-3--2--0-|-5--5--3--5--5--5--3--2--0-|

Gtr.3: play an A barrechord over main riff

Gtr.1:
E|------------------x--5--------------|------------------------|
B|------------------------------------|------------------------|
G|-2-----------x----------------------|-2-x-x-----2-2--0-------|
D|-2-----------x----------------------|-2-x-x-----2-2--0-------|
A|-0-----0-----x--------------3p0-----|-0-x-x-----0-0--------0-|
E|----------------------------------2-|-------3hb--------3-2---|
Play this
Gtr.2:                                                  one time
E|-----------------------------------|-------------------------|
B|-----------------------------------|-------------------------|
G|-7fb5---7-5hb----------------------|-------------------------|
D|------7-------7-5------------------|-------------------------|
A|------------------7-6-53-5-3-------|-0-0-----0-0-------------|
E|------------------------------5--3-|-----3hb-----3hb--2--0-0-|

Gtr.3: play an A barrechord over main riff

In the part ‘We are the people that can find...’ play:

Gtr.1:    P.M.     P.M.                       Palm mute
E|--------------------------|---------------------------|
B|--------------------------|---------------------------|
G|--9--9--7-x-9--9----------|--2-x-x-----2-2--0---------|
D|--9--9--7-x-9--9--7--6--4-|--2-x-x-----2-2--0---------|
A|--7--7--5-x-7--7--5--4--2-|--0-x-x-----0-0----------0-|
E|--------------------------|--------3hb--------3--2----|

Gtr.2:
E|--------------------------|---------------------------|
B|--------------------------|---------------------------|
G|--------------------------|---------------------------|
D|--------------------------|---------------------------|
A|-7--7--5--7--7--7-5--4--2-|-7--7--5--7--7--7--5--4--2-|
E|-5--5--3--5--5--5-3--2--0-|-5--5--3--5--5--5--3--2--0-|

Gtr.3: play an A barrechord over main riff

chorus:
C   C/B  C/A    C/G       D     D/C#     D/B      D/A
In the jun-gle welcome to the jun-gle watch it bring you to your
E|-------------------------------------------------------|
B|-------------------------------------------------------|
G|-5-------------------------7---------------------------|
D|-5-------------------------7---------------------------|
A|-3----2--------------------5------4--------------------|
E|-----------5------3-----------------------7---------5--|

E5
sha na na na na na...
E|-----------------------------|
B|-----------------------------|
G|--9--9-----------------------|  three
D|--9--9-----------------------|  times
A|--7--7--5--------------------|
E|-----------6--6--65--5--3--0-|

And then: I wanna watch you bleed
E|-----------------------------------------|
B|-----------------------------------------|
G|-----------------------------------------|
D|-----------------------------------------|
A|--------7----5---------------------------|
E|-----------------------6------5---3---4--|

Solo 1 (w/ad lib vocals):
E|-------------------------------------------------------------|
B|----------------------------12--------15~------------15--15~~|
G|-12/13-----------13-13~(13)-12-13-x-x-16~-12/11------13--13~~|
D|-11/12---(12)-14-14-14~(14)----14-x-x-----13/12--------------|
A|-------------------------------------------------------------|
E|-------0----------------------------------------0--0---------|

E|-------------------15--15-------------19fb-19-18-17fb--15-16-|
B|~~~(15)p12---14/15-15--15----------17------------------------|
G|~~~(13)------15/16--------6/0--/18---------------------------|
D|-------------------------------------------------------------|
A|-------------------------------------------------------------|
E|-------------------------------------------------------------|

E|-------------------------------------------------------------|
B|-15~-(15)-15fb-(15)-15p12------------------------------------|
G|--------------------------14fb-14hb(14)p12-14-12-------------|
D|-------------------------------------------------14-14-------|
A|-------------------------------------------------------13-13-|
E|-------------------------------------------------------------|

E|--------------------------A.H.-------------------|
B|-------------------------------------------------|
G|--------------------------8hb--------------------|
D|----------------------------------------------11-|
A|-12fb-(12)p10------------------------------------|
E|---------------12--------------------------------|

After chorus come this:
D       G               D               G
E|---------3---(3)---------------------------------------------|
B|-7-------3---(3)---6hb---7---8p7---------12--13p12---------8-|
G|-7-------4---(4)---4hb---7---7-----------12---------75--5----|
D|-7---5---5---(5)---------7---7----7--10--12------------------|
A|-5---3---5---(5)---------5------------8--10------------------|
E|---------3---(3)---------------------------------------------|

D                     G                       D          D7
And when...     high    you never   ever want to come down
E|-------------------------------------------------------------|
B|-7-------------------12---13p12---------107---7--------------|
G|---7-----------------12------------------------7-------------|
D|-----7--6--7----10---12---------12p10---107---7----------10--|
A|-----------------8---10------------------------------------8-|
E|-------------------------------------------------------------|

G        F     G     F     G     F    A           E (hold chord)
suck  down  suck  down  suck  down         Yeah!

Pre-solo:
E|-------------------------------------------------------------|
B|-------------------------------------------------------------|
G|-----6/7-------------9-------9-----9---6/7------------12--12-|
D|-----5/6-------------9-------9-----9---5/6------------12--12-|
A|-------------------------------------------------------------|
E|-0---------0----0---------0-------------------0----0---------|

E|-------------------------------------------------------------|
B|-------------------------------------------------------------|
G|-----6/7-------------9-------9-----9---6/7------------12--12-|
D|-----5/6-------------9-------9-----9---5/6------------12--12-|
A|-------------------------------------------------------------|
E|-0---------0----0---------0-------------------0----0---------|

Solo 2:
E|-------------------------------------------------------------|
B|-------------------------------------------------------------|
G|-------------------------------------------9hb----11fb--(11)-|
D|-----------------------------9-9hb-11-(11)-----11------------|
A|----7----9fb--(9)----7-7-9/11--------------------------------|
E|-9-----9-----------------------------------------------------|

E|-----------------------------------------------------------0-|
B|------------------------12-(12)---12--------------------5--5-|
G|-(11)-11fb(11)p9----9hb-11-(11)---11-(11)p9------------6-6---|
D|-----------------11-------------------------11-9-(9)/6-------|
A|-------------------------------------------------------------|
E|-------------------------------------------------------------|

E|-(0)-0-0-0---------------------------------------------------|
B|-(5)-3-2-0-2hb-2hb-0---0---0-(0)-0-0--0--0--2--4-------------|
G|-----------2hb-2hb-0-1-1-2-4-(4)-4-2--2--1--2--4-------------|
D|--------------------------------------------4--4--2fb(2)p0-2-|
A|-------------------------------------------------------------|
E|-------------------------------------------------------------|

E|----------------------------------------------------------|
B|--------15-15fb-(15)-15fb(15)-----------------------------|
G|-/4---------------------------14fb-14fb-14fb(14)p12-------|
D|-/4-/12---------------------------------------------14-12-|
A|----------------------------------------------------------|
E|----------------------------------------------------------|

E|----------|
B|-1412-----|
G|------6hb-|
D|-1412-----|
A|----------|
E|----------|

E|------------------------------------------------|
B|------------------------------------------------|
G|-(6)--4-----------------------------------------|
D|---------6hb------4-----------------------------|
A|--------------------4-(4)--2--------------------|
E|-----------------------------4hb----0--2----(2)-|

Finish this way:
E5  D5   B5  A5  G5  E5   A   G   E       E7#9
E|--------------------------------------------3-----(3)--|
B|--------------------------------------------3-----(3)--|
G|-9---7---------------------6---4---1--------1-----(1)--|
D|-9---7----8----7---5-------7---5---2--------2-----(2)--|
A|-7---5----8----7---5-------7---5---2--------2-----(2)--|
E|----------6----5---3---0---5---3---0--------0-----(0)*-|
* Slowly detune low E string

Вверх

Whole Lotta Rosie

The intro riff goes just like this

(Repeated)
E|---------------------------|
B|---------------------------|
G|---------------------------|
D|-2---5-------7-------5---2-|
A|-0---3---0---5---0---3---0-|
E|---------------------------|

And the verse riff is just a variation of the Intro riff
first part
E|-------------------------------------------------------|
B|-------------------------------------------------------|
G|-----------------------------2-----------2-----------2-|
D|-2---------------------------2-----------2-----------2-|
A|-0---3---0---5---0---3---0-------0---0-------0---0-----|
E|-------------------------------------------------------|

Вверх

Word Up

   FB
E|----|
B|-7~-|
G|----|
D|----|
A|----|
E|----|

INTRO GUITAR:
E|-------------------------|----------------------------|
B|-------------------------|----------------------------|
G|-11-----X-X--11------X-X-|-9---9--X---9--------X----X-|
D|-11-----X-X--11------X-X-|-9---9--X---9--------X----X-|
A|--9-----X-X---9------X-X-|-7---7--X---7----7---X----X-|
E|-------------------------|----------------------------|

E|----------------------------|------------------------|
B|----------------------------|------------------------|
G|-7-----X-X---7--9---X-X---9-|-11--11-----X-X------11-|
D|-7-----X-X---7--9---X-X---9-|-11--11-----X-X------11-|
A|-5-----X-X---5--7---X-X---7-|--9---9-----X-X-------9-|
E|----------------------------|------------------------|

MAIN GUITAR RIFF:
|-----------------------|------------------------|
|-12-12-12-12--12----11-|-10-10-10-10--10------9-|
|-11-11-11-11--11----11-|--9--9--9--9---9------9-|
|-14-14-14-14--14----14-|-12-12-12-12--12------9-|
|-----------------------|------------------------|
|-----------------------|------------------------|

E|------------------------------|------------------------------|
B|-7---X-X---7-----9----X-X---9-|-11--11----------11--11-------|
G|-7---X-X---7-----9----X-X---9-|-11--11----------11--11-------|
D|-7---X-X---7-----9----X-X---9-|-11--11----------11--11-------|
A|------------------------------|----------9--9-------------/9-|
E|------------------------------|--------------------------/---|

E|---------------------------------|------------------------|
B|------12-12-12-12--12----11----X-|-10-10-10-10--10------9-|
G|-11---11-11-11-11--11----11----X-|--9--9--9--9---9------9-|
D|-11---14-14-14-14--14----14----X-|-12-12-12-12--12------9-|
A|--9------------------------------|------------------------|
E|---------------------------------|------------------------|

E|------------------------------|------------------------------|
B|------------------------------|-14---14------14--------------|
G|-7----X-X----7---9---X-X----9-|-14---14------14--------------|
D|-7----X-X----7---9---X-X----9-|----------16------------------|
A|-5----X-X----5---7---X-X----7-|----------------------/17-----|
E|------------------------------|---------------------/------X-|

The Verse is played by 2 guitars, one playing the Main guitar
riff and the second plays the same but an octave lower using a
drop D tuning.

GUITAR FILL ( CHORUS )
E|---------------------|------------------------------------|
B|---------------------|------------------------------------|
G|-14----------13---11-|-14----11-/-13--11-----------9-/-11-|
D|--X----------X-----X-|-X-----X----X----X-----------X----X-|
A|-12----------11----9-|-12-----9-/-11---9-----------7-/--9-|
E|---------------------|------------------------------------|

E|------|-------------------------|
B|------|-------------------------|
G|-(11)-|-(11)----14-------13--11-|
D|--(X)-|--(X)----X-----X--X----X-|
A|--(9)-|--(9)----12----X--11---9-|
E|------|-------------------------|

E|----------------------------|
B|----------------------------|
G|-14---------13--11----------|
D|--X------X---X----X---------|
A|-12-----X---11---9----------|
E|-------------------------17-|

GUITAR 1 : VERSE 2  ( DROP D TUNING )
E|-----------------|-----------------|------|-----------------|
B|-----------------|-----------------|------|-----------------|
G|-----------------|-----------------|------|-----------------|
D|-4-4-4-4-4-4-4-4-|-2-2-2-2-2-2-2-2-|-0--2-|-4-4-4-4-4-4-4-4-|
A|-4-4-4-4-4-4-4-4-|-2-2-2-2-2-2-2-2-|-0--2-|-4-4-4-4-4-4-4-4-|
E|-4-4-4-4-4-4-4-4-|-2-2-2-2-2-2-2-2-|-0--2-|-4-4-4-4-4-4-4-4-|

GUITAR 2 : VERSE 2
E|-------------------|-------------------|-------------------|
B|-------------------|-------------------|-------------------|
G|----------------2-|----------------2-|----------------2-|
D|-4-----2--4--------|-4~~~--2--4--------|-4~~~--2-4-2-------|
A|-------------4-----|-------------4-----|-------------4-----|
E|-------------------|-------------------|-------------------|

RPT X4
E|-----------5------------|
B|-------------7-5---------|
G|------/6---------6-5-4---|
D|-4~~~------------------7-|
A|-------------------------|
E|-------------------------|

GUITAR 1 : MIDDLE 8
RPT X8
E|------------------------------|
B|------------------------------|
G|------------------------------|
D|----4---4-------4---4-------4-|
A|------------------------------|
E|-4-----------4-----------4----|

GUITAR 2: MIDDLE 8
|---------|-------|-------|--------|-----|-----|----------|---|
|---------|-------|-------|--------|-----|-----|----------|---|
|-11----9-|-9---8-|-8-----|-7----6-|--6--|--5--|----------|---|
|--X----X-|-X---X-|-X-----|-X----X-|--X--|--X--|-9-7--6---|---|
|-11----9-|-9---8-|-8-----|-7----6-|--6--|--5--|----------|---|
|--X----X-|-X---X-|-X-----|-X----X-|--X--|--X--|-9-7--6---|-4-|
|--9----7-|-7---6-|-6-----|-5----4-|--4--|--3--|-X--X---X-|-X-|
|---------|-------|-------|--------|-----|-----|-7-5--4---|-2-|

GUITAR 3 : MIDDLE 8
E|-----------|--------------|--------------|------------|-----|
B|-----------|--------------|--------------|------------|-----|
G|-6------/9-|-(9)-------11-|-11--------14-|--14------9-|---9-|
D|-X-------X-|------------X-|--X---------X-|---X------X-|---X-|
A|-4------/7-|-(7)--------9-|--9--------12-|--12------7-|---7-|
E|-----------|--------------|--------------|------------|-----|

E|---------------|---------------------------|----|
B|---------------|---------------------------|----|
G|-8----------/7-|-7---------6---4---4-------|----|
D|-X-----------X-|-X---------X----X---X----7-|--7-|
A|-6----------/5-|-5---------4---2---2----X--|--X-|
E|---------------|-------------------------5-|--5-|

GUITAR SOLO;

E|-----------|-------------------|--------------------(2)-|
B|-----------|--4---4--(4)--4-|--4---4--(4)----------|
G|-4-(6)-4-2-|--4---4--(4)--4-|--4---4--(4)----------|
D|-----------|-------------------|------------------------|
A|-----------|-------------------|------------------------|
E|-----------|-------------------|------------------------|

E|----------------------------|-------------------------------|
B|----------------------------|-------------------------------|
G|-4-(6)-4-2-----2-----------|--------2--4-------------------|
D|-----------4-2-----4--------|--2-----------4-(6)4/--X----/X-|
A|------------------------2/4-|-----4-----------------X----/X-|
E|----------------------------|-----------------------X----/X-|

E|--------------------------|----------------------------------|
B|-14-----------------------|-16-(17)--------------------------|
G|-14-(15)------------------|-16-(18)--14-----------------14---|
D|--------16--16~~~~~-14----|--------------16~~~---14-16----16-|
A|-----------------------16-|----------------------------------|
E|--------------------------|----------------------------------|

E|---------------------------------------|
B|---------17----------17------17--------|
G|-16-(18)----16-(18)-(18)-16-(18)-16-14-|
D|---------------------------------------|
A|---------------------------------------|
E|---------------------------------------|

E|-----------------------------14--|
B|-------------------------17-(19)-|
G|-16----14------14---------------|
D|----16-------14----16~~~---------|
A|----------16---------------------|
E|---------------------------------|


E|-(14)-(14)------------14---------|---------------------14----|
B|-(19)-(17)-17-(19)~~~----(17)-14-|-17-(21)-17-17~~~~------17-|
G|---------------------------------|---------------------------|
D|---------------------------------|---------------------------|
A|---------------------------------|---------------------------|
E|---------------------------------|---------------------------|

E|-17-14----14-------14---------------------------------|
B|-------17--17-(19)----17-14---------------------------|
G|----------------------------17-1614----16----14-(16)-|
D|-------------------------------------16----16---------|
A|------------------------------------------------------|
E|------------------------------------------------------|

E|---------------------------------|---------------------------|
B|------(14)----14------14--------|---------------------------|
G|-------14-----14------14--------|-1411-11-11----11/13---13--|
D|----14-------------16-----16--16-|--X--X--X--X-----X--X----X-|
A|-16------------------------------|-12-9--9--9-----9/11---11--|
E|---------------------------------|---------------------------|

E|-----------------------------|
B|-----------------------------|
G|-13-9-----9/119--------------|
D|--x--X-----X--X-X------------|
A|-11-7-----7/-97-----14-15-16-|
E|-----------------------------|

E|--------------------------------------|
B|-------------------------17---17------|
G|---------14--16--16-(18)(18)--16-(18)-|
D|-14--16----16--X----------------------|
A|---16--16-----------------------------|
E|--------------------------------------|

E|------------------------------------|
B|-17---------17----------------------|
G|----16-(18)----16-(18)-16-14--------|
D|-----------------------------16---X-|
A|------------------------------------|
E|------------------------------------|

GUITAR 1 : CHANT SECTION ( DROP D TUNING )

RPT X8
E|-----------------|
B|-----------------|
G|-----------------|
D|-4-4-4-4-4-4---5-|
A|-4-4-4-4-4-4---5-|
E|-4-4-4-4-4-4---5-|

GUITAR 2 : CHANT SECTION

E|-------------|------------|-----------|-------------------|
B|-------------|------------|-----------|-------------------|
G|-------------|-3-------/7-|-6-------4-|-3---------------3-|
D|-4---------5-|-X--------X-|-X-------X-|-X-----5---5-----X-|
A|-X---------X-|-1-------/5-|-4-------2-|-1-----X---X-----1-|
E|-2---------3-|------------|-----------|-------3---3-------|

E|---------------|-----------|-----------|----|
B|---------------|-----------|-----------|----|
G|---------------|-3------/7-|-6-------9-|-11-|
D|-4-----------5-|-X-------X-|-X-------X-|--X-|
A|-X-----------X-|-1------/5-|-4-------7-|--9-|
E|-2-----------3-|-----------|-----------|----|

Вверх

Yesterdays
mp3

Guitar solo:
E|-------------------------------------------------------------|
B|-------------------------------12----------------------------|
G|-9fb-r9h-r9p7-9-7---7----14fb~----14-11----------------------|
D|------------------9---9-----------------14hbr-12-14-14hb-12~-|
A|-------------------------------------------------------------|
E|-------------------------------------------------------------|

E|-------------------------------------------------------------|
B|-------12-14~-14-12fb~~-14-14hb-14-14-14-15fb~~-15-12--------|
G|-14fb~------------------------------------------------13-----|
D|---------------------------------------------------------14~-|
A|-------------------------------------------------------------|
E|-------------------------------------------------------------|

E|-------12--------12--------------------------12-------15-----|
B|---------12-15fb---15-12-------------------12---15/17----1715|
G|-12/13-------------------14-12h13----12h13-------------------|
D|----------------------------------14-------------------------|
A|-------------------------------------------------------------|
E|-------------------------------------------------------------|

Вверх

Yesterdays (2 вариант)
mp3

Call this Rhythm Figure A if you want
D                                  C             G5
E|---------0h2-------------0h2----------2--0-------3-------|
B|-----3---------3-----3--------------3---------3----3---3-|
G|---2---2-----2-----2---2--------0---0-----------0----0---|
D|-0---------------4-----------0------2--------------------|
A|----------------------------------3----------------------|
E|---------------------------------------------------------|

Chords:  Cadd2=> x32030 and
G5=> 3x0033

The song goes like this
2x Rhythm Figure A

enter lyrics
(play Rythm Figure A where you see D C G5)

D                   C                    G5
Yesterday there was so many things I was never told
D                              C          G5
Now that Im startin to learn I feel Im growin old
D                      Cadd2
Cause yesterdays got nothin for me.
G5
Old pictures that Ill always see
D                            G5
Time just fades the pages in my book of memories.

(Insert Verse 2)

Chorus (underline indicates drag out the word,
C5 is just power chord on 3rd fret):

A               B   C5                              G5
Ooh,____________yesterdays_ got nothin for me._______
A               B   C5                              G5
Yesterdays________ooh,__ __got nothin for me.________

Chords for solo are (if someone wants I can post tab of how
I play the solo):
Bm   G   Bm   GBm   C#m D    E

Other lyrics:

2nd verse:
Prayers in my pocket and no hand in destiny.
Ill keep movin along with no time to plant my feet.
Cause yesterdays got nothin for me.
Old pictures that Ill always see.
Some things could be better if wed just let them be.

3rd verse:
Yesterday there were so many things I was never shown.
Suddenly this time I found Im on the streets and Im alone.
Yesterdays got nothin for me.
Old pictures that Ill always see.
I aint got time to reminisce old novelties.

The song structure is basically:

2x Rythm Figure A
Verse 1
Verse 2
Chorus
Solo
Verse 3
Chorus

Вверх

You Aint The First

  E                      A                  E
E|----------------------|------------------|--------0----0---2-|
B|----------12-----14---|--9---------2---0-|-2-----------------|
G|--13------------------|------------------|-------------------|
D|----------------------|------------------|-------------------|
A|----------------------|------------------|-------------------|
E|----------------------|------------------|-------------------|
I tried so hard just to get through to you
A                      E                  A
E|--0-------------------|------------------|-------------------|
B|----------------------|---------12----14-|-9----------2----0-|
G|----------------------|-13---------------|-------------------|
D|----------------------|------------------|-------------------|
A|----------------------|------------------|-------------------|
E|----------------------|------------------|-------------------|
But your heads so far from the
E                      A                  E
E|---------0------2-----|-0----------------|-9---7-------------|
B|-2--------------------|------------------|-------9---7--9--7-|
G|----------------------|------------------|-------------------|
D|----------------------|------------------|-------------------|
A|----------------------|------------------|-------------------|
E|----------------------|------------------|-------------------|
real - ness of truth Was it just a come on
A                      E
E|-------------0--------|--------0------2--|-0---------------9-|
B|---9---7--------------|--2---------------|-------------------|
G|----------------------|------------------|-------------------|
D|----------------------|------------------|-------------------|
A|----------------------|------------------|-------------------|
E|----------------------|------------------|-------------------|
in the dark, wasnt meant to last long I
E                      A                  E
E|--9---7---------------|-------------0----|----------0------2-|
B|--------9---7--9---7--|---9---7----------|--2----------------|
G|----------------------|------------------|-------------------|
D|----------------------|------------------|-------------------|
A|----------------------|------------------|-------------------|
E|----------------------|------------------|-------------------|
think youre worn your welcome, honey lll just sing you a  -
A
E|--0-------------------|---------2-4------|--------0----------|
B|----------------------|------------------|-------------------|
G|----------------------|------------------|-------------------|
D|----------------------|------------------|-------------------|
A|----------------------|------------------|-------------------|
E|----------------------|------------------|-------------------|
long As l sing you this song
E|----------------------|--12--------------|-------------------|
B|-------------11---12--|------------------|--11--12--11--10---|
G|----------------------|------------------|-------------------|
D|----------------------|------------------|-------------------|
A|----------------------|------------------|-------------------|
E|----------------------|------------------|-------------------|
One, Two, Three, One,
E|----------------------|--0---------------|-------------------|
B|------14----12--------|------------------|--14--12-----------|
G|-----------------13---|------------------|---------------11--|
D|----------------------|------------------|-------------------|
A|----------------------|------------------|-------------------|
E|----------------------|------------------|-------------------|

E|----|
B|----|
G|-13-|
D|----|
A|----|
E|----|

Two    Three     and So,

Chorus

E            G#         A^            B
Good-bye to you, girl.  So long, fare-well
E               G#           A^           B
I cant hear ya  cryin Your jivins been hell
E               G#          A^             E
So Look for me Walkin down your street at night
G#      A^              B
Ill be in with another deep down in - side
A      G#   F#m   E
Deep  down  in - side

Additional Lyrics

Time can pass slowly things always change
Your days been numbered and Ive read your last page
You was just a temporary lover, honey you aint the first
Lots of others came before you woman, said, but youre been the
worst
Said, youre been the worst.
Chorus.

Вверх

You Could Be Mine
mp3

E|-----------------------------------------|
B|-----------------------------------------|
G|-----------------------------------------|
D|-----------------------------------------|
A|-----------------------------------------|
E|-12-12-12-12-12-12-12-12-9-9-9-9-9-9-7-7-|

E|-------------------------------|
B|-------------------------------|
G|-------------------------------|
D|-------------------------------|
A|-------------------------------|
E|7-7-7-7-7-7-7-7-5-5-4-4-3-3-3-3|

E|-14-- Then do some funky feedback with ----|
B|-14--                                  ----|
G|-14--                                  --2-|
D|-----                                  --2-|
A|-----                                  ----|
E|-----                                  ----|

ј B     p                             1/2    p
E|-----------------------------------------------------------3-|
B|-4-----4---2------------2--------2-----2-----0-------------3-|
G|-4-----4---2------------2--------2-----2-----0---------------|
D|-------------------4----2-----------------------------2------|
A|-------------------------------------------------------------|
E|-------------------------------------------------------------|
|------Lick 1--------------|    |------Lick 2----------------|

from now on play lick 1 with 1/2 bend.

Note: when playing the bends make sure that you bend both notes.

repeat lick 1 twice    repeat lick 2 twice
repeat lick 1 twice    repeat lick 2 once

E|-----3--|
B|-----3--|
G|--2-----|
D|--------|   (then repeat this 5 times)
A|--------|
E|--------|

Now we have about 4 measures of powerchords ect.
Listen to the song to see how the timing goes (That goes for
this whole work)

E|----------------|
B|----------------|
G|-------7------9-|
D|-9-----9------9-|
A|-7-----7------7-|
E|----------------|

Then the main riff that is used through out the chorus and
verses is this:
E|-------------------------------------------------------------|
B|-------------------------------------------------------------|
G|-2-4-2--4--2--------------------------2--4--2--4--2----------|
D|-2-4-2--4--2--4--2-----4--2--4--2--4--2--4--2--2--2--4--2----|
A|--------------4--2--4--4--2--4--2--4-----------------4--2--4-|
E|--------------------2--------------------------------------2-|

A couple people wanted the solo so here it is:

Solo:
You could be mineanother reason to cry
1/2    1/2 hold---|
E|-------------------------------------------------------|
B|--------9-----9-----9--------9--(9)p7---9--7-----------|
G|--------9-----9-----9--------9--(9)p7---9--7-----------|
D|-(9)-9-----9---------------------------------9--7--9~~-|
A|-------------------------------------------------------|
E|-------------------------------------------------------|

1/2
E|-------------------------------------------------------------|
B|-7--9--9--9--7--9-----9-----------7--------------------------|
G|-7--9--9--9--7--9--7--9-7h9--9----7--9p7s6--7-6-7-6h7p6----6-|
D|-------------------7-----------7-------------------------9---|
A|-------------------------------------------------------------|
E|-------------------------------------------------------------|

1/2 1/2~~      1/2  1/2 2(1/2)     F~~
E|-------------------------------------------------------------|
B|-------------------------------------------------------------|
G|---6------------------------------------------------------10-|
D|-9---9-9-7----9---7-----------------7------------------9-----|
A|-----------9----9---9-8-8-7-(7)p5---7-5----------------------|
E|----------------------------------7-----7-7--10--7-(7)s------|

1/2
E|-10--7------10-x------10-9h10p9p7----9----7h9p7---10------10-|
B|-10~~--10p7----x-10p7-------------10---10------10----8s12----|
G|-------------------------------------------------------------|
D|-------------------------------------------------------------|
A|-------------------------------------------------------------|
E|-------------------------------------------------------------|

F(ull)
E|--------12---10------14---------17~-14-17--------------14----|
B|-12--10---------12-10---17-14-------------14-17-17~~~~~~--17-|
G|------------------------------16-----------------------------|
D|-------------------------------------------------------------|
A|-------------------------------------------------------------|
E|-------------------------------------------------------------|

F    F   F
E|----17-14-------------14-------17-----17-14-17----17--17--17-|
B|-14-------17p14-17~~-----17p14----14-----------14------------|
G|-------------------------------------------------------------|
D|-------------------------------------------------------------|
A|-------------------------------------------------------------|
E|-------------------------------------------------------------|

ЅB              While youre breakin down my back an I been
E|-------------------------------------------------------------|
B|-17-16-------------------------------------------------------|
G|-------16-14-----------------------14s16-------16~~~~~~~~~~~-|
D|-------------16p15p14--122--14--12---------------------------|
A|-------------------------------------------------------------|
E|-------------------------------------------------------------|

matter how we maek it cause it always
|--------------------------------------------|
|--7-----------------------------------------|
|--7-----------------------------------------|
|--7-----------------------------7(harmonic)-|
|--5-----------------------------------------|
|--------------------------------------------|

I     said    you                              could       be
E|-------------------------------------------------------------|
B|---------------------------10--------------------10----------|
G|-9s11---11s14---11-----11-----11-------------11------11------|
D|---------------------------------9(full)p7-------------------|
A|-7s9----9s12-------------------------------9------------9--9-|
E|-------------------------------------------------------------|

you                         should  be   you
E|-------------------------------------------------------------|
B|-----------10-------------------------------10---------------|
G|-------11------11--11-------------------11------11-----11----|
D|------------------------9------------------------------------|
A|-9--9----------------------9------------------------9------9-|
E|-------------------------------------------------------------|

could              be                   mine
E|------------------------------------------------|
B|-------14--16--14--16--14-----------------------|
G|--11---14--16--14--16--14-----------------------|
D|-----------------------------16----14--16~~~~~~-|
A|------------------------------------------------|
E|------------------------------------------------|

Вверх

You Could Be Mine (2 вариант)
mp3

 F#m-
F#m--Em--F#m-Em-
(F#m-F#sus--;(2X) Em—Emsus--; (2X)) (2X)

F#
Im a cold heartbreaker
Fit ta burn and Ill rip your heart in two
E                       F#-B5-
An Ill leave you lyin on the bed
F#
Ill be out the door before ya wake
Its nuthin new ta you
E
Cause I think weve seen that movie,
F#-B5-
too

CHORUS:

A    B         F#
(OH woh) Cause you could be mine
A     B        F#m-
But youre way out of line
A
With your bitch slap rappin
B
And your cocaine tongue
F#m
You get nuthin done
A    B
I said you could be mine

F#----E--F#--

Now holidays come and then they go
Its nothin new today
Collect another memory
When I come home late at night
Dont ask me where Ive been
Just count your stars
Im home again

Cause you could be mine
But youre way out of line
With your bitch slap rappin
And your cocaine tongue
You get nuthin done
I said you could be mine

F#--E--;(6X)

G               F#m     G         A
Youve gone sketchin too many times
G     F#m      G         A
Ooh, Why dont ya give it a rest
G-F#m-G             B-A-G
Why Must you find
F#m
Another reason to cry
Solo:

B—-D,B----D,A---D,B
D,B-----;(2X)
D,A-----D,B---
1/2    1/2 hold---|

E|-------------------------------------------------------|
B|--------9-----9-----9--------9--(9)p7---9--7-----------|
G|--------9-----9-----9--------9--(9)p7---9--7-----------|
D|-(9)-9-----9---------------------------------9--7--9~~-|
A|-------------------------------------------------------|
E|-------------------------------------------------------|

E|-------------------------------------------------------------|
B|-7-9-9-9--7--9-----9------------7----------------------------|
G|-7-9-9-9--7--9--7--9--7h9--9----7--9p7s6-7--6--7--6h7p6----6-|
D|----------------7------------7---------------------------9---|
A|-------------------------------------------------------------|
E|-------------------------------------------------------------|

E|-------------------------------------------------------------|
B|-------------------------------------------------------------|
G|--6-------------------------------------------------------10-|
D|9---9--9--7-----9---7------------------7----------------9----|
A|-------------9----9---9--8-8-7-(7)p5---7-5-------------------|
E|-------------------------------------7-----7-7-10-7-(7)s-----|

E|-10-7------10-x------10-9h10p9p7----9----7h9p7----10------10-|
B|-10~--10p7----x-10p7-------------10---10-------10----8s12----|
G|-------------------------------------------------------------|
D|-------------------------------------------------------------|
A|-------------------------------------------------------------|
E|-------------------------------------------------------------|

E|---------12-----10-------14---------17~-14-17----------14----|
B|-12--10------------12-10----17-14-------------14-17-17~---17-|
G|---------------------------------16--------------------------|
D|-------------------------------------------------------------|
A|-------------------------------------------------------------|
E|-------------------------------------------------------------|

E|----17-14----------------14-------17----17-14-17----17-17-17-|
B|-14-------17p14--17~~~~~----17p14----14----------14----------|
G|-------------------------------------------------------------|
D|-------------------------------------------------------------|
A|-------------------------------------------------------------|
E|-------------------------------------------------------------|

B
While youre breakin down my back n
Db
I been rackin out my brain
D
It dont matter how we make it
D, Db
Cause it always ends the same
B
You can push it for more mileage
Db
But your flaps r wearin thin
D
And I could sleep on it til mornin
D, Db
But this nightmare never ends
B
Dont forget to call my lawyers

Db
With ridiculous demands
D
An you can take the pity so far
D, Db
But its more than I can stand
B
Cause this couchtrips gettin older
Db
Tell me how long has it been
D--
Cause 5 years is forever
An you havent grown up yet


You could be mine
But youre way out of line
With your bitch slap rappin
And your cocaine tongue
You get nuthin done
I said you could be mine

A      B
You should be
A      B       F#
You could be mine
B5            F#
You could be mine (7X)
B5          F# break
You could be mi---ne

Yeah!

1/2              While youre breakin down my back an I been
E|-------------------------------------------------------------|
B|17----16-----------------------------------------------------|
G|----------16--14------------------------14s16-------------16~|
D|------------------16p15p14--122--14--12----------------------|
A|-------------------------------------------------------------|
E|-------------------------------------------------------------|

matter how we maek it cause it always
E|--------------------------------------------|
B|--7-----------------------------------------|
G|--7-----------------------------------------|
D|--7-----------------------------7(harmonic)-|
A|--5-----------------------------------------|
E|--------------------------------------------|

I     said    you                            could      be
E|-------------------------------------------------------------|
B|-------------------------10-----------------------10---------|
G|9s11--11s14---11-----11-----11---------------11------11------|
D|-------------------------------9(full)p7---------------------|
A|7s9---9s12--------------------------------9-------------9--9-|
E|-------------------------------------------------------------|

you                               should  be         you
E|-------------------------------------------------------------|
B|--------------10----------------------------10---------------|
G|--------11---------11---11--------------11------11------11---|
D|-----------------------------9-------------------------------|
A|9--9----------------------------9--------------------9------9|
E|-------------------------------------------------------------|

could              be                   mine
B|-------14--16--14--16--14-----------------------|
G|--11---14--16--14--16--14-----------------------|
D|-----------------------------16----14--16~~~~~~-|
A|------------------------------------------------|
E|------------------------------------------------|

Вверх