Iggy Pop

Butt Town
Candy
Drink New Blood
Little Know It All
Lust For Life
Now I Wanna Be Your Dog
The Passenger
Вверх

Butt Town

Intro/verse
E5   G   A G
---------------|
---------------|
---------------|
-2-2--5---7--5-|
-2-2--5---7--5-|
-0-0--3---5--3-|

verse

The cops are well-groomed,
with Muscled physiques
in Butt Town

Their tan uniforms
are tailored in chic
In Butt Town

Any young black male who walks down the street
Is gonna get stopped by a car full of meat

But the girl with the hair
Flies by in her underwear
She's done nothing so far to deserve that car

pre chorus
B5          A5    G5
When you live in Butt Town
A5        G5  E5
Love is a let Down
B5          A5    G5
When you live in Butt Town
A5        G5  E5
you gotta get down

Chorus
G5 A5   D5   A5  G5   E5
But in Butt Town I'm learnin'
G5 A5   D5   A5  G5   E5
In Butt Town I'm earnin'
G5 A5   D5   A5  G5   E5
In Butt Town I'm turnin'
G5 A5   D5-C#5-D5-C#5-D5-C#5-D5   E
Into my                worst nightmare

verse

I'm tellin' you,
it's a motley crew
in Butt Town

Monday you're new,
and Friday you're through
In Butt Town

The producer is wily,
and owns what he sells
The talent is eager to go straight to hell

Th tits are amazing,
and everyone's gazing
At some body part-That's the nature of art
in Butt Town

pre chorus

All over Butt Town
dreams have a show down
All over Butt Town
values are thrown down

Chorus

Outro

In Butt Town baby
I'm gonna be a star.
I'm gonna shake my butt far.
Now here we go
I'm gonna shake my butt
Shake my butt, shake my butt
In Butt Town

Вверх

Candy

G   C    Em
(spoken)
It's a rainy afternoon
In 1990
The big city geez it's been 20 years-
Candy-you were so fine

G
Beautiful beautiful
C	        Em
Girl from the north
G
You burned my heart
C	  D
With a flickering torch
Bm	   C
I had a dream that no one else could see
Am       D    C    D    C
You gave me love for free

chorus
D
Candy Candy Candy
C    Bm7 Am   G
I can't let you go

All my life you're haunting me
I loved you so
Candy Candy Candy I can't let you go

Em   C
Life is crazy
Em   C
Candy baby

(spoken)
Yeah, well it hurt me real bad when you left
I'm glad you got out
But I miss you

I've had a hole in my heart
For so long
I've learned to fake it
Just smile along

Down on the street
Those men are all the same
I need a love
Not games
Not games

Вверх

Drink New Blood

Drop D - (tune the 7th fret of the bottom E string so it sounds exactly the same
as the open A string above it)


Main Riff
----------------------------------
----------------------------------
----------------------------------
-0-0-1-0-3-0-1-0--6-5-3-0---------
-0-0-1-0-3-0-1-0--6-5-3-0---------
-0-0-1-0-3-0-1-0--6-5-3-0---------


Pre-Chorus Riff
-----------------------------------------
-----------------------------------------
-----------------------------------------
--0---------2---------3---------10-------
--0---------2---------3---------10-------
--0---------2---------3---------10-------


Chorus Riff
----------------------------------------------
----------------------------------------------
----------------------------------------------
--15-14-12---15-14-12---15-14-12-10-8-10-7----
--15-14-12---15-14-12---15-14-12-10-8-10-7----
--15-14-12---15-14-12---15-14-12-10-8-10-7----

Вверх

Little Know It All

Intro: 2 times
Eb:-x-x-x-----------------------------------------------------------
Bb:-x-x-x-----------------------------------------------------------
Gb:-x-x-x--------------------7----7--7------------------------------
Db:-x-x-x---4--4---2h4---2---7----7--7---7----7--7------------------
Ab:-x-x-x---4--4---2h4---2---5----5--5---7----7--7------------------
Eb:-x-x-x---2--2---0h2---0---------------5----5--5------------------

Bridge: 5 times			    then this
Eb:--------------------------------------------|-------------
Bb:--------------------------------------------|-------------
Gb:-------------------7----7--7----------------|-----2----4--
Db:--4--4---2h4---2---7----7--7---7----7--7----|--2--2----4--
Ab:--4--4---2h4---2---5----5--5---7----7--7----|--2--0----2--
Eb:--2--2---0h2---0---------------5----5--5----|--0----------

Verse(second guitar): 3x times                              then this
Eb:-----------------------------------------|-----------------
Bb:-----------------------------------------|----------------
Gb:-------------------7----7--7-------------|--------2----4--
Db:--4--4---2h4---2---7----7--7---7----7--7-|--2-----2----4---
Ab:--4--4---2h4---2---5----5--5---7----7--7-|--2-----0----2---
Eb:--2--2---0h2---0---------------5----5--5-|--0---------------

Verse/bridge(first guitar): x 2                    		         then
Eb:---------------------------------------------------------------|---------------
Bb:---------------------------------------------------------------|---------------
Gb:--11—11--9/11----9--11--9------11—11---9/11----9---14----13----|---------2---4-
Db:--x---x---x/x----x--x---x------x---x----x/x----x----x-----x----|----2----2---4-
Ab:--9---9---7/9----7--9---7------9---9----7/9----7---12----11----|----2----0---2-
Eb:---------------------------------------------------------------|----0----------

Chorus:                                             1st & 3rd chorus ending    2nd ending
Eb:-------------------------------------------------|--------------------|---------------
Bb:------------------------------9-13b14b13-9-------|--------------------|---------------
Gb:----------7-7--7--7----------------9-9-----------|------2-------------|--6-------9----
Db:4--4-4----7-7--7--7---7--7--7--7---9-9-----------|--2---2---2---4-----|--6---7---9---6
Ab:4--4-4----5-5--5--5---7--7--7--7---7-7-----------|--2---0---2---4-----|--4---7---7---6
Eb:2--2-2----------------5--5--5--5-----------------|--0-------0---2-----|------5-------4

Solo #1:
Eb:----------------------------------------------------------------------------------
Bb:---------10---------------------------------------------------10------------9b10v-
Gb:-10b11------11r9-------10b11vb10p9-----9--------------10b11-------11r9-----10b11v-
Db:-------------------11--------------11------11-11p9----------------------11--------
Ab:---------------------------------------------------12-----------------------------
Eb:----------------------------------------------------------------------------------
Solo #2		              hold bend on 11’s
Eb:----------------------------------------------------------------------------------
Bb:----------------------------------------------------------------------------------
Gb:-10br11---10b11b9---------------------------------------------10br11---10b11r9----
Db:-------------------------12p11—10b11-11-11-11r9----------11--------------------11-
Ab:--------------------------------------------------12p9----------------------------
Eb:----------------------------------------------------------------------------------
(11 on E is at ј step bend when picked)
Eb:------------------------------------------------------------------11-------11----------11
Bb:-9b10-10r---8b9-9r-12p9-------10br11---10br11---10b11p9-----12b13----12b13-------12b13---
Gb:------------------------9h11-----------------------------11------------------------------
Db:-----------------------------------------------------------------------------------------
Ab:-----------------------------------------------------------------------------------------
Eb:-----------------------------------------------------------------------------------------

Eb:--------------------------------------14-14-14~~~--9~~~--7~~~--5~~~---------------
Bb:-12-10--------------------------------19-19-19~~~-14~~~-12~~~-10~~~---------------
Gb:--------11v-9v-10v-12v-14p12------------------------------------------------------
Db:-------------------------------14-------------------------------------------------
Ab:----------------------------------------------------------------------------------
Eb:----------------------------------------------------------------------------------

Order:
Intro
Bridge
Bridge w/ first guitar
Verse
Chorus
Solo #1
Verse
Chorus
Solo #2
Chorus

Вверх

Lust For Life

Intro
G|-----------------------------------------------------------------------
D|------------------------------------------5/7-5---5-7------------------
A|------------------------------------------------7----------------------
E|5-5-5-5-5-5-5-2/33/44/5-5-5-5-5-5-5-5-5-5------------------------------

Riff 1
G|----------------|------------------------------------------------------
D|----------------|------------------------------------------------------
A|----------------|------------------------------------------------------
E|5-5-5-5-55-0-5-0|------------------------------------------------------

Riff 2            Riff 2* (Variation)
G|---------------|-----------------|-------------------------------------
D|---------------|---7/9-------7/99|-------------------------------------
A|7-7-7-77---7---|77-----7-7-------|-------------------------------------
E|---------7---7-|-----------------|-------------------------------------

Riff 3
G|----------------------|------------------------------------------------
D|----------------------|------------------------------------------------
A|10-10-10-1010----10---|------------------------------------------------
E|--------------10----10|------------------------------------------------

Riff 4
G|--------------|--------------------------------------------------------
D|--------------|--------------------------------------------------------
A|5-5-5-55---5--|--------------------------------------------------------
E|---------5---5|--------------------------------------------------------

The song goes like this:

Intro  Riff 1 Riff 2 Riff 1       Riff 2 Riff 3        Riff 4 Riff 2 Riff 1
G|------|------|------|------|-----|------|------|------|------|------|------|
D|------|------|------|------|-----|------|------|------|------|------|------|
A|------|------|------|------|4-5-6|------|------|10-9-7|------|------|------|
E|------|------|------|------|-----|------|------|------|------|------|------|

Riff 2         Riff 1       Riff 2        Riff 2       Riff 3
G|------|-------|------|-----|------|------|------|-----|------|------|
D|------|-------|------|-----|------|------|------|-----|------|------|
A|------|/14-14-|------|4-5-6|------|/14-14|------|7-8-9|------|10-9-7|
E|------|-------|------|-----|------|------|------|-----|------|------|

Riff 4 Riff 2  Wait a while  Riff 1       Riff 2       Riff 1 Riff 2
G|------|------|--------------|------|-----|------|-----|------|------|
D|------|------|--------------|------|-----|------|-----|------|------|
A|------|------|--------------|------|4-5-6|------|-----|------|------|
E|------|------|--------------|------|-----|------|9-8-7|------|------|

Riff 2       Riff 3        Riff 4 Riff 2 Riff 1 Riff 2
G|------|------|-----|------|------|------|------|------|------|
D|------|------|-----|------|------|------|------|------|------|
A|/14-14|------|7-8-9|------|10-9-7|------|------|------|------|
E|------|------|-----|------|------|------|------|------|------|

Riff 1          Riff 2       Riff 3        Riff 4
G|--------------------|------|--------|------|-----|------|------|------|
D|--------------------|------|--------|------|-----|------|------|------|
A|/14-14-11-11-9-9-7--|------|44-55-66|------|7-8-9|------|10-9-7|------|
E|-------------------5|------|--------|------|-----|------|------|------|

Riff 2* Riff 1 Riff 2       Riff 1       Riff 2       Riff 3
G|-------|------|------|-----|------|-----|------|-----|------|-------|
D|-------|------|------|-----|------|-----|------|-----|------|/12-9-7|
A|-------|------|------|-----|------|4-5-6|------|7-8-9|------|-------|
E|-------|------|------|9-8-7|------|-----|------|-----|------|-------|

Riff 4         Riff 2* Riff 1             Riff 1             Riff 2*
G|------|-------|-------|------|-----------|------|-----------|-------|
D|------|--7-7/9|-------|------|5/7-5---5-7|------|5/7-5---5-7|-------|
A|------|5------|-------|------|------7----|------|------7----|-------|
E|------|-------|-------|------|-----------|------|-----------|-------|

Riff 2        Riff 2* Riff 1  To Fade
G|------|------|-------|------|------------------------------------------
D|------|------|-------|------|------------------------------------------
A|------|/14-14|-------|------|------------------------------------------
E|------|------|-------|------|------------------------------------------

Вверх

Now I Wanna Be Your Dog

E----------------------------------------------
B----------------------------------------------
G----------------------------------------------
D-----------5-5-5----------4-4-4----2-2-2------
A-----------5-5-5----------4-4-4----2-2-2------
E--x-x-x----3-3-3--x-x-x---2-2-2----0-0 0------

Вверх

The Passenger

E|--0-0---1-1---0-0---3-3---0-0---1-1---0-0-------|
B|X-1-1-X-1-1-X-1-1-X-0-0-X-1-1-X-1-1-X-1-1-X-0-0-|
G|X-2-2-X-2-2-X-2-2-X-0-0-X-2-2-X-2-2-X-2-2-X-1-1-|
D|X-2-2-X-3-3-X-0-0-X-0-0-X-2-2-X-3-3-X-0-0-X-2-2-|
A|--0-0---3-3---3-3---2-2---0-0---3-3---3-3---2-2-|
E|--------1-1---------3-3---------1-1---------0-0-|

Вверх