Iron Maiden

22 Acacia Avenue
2 Minutes To Midnight
Aces High
Afraid To Shoot Strangers
Alexander The Great (2 вариант)
Alexander The Great (356-323 B.C.)
Back In The Village
Be Quick Or Be Dead
Blood On The Worlds Hands
Bring Your Daughter…To The Slaughter
Charlotte The Harlot
Children Of The Damned
Clairvoyant
Como Estais Amigos
Deja Vu
Fear Of The Dark
Fear Of The Dark (2 вариант)
Flash Of The Blade
Flight Of Icarus
Fortunes Of War
From Here To Eternity
Genghis Kahn
Hallowed Be Thy Name
Holy Smoke
Hooks In You
Ides Of March
Infinite Dreams
Innocent Exile
Invaders
Iron Maiden
Ive Got The Fire
Killers
Killers Solo
Look For The Truth
Lord Of The Flies
Losfer Words
Man On The Edge
Moonchild
Mother Russia
Murders In The Rue Morgue
My Generation
No Prayer For The Dying
Number Of The Beast
Phantom Of The Opera
Powerslave
Powerslave (2 вариант)
Prodigal Son
Quest For Fire
Remember Tomorrow
Revelations
Rime Of The Ancient Mariner
Running Free
Run To The Hills
Seventh Son Of A Seventh Son
Still Life
Strange World
Sun And Steel
Tailgunner
The Clairvoyant
The Edge Of Darkness
The Evil That Men Do
The Mercenary
The Number Of The Beast
The Prisoner
The Sign Of The Cross
The Trooper
The Trooper (2 вариант)
The Wicker Man
Total Eclipse
To Tame A Land
Transilvania
Transilvania (2 вариант)
Two Minutes To Midnight
Virus
Wasted Years
Wasting Love
Wasting Love (2 вариант)
Where Eagles Dare
Вверх

22 Acacia Avenue

First 3 bars : only guitar
playing E5

G|-------||----------|-----------|------------|----------------|
D|-------||----------|-----------|------------|----------------|
A|-R---5-||-7--R-----|-R---------|-5--R-------|-R---5---5---55-|
E|-------||----------|-----------|------------|----------------|

G|------------|--------------|--------------|------------------|
D|------------|--------------|--------------|------------------|
A|-7--R-------|-R------------|-5---R--------|-R-----5---5---55-|
E|------------|--------------|--------------|------------------|

G|------------|--------------|--------------|------------------|
D|------------|--------------|--------------|------------------|
A|-3--R-------|-R-------5-55-|-7---R--------|-R----------7-6-5-|
E|------------|--------------|--------------|------------------|

G|-------------|-------------|---------------|-----------------|
D|-------------|-------------|---------------|-----------------|
A|3-3-3-3-3-3-3|5-5-5-5-5-5-5|-7-7-7-7-7-7-7-|-7-7-7-7-7-7-6-5-|
E|-------------|-------------|---------------|-----------------|

G|-------------|-------------|---------------|-----------------|
D|----------4h5|----------5h7|---------------|-----------------|
A|3-3-3-3-3----|5-5-5-5-5----|-5-7-7-7-7-7-7-|-7-7-7-7-7-7-6-5-|
E|-------------|-------------|---------------|-----------------|
(x3)

G|-----------------|-----------------|-----------------|------||
D|-----------------|-----------------|-----------------|------||
A|-3---3-3-3-3-3-3-|-5---5-5-5-5-5-5-|-7---R-----------|-R----||
E|-----------------|-----------------|-----------------|------||

Play the 6 lines above twice.
For the second time, notes with * are hold longer and the last
line must be replaced with:

G|-----------------|-----------------|-----------------|-------|
D|-----------------|-----------------|-----------------|-------|
A|-3---3-3-3-3-3-3-|-5---5-5-5-5-5-5-|-----------------|-------|
E|-----------------|-----------------|-0---------------|-0-----|

Then there is a guitar interlude and rhythm changes to triplet
feel:

G|--------||-------------------------|-------------------------|
D|--------||-------------------------|-------------------5-5-5-|
A|----10--||-7-7-7-7-7-7-7-7-7-7-7-7-|-7-7-7-7-7-7-7-7-7-------|
E|--------||-------------------------|-------------------------|

G|-------------------------|-------------------------|
D|-------------------------|-------------------------|
A|-7-7-7-7-7-7-7-7-7-7-7-7-|-7-7-7-7-7-7-7-7-7-7-7-7-|
E|-------------------------|-------------------------|

G|-------------------------|-------------------------|
D|-------5-5-5-4-4-4-5-5-5-|-------5-5-5-4-4-4-5-5-5-|
A|-3-3-3-------------------|-3-3-3-------------------|
E|-------------------------|-------------------------|

G|-------------------------|-------------------------||
D|-------------------------|-------------------------||
A|-7-7-7-7-7-7-7-7-7-7-7-7-|-7-7-7-7-7-7-7-7-7-7-7-7-||
E|-------------------------|-------------------------||

Play the 4 lines above twice

Then we enter the Chorus Part "22, the avenue..." :

G|-------------------------|-------------------------|
D|-------------------------|-------------------------|
A|-3-R-3-3-3-3-3-R-3-3-3-3-|-5-R-5-5-5-5-5-R-5-5-5-5-|
E|->-----------------------|->-----------------------|

G|-------------------------|-------------------------|
D|-------------------------|-------------------------|
A|-2-R-2-2-2-2-2-R-2-2-2-2-|-3-R-3-3-3-3-3-R-3-3-3-3-|
E|->-----------------------|->-----------------------|

G|-------------------------|-------------------------|
D|-------------------------|-------------------------|
A|-3-R-3-3-3-3-3-R-3-3-3-3-|-5-R-5-5-5-5-5-R-5-5-5---|
E|->-----------------------|->------------------->---|

G|-------------------------|-------------------------|
D|-------------------------|-------------------------|
A|-7-7-7-7-7-7-7-7-7-7-5---|-7-R-7-7-7-7-7-7-7-7-7-7-|
E|->------------------->---|->-----------------------|

G|-------------------------|-------------------------|
D|-------------------------|-------------------------|
A|-3-R-3-3-3-3-3-R-3-3-3-3-|-5-R-5-5-5-5-5-R-5-5-5-5-|
E|->-----------------------|->-----------------------|

G|-------------------------|-------------------------|
D|-------------------------|-------------------------|
A|-2-R-2-2-2-2-2-R-2-2-2-2-|-3-R-3-3-3-3-3-R-3-3-3-3-|
E|->-----------------------|->-----------------------|

G|-------------------------|-------------------------|
D|-------------------------|-------------------------|
A|-3-R-3-3-3-3-3-R-3-3-3-3-|-5-R-5-5-5-5-5-R-5-5-5---|
E|->-----------------------|->------------------->---|

G|-------------------------|-------------------------|
D|-------------------------|-------------------------|
A|-7-7-7-7-7-7-7-7-7-7-5---|-7-R-7-7-7-7-7-7-7-7-7-7-|
E|->------------------->---|->-----------------------|

Repeat everything since beginning of triplet feel
but replace last line with :

G|-------------------------|-5-4-2-4-2---2-----------|
D|-------------------------|-----------5---5-4-5-4---|
A|-2-R-2-2-2-2-2-R-2-2-2-2-|-----------------------5-|
E|->-----------------------|-------------------------|

Then go on with :

G||--------------------------||--------------------------|
D||--------------------------||--5-5-5-4-4-4-5-5-5-4-4-4-| (x4)
A||-5---7-7-7-7-7-7-7-7-7-7--||--------------------------|
E||->--->--------------------||--------------------------|

Guitar Solo :

G|--------------------------|--------------------------|
D|--------------------------|----------3--2-0----------|
A|-7------------------------|-7---------------3-2------|
E|->------------------------|---------->-----------3---|

G||---------------1112-1112-|-----------------1112-1112-|
D||-------------------------|---------------------------|
A||----7-7------------------|-5--5-5--------------------|
E||-0-----------------------|---------------------------|

G|--------------------------||
D|----------3--2-0----------||
A|-3---------------3-2------||
E|---------->-----------3---||

Break :

G|-------------------------|-------------------------|
D|-------------------------|-------------------------|
A|-------------------------|-------------------------|
E|-0-0-0-0-0-0-0-0-0-0-0-0-|-0-0-0-0-0-0-0-0-0-0-0-0-|

G|-------------------------|-9-9-9-7-7-7-------------|
D|-------------------------|-------------9-9-9-------|
A|-7-7-7-7-7-7-7-7-7-7-7-7-|------------------101010-|
E|-------------------------|-------------------------|


Verse :

G||-------------------------|-------------------------|
D||-------------------------|-------------------------|
A||-5h7-7-7-7-7-5h7-7-7-7-7-|-5h7-7-7-7-7-5h7-7-7-7-7-|
E||->----------->-----------|->----------->-----------|

G|-------------------------|-------------------------|
D|-------------------------|-------------------------|
A|-3h5-5-5-5-5-3h5-5-5-5-5-|-3h5-5-5-5-5-3h5-5-5-5-5-|
E|->----------->-----------|->----------->-----------|

G|-------------------------|-------------------------|
D|-------------------------|-------------------------|
A|-2h3-3-3-3-3-2h3-3-3-3-3-|-3h5-5-5-5-5-3h5-5-5-5-5-|
E|->----------->-----------|->----------->-----------|

G|-------------------------|--------------------------||
D|-------------------------|-------------7------------||
A|-5h7-7-7-7-7-5h7-7-7-7-7-|-5h7-7-7-7-7--10-9-10-9-7-||
E|->----------->-----------|->------------------------||

Repeat the four lines above six times:
- 1st time without vocals
- 2nd, 3rd and 4th time with vocals and last bar identical to
penultimate bar
- On 5th time, guitar solo begins and last bar is still
identical to penultimate bar

For the 6th time, replace last 2 bars with:

G|-------------------------|-------------------7-7-7-|
D|-------------------------|-------7-7-7-9-9-9-------|
A|-5h7-7-7-7-7-7-7-7-7-7-7-|-101010------------------|
E|->-----------------------|-------------------------|

and continue with :

G|-7h9-9-9-9-9-7h9-9-9-9-9-|-7h9-9-9-9-9-7h9-9-9-9-9-|
D|->----------->-----------|->----------->-----------|
A|-------------------------|-------------------------|
E|-------------------------|-------------------------|

G|-5h7-7-7-7-7-5h7-7-7-7-7-|-5h7-7-7-7-7-5h7-7-7-7-7-|
D|->----------->-----------|->----------->-----------|
A|-------------------------|-------------------------|
E|-------------------------|-------------------------|

G|-4h5-5-5-5-5-4h5-5-5-5-5-|-5h7-7-7-7-7-5h7-7-7-7-7-|
D|->----------->-----------|->----------->-----------|
A|-------------------------|-------------------------|
E|-------------------------|-------------------------|

G|-7h9-9-9-9-9-9-9-9-9-9-9-|-9-7---7-----------------|
D|->-----------------------|-----9---9-7-9-7---7-----|
A|-------------------------|----------------10--10-9-|
E|-------------------------|-------------------------|

G|-------------------------|-------------------------|
D|-------------------------|-------------------------|
A|-5h7-7-7-7-7-5h7-7-7-7-7-|-5h7-7-7-7-7-5h7-7-7-7-7-|
E|->----------->-----------|->----------->-----------|

G|-------------------------|-------------------------|
D|-------------------------|-------------------------|
A|-3h5-5-5-5-5-3h5-5-5-5-5-|-3h5-5-5-5-5-3h5-5-5-5-5-|
E|->----------->-----------|->----------->-----------|

G|-------------------------|-------------------------|
D|-------------------------|----------3--2-0---------|
A|-2h3-3-3-3-3-2h3-3-3-3-3-|-3---------------3-2-----|
E|->----------->-----------|->-------->-----------3--|

G|---|
D|---|
A|---|
E|-0-|

Вверх

2 Minutes To Midnight
mp3

G|-|--|---|-----------|-----|-|-|----------------|-----|--|--|-|
D|-|--|---|-----------|-----|-|-|--------5-------|-----|--|--|-|
A|r|r-|-r-|-r-r-0-0-0-|-0-r-|r|r|-r-5-7-5--7-5-7-|-0-r-|r-|-r|r|
E|-|--|---|-----------|-----|-|-|----------------|-----|--|--|-|

G|-------|---|-|-|-------------|---------------|---------------|
D|-------|---|-|-|--0-1-2-0----|---------------|---------------|
A|r-0-5-7|0-r|r|r|0---------3-2|0-0-0-0-0-0-0-0|0-0-0-0-0-0-0-0|
E|-------|---|-|-|-------------|---------------|---------------|

G|---------------|-------------|---------------|---------------|
D|---------------|-------------|---------------|---------------|
A|0-0-0-0-0-0-0-0|r----0-2-----|0-0-0-0-0-0-0-0|0-0-0-0-0-0-0-0|
E|---------------|--0-3---0-5-3|---------------|---------------|

G|---------------|-------------|---------------|---------------|
D|---------------|-------------|---------------|---------------|
A|0-0-0-0-0-0-0-0|r----0-2-----|0-0-0-0-0-0-0-0|0-0-0-0-0-0-0-0|
E|---------------|--0-3---0-5-3|---------------|---------------|

G|---------------|-------------|---------------|---------------|
D|---------------|-------------|---------------|---------------|
A|0-0-0-0-0-0-0-0|-----0-2-----|0-0-0-0-0-0-0-0|0-0-0-0-0-0-0-0|
E|---------------|5-0-3---0-5-3|---------------|---------------|

G|---------------|-------------|---------------|---------------|
D|---------------|--------0-2--|---------------|---------------|
A|0-0-0-0-0-0-0-0|-----0-2-----|0-0-0-0-0-0-0-0|0-0-0-0-0-0-0-3|
E|---------------|r-0-3-------0|---------------|---------------|

G|---------------|-------------|---------------|---------------|
D|0-0-0-0-0-0-0-0|3-5-3--------|---------------|---------------|
A|---------------|------3-3-5-3|0-0-0-0-0-0-0-0|0-0-0-0-0-0-3-4|
E|---------------|-------------|---------------|---------------|

G|---------------|---------------|-----------|----------------||
D|0-0-0-0-0-0-0-0|3-0-3-0-3-0----|-----------|---------------.||
A|---------------|------------3-2|0-0-0-0-0-0|-0--0-0--0-0-0-.||
E|---------------|---------------|-----------|----------------||
Half time feel

G|-------------|-------7-7-|-5-5-5-5-5-5-|--4-5-7-5------------|
D|-------3-3-3-|-7-7-7-----|-------------|------------7-5--5---|
A|-------------|-----------|-------------|---------------------|
E|-1-1-1-------|-----------|-------------|---------------------|

G|-------------|-------------|-------------|----------|--------|
D|-------------|-------------|-------3-3-3-|-/7-7-7-5-|----9-9-|
A|-0-0-0-0-0-0-|-0-0-0-0-0-0-|-------------|----------|-7------|
E|-------------|-------------|-1-1-1-------|----------|--------|

G|-9--7-------|----------------|---------------|---------------|
D|---9--9-7-r-|----------------|---------------|---------------|
A|------------|-0-0-0-0-0-0-0--|0-0-0-0-0-0-0-3|3-3-3-3-3-3-3--|
E|------------|---------------3|---------------|--------------3|
End half time feel

G|--------------|---------------|---------------|--------------|
D|--------------|---------------|---------------|---------5-7-5|
A|-------------5|5-5-5-5-5-7-7-8|8-8-8-8-8-7-7-8|8-8-8-8-8-----|
E|3-3-3-3-3-3-3-|---------------|---------------|--------------|

G|-------7-----|---------------|---------------|---------------|
D|5-5-5-5-7----|---------------|---------------|---------------|
A|----------0-0|0-0-0-0-0-0-0--|0-0-0-0-0-0-0-3|3-3-3-3-5-3-0--|
E|-------------|--------------3|---------------|--------------3|

G|--------------|--------------|---------------|----------0-2-0|
D|--------------|---------2-2-2|3-3-3-3-3-3-3-3|3-3-3-3-3------|
A|-----------3-3|5-5-5-5-5-----|---------------|---------------|
E|3-3-3-3-3-3---|--------------|---------------|---------------|

G|0-0-0-0-0-0-0-0|---------------|--------------|--------------|
D|---------------|---------------|--------------|7-7-7-7-7-7-5-|
A|---------------|0-0-0-0-0-0-0-0|0-0-0-0-0-5-35|-------------7|
E|---------------|---------------|--------------|--------------|

G|--------------|---------------|--------------|2-2-0---0-0----|
D|5-7-----------|---------------|-----------0-2|------2-----0--|
A|---0-0-0-0-0-0|0-0-0-0-0-0-0-0|0-0-0-0-0-0---|--------------3|
E|--------------|---------------|--------------|---------------|

G|-------------|---------------|---------------|---------------|
D|-------------|---------------|---------------|---------------|
A|3-5-3-5-3---0|0-0-0-0-0-0-0-0|0-0-0-0-0-0-0-0|0-0-0-0-0-0-0-0|
E|----------3--|---------------|---------------|---------------|

G|-------------|---------------|---------------|---------------|
D|-------------|---------------|---------------|---------------|
A|-----0-2-----|0-0-0-0-0-0-0-0|0-0-0-0-0-0-0-0|0-0-0-0-0-0-0-0|
E|5-0-3---0-5-3|---------------|---------------|---------------|

G|-------------|---------------|---------------|---------------|
D|-------------|---------------|---------------|0-0-0-0-0-0-0-0|
A|-----0-2-----|0-0-0-0-0-0-0-0|0-0-0-0-0-5-3-4|---------------|
E|5-0-3---0-5-3|---------------|---------------|---------------|

G|---0-0-0-----|---------------|---------------|---------------|
D|3-0-----3-0--|---------------|---------------|0-0-0-0-0-0-0-0|
A|------------3|0-0-0-0-0-0-0-0|0-0-0-0-0-0-3-4|---------------|
E|-------------|---------------|---------------|---------------|

G|-----0-0-0-0-0-0|------------|------------|------------|-----|
D|-3-0------------|------------|------------|------------|-----|
A|----------------|-0-0-0-0-0-0|-0-0-0-0-0-0|-0-0-0-0-0-0|-0-0-|
E|----------------|------------|------------|------------|-----|
Half time feel

G|--------|------------|-------7-7-|-5-5-5-5-5-5-|4-5-7-5------|
D|--------|-------3-3-3|-7-7-7-----|-------------|--------7-5-7|
A|-0-0-0-0|------------|-----------|-------------|-------------|
E|--------|-1-1-1------|-----------|-------------|-------------|

G|------------|-------------|-------------|-----------|--------|
D|------------|-------------|-------------|-----------|------3-|
A|0-0-0-0-0-0-|-0-0-0-0-0-0-|-0-0-0-0-0-0-|0-0-0-0-0-0|--------|
E|------------|-------------|-------------|-----------|1-1-1---|

G|----|----------|------|-9---7-------|----------------|-------|
D|-3-3|-7-7-7-7-5|---9-9|---9---9--7--|----------------|-------|
A|----|----------|-7----|------------0|-0-0-0-0-0-0-0--|0-0-0-0|
E|----|----------|------|-------------|---------------3|-------|
End half time feel

G|-------|--------------|--------------|---------------|-------|
D|-------|--------------|--------------|0-0-0-0-0-2-2-3|3-3-3-3|
A|0-0-0-3|3-3-3-3-3-3-0-|-------------5|---------------|-------|
E|-------|-------------3|3-3-3-3-3-3-3-|---------------|-------|

G|-------|---------0-2-0|0-0-2-7-2-0----|--------------|-------|
D|3-2-2-3|3-3-3-3-3-----|------------2--|--------------|-------|
A|-------|--------------|--------------0|0-0-0-0-0-0-0-|0-0-0-0|
E|-------|--------------|---------------|-------------3|-------|

G|-------|--------------|--------------|---------------|-------|
D|-------|--------------|--------------|0-0-0-0-0-2-2-3|3-3-3-3|
A|0-0-0-3|3-3-3-3-5-3-0-|-------------5|---------------|-------|
E|-------|-------------3|3-3-3-3-3-3-3-|---------------|-------|

G|-------|---------0-2-0|0-0-0-0-2-0---|---------------|-------|
D|3-3-2-3|3-3-3-3-3-----|-----------2--|----7-7-7-7-7-7|7-7-7-7|
A|-------|--------------|-------------0|0-0------------|-------|
E|-------|--------------|--------------|---------------|-------|
Guitar Solo

G|------|---------------|-------------|--------------|---------|
D|7-5---|3-3-3-2-2-2-0-0|0-0-0-0-2-2-0|-----7-7-r-7-7|7-7-7-7-7|
A|---7-0|---------------|-------------|0-0-0---------|---------|
E|------|---------------|-------------|--------------|---------|

G|---|---------------|-------------|---------------|-----------|
D|5--|---------------|-------------|------7-7-r-7-7|7-7-7-7-7-5|
A|--7|8-8-8-7-7-7-5-5|5-5-5-5-8-8-5|0-0-0----------|-----------|
E|---|---------------|-------------|---------------|-----------|

G|-|---------------|-------------|---------------|-------------|
D|-|------------4-4|4-4-4-4-4-4-2|------7-7-r-7-7|-7-7-7-7-7-5-|
A|7|8-8-8-7-7-7----|-------------|0-0-0----------|-------------|
E|-|---------------|-------------|---------------|-------------|

G|-|---------------|---------------|-------------|-------------|
D|-|---------------|0-0-0-2-5-2-0--|-------------|-------------|
A|8|8-8-8-7-7-7-5-5|--------------3|--------7----|-7-----7-----|
E|-|---------------|---------------|0-0-0-0---0-0|---0-0---0-0-|
Solo 2

G|---------------|---------------|--------------|--------------|
D|---------------|----------4-5-7|--------------|--------------|
A|-7-------7-----|7-------7------|7-------7-----|7-------7-----|
E|----0-0-----0-0|---0-0---------|---0-0-----0-0|---0-0-----0-0|

G|-----------|-------------|-------------|-------------|-------|
D|-----------|-------------|-------------|-------------|-------|
A|7-----7----|7-0-2-5-2-0--|-------7-----|-7-----7-----|-7-----|
E|--0-0---0-0|------------3|-0-0-0---0-0-|---0-0---0-0-|---0-0-|

G|-----|--------------|-------------|-------------|------------|
D|-----|--------4-5-7-|-------------|-------------|------------|
A|7----|7-----7-------|-7-----7-----|-7-----7-----|-7-----7----|
E|--0-0|--0-0---------|---0-0---0-0-|---0-0---0-0-|---0-0---0-0|

G|-------------|------------|-------------|-------------|------|
D|2------------|------------|-------------|-------------|------|
A|--0-2-5-2-0--|------------|-------------|-------------|------|
E|------------3|0-0-0-0-0-0-|-0-0-0-0-0-0-|-0-0-0-0-0-0-|-0-0-0|

G|-------|-0-----|---|------------|------------|---------------|
D|-------|---0-2-|-2-|------------|------------|---------------|
A|-------|-------|---|------------|------------|---------------|
E|-0-0-0-|-------|---|-0-0-0-0-0-0|-0-0-0-0-0-0|-0--0-0--0--0-0|

G|-------------|-------------|-------------|-0------|----------|
D|-------------|-------------|-------------|---0--2-|-2-0-2-0--|
A|-------------|-------------|-------------|--------|---------2|
E|0-0-0-0-0-0-0|-0-0-0-0-0-0-|-0-0-0-0-0-0-|--------|----------|

G||-------------|------------||----------------|---------------|
D||.------------|-----------.||----------------|---------------|
A||.------------|-----------.||----------------|---------------|
E||--0-0-0-0-0-0|0-0-0-0-0-0-||-0-0-0-0-0-0-0-0|0-0-0-0-0-0-0-0|
Play 4x

G|-------------|---------------|---------------|---------------|
D|-------------|---------------|>->->->->->->->|---------------|
A|-------------|---------------|7-7-7-7-7-7-7-7|7-7-7-7-7-7-7-7|
E|0-0-0-0-0-0-0|0-0-0-0-0-0-0-0|---------------|---------------|
Crescendo

G|9-9-9-9-9-9-9-9-|9-7-----------|------------|----------------|
D|----------------|----9-7-9-7-5-|------------|----------------|
A|----------------|--------------|-3-3-3-3-3-3|-3-3-3-3-3-3-3-3|
E|----------------|--------------|------------|----------------|

G|------------|-----5-7-5----|-----------------|---------------|
D|-0-0-0-0-0-0|-5-7-------7-0|-----------------|---------------|
A|------------|--------------|-0-0-0-0-0-0-0-0-|-0-0-0-0-0-0-0-|
E|------------|--------------|-----------------|---------------|

G|--------------|--------------|---------------|---------------|
D|--------------|7-7-7---5-----|---------------|------------5-7|
A|-----------5-7|------7---7---|0-0-0-0-0-0-0-0|0-0-0-0-0-0----|
E|0-0-0-0-0-0---|-----------8-5|---------------|---------------|

G|-------------|-----------|----------------|------------------|
D|7-7-7-7-7-5--|-----------|----------------|------------------|
A|------------7|5-7-5---5--|-0-0-0-0-0-0-0-0|-0-0-0-0-0-0-0-0--|
E|-------------|------8---8|----------------|------------------|

G|-----------------|-----------|---------------|---------------|
D|-----------------|0-2-0------|---------------|---------------|
A|-0-0-0-0-0-0-0-0-|------3-5-3|0-0-0-0-0-0-0-0|0-0-0-0-0-0-0-0|
E|-----------------|-----------|---------------|---------------|

G|-----------------|-----------|---------------|---------------|
D|-----------------|-----------|---------------|---------------|
A|-0-0-0-0--0-0-0-0|------3-5-3|0-0-0-0-0-0-0-0|0-0-0-0-0-0-3-4|
E|-----------------|3-5-3------|---------------|---------------|

G|-----------------|-----------|---------------|---------------|
D|-0-0-0-0-0-0-0-0-|3-0-5-5----|---------------|---------------|
A|-----------------|--------0-3|0-0-0-0-0-0-0-0|0-0-0-0-0-0-3-4|
E|-----------------|-----------|---------------|---------------|

G|---------------|---------------|-----------|-----------|-----|
D|0-0-0-0-0-0-0-0|3-0-3-0-3-0----|-----------|-----------|-----|
A|---------------|------------3-2|0-0-0-0-0-0|0-0-0-0-0-0|-0--0|
E|---------------|---------------|-----------|-----------|-----|
Half Time Feel

G|---------|-------------|------------|-------7-7-|-5-5-5-5-5-5|
D|---------|-------------|------3-3-3/|-7-7-7-----|------------|
A|-0-0-0-0-|-0-0-0-0-0-0-|------------|-----------|------------|
E|---------|-------------|1-1-1-------|-----------|------------|

G|-4-5-7-5-------|-------------|-------------|-----------|-----|
D|---------7-5-5-|-------------|-------------|-----------|-----|
A|---------------|-0-0-0-0-0-0-|-0-0-0-0-0-0-|0-0-0-0-0-0|0-0-0|
E|---------------|-------------|-------------|-----------|-----|

G|-----|------------|---------|-------|-9--------------|-------|
D|-----|------3-3-3-|-7-7-7-5-|---9-9-|---9-7-5-7-5----|-------|
A|0-0-0|------------|---------|-7-----|-------------7-0|0-0-0-0|
E|-----|1-1-1-------|---------|-------|----------------|-------|

G|------|---------------|--------------|---------------|-------|
D|------|---------------|--------------|---------------|-------|
A|0-0-0-|0-0-0-0-0-0-0-3|3-3-3-3-3-3-0-|--------------5|5-5-5-5|
E|-----3|---------------|-------------3|3-3-3-3-3-3-3--|-------|

G|-------|---------------|--------------|------7-------|-------|
D|-------|---------------|---------5-7-5|5-5-7---7-5---|-------|
A|5-7-7-8|8-8-8-8-8-7-7-8|8-8-8-8-8-----|-----------7-0|0-0-0-0|
E|-------|---------------|--------------|--------------|-------|

G|-------|---------------|--------------|--------------|-------|
D|-------|---------------|--------------|--------------|0-0-0-0|
A|0-0-0--|0-0-0-0-0-0-0-3|3-3-3-3-5-3---|-----------3-5|-------|
E|------3|---------------|-----------5-3|3-3-3-3-3-3---|-------|

G|-------|---------------|---------0-2-0|0-0-0-0-2-0---|------.|
D|0-2-2-3|3-3-3-3-3-3-2-3|3-3-3-3-3-----|-----------2--|------7|
A|-------|---------------|--------------|-------------3|0-0-0--|
E|-------|---------------|--------------|--------------|-------|

G|-----|---------------|----------9-|-----7--------|-----------|
D|r-7-7|7-7-7-7-7------|----7-7-9---|-9-7---7-5-4-4|--7-7-7-5-7|
A|-----|----------7-5-7|0-0---------|--------------|0----------|
E|-----|---------------|------------|--------------|-----------|

G|7--------------|-------------|----------------|--------------|
D|--7-5---5------|-------------|----------------|-----7-7-7-5-7|
A|------7---7-3-5|-3-0-0-0-0-0-|-0-0-0-0-0-0-0-0|0-0-0---------|
E|---------------|-------------|----------------|--------------|

G|7-5----------|---------7---|-------------|-----------|-------|
D|----7-5---5--|---7-7-7---7-|5---5-5-7-5--|--7-7-7-7-7|7-5-4-0|
A|--------7---7|-0-----------|--7---------7|0----------|-------|
E|-------------|-------------|-------------|-----------|-------|

G|-------|---------------|-------------|---------------|-------|
D|-------|---------------|-------------|7-7-7-7-7-7-7-7|7-7-7-7|
A|7-7-5-0|3-3-3-0-0-0-0-0|0-0-0-0-0-0-0|---------------|-------|
E|-------|---------------|-------------|---------------|-------|

G|-----|------------7--|5----------|-----------------|---------|
D|7-5--|7-7-7-7-7-7---7|--5---7-5--|-7-7-7-7-7-7-7-7-|-7-7-5---|
A|----7|---------------|----7-----7|-----------------|-------7-|
E|-----|---------------|-----------|-----------------|---------|

G|------|---------------|---------------|--------------|-------|
D|------|---------------|---------------|-----7-7-7-7-7|7-7-5-4|
A|7-5---|----0-0-0-0-0-0|0-0-0-0-0-0-0-0|0-0-0---------|-------|
E|-----8|8-8------------|---------------|--------------|-------|

G|-------|---------------|----5--------|---------------|-------|
D|-------|7-7-7-7-5h7-5h7|7-7---7-5-5-7|7-7-7-7-5h7-5h7|7-7-5--|
A|5-5-7-0|---------------|-------------|---------------|------7|
E|-------|---------------|-------------|---------------|-------|

G|---------|----------||
D|---------|----------||
A|-5-5-3---|-3------r-||
E|-------5-|-----5----||

Вверх

Aces High

G|-11-----7-------11-------7-------11-----7-------|------------|
D|-11-----7-------11-------7-------11-----7-------|-7-7-7-7-7-7|
A|--9-999-5--777---9--999--5--555---9-999-5-7-7-7-|------------|
E|------------------------------------------------|------------|
Fast

G|-------------------------------|-----------------------------|
D|7-7-7-3-3-3-3-3-3-5-5-5-5-5-5-5|-----------------------------|
A|-------------------------------|557-7-7-7-557-7-7-7-557-7-7-7|
E|-------------------------------|-----------------------------|
Play 4 times    Lyrics enter

G|-------|----------------------------------4---|--------------|
D|----4--|557-7-7-7-557-7-7-7-557-7-7-7-555---5-|--------------|
A|555---5|--------------------------------------|5-7-7-7-7-10-7|
E|-------|--------------------------------------|--------------|
Play 4 times                      Play 4 times

G|---------------7-6-4-2-5-4-2-0-------------------------------|
D|------7---------------------------------------------7--------|
A|7-7-7---7-7-7-7----------------5-7-7-7-7-10-7-7-7-7---7-7-7-7|
E|-------------------------------------------------------------|

G|-5-4-2-0-2-|-------------------------------------------|-----|
D|-----------|-------------------------------------------|-5-5-|
A|-----------|-7-7-7-7-7-7-7-7-7-7-5-3-3-3-3-3-5-5-5-5-5-|-----|
E|-----------|-------------------------------------------|-----|
Play 4 times

G|-------------------------------------------------------------|
D|-5-5-5-5-5-5-5-3-1-1-1-3-3-3-3-3-5-5-5-5-5-5-5-5-5-3-1-1-1-1-|
A|-------------------------------------------------------------|
E|-------------------------------------------------------------|

G|-------------------------------------------------------------|
D|3-3-7-3-5-5-5-5-5-5-5-5-3-1-1-1-1-1-3-3-3-3-3-5-5-5-5-5-5-5-5|
A|-------------------------------------------------------------|
E|-------------------------------------------------------------|

G|----------------------------------------7-7------------------|
D|5-3-1-1-1-3-3-8-3-7-10-10-7-7-7-10-9-7-----7-10-10-7-7-10-9-7|
A|--------------------------------------10---------------------|
E|-------------------------------------------------------------|

G|----------------.------------------7-7--------.--------------|
D|----7-7---7-10-10-7-7-7-10-9-7----------7-10-10-7-7-7-10-9-7-|
A|-10----------------------------10----------------------------|
E|-------------------------------------------------------------|

E|----.----------.-|
B|----7----7-10-10-|
G|-10--------------|
D|-----------------|

G|-----------------7-7--------.-----------------------------.--|
D|-7-7-7-10-9-7---------7-10-10-7-7-7-10-9-7----7-7---7-10-10--|
A|--------------10---------------------------10----------------|
E|-------------------------------------------------------------|

E|-------------------|
B|-7-7-7-10-9-7----7-|
G|--------------10---|
D|-------------------|

G|-------------------------------------------------------------|
D|-7-7-10-10-7-7-7-10-9-7----7-7-7-7-7-7-7-7-7-7-5-3-3-3-3-5-5-|
A|------------------------10-----------------------------------|
E|-------------------------------------------------------------|
Guitar solo

G|-------------------------------------------------------------|
D|-5-5-5--7--7-7-7-7--7-7-7-7-5-------------------------7--7-7-|
A|------------------------------3--3-3-3-3--5--5-5-5-5---------|
E|-------------------------------------------------------------|

E|------------------|
B|-7-7--7-7-7-7-7-5-|
G|------------------|
D|------------------|

G|-------------------------------------------------------------|
D|-3--3-3-3-3--5--5-5-5-5--7--7-7-7-7--7-7-7-7-7-5-------------|
A|-------------------------------------------------3--3-3-3-3--|
E|-------------------------------------------------------------|

E|------------------|
B|--------5----9--9-|
G|-5--5-5---5-------|
D|------------------|

G|-------------------------------------------------------------|
D|-9-9-9--9-9-9-9-9-7-5--5-5-5-5--7-7-7-7-7--9--9-9-9-9--9-9-9-|
A|-------------------------------------------------------------|
E|-------------------------------------------------------------|

E|------------------|
B|-9-9-7------------|
G|-------5--5-5-5-5-|
D|------------------|

G|-------------------------------------------------------------|
D|-----------9--9-9-9-9--9-9-9-9-9-7-5--5-5-5-5--7--7-7-7-7--9-|
A|-7-7-7-7-7---------------------------------------------------|
E|-------------------------------------------------------------|

E|-----------------|
B|--9-9-9-9--9-9-9-|
G|-----------------|
D|-----------------|

G|-------------------------------------.-------------------7-7-|
D|-9-9-7------------------7------7-10-10-7-7-7-10-9-7----------|
A|--------5--5-5-5-5--7-7---7-7------------------------10------|
E|-------------------------------------------------------------|

E|--------.-------|
B|--7-10-10-7-7-7-|
G|----------------|
D|----------------|


G|------------------------.------------------7-7---------.-----|
D|-10-9-7-----7-7---7-10-10-7-7-7-10-9-7-----------7-10-10-7-7-|
A|---------10-----------------------------10-------------------|
E|-------------------------------------------------------------|

E|-------------.---|
B|-7-10-9-7----7---|
G|----------10-----|
D|-----------------|

G|-------.------------------7-7---------.----------------------|
D|-7-10-10-7-7-7-10-9-7-----------7-10-10-7-7-7-10-9-7-----7-7-|
A|-----------------------10-----------------------------10-----|
E|-------------------------------------------------------------|

E|--------.-------|
B|--7-10-10-7-7-7-|
G|----------------|
D|----------------|

G|-----------7-7----------.-------------------.--|
D|-10-9-7-----------7-10-10-7-7-7-10-9-7------7--|
A|--------10------------------------------10-----|
E|-----------------------------------------------|

E|-----------------------------|
B|.----------------------------|
G|.--557-7-7-7-557-7-7-7-557-7-|
D|-----------------------------|

G|---------------|-------------------------------------4----|
D|---------4----.|.--557-7-7-7-557-7-7-7-557-7-7-7-555---5-.|
A|-7-7-555---55-.|.----------------------------------------.|
E|---------------|------------------------------------------|
Play 4 times                                 Play 4 times-|

E|------------------|
B|------------------|
G|-5-7-7-7-7-10-7-7-|
D|------------------|

G|---------------7-6-4-2-5-4-2-0-------------------------------|
D|-----7-----------------------------------------------7-------|
A|-7-7---7-7-7-7------------------5-7-7-7-7-10-7-7-7-7---7-7-7-|
E|-------------------------------------------------------------|

E|---5-4-2-0-2-----|
B|-----------------|
G|-7------------5-7|
D|-----------------|

G|----------------------------7-6-4-2-5-4-2-0------------------|
D|------------------7------------------------------------------|
A|-7-7-7-10-7-7-7-7---7-7-7-7-------------------5-7-7-7-7-10-7-|
E|-------------------------------------------------------------|

E|-----------------|
B|-------7---------|
G|-7-7-7---7-7-7-7-|
D|-----------------|

G|-5-4-2-0-2-|-------------------------------------------------|
D|-----------|.-----------------------------------------------.|
A|-----------|.-7-7-7-7-7-7-7-7-7-7-5-3--3-3-3-3--5--5-5-5-5--.|
E|-----------|-------------------------------------------------|
Play 4 times

E|-----------|
B|--5--5-5-5-|
G|-----------|
D|-----------|

G|-------------------------------------------------------------|
D|-5-5-5-5-5-5-3--1-1-1-1-1--3--3-3-3-3--5--5-5-5-5--5-5-5-5-5-|
A|-------------------------------------------------------------|
E|-------------------------------------------------------------|

E|----------------|
B|-3--1-1-1-1-1--3|
G|----------------|
D|----------------|

G|-------------------------------------------------------------|
D|-333-7-3--5--5-5-5-5--5-5-5-5-5-3--1-1-1-1-1--3--3-3-3-3--5--|
A|-------------------------------------------------------------|
E|-------------------------------------------------------------|

E|-----------------|
B|-5-5-5-5--5-5-5-5|
G|-----------------|
D|-----------------|

G|-----------------------------------.-.-.---------------------|
D|-5-3-1-1-1-1-1-333-8-3-7-7-7-7-7-7-7-7-7-3-3-3-3-3-3-5-5-5-5-|
A|-------------------------------------------------------------|
E|-------------------------------------------------------------|

E|--------|
B|-5-5--7-|
G|--------|
D|--------|

G|---------.-.-.---------------------------------.-.-.---------|
D|-7-7-7-7-7-7-7-3-3-3-3-3-3-5-5-5-5-5-7-7-7-7-7-7-7-7-3-3-3-3-|
A|-------------------------------------------------------------|
E|-------------------------------------------------------------|

G|-------------------------------------------------------------|
D|3-5-5-5-5-5-5-7-7-7-7-7-7-7-7-7-3-5/7------------------------|
A|--------------------------------------0-0-0-0-0-0-0-0-0-0-0-0|
E|-------------------------------------------------------------|
Ritard.

G|-----h-------------------------------------------------------|
D|----5-7-7-7-7-7-7-7-7-5-7-5-5-7-7-7-7-7-7-7-7-5-5-5----------|
A|-0-0-------------------7---7-----------------------7-7-5-5---|
E|----------------------------------------------------------7-7|

G|--------------------||
D|------------------7-||
A|-----------0-0-0--0-||
E|-5-5--3--5----------||

Вверх

Afraid To Shoot Strangers

intro (clean sound)

E|-------------------------------|
B|------7-7h9--7h9p7-------------|
G|-7h9---------------9-8-6h8p6---|
D|-----------------------------9-|
A|-------------------------------|
E|-------------------------------|

E|------------------------------------------|
B|-10h12-10-8h10-7--------------------------|
G|-----------------9-7-6-----6---6-6-6p4----|
D|-----------------------9-7------------6h9-|
A|------------------------------------------|
E|------------------------------------------|

E|-------------------------------|
B|------7-7h9--7h9p7-------------|
G|-7h9---------------9-8-6h8p6---|
D|-----------------------------9-|
A|-------------------------------|
E|-------------------------------|

E|--------------------------------------------------|
B|-10h12-10-8h10-7----------------------------------|
G|-----------------9-7-6-----6---6-6-6p4------------|
D|-----------------------9-7------------6h9---6-9-6-|
A|--------------------------------------------------|
E|--------------------------------------------------|

clean rhythym (during above part)

E|----------------------------------------------------------|
B|----------------------------------------------------------|
G|-------------------------------------------6---6----------|
D|-----2---2-----(4X)-----5---5-----(4X)---6---6---6---(4X)-|
A|---2---2---2----------5---5---5--------4-----------4------|
E|-0-----------0------3-----------3-------------------------|
ending
E|-----------------------------------------------------|
B|-----------------------------------------------------|
G|-----4---4-------------------------------------------|
D|---4---4---4---(4X)------------6---6-------6---6-----|
A|-2-----------2---------------6---6---6---6---6---6---|
E|---------------------------4-----------4-----------4-|

Lying awake at night... (section 1)

E|-----------------------------------------------------------|
B|-----------------------------------------------------------|
G|-------------------------6---6--------------7---7----------|
D|-----2---2-----(4X)----6---6---6---(4X)---7---7---7---(4X)-|
A|---2---2---2---------4-----------4------5-----------5------|
E|-0-----------0---------------------------------------------|

E|--------------------|
B|--------------------|
G|-----4---4----------|
D|---4---4---4---(4X)-|
A|-2-----------2------|
E|--------------------|

When it comes to the time... (section 2)

E|---------------------------------------------------------|
B|---------------------------------------------------------|
G|-----5---5-------6---6-------3---3-------5---5------(4X)-|
D|---5---5---5---6---6---6---3---3---3---5---5---5---------|
A|-3-----------4-----------1-----------3-----------3-------|
E|---------------------------------------------------------|

repeat Section 1
repeat Section 2

Harmony 1

E|----------------------------9--------------------------------|
B|------9-10p9----10----10-12---12-10-12---9-10-12-9-10-12-10-9|
G|---11--------11----11------------------9--------9------------|
D|11-----------------------------------------------------------|
A|-------------------------------------------------------------|
E|-------------------------------------------------------------|

E|--------------|
B|---------9----|
G|-11-9-11---11-|
D|--------------|
A|--------------|
E|--------------|

E|-------------------------------------------------------------|
B|10-10-10-12-10-9-10----9-9-9-9-9--------------------9--------|
G|--------------------11-----------9-11-11-11-11-9-11---11p9-11|
D|-------------------------------------------------------------|
A|-------------------------------------------------------------|
E|-------------------------------------------------------------|

Fast rhythm (during solo also)
listen to song to get rhythm

E|-----------------------|
B|-----------------------|
G|-9-----------7-7---5-5-|
D|-9--(10X)----7-7---5-5-|
A|-7-----------5-5---3-3-|
E|-----------------------|

E|-----------------------|
B|-----------------------|
G|-9-----------7-7---5-5-|
D|-9--(10X)----7-7---5-5-|
A|-7-----------5-5---3-3-|
E|-----------------------|

E|-----------------------|
B|-----------------------|
G|-7---------------------|
D|-7--(10X)--7-7---9-9---|
A|-5---------7-7---9-9---|
E|-----------5-5---7-7---|

E|-----------------------|
B|-----------------------|
G|-9-----------7-7---5-5-|
D|-9--(10X)----7-7---5-5-|
A|-7-----------5-5---3-3-|
E|-----------------------|

interlude

E|----------------------------------------10^-------|
B|-8-10-10^-10-8---8-10-10^-8-7-10^-8-7-8-----------|
G|--------------------------------------------------|
D|--------------------------------------------------|
A|--------------------------------------------------|
E|--------------------------------------------------|

E|----------------------------------------10^-------|
B|-8-10-10^-10-8---8-10-10^-8-7-10^-8-7-8-----------|
G|--------------------------------------------------|
D|--------------------------------------------------|
A|--------------------------------------------------|
E|--------------------------------------------------|

E|-8-10-10^-10-8--8-10-10^-8-7-10^-8-7-8---15^--15^-|
B|--------------------------------------------------|
G|--------------------------------------------------|
D|--------------------------------------------------|
A|--------------------------------------------------|
E|--------------------------------------------------|

E|----------------------------------------10^-------|
B|-8-10-10^-10-8---8-10-10^-8-7-10^-8-7-8-----------|
G|--------------------------------------------------|
D|--------------------------------------------------|
A|--------------------------------------------------|
E|--------------------------------------------------|

Rhythm 2  Afraid... Afraid to shoot strangers... Afraid...

E|------------------------------------------------------|
B|------------------------------------------------------|
G|---------------9-7--------------9-7--------------9--7-|
D|-7--9----7--9--7-5--7--9---7-9--7-5--5--7--5--7--7--5-|
A|-5--7----5--7-------5--7---5-7-------3--5--3--5-------|
E|------------------------------------------------------|

repeat fast rhythm

Second harmony interlude

E|-----------9-10-9--------------------------------------------|
B|---9-10-12--------12-10-9-10-12-10-9----------10-10-10-10-9--|
G|11-----------------------------------9-9--------------------9|
D|-----------------------------------------11-12---------------|
A|-------------------------------------------------------------|
E|-------------------------------------------------------------|

last time play slowly
E|-------------------------------------------------------------|
B|10-10-10-12-10-9-10----9-9-9-9-9--------------------9--------|
G|--------------------11-----------9-11-11-11-11-9-11---11p9-11|
D|-------------------------------------------------------------|
A|-------------------------------------------------------------|
E|-------------------------------------------------------------|

Вверх

Alexander The Great (2 вариант)

intro (clean sound)

E|---------------------12-14---15-14---15-14-15-14-12---12-----|
B|---------10-12-13-15--------------------------------15----15-|
G|-9-11-12-----------------------------------------------------|
D|-------------------------------------------------------------|
A|-------------------------------------------------------------|
E|-------------------------------------------------------------|

E|-------------------------------------------------------------|
B|-12h15p12h15-12-15p12---------12-----------------------------|
G|-------------------------14--14----14-12---11-12---14-12--11-|
D|-------------------------------------------------------------|
A|-------------------------------------------------------------|
E|-------------------------------------------------------------|

distortion
E|-------------------------------------------------------------|
B|------7-8-10-8-7-----7-8-10-8-7----10b--7-8-10-8-7-----------|
G|-9~-9------------7-9~-----------7-9----9-----------7-9/12/9~-|
D|-------------------------------------------------------------|
A|-------------------------------------------------------------|
E|-------------------------------------------------------------|

E|-------------------------------------------------------------|
B|------7-8-10-8-7------7-8-10-8-7-----10b----7-8-10-8-7-------|
G|-9~-9------------7-9~-------------7-9------9------------7-9~-|
D|-------------------------------------------------------------|
A|-------------------------------------------------------------|
E|-------------------------------------------------------------|

fast
E|------------------------------------12-----------------------|
B|----7-8-10-8-7-------7-8-10-8-7---------7-8-10-8-7-----------|
G|9-9------------7-9-9------------7-9----9-----------7-9-7-----|
D|---------------------------------------------------------10-9|
A|-------------------------------------------------------------|
E|-------------------------------------------------------------|

verse
Near to the east...		            in an ancient land...
King Darius the third....                   Scythians fell.....

E|-------------------------------------------------------------|
B|-------------------------------------------------------------|
G|-------------------9-7---------9-9-9-7-7---------------------|
D|-------------------9-7---------9-9-9-7-7-7-5-5-5-5-5---5-5-5-|
A|-------------------7-7---------7-7-7-5-5-5-3-3-3-3-3---3-3-3-|
E|-0-0-0-0-0-0-0-0-0-----0-0-0-0-------------------------------|

called Macedonia...
river Jaxartes.....
E|------------------------|
B|------------------------|
G|------------------------|
D|-5-5-5--5-5-4-----------|repeat
A|-3-3-3--3-3-2-----------|
E|-----------------5-3-2~-|

At the age of nineteen...                 All of Asia minor....
By the Tigris river...                     Battle of Arbela....

E|-------------------------------------------------------------|
B|-------------------------------------------------------------|
G|----------------------------9-11-12-11-----------------------|
D|--9-9-9--------------------------------5-5-5-5-5-5-5-5--5-5-4|
A|--7-7-7---------------------7--9-10--9-3-3-3-3-3-3-3-3--3-3-2|
E|0-0-0-0-0-0-0-0-0-0-0-0-0-0----------------------------------|

E|--------|
B|--------|
G|--------|
D|--------|
A|--------|
E|-5-3-2~-|

By the Aegean sea....                  4 B.C.  he utterly....
Entering Babylon....      treasures he found. took Persepolis
E|-------------------------------------------------------------|
B|-------------------------------------------------------------|
G|-------------------------7-7-7-7-7-7-------------------------|
D|---9-9-9-----------------9-9-9-9-9-9-5-5-5-5-5-5-5-5-5-5-5-4-|
A|---7-7-7-----------------------------3-3-3-3-3-3-3-3-3-3-3-2-|
E|-0-0-0-0-0-0-0-0-0-0-0-0-------------------------------------|

E|--------|
B|--------|
G|--------|
D|--------|
A|--------|
E|-5-3-2~-|

Chorus

E|---------------------------|
B|---------------------------|
G|-9----7----2----5---7----9-|
D|-9----7----2----5---7----9-| repeat
A|-7----5----0----3---5----7-|
E|---------------------------|

Interlude

E|----------------------------------------------|
B|----------------------------------------------|
G|----------------------------------------------|
D|-------7-9--10-9-7h9p7----------7-9-7----7----| repeat
A|-10-10-----------------10-10-10-------10---9~-|
E|----------------------------------------------|

E|---------------------------------------|
B|---------------------------------------|
G|---4-5-4-7-5-4h5p4---------2-----------|
D|-7------------------7-3-3-5--5-3-5-2~--| repeat
A|---------------------------------------|
E|---------------------------------------|

E|---------------------------------------|
B|---------------------------------------|
G|---------------------------------------|
D|---------------------------------------|
A|-2--2--2-2-2-2-2--2-2--2-2-2-2--2-2-2--|continue pattern
E|---------------------------------------|

E|------------8------------------8---------11~~-|
B|-11~~-9h11---11-9h11~~--9-11---11-9-11--------|
G|----------------------------------------------|
D|----------------------------------------------|
A|----------------------------------------------|
E|----------------------------------------------|

E|------------------------------|
B|------------------------------|
G|-8p6---10p8----12p10----14p12-|
D|-----8------10--------12------|
A|------------------------------|
E|------------------------------|

E|-------------------------------------------------------------|
B|-------------------------------------------------------------|
G|---4-3~-----4-3~--3-------------4-3~--3----------------------|
D|-----------------5--5-4-1-2~---------5--5-4-2-5-4-2---5--7---|
A|--------2--------------------2-----------------------2--3--5-|
E|-0------2-0--------------------0-----------------------------|

E|---------------------------|
B|---------------------------|
G|---------------------------|
D|---------------------------|
A|---------------------------|
E|-0-0-0-0-0-0---0-0-0-0-0-0-| continue pattern

interlude 2
E|-------------------------------------------------------------|
B|--4-5-7-5-4-------5-6-5-8-10-6-5-----------------------------|
G|-7---------5/7-5-7-----7--------7-5/4------------------------|
D|-------------------------------------7-53/5-5-3-5-3~-3h5-3---|
A|-----------------------------------------------------------3-|
E|-------------------------------------------------------------|

Rhythym during solo

Am    C    G      Bb5    F5

Second section:

E5    C5    G5    D5    C5     D5   E5

Last verse:
A phrygian king.....
E|---------------------------------|
B|---------------------------------|
G|----------------------------9--7-|
D|----------------------------9--7-|
A|----------------------------7--7-|
E|-0---0-0-0---0-0-0---0-0-0-------|

Alexander cut the Gordian knot....
E|---------------------------------|
B|---------------------------------|
G|----------------------------9--7-|
D|----------------------------9--7-|
A|----------------------------7--7-|
E|-0---0-0-0---0-0-0---0-0-0-------|

and legend says that...
E|--------------------------------------|
B|--------------------------------------|
G|------------------------------------4-|
D|-7---7-7-7---7-7-7--7-7-7--7-7-7--4---|
A|-5---5-5-5---5-5-5--5-5-5--5-5-5--2---|
E|--------------------------------------|

he would become the master...
E|-------------------------------|
B|-------------------------------|
G|-------------------------------|
D|-4---4-4-4---4-4-4---4-4-5---7-|
A|-2---2-2-2---2-2-2---2-2-3---5-|
E|-------------------------------|

Marching on....
E|--------------------|
B|--------------------|
G|-9--12--7---9-12--7-|
D|-9--12--7---9-12--7-|
A|-7--10--5---7-10--5-|
E|--------------------|

battle weary marching....

E|---------------------------------|
B|---------------------------------|
G|----------------------------9--7-|
D|----------------------------9--7-|
A|----------------------------7--7-|
E|-0---0-0-0---0-0-0---0-0-0-------|

E|--------------------------------------|
B|--------------------------------------|
G|------------------------------------4-|
D|-7---7-7-7---7-7-7--7-7-7--7-7-7--4---|
A|-5---5-5-5---5-5-5--5-5-5--5-5-5--2---|
E|--------------------------------------|

E|-------------------------------|
B|-------------------------------|
G|-------------------------------|
D|-4---4-4-4---4-4-4---4-4-5---7-|
A|-2---2-2-2---2-2-2---2-2-3---5-|
E|-------------------------------|

died of fever in Babylon
E|-----------|
B|-----------|
G|-2---5---7-|
D|-2---5---7-|
A|-0---3---5-|
E|-----------|

outro repeat fast intro

E|--------------------------------------------|
B|--------------------------------------------|
G|-(9)---9-7----------------------------------|
D|-----------10-9~~--9-7-------------------9--|
A|------------------------10--9--9-10--9~~-7--|
E|------------------------------------------0-|

Вверх

Alexander The Great (356-323 B.C.)

Am
Near to the east
G
In a part of ancient Greece
Dm                            G---E
In an ancient land called Macedonia
Am
Was born a son
G
To Philip of Macedon
Dm                          G---E
The legend his name was Alexander

At the age of nineteen
He became the Macedon king
And he swore to free all of Asia minor
By the Aegian Sea
In 334 B.C.
He utterly beat the armies of Persia

Chorus:
Am            G
Alexander the Great
Dm                    G
His name struck fear into hearts of men
Am            G
Alexander the Great
Dm                       G--------E Am
Became a legend  mongst mortal men

King Darius the third
Defeated fled Persia
The Scythians fell by the river Jaxartes
Then Egypt fell to the Macedon King as well
And he founded the city called Alexandria

By the Tigris river
He met King Darius again
And crushed him again in the battle of Arbela
Entering Babylon
And Susa, treasures he found
Took Persepolis the capital of Persia

Chorus:
Alexander the Great
His name struck fear into hearts of men
Alexander the Great
Became a God amongst mortal men

Am
A Phrygian king had bound a chariot yoke
Am
And Alexander cut the “Gordian Knot”
G
And legend said that who untied the knot
Dm              G
He would become the master of Asia

Helonism he spread far and wide
The Macedonian learned mind Their
culture was a western way of life
He paved the way for Christianity

Am       G    Am  F    G
Marching on, marching on

The battle weary marching side by side
Alexander’s army line by line
They wouldn’t follow him to India
Tired of combat, pain and the glory

Alexander the Great
His name struck fear into hearts of men
Alexander the Great
He died of fever in Babylon

And crushed him again in the battle of Arbela
Entering Babylon
And Susa, treasures he found
Took Persepolis the capital of Persia

Chorus:
Alexander the Great
His name struck fear into hearts of men
Alexander the Great
Became a God amongst mortal men

A Phrygian king had bound a chariot yoke
And Alexander cut the “Gordian Knot”
And legend said that who untied the knot
He would become the master of Asia

Helonism he spread far and wide
The Macedonian learned mind Their
culture was a western way of life
He paved the way for Christianity

Marching on, marching on

The battle weary marching side by side
Alexander’s army line by line
They wouldn’t follow him to India
Tired of combat, pain and the glory


Alexander the Great
His name struck fear into hearts of men
Alexander the Great
He died of fever in Babylon

Вверх

Back In The Village

E|-------------------------------------------------------------|
B|-----------------5p2---2-4p2---2-----------------5p2---2-2~--|
G|---------------------5--------5-----------------------5------|
D|-----5-----4-------------------------5-----4-----------------|
A|-0-0---0-0---0-0----------------0-0---0-0---0-0--------------|
E|-------------------------------------------------------------|

verse

E|-------------------------------------------------------------|
B|-----------------5p2---2-4p2---2-----------------5p2---2-2~--|
G|---------------------5--------5-----------------------5------|
D|-----5-----4-------------------------5-----4-----------------|
A|-0-0---0-0---0-0----------------0-0---0-0---0-0--------------|
E|-------------------------------------------------------------|

E|-------|
B|-6---8-|
G|-5---7-|
D|-3---5-| play twice
A|-------|
E|-------|

White flags shot to ribbons....

E|-----------------------------------------|
B|-----------------------------------------|
G|-7---3---0---5------7---3---0--2--2---2--|
D|-7---3---5---5---7--7---3---5--2--4---2--|
A|-5---1---2---3---4--5---1---2--0--0---0--|
E|-----------------------------------------|

chorus

E|-------------------------------------------------------|
B|-------------------------------------------------------|
G|-5-5-4p0-----5-5-4p0-----5-5-4p0-----------------------|
D|---------3p0----------3p0---------3p0-3p0-----3p0------|
A|-------------------------------------------3p0-----3p0-|
E|-------------------------------------------------------|

E|------------------------------------------|
B|-5-5-4p0-----5-5-4p0----------------------|
G|---------3p0----------3p0-5-5-------------|
D|--------------------------5--5--5--repeat-|
A|--------------------------3--3--5---------|
E|--------------------------------3---------|

E|-------------------------------------------------------------|
B|-------------------------------------------------------------|
G|-----------0h5h7--------------------------0h5h7------5~-repeat
D|--0h2p0h5h7------0h5p0----------0h2p0h5h7------0h5h7---------|
A|0----------------------5p0-----0-----------------------------|
E|---------------------------5p0-------------------------------|

interlude

E|5-5----5---5----8p5-----------------------5------------------|
B|-8--8p6--8---8p6----6-6-5p3-6p3-6-5p3-6p3-6-3-6-5p3-6p3-6-5p3|
G|-------------------------------------------------------------|
D|-------------------------------------------------------------|
A|-------------------------------------------------------------|
E|-------------------------------------------------------------|

E|-----5------------------------------|
B|-6p3---6-3-8p6-8p5-----8p6-8p5------|
G|--------------------7-5---------7-6-|
D|------------------------------------|
A|------------------------------------|
E|------------------------------------|

ending 2

E|---------------|
B|-8p6-8p5-------|
G|---------7-----|
D|-----------6---|
A|-----------5h7-|
E|---------------|

solo rhythm

E|--------------------------|
B|--------------------------|
G|---8-7------7---5---0dive-|
D|---8-7------7---5---0-----|
A|-0------------------------|
E|--------------------------|

But still we walk in.....

E|--------------------------------------------------|
B|--------------------------------------------------|
G|--------------------------------------------------|
D|-9---------------7----------------repeat--then-7--|
A|-7---------------5-----------------------------7--|
E|-0-0-000000000-0--000000000000--------------5-----|

Outro repeat chorus

ends with

E|-----|
B|--3--|
G|--2--|
D|--0--|
A|-----|
E|-----|

Вверх

Be Quick Or Be Dead

  Intro
x4
e|---------------------------------|---------------------------|
B|---------------------------------|---------------------------|
G|---------------------------------|---------------------------|
D|15-0-0-0-1-0-0-0-15-1-3-1-0-0-0-0|15-0-0-0-1-0-0-0-15-3-1-0--|
A|---------------------------------|--------------------------3|
E|---------------------------------|---------------------------|

1.
x2
e|--------------------------|--------------------------|
B|--------------------------|--------------------------|
G|--------------------------|--------------------------|
D|--------------------7--8--|--------------3--5--8--7--|
A|-5X5X5-5X5X5-5X5X5--5--6--|-5X5X5-5X5X5--1--3--6--5--|
E|-3X3X3-3X3X3-3X3X3--------|-3X3X3-3X3X3--------------|

x2
e|------------------------------|------------------------------|
B|------------------------------|------------------------------|
G|------------------------------|------------------------------|
D|-5-5-5-5--5-5--3--3-3---------|-5-5-5-5--5-5--3--3-3--8--7-8-|
A|-3-3-3-3--3-3--1--1-1--3--3-3-|-3-3-3-3--3-3--1--1-1--6--5-6-|
E|-----------------------1--1-1-|------------------------------|

x3
e|-----------------------------------------|
B|-----------------------------------------|
G|-----------------------------------------|
D|-57-5-0--35-3----13-1----01-1-0----------|
A|----------------5--------3----------1----|
E|--------------------------------------3--|

e|---------------------------------------|---------------------|
B|---------------------------------------|---------------------|
G|---------------------------------------|---------------------|
D|-57-5-0--35-3----13-1----01-1-0--------|---------------------|
A|----------------5--------3----------1--|-3----------------5--|
E|---------------------------------------|-1----------------3--|

e|-------------------------------------|-----------|
B|-------------------------------------|-----------|
G|-------------------------------------|-----------|
D|--3----5----3--------3----5----3---7-|---8--10---|
A|--1-3--3-5--1-3-5----1-3--3-5--1-3-5-|---6---8---|
E|----1----3----1-3------1----3----1---|-----------|

x4
e|---------------------------------|---------------------------|
B|---------------------------------|---------------------------|
G|---------------------------------|---------------------------|
D|15-0-0-0-1-0-0-0-15-1-3-1-0-0-0-0|15-0-0-0-1-0-0-0-15-3-1-0--|
A|---------------------------------|--------------------------3|
E|---------------------------------|---------------------------|

2.
x2
e|--------------------------|--------------------------|
B|--------------------------|--------------------------|
G|--------------------------|--------------------------|
D|--------------------7--8--|--------------3--5--8--7--|
A|-5X5X5-5X5X5-5X5X5--5--6--|-5X5X5-5X5X5--1--3--6--5--|
E|-3X3X3-3X3X3-3X3X3--------|-3X3X3-3X3X3--------------|

x2
e|-----------------------------|-------------------------------|
B|-----------------------------|-------------------------------|
G|-----------------------------|-------------------------------|
D|--5-5-5-5--5-5--3--3-3-------|--5-5-5-5--5-5--3--3-3--8--7-8-|
A|--3-3-3-3--3-3--1--1-1-3-3-3-|--3-3-3-3--3-3--1--1-1--6--5-6-|
E|-----------------------1-1-1-|-------------------------------|

x3
e|----------------------------------------|
B|----------------------------------------|
G|----------------------------------------|
D|-57-5-0--35-3----13-1----01-1-0---------|
A|----------------5--------3----------1---|
E|--------------------------------------3-|

e|---------------------------------------|---------------|
B|---------------------------------------|---------------|
G|---------------------------------------|---------------|
D|-57-5-0--35-3----13-1----01-1-0--------|---------------|
A|----------------5--------3----------1--|-3----------5--|
E|---------------------------------------|-1----------3--|

e|-------------------------------------|---------|
B|-------------------------------------|---------|
G|-------------------------------------|---------|
D|--3----5----3--------3----5----3---7-|-8--10---|
A|--1-3--3-5--1-3-5----1-3--3-5--1-3-5-|--6---8--|
E|----1----3----1-3------1----3----1---|---------|

Rhytm Guitar (Lead Guitar - Solo)
x2
e|----------------------------------------------------------|
B|----------------------------------------------------------|
G|----------------------------------------------------------|
D|--5--3-5--3-5-3--5--3-5--8-8--5--3-5--3-5-3--5--3-5--3----|
A|--3--1-3--1-3-1--3--1-3--6-6--3--1-3--1-3-1--3--1-3--1-6--|
E|-------------------------------------------------------4--|

x2
e|----------------------------------------------------------|
B|----------------------------------------------------------|
G|----------------------------------------------------------|
D|--7--5-7--5-7-5--7--5-7-1010--7--5-7--5-7-5--7--5-7--5-3--|
A|--5--3-5--3-5-3--5--3-5--8-8--5--3-5--3-5-3--5--3-5--3-1--|
E|----------------------------------------------------------|

x2
e|------------------------------|------------------------------|
B|------------------------------|------------------------------|
G|------------------------------|------------------------------|
D|-5-5-5-5--5-5--3--3-3---------|-5-5-5-5--5-5--3--3-3--8--7-8-|
A|-3-3-3-3--3-3--1--1-1--3--3-3-|-3-3-3-3--3-3--1--1-1--6--5-6-|
E|-----------------------1--1-1-|------------------------------|

Outro

e|----------------------------------------||
B|----------------------------------------||
G|----------------------------------------||
D|-57-5-0--35-3----13-1----01-1-0---------||
A|----------------5--------3----------1---||
E|--------------------------------------3-||

Вверх

Blood On The Worlds Hands

G|----------(7)--------(7)----(7)------(7)-------(7)--(5)------|
D|------(7)--------(7)------(7)-----(7)-------(7)--------(5)---|
A|--(7)--------(7)--------(7)----(7)-------(7)--------------(5)|
E|0------------------------------------------------------------|

G|----------(7)--------(7)----(7)------(7)------(5)-----(5)----|
D|------(7)--------(7)------(7)-----(7)------(7)---(5)----(5)--|
A|--(7)--------(7)--------(7)----(7)------(7)---------(5)---(5)|
E|0------------------------------------------------------------|

G|------------------4-7-9-9-14-14-14-14-12-11------------------|
D|--------------4-7---------------------------12-12-12-12-11---|
A|----------5-7----------------------------------------------12|
E|0-0-0-5-7----------------------------------------------------|

G|-----------------------------(7)--------(7)----(7)--------(7)|
D|7-7-7-6------------------(7)--------(7)------(7)------(7)----|
A|--------7-3-3-3-2----(7)--------(7)--------(7)----(7)--------|
E|------------------3-0----------------------------------------|

G|---------(7)--(5)-------------------(7)---------(7)-----(7)--|
D|-----(7)----------(5)-----------(7)---------(7)-------(7)----|
A|-(7)------------------(5)---(7)---------(7)---------(7)------|
E|--------------------------0----------------------------------|

*
G|---------(7)--------(5)-------(5)-----9---5---7---4---5------|
D|-----(7)--------(7)--------(5)-------9---5---7---4---5-------|
A|-(7)---------(7)--------(5)---------7---3---5---2---3--------|
E|-------------------------------------------------------------|

(*) In this part, you must move your hand from fret to fret as
fast as you can (and faster!). So, the notes played on the G
string will sound sliding to the next.
Pay a little attention to the disc to notice how it works.

G|--9---5---7---4--------------(7)------(7)-----(7)---------(7)|
D|-9---5---7---4---5--------(7)------(7)------(7)-------(7)----|
A|7---3---5---2---3--0---(7)------(7)-------(7)-----(7)--------|
E|---------------------0---------------------------------------|

G|------(7)-(5)-----------------(7)------(7)----(7)---------(7)|
D|---(7)-------(5)----------(7)-------(7)-----(7)-------(7)----|
A|(7)-------------(5)---(7)--------(7)------(7)-----(7)--------|
E|--------------------0----------------------------------------|

G|---------(5)-(5)---------------------------------------------|
D|-----(7)--------(5)--------------------5-4------------7-6----|
A|-(7)---------------(5)----3-2----5-4--------5---7-6-------7--|
E|------------------------------3------5--------------7--------|

G|------------------------------------------
D|-5-4---10-9----7-6---12-11----14-13-------
A|-----5------10-----7-------12-------142--- <<====Here, you
E|----------------------------------------0-   must slide from
14 to 2 to make a "fall" sound. Once again,listen to the record
to get the hang of it.

G|------(7)---------(7)-----(7)--------(7)-------(7)--(5)------|
D|---(7)--------(7)-------(7)-------(7)-------(7)--------(5)---|
A|(7)-------(7)---------(7)------(7)-------(7)--------------(5)|
E|-------------------------------------------------------------|

G|----------(7)--------(7)---(7)-------(7)------(5)-----(5)----|
D|------(7)--------(7)------(7)-----(7)------(7)---(5)----(5)--|
A|--(7)--------(7)---------(7)---(7)------(7)---------(5)---(5)|
E|0------------------------------------------------------------|

G|-------9-----5-----7-----4-----5-|
D|-----9-----5-----7-----4-----5---|
A|---7-----3-----5-----2-----3-----|
E|---------------------------------|

G|-------9-----5-----7-----4-----5-|
D|-----9-----5-----7-----4-----5---|
A|---7-----3-----5-----2-----3-----|
E|---------------------------------|

Вверх

Bring Your Daughter...To The Slaughter

Opening-riff:
E|--------------------|
B|--------------------|
G|-7-----7-----7------|
D|-7--5--7--7--7--5-2-|
A|-5--5--5--7--5--5-2-|
E|----3-----5-----3-0-|

Let E ring
E|-----|
B|-----|
G|-----|
D|-(2)-|
A|-(2)-|
E|-(0)-|

Verse:
Honey it's getting close to midnight
E|-----------|
B|---------3-|
G|-------0---|
D|-(2)-2-----|
A|-(2)-------|
E|-(0)-------|

and all the myths are still in town
E|-------|
B|-------|
G|-----2-|
D|---2---|
A|-0-----|
E|-------|

Chorus:
...daughter, bring your daughter. To the..
E|-------|-------|
B|-------|-------|
G|-------|-------|
D|-5-2-2-|-5-2-2-|
A|-5-2-2-|-5-2-2-|
E|-3-0-0-|-3-0-0-|

...slaugh- - - - - - - ter       Let her...
E|-------------------|-------------------|
B|-------------------|-------------------|
G|--5----------------|-------------------|
D|--5----------------|--7----------------|
A|--3---3-3-3-3-3-3--|--7-------------4--|
E|-------------------|--5---5-5-5-5-7----|

...go     Let her go      Let her...
E|---------------|---------------|
B|---------------|---------------|
G|---------------|---------------|
D|--7--7-9--7-7--|---------------|
A|--5--5-5--5-5--|--7--7-9--7-5--|
E|---------------|--5--5-5--5-3--|

E|----------------------|-------------------|
B|----------------------|-------------------|
G|----------------------|-------------------|
D|----------------------|-------------------|
A|--2-----5---4--2-5-2--|--2-----5---4-0----|
E|--0---0---0----0-3-0--|--0---0---0-----3--|

End of chorus.

Before second verse:
E|-------|
B|-------|
G|---0---|
D|---2---|
A|---2---|
E|---0---|

Bridge before solo:
So pick up you...
E|-------|
B|-------|
G|-------|
D|--5-5--|
A|--5-5--|
E|--3-3--|

No going back, no...
E|-------|
B|-------|
G|--7-7--|
D|--7-7--|
A|--5-5--|
E|-------|

...to hide
E|--------------|
B|--------------|
G|-7---7---7----|
D|-7-5-7-7-7--5-|
A|-5-5-5-7-5--5-|
E|---3---5----3-|

Solo-riff:
E|----------------|----------------|
B|----------------|----------------|
G|----------------|-5--------------|
D|-2--------------|-5--------------|
A|-2--------------|-3--3-3-3-3-3-3-|
E|-0--0-0-0-0-0-0-|----------------|

E|----------------|----------------|
B|----------------|----------------|
G|-2--------------|-7--------------|
D|-2--------------|-7---------5-5--|
A|-0--0-0-0-0-0-0-|-5--5-5-5--5-5--|
E|----------------|-----------3-3--|

End of solo-riff.

Riff 2:
....daughter, bring your daughter, bring your..
E|---|-----|
B|---|-----|
G|---|-----|
D|-2-|-(2)-|
A|-2-|-(2)-|
E|-0-|-(0)-|

...daughter, bring you daughter, bring your..
E|-----|-----|
B|-----|-----|
G|-----|-----|
D|-(2)-|-(2)-|
A|-(2)-|-(2)-|
E|-(0)-|-(0)-|

...daughter, bring your daughter to the....
E|-----------------|-----------------|
B|-----------------|-----------------|
G|-----------------|-----------------|
D|-----------------|-----------------|
A|-3-3-3-3-3-3-3-3-|-5-5-5-5-5-5-5-5-|
E|-----------------|-----------------|

...slaughter         Bring your...
E|-----------------|-----------------|
B|-----------------|-----------------|
G|-----------------|-----------------|
D|-----------------|-----------------|
A|-----------------|-----------------|
E|-0-0-0-0-0-0-0-0-|-0-0-0-0-0-0-0-0-|

End of riff 2.

Riff 3:

First guitar plays:
daughter,fetch your daughter, bring your...
E|-----------------|-----------------|
B|-----------------|-----------------|
G|-----------------|-----------------|
D|-----------------|-----------------|
A|-----------------|-----------------|
E|-0-0-0-0-0-0-0-0-|-3-3-3-3-3-3-3-3-|

daughter, fetch your daughter, bring your...
E|-----------------|-----------------|
B|-----------------|-----------------|
G|-----------------|-----------------|
D|-----------------|-----------------|
A|-0-0-0-0-0-0-0-0-|-0-0-0-0-0-0-0-0-|
E|-----------------|-----------------|

...daughter, fetch your daughter to the...
E|-----------------|-----------------|
B|-----------------|-----------------|
G|-----------------|-----------------|
D|-----------------|-----------------|
A|-3-3-3-3-3-3-3-3-|-5-5-5-5-5-5-5-5-|
E|-----------------|-----------------|

...slaughter.       Bring your...
E|-----------------|-----------------|
B|-----------------|-----------------|
G|-----------------|-----------------|
D|-----------------|-----------------|
A|-----------------|-----------------|
E|-0-0-0-0-0-0-0-0-|-0-0-0-0-0-0-0-0-|

End of riff 3.

Second guitar plays: (Volume swells)
daughter,fetch your daughter, bring your...
E|---|----|
B|---|----|
G|-9-|-12-|
D|---|----|
A|---|----|
E|---|----|

daughter, fetch your daughter, bring your...
E|----|
B|-10-|
G|----|
D|----|
A|----|
E|----|

...daughter, fetch your daughter to the...
E|----|----|
B|----|----|
G|----|----|
D|-10-|-12-|
A|----|----|
E|----|----|

...slaughter. Bring your...
E|---|
B|---|
G|-9-|
D|---|
A|---|
E|---|

Guitar-solo while second time of Riff 3.
E|-------------------------|
B|-------------------------|
G|----12-11-12-14-12-11-12-|
D|-14----------------------|
A|-------------------------|
E|-------------------------|

Doubling of guitar-solo.
E|-------------------------|
B|----12----12-13-12----12-|
G|-------14----------14----|
D|-14----------------------|
A|-------------------------|
E|-------------------------|

Riff 4:
After last chorus:
Let her go.(4 times)
E|-------------------|
B|-------------------|
G|-------------------|
D|-------------------|
A|-7-5---2-2-2-2-2-2-|
E|-5-3---0-0-0-0-0-0-|

Down to protection. Now
E|--0--|--(0)-----|
B|--3--|--(3)-----|
G|--1--|--(1)--9--|
D|--2--|--(2)--9--|
A|--2--|--(2)--7--|
E|--0--|--(0)--0--|

Song-structure:
Opening-riff
Tuning E
Verse (4 times)
Chorus (2 times)
Tuning E
Verse (4 times)
Chorus (2 times)
Bridge before solo
Solo-riff (4 times)
Riff 2
Riff 3 (3 times)
Chorus (3 times)
Riff 4
End

Lyrics:

Honey it's getting close to midnight
and all the myths are still in town
True love and lipstick on your linen
Bite the pillow make no sound
If there's some living to be done
Before your life becomes your tomb
You'd better know I'm the one
So unchain the backdoor invite me door

Chorus:
Bring your daughter, bring your daughter to the slaughter
Let her go, let her go, let her go

Honey it's getting close to daybreak
The sun is creeping in the sky
No patent remedies for heartache
Just empty words and humble pie
So get down on your knees honey
Assume an attitude
You just pray that I'll be waiting
Cos you know I'm coming soon

Chorus

So pick up your foolish pride, no going back
No where, no way, no place to hide

Bring your daughter,
fetch your daughter to the slaughter.

Chorus

Вверх

Charlotte The Harlot

This is the intro part (one guitar):
E|--------------------------|--------------------|
B|--------------------------|--------------------|
G|--------------------------|--------------------|
D|-12--------10-----9-----7-|-5----5--5h7--7--7--|
A|-12--------10-----9-----7-|-5----5--5h7--7--7--|
E|--------------------------|--------------------|

E|------------------------|------------|
B|------------------------|------------|
G|------------------------|------------|
D|-7p-5--5--5-----5-----5-|-7-----7--7-|
A|-7p-5--5--5-----5-----5-|-7-----7--7-|
E|------------------------|------------|

E|------------------------|------------|
B|------------------------|------------|
G|------------------------|------------|
D|-7p-5--5--5-----5-----5-|-7-----7--7-|
A|-7p-5--5--5-----5-----5-|-7-----7--7-|
E|------------------------|------------|

One guitar plays the above riff again, and the other guitar
plays this:

E|-----------------------|------------------|
B|-10------8-----7-------|------------------|
G|---------------------9-|-7---7--7h9--9--9-|
D|-----------------------|------------------|
A|-----------------------|------------------|
E|-----------------------|------------------|

E|-----------------------|------------------|
B|-----------------------|------------------|
G|-9p7--7--7-----7-----7-|-7-----9----9--9--|
D|-----------------------|------------------|
A|-----------------------|------------------|
E|-----------------------|------------------|

E|-----------------------|------------------|
B|-----------------------|------------------|
G|-9p7--7--7-----7-----7-|-7-----9-----9--9-|
D|-----------------------|------------------|
A|-----------------------|------------------|
E|-----------------------|------------------|

Then they play this (guitar 1 plays the top notes, guitar 2
plays the bottom notes):

E|------------------------|------------------------|
B|-10-----8------7-----8--|-10-----8------7-----8--|
G|------------------------|------------------------|
D|-12-----10-----9-----10-|-12-----10-----9-----10-|
A|-12-----10-----9-----10-|-12-----10-----9-----10-|
E|------------------------|------------------------|

E|---------------------|------------|
B|-10-----8------7--10-|-8-----7--9-|
G|---------------------|------------|
D|-12-----10-----9--7--|-5-----4--2-|
A|-12-----10-----9--7--|-5-----4--2-|
E|---------------------|------------|

(both guitars)
E|-------------|---|-------------|
B|-------------|---|-------------|
G|-12--------7-|-9-|-12--------7-|
D|-12--------7-|-9-|-12--------7-|
A|-10--------5-|-7-|-10--------5-|
E|-------------|---|-------------|

This is the verse riff (both guitars play 8 times):

E|-----------------|--------------|
B|-----------------|--------------|
G|-----------------|--------------|
D|-9--9--7h9-----9-|-12-----12--7-|
A|-7--7--7-------7-|-10-----10--5-|
E|-----------------|--------------|

This is the chorus riff (both guitars play twice):

E|-----------------|--------------------|
B|-----------------|--------------------|
G|-----------------|--------------------|
D|-9--9--7/9-----9-|-12-----12/14-----7-|
A|-7--7--5/7-----7-|-10-----10/12-----5-|
E|-----------------|--------------------|

E|-----------------|--------------------|
B|-----------------|--------------------|
G|-----------------|--------------------|
D|-7--7--5/7-----7-|------------9--x--x-|
A|-5--5--3/5-----5-|-2p0--------7--x--x-|
E|-----------------|------3~~~----------|

This is the part right after the chorus (both guitars):

E|------------|-----------|
B|------------|-----------|
G|------------|-----------|
D|-9--9-----9-|-12--12--7-|
A|-7--7-----7-|-10--10--5-|
E|------------|-----------|

E|---------------------------|------------|
B|---------------------------|------------|
G|---------------------------|------------|
D|-9/14-----9--9/14----------|-9--9-----9-|
A|-7/12-----7--7/12--14p1210-|-7--7-----7-|
E|---------------------------|------------|

E|-----------|-------------------|
B|-----------|-------------------|
G|-----------|-4p2p0-----0--2--0-|
D|-12--12--7-|--------2----------|
A|-10--10--5-|-------------------|
E|-----------|-------------------|

Now repeat from where the first verse starts all the way up to
the above riff, then play this (both guitars):

E|------------------------|------------------------|
B|------------------------|------------------------|
G|------------------------|------------------------|
D|-2--2--2--2--2--2--2--2-|-2--2--2--2--2--2--2--2-|
A|------------------------|------------------------|
E|------------------------|------------------------|

(one guitar plays top notes, another plays the bottom)
E|---------------------|
B|---------------------|
G|----7--5--4--2--0----|
D|-2--9--7--5--4--2--4-|
A|-------------------5-|
E|---------------------|

The slower part is kinda hard to make an accurate tab of. I'll
just give you the basic idea. Both guitars are playing
arpeggios of chords C major and then E minor, and after a while
A minor. The progression is: C, Em, C, Em, C, Em, C, Em, C, Am,
Em, Em. They play that twice. These are the chord formations:

C      Em    Am
E|-8------7-----5-|
B|-8------8-----5-|
G|-9------9-----5-|
D|-10-----9-----7-|
A|-10-----7-----7-|
E|-8------7-----5-|

Then it gets faster. Both guitars play this (4 times):

E|------------------------|------------------|
B|------------------------|------------------|
G|------------------------|------------------|
D|-9--9--9--9--9--9--9--9-|-9--9--9--9--9--7-|
A|-7--7--7--7--7--7--7--7-|-7--7--7--7--7--5-|
E|------------------------|------------------|

Then one guitar keeps playing that, while the other plays a
solo:

E|-----12-12-----12-12-----12-|-12-----12-12-----12-|
B|-----12-12-----12-12-----12-|-12-----12-12-15^----|
G|-14^-------14^-------14^----|----14^--------------|
D|----------------------------|---------------------|
A|----------------------------|---------------------|
E|----------------------------|---------------------|

E|-15-12-15p12----12----------------|------------------|
B|-------------15----15p12-15p12h15-|---------15h17p15-|
G|----------------------------------|-14^--------------|
D|----------------------------------|------------------|
A|----------------------------------|------------------|
E|----------------------------------|------------------|

E|---------|-----------------------------|----------------|
B|-17^--15-|-17p15p14-15p1412------------|----------------|
G|---------|-------------------14-12-14^-|-(14)--12-14-12-|
D|---------|-----------------------------|----------------|
A|---------|-----------------------------|----------------|
E|---------|-----------------------------|----------------|

E|----------------------|
B|----------------------|
G|-11h12p11-12p11h12----|
D|-------------------14-|
A|----------------------|
E|----------------------|

Now that guitar plays the rhythm part, while the other plays a
solo:

E|----------------------------------|
B|-----12h15p12-----12h15p12-----12-|
G|-14^----------14^----------14^----|
D|----------------------------------|
A|----------------------------------|
E|----------------------------------|

E|-------------------------------------|
B|-15p12-----12h15p12-----12h15p12-----|
G|-------14^----------14^----------14^-|
D|-------------------------------------|
A|-------------------------------------|
E|-------------------------------------|

E|-------------------------------------------------|
B|-12h15p12----12h15p12----12h15p12----12h15p12----|
G|----------14----------14----------14----------14-|
D|-------------------------------------------------|
A|-------------------------------------------------|
E|-------------------------------------------------|

E|-------------------------------------------------|
B|-12h15p12----12h15p12----12h15p12----12h15p12-15-|
G|----------14----------14----------14-------------|
D|-------------------------------------------------|
A|-------------------------------------------------|
E|-------------------------------------------------|

E|-------------------------------------------------|
B|-20p17----17-20p17----17-20p17----17-20p17----17-|
G|-------19----------19----------19----------19----|
D|-------------------------------------------------|
A|-------------------------------------------------|
E|-------------------------------------------------|

E|-----------------------------------------------|-------------|
B|20p17----17-20p17----17-20p17----17-20p17----17|22^-22^-20h22|
G|------19----------19----------19----------19---|-------------|
D|-----------------------------------------------|-------------|
A|-----------------------------------------------|-------------|
E|-----------------------------------------------|-------------|

E|-----------------|
B|-20p17----17-----|
G|-------19----19^-|
D|-----------------|
A|-----------------|
E|-----------------|

Now one guitar play this (twice):

E|---|----------|
B|---|----------|
G|-9-|-12-----7-|
D|-9-|-12-----7-|
A|-7-|-10-----5-|
E|---|----------|

The other guitar plays this over top:

trill...
E|----------------|------------|
B|------8--7--(8)-|-7-----8----|
G|-7h9------------|----------9-|
D|----------------|------------|
A|----------------|------------|
E|----------------|------------|

Now repeat from the second verse until the end of the second
chorus,  then play this (both guitars):

E|------------------------|------------------------|
B|------------------------|------------------------|
G|------------------------|------------------------|
D|-2--2--2--2--2--2--2--2-|-2--2--2--2--2--2--2--2-|
A|------------------------|------------------------|
E|------------------------|------------------------|

Now play the intro riff again, but replace the last bar with
this (as usual, one guitar plays the top notes and the other
plays the bottom):

E|--------------------|----------------|
B|-10-----8------7----|----------------|
G|------------------9-|-6-----------14-|
D|-12-----10-----9--7-|-11--7---6---14-|
A|-12-----10-----9--7-|-11--12--11--12-|
E|--------------------|-----12--11-----|

Вверх

Children Of The Damned

G|-----9------------------------------------------------9------|
D|----9--9-5-0-5h4h5h4-------------3-------5----------9---9--5-|
A|-7-7-----------------5--5-5----3---3---5---5-----------------|
E|-0---------------------------------------------0-------------|

Intro

G|----------------------------------------9--------------------|
D|-0--5h4h5h4------------3------5--------9--9-5-0-5h4h5h4------|
A|------------5---5-5--3---3--5---5-----7-----------------5-5-5|
E|-----------------------------------0-------------------------|

G|---------------------9---------------------------------------|
D|-3-------5----------9---9----5---0---5h4h5h4--------------3--|

Вверх

Clairvoyant

 -----2-----2-------0-----0--------------------------------------2-----2------
-0-0---0-0---0-0-0---0-0----0-0--4--0-0-0-0-0-0-0-0-0-0-0-0-0-0---0-0---0-0-0
---x--------------------------x---------x---x-x---x-x-x-x-x-------x-----x---x
-----------------------------------------------------------------------------
( x = dead note)

-0-----0------------------------------------2-----2-------0-----0------------
---0-0---0-0-4--0-0-0-0-0-0-0-0-0-0-0-0-0-0---0-0---0-0-0---0-0---0-0-4-0-0-0
-x---x-x-----x----x---x-x-x-x-x---x-x-x---x-----x-------------x-----x---x-x-x
-----------------------------------------------------------------------------
Rhythm guitar enters

-----------------------2-----2-------0-----0---------------------------------
-0-0-0-0-0-0-0-0-0-0-0---0-0---0-0-0---0-0---0-0-4-0-0-0-0-0-0-0-0-0-0-0-0-0-
-x-x-x-x-x---x-x---------x-x-----------x-------------x-x-x-x-x-x-x-x-x---x-x-
-----------------------------------------------------------------------------

-2-----2-------0-----0-----------------------------------2-----2-------0----0
---0-0---0-0-0---0-0---0-0-4-0-0-0-0-0-0-0-0-0-0-0-0-0-0---0-0---0-0-0---0-0-
---x-x-------x-x---x-----x-x---x-x---x-x-x-x-x-x-x-x---x-----x-x---x-x-x---xx
-----------------------------------------------------------------------------
Lead Guitar enters

-----------------------------------------------------------------------------
-0-0-0-4-0-0-0-0-0-0--5-5-5-5-4-0------------5-5-5-5-4-0------------5-5-5-5-4
-x---x-x---x---x-x----------------3-3-3-3-3--------------3-3-3-3-3-----------
-----------------------------------------------------------------------------

-------------------------------------------2-----2-------0-----0-------------
-0------------5-5-5-5-4-0--------------0-0---0-0---0-0-0---0-0---0-0-4-0-0-0-
---5-5-5-5-5--------------5-5-5-5-5------------------------------------------
-----------------------------------------------------------------------------

-----------------------2-----2------0----0-----------------------------------
-0-0-0-0-0-0-0-0-0-0-0---0-0---0-0-0--0-0--0-0-4-0-0-0-0-0--5-5-5-5-4-0------
------------------------------------------------------------------------3-3-3
-----------------------------------------------------------------------------

-----------------------------------------------------------------------------
------5-5-5-5-4-0-------------5-5-5-5-4-0------------5-5-5-5-4-0-------------
-3-3---------------3-3-3-3-3---------------5-5-5-5-5-------------5-5-5-5-5---
-----------------------------------------------------------------------------

-----------------------------------------------------------------------------
-0-----0-----0---0-----0-----0---0-------------------------------------------
---5-5---5-5---5---5-5---5-5---5---3-3-3--3-3-3--3-3--3-3-3--3-3-3--3-3------
-------------------------------------------------------------------------3-3-
Vocals enter *

-----------------------------------------------------------------------------
---------------------------------------------------------------------0-----0-
-----------------------------------1-1-1-1-1-1-1-1--3-3-3-3-3-3-3-3----5-5---
-3--3-3-3--3-3--3-3-3--3-3-3--3-3--------------------------------------------

-----------------------------------------------------------------------------
------0---0-----0-----0---0--------------------------------------------------
--5-5---5---5-5---5-5---5----3-3-3--3-3-3--3-3--3-3-3--3-3-3--3-3------------
-------------------------------------------------------------------3-3-3--3-3

--------------------------------------------------------------2-----2-----2--
----------------------------------------------------------------0-0---0-0----
----------------------------1-1-1-1-1-1-1-1--3-3-3-3-3-3-3-3-----------------
-3--3-3--3-3-3--3-3-3--3-3---------------------------------------------------

---3-----3-----3---0-----0-----0---2-----2-----2---2-----2-----2---3-----3---
-0---0-0---0-0---0---0-0---0-0---0---0-0---0-0---0---0-0---0-0---0---0-0---0-
-----------------------------------------------------------------------------
-----------------------------------------------------------------------------

---3---0-----0-----0-----0---0--0--------------------------------------------
-0---0---0-0---0-0---0-0---0---0--0--0-----0-----0---0-----0-----0---0-------
---------------------------------------5-5---5-5---5---5-5---5-5---5---3-3-3-
-----------------------------------------------------------------------------

-----------------------------------------------------------------------------
-----------------------------------------------------------------------------
-3-3-3--3-3--3-3-3--3-3-3--3-3----------------------------------------1-1-1-1
--------------------------------3-3-3--3-3-3--3-3--3-3-3--3-3-3--3-3---------

-----------------------------------------------------------------------------
---------------------------0-----0-----0---0----0----0---0-------------------
-1-1-1-1--3-3-3-3-3-3-3-3----5-5---5-5---5---5-5--5-5--5----3-3-3--3-3-3--3-3
-----------------------------------------------------------------------------

-----------------------------------------------------------------------------
-----------------------------------------------------------------------------
-3-3-3--3-3-3--3-3----------------------------------------1-1-1-1-1-1-1-1--3-
--------------------3-3-3--3-3-3--3-3--3-3-3--3-3-3--3-3---------------------

----------------2-----2-----2---3-----3----3---0-----0-----0---2-----2-----2-
------------------0-0---0-0---0---0-0---0-0--0---0-0---0-0---0---0-0---0-0---
-3-3-3-3-3-3-3---------------------------------------------------------------
-----------------------------------------------------------------------------

---3-----3-----3---0-----0-----0-----0---0---0-----0-----0-----0---1-----1---
-0---0-0---0-0---0---0-0---0-0---0-0---0---0---0-----0-0---0-0---0---0-0---0-
-----------------------------------------------------------------------------
-----------------------------------------------------------------------------

---1--------------------0-----0-----0---0-----0-----0---1-----1-----1--------
-0---0--3-0-0-3-0-0-3-0---0-0---0-0---0---0-0---0-0---0---0-0---0-0---0--3-0-
-----------------------------------------------------------------------------
-----------------------------------------------------------------------------

-----------------------------------------------------------------------------
-0--3-0-0--3-0-0--3-0--3-0--3-0----------------------------------------------
--------------------------------5-5-5--5-5-5--5-5-5-555--3-3-3--3-3-3--3-3-3-
-----------------------------------------------------------------------------
"Theres a time to live..."

-----------------------------------------------------------------------------
-----------------------.-.-.-.-----------------------------------------------
555--5-5-5--5-5-5--5-5-5-3-5-5--5-5-5--5-5-5--5-5-5-555--3-3-3--3-3-3--3-3-3-
-----------------------------------------------------------------------------

-----------------------------------------------------------------------------
-------------------------.-.--.-.--------------------------------------------
555--5-5-5--5-5-5--5-5-5-3-3--5-5--5-5-5--5-5-5--5-5-5-555--3-3-3--3-3-3--3-3
-----------------------------------------------------------------------------

-----------------------------------------------------------------------------
-----------------------------.-.--.-.----------------------------------------
-3-555--5-5-5--5-5-5--5-5-5--3-3--5-5--5-5-5--5-5-5--5-5-5-555--3-3-3--3-3-3-
-----------------------------------------------------------------------------

-----------------------------------------------|
-------------------------------------.-.-------|
-3-3-3-555--5-5-5--5-5-5--5-5-5-555--3-3-2-0-3-|
-----------------------------------------------|

-----5-----5-------3-----3-----2-----------------------------5-----5-------3-
-3-3---3-3---3-3-3---3-3---3-3---3-3-3-3-3-3-3-3-3-3-3-3-3-3---3-3---3-3-3---
-----------------------------------------------------------------------------
-----------------------------------------------------------------------------
Guitar Solo

-----3-----2-----------------------------5-----5-------3-----3----2----------
-3-3---3-3---3-3-3-3-3-3-3-3-3-3-3-3-3-3---3-3---3-3-3---3-3---3-3--3-3-3-3-3
-----------------------------------------------------------------------------
-----------------------------------------------------------------------------

-------------------5-----5--------3-----3-----2------------------3-3-3-3-2-0-
-3-3-3-3-3-3-3-3-3---3-3---3-3-3----3-3---3-3---3-3-3-3-3-3-3-3--------------
-----------------------------------------------------------------------------
-----------------------------------------------------------------------------

----------3-3-3-3-2-0------------3-3-3-3-2-0------------3-3-3-3-2-0----------
0-0-0-0-0-------------0-0-0-0-0--------------2-2-2-2-2--------------2-2-2-2-2
-----------------------------------------------------------------------------
-----------------------------------------------------------------------------
End solo

-----------------------------------------------------------------------------
-0-----0-----0---0-----0-----0---0-------------------------------------------
---5-5---5-5---5---5-5---5-5---5---3-3-3--3-3-3--3-3--3-3-3--3-3-3--3-3------
-------------------------------------------------------------------------3-3-

-----------------------------------------------------------------------------
---------------------------------------------------------------------0-----0-
-----------------------------------1-1-1-1-1-1-1-1--3-3-3-3-3-3-3-3----5-5---
-3--3-3-3--3-3--3-3-3--3-3-3--3-3--------------------------------------------

-----------------------------------------------------------------------------
------0---0-----0-----0---0--------------------------------------------------
--5-5---5---5-5---5-5---5----3-3-3--3-3-3--3-3--3-3-3--3-3-3--3-3------------
-------------------------------------------------------------------3-3-3--3-3

--------------------------------------------------------------2-----2-----2--
----------------------------------------------------------------0-0---0-0----
----------------------------1-1-1-1-1-1-1-1--3-3-3-3-3-3-3-3-----------------
-3--3-3--3-3-3--3-3-3--3-3---------------------------------------------------

---3-----3-----3---0-----0-----0---2-----2-----2---2-----2-----2---3-----3---
-0---0-0---0-0---0---0-0---0-0---0---0-0---0-0---0---0-0---0-0---0---0-0---0-
-----------------------------------------------------------------------------
-----------------------------------------------------------------------------

---3---0-----0-----0-----0---0---0----0-----0-----0---1-----1-----1----------
-0---0---0-0---0-0---0-0---0---0---0----0-0---0-0---0---0-0---0-0---0--3-0-0-
-----------------------------------------------------------------------------
-----------------------------------------------------------------------------

-------------0-----0-----0---1-----1-----1-----------------------------------
-3-0-0--3-0----0-0---0-0---0---0-0---0-0---0--3-0-0--3-0-0--3-0--3-0--3-0----
-----------------------------------------------------------------------------
-----------------------------------------------------------------------------

-----------------------------------------------------------------------------
--------------------------------------------------------------------.-.-.-.--
5-5-5--5-5-5--5-5-5-555--3-3-3--3-3-3--3-3-3-555--5-5-5--5-5-5--5-5-5-3-5-5--
-----------------------------------------------------------------------------

-----------------------------------------------------------------------------
----------------------------------------------------------------------.-.--.-
5-5-5--5-5-5--5-5-5-555--3-3-3--3-3-3--3-3-3-555--5-5-5--5-5-5--5-5-5-3-3--5-
-----------------------------------------------------------------------------

-----------------------------------------------------------------------------
.-------------------------------------------------------------------------.-.
5--3-3-3--3-3-3--3-3-3-333--1-1-1--1-1-1--1-1-1-333--3-3-3--3-3-3--3-3-3--1-1
-----------------------------------------------------------------------------

-----------------------------------------------------------------------------
.-.--------------------------------------------------------------------------
3-3---3-3-3--3-3-3--3-3-3-333--1-1-1--1-1-1--1-1-1-333--3-3-3--3-3-3--3-3-3--
-----------------------------------------------------------------------------

-----------------|
------.-.--------|
-333--1-1-0---1--|
------------1----|


-----2-----2-------0-----0--------------------------------------2-----2------
-0-0---0-0---0-0-0---0-0----0-0--4--0-0-0-0-0-0-0-0-0-0-0-0-0-0---0-0---0-0-0
-----------------------------------------------------------------------------
-----------------------------------------------------------------------------
Outro

-0-----0---------------------------------------------------------------------
---0-0---0-0-4--0-0-0-0-0-0-0-0-0-0-0-0-0-0--5-5-5-5-4-0------------5-5-5-5-4
---------------------------------------------------------3-3-3-3-3-----------
-----------------------------------------------------------------------------

-----------------------------------------------------------------------------
-0------------5-5-5-5-4-0------------5-5-5-5-4-0--5-4-0-5-4-0-5-4-0-5-4-0-5-4
---3-3-3-3-3--------------5-5-5-5-5------------------------------------------
-----------------------------------------------------------------------------

---.-.-.--|
0--0-0-0--|
----------|
----------|

Вверх

Como Estais Amigos

Intro:

Guitar 1: (clean)
E|---------1--0---------1--0---------1--0---------1--0-|
B|---------3------------3------------3------------3----|
G|------2------------2------------2------------2-------|
D|---0------------0------------0------------0----------|
A|-----------------------------------------------------|
E|-----------------------------------------------------|
Let ring

Verse:
(x4)
E|---------1--0---------1--0---------1--0---------1p0---------|
B|*--------3------------3------------3------------3----3-----*|
G|------2------------2------------0------------0----------0---|
D|---0------------3-------------------------------------------|
A|*----------------------------3------------2----------------*|
E|------------------------------------------------------------|
Let ring
>

Guitar 1&2:
E|---------------------------------------------------|
B|---------------3------------------------5----------|
G|---------0-----------0------------0-----------0----|
D|------3-----3-----3-----3------5-----5-----5-----5-|
A|---1------------------------3----------------------|
E|---------------------------------------------------|

E|------------------------------------------------|
B|---------------3------------------------5-------|
G|---------0-----------0------------0-----------0-|
D|------3-----3-----3-----3------5-----5-----5----|
A|---1------------------------3-------------------|
E|------------------------------------------------|


Chorus 1 (On 2nd time):

Guitar 1
E|-------------------------------------------------------------|
B|*----3-------3-------1---------------------------------------|
G|---2---2---3---3-----0----------2-----------3-----------0----|
D|-0-------3---------2---2-----2-----2-----3-----3-----2-----2-|
A|*----------------3--------0-----------1-----------3----------|
E|-------------------------------------------------------------|

Guitar 2

E|-----1-0-----1-0---------------------------------------------|
B|*--------------------5----------2-----------3-----------0----|
G|---2-------3-------5---5-----2-----2-----3-----3-----2-----2-|
D|-0-------3-------3--------0-----------1-----------3----------|
A|*------------------------------------------------------------|
E|-------------------------------------------------------------|

1.2.                         3.
Guitar 1               (x3)
E|-------1-0--------1--0--|------------------------------------|
B|-------3----------3----*|-------3-----------3-----------3----|
G|----2----------2--------|----2-----2-----0-----0-----0-----0-|
D|-0----------0-----------|-0----------------------------------|
A|-----------------------*|-------------3-----------1----------|
E|------------------------|------------------------------------|

Guitar 2

E|---------0-----------0--|------------------------------------|
B|------6-----------6----*|-------3-----------3----------------|
G|------------------------|----2-----2-----2-----2--------0----|
D|---7-----------7--------|-0--------------------------3-----0-|
A|-5----------5----------*|-------------3-----------1----------|
E|------------------------|------------------------------------|

Guitar 1
E|-0----------|-------------------------------------0----------|
B|----3-------|-------3-----------3-----------3--------3-------|
G|-------0----|----2-----2-----0-----0-----0-----0--------0----|
D|----------0-|-0--------------------------------------------0-|
A|------------|-------------3-----------1----------------------|
E|------------|------------------------------------------------|

Guitar 2
E|--0-----------|--------1--0--------1--0--------------0-------|
B|--------3-----|--------3-----------3-----------------------3-|
G|--------------|-----2--------------------------0-------------|
D|-----0--------|--0--------------2-----------3-----0-----0----|
A|--------------|--------------3-----------1-------------------|
E|--------------|----------------------------------------------|

Guitar 1
E|--------------------------------1--0--------1--0-|
B|-----------1-----------1--------3-----------3----|
G|--------0-----------0--------2-----------2-------|
D|-----2-----------2--------0-----------0----------|
A|--3-----------0----------------------------------|
E|-------------------------------------------------|

Guitar 2
E|-----------------------------------0-----------0-|
B|-----------1-----------1--------6-----------6----|
G|--------0-----------0----------------------------|
D|-----2-----------2-----------7-----------7-------|
A|--3-----------0-----------5-----------5----------|
E|-------------------------------------------------|

Guitar 1
(x4)
E|------------0-----------0-----------0--------1--0-------|
B|*--------3-----------3-----------3----------------3----*|
G|------2-----------2-----------0-----------0---------0---|
D|---0-----------3----------------------------------------|
A|*--------------------------3-----------2---------------*|
E|--------------------------------------------------------|

Guitar 2
E|---------1--0--------1--0--------1--0---------1-0-------|
B|*-------------------------------------------3-----3----*|
G|------2-----------2-----------2-----------0---------0---|
D|---0-----------3----------------------------------------|
A|*--------------------------3-----------2---------------*|
E|--------------------------------------------------------|

RIFF A: (Disto)

Guitar 1
E|-----------------------------------------------------|
B|*---------------------------------------------------*|
G|---------3--3--------3-----------5--5--------5-------|
D|---------3--3--------3-----------5--5--------5-------|
A|*--1--1--------1--1-----1--3--3--------3--3-----3---*|
E|-----------------------------------------------------|

Guitar 2
E|---------------------------------------------------|
B|*--------------------------------------------------|
G|---------3-----------3-----------5-----------5-----|
D|---------3-----------3-----------5-----------5-----|
A|*--1--1-----1--1--1-----1--3--3-----3--3--3-----3-*|
E|---------------------------------------------------|

Guitar 1
E|-------------------------------------------------------------|
B|*------------------------------------------------------------|
G|-----7-------3-------5----------2-----------3-----------5----|
D|---7---7---3---3---5---5-----2-----2-----3-----3-----5-----5-|
A|*5-------1-------3--------0-----------1-----------3----------|
E|-------------------------------------------------------------|

Guitar 2
E|-----------------------|
B|*----3-----------------|
G|-7---3---5---2---3---5-|
D|-7-------5---2---3---5-|
A|*5-------3---0---1---3-|
E|-----------------------|

1.
Guitar 1                Chorus 2:
E|------------------------|------------------------------------|
B|------------------------|------------------------------------|
G|-7--7--7--7--7--7--7--7-|-----7-------3-------5---------2----|
D|-7--7--7--7--7--7--7--7-|---7---7---3---3---5---5----2-----2-|
A|-5--5--5--5--5--5--5--5-|-5-------1-------3-------0----------|
E|------------------------|------------------------------------|

Guitar 2
E|------------------------|---------------|
B|------------------------|---------------|
G|-7--7--7--7--7--7--7--5-|-7---3---5---2-|
D|-7--7--7--7--7--7--7--5-|-7---3---5---2-|
A|-5--5--5--5--5--5--5----|-5---1---3---0-|
E|------------------------|---------------|

Guitar 1
E|----------------------------------------------------|
B|---------------------------------------------------*|
G|--------3------------------7--7--7--7--7--7--7--7---|
D|--------3------------------7--7--7--7--7--7--7--7---|
A|--1--1--1--1--3--3--3--3-/-5--5--5--5--5--5--5--5--*|
E|----------------------------------------------------|

Guitar 2
E|-----------------------------------|
B|----------------------------------*|
G|--3---5---7--7--7--7--7--7--7--7---|
D|--3---5---7--7--7--7--7--7--7--7---|
A|--1---3---5--5--5--5--5--5--5--5--*|
E|-----------------------------------|

2.
Guitar 1
(x3)
E|-------------------------------------0----------|
B|*------3-----------3-----------3--------3------*|
G|----2-----2-----2-----2-----2-----2--------2----|
D|-0--------------------------------------------0-|
A|*------------3-----------1---------------------*|
E|------------------------------------------------|

Guitar 2
E|-------------------------------------------------------------|
B|*-----------------------------------------------------------*|
G|---------7--7--7--------5--5---3--------3-----3-----3--------|
D|---------7--7--7--------5--5---3--------3-----3-----3--------|
A|*--5--5--5--5--5--3--3--3--3---1--1--1--1--1--1--1--1--1--1-*|
E|-------------------------------------------------------------|

Fill 1:

Guitar 1
E|-------------------------------------------|
B|----------1--------------------------------|
G|-------0-----------2---7--7--7--7--7--7--7-|
D|----2-----------2------7--7--7--7--7--7--7-|
A|-3-----------0---------5--5--5--5--5--5--5-|
E|-------------------------------------------|

Guitar 2
E|-------------------------------------------|
B|-------------------------------------------|
G|--5------5---2--2--2---7--7--7--7--7--7--7-|
D|--5------5---2--2--2---7--7--7--7--7--7--7-|
A|--3--3---3---0--0--0---5--5--5--5--5--5--5-|
E|-------------------------------------------|

RIFF B:

Guitar 1
E|---------------------------------------------------------|
B|*--------------------------------------------------------|
G|--------------------------------10--9-----10--9--7-------|
D|-----------------------7--8---------------------------10-|
A|*------------7--8--10------------------------------------|
E|---10----10----------------------------------------------|

E|------------------------------------------------------------|
B|-----------------------------------------------------------*|
G|----9--7-----9--7------------10--9-----10--9--7------/12----|
D|--x----------------10--8-------------------------10---------|
A|-----------------------------------------------------------*|
E|------------------------------------------------------------|

Guitar 2
E|--------------------------------13--12--13--12--10-------|
B|*-----------------------10--11------------------------13-|
G|-------------9--10--12-----------------------------------|
D|---12----12----------------------------------------------|
A|*--------------------------------------------------------|
E|---------------------------------------------------------|

E|---12--10-----12--10----------13--12-----13--12--10------15~-|
B|-x--------------------13--11------------------------13------*|
G|-------------------------------------------------------------|
D|-------------------------------------------------------------|
A|------------------------------------------------------------*|
E|-------------------------------------------------------------|

Chords under Riff B: { D | Bb | C | A | Bb | C } (x2)

Solo:

Guitar 1
E|----12----13----12-----10---12---10-----8---10---8-----------|
B|-10----10----10------8----8----8------6---6----6-------------|
G|-------------------------------------------------------------|
D|-------------------------------------------------------------|
A|---------------------------------------------------5-5-5-5-3-|
E|---------------------------------------------------3-3-3-3-1-|

Guitar 2
E|--------------------------------------------|
B|--------------------------------------------|
G|--------10-----9-----10-----12------12b&r12;~|
D|--12~---------------------------------------|
A|--------------------------------------------|
E|--------------------------------------------|

Guitar 1
E|10----12----13----12-8--10---12---10-6---8---10---8----------|
B|---10----10----10-----8----8----8------6---6----6------------|
G|-------------------------------------------------------------|
D|-------------------------------------------------------------|
A|----------------------------------------------------5-5-5-5-7|
E|----------------------------------------------------3-3-3-3-5|

Guitar 2
E|------13----12------------------------------------|
B|---x--------------15----13----15p13p10------------|
G|-----------------------------------------12---10~-|
D|--------------------------------------------------|
A|--------------------------------------------------|
E|--------------------------------------------------|

Guitar 1
E|-------------------------------------------------------------|
B|-------------------------------------------------------------|
G|-----9---10---9---9----7---9---7--------5---7---5------------|
D|---7---7----7---7----5---5---5---5----3---3---3--------------|
A|-5----------------------------------1-------------5-5-5-5--3-|
E|--------------------------------------------------3-3-3-3--1-|

Guitar 2
E|--12b----12----13---12----10-----12---13-----13b-|
B|-(1/2)-------------------------------------------|
G|-------------------------------------------------|
D|-------------------------------------------------|
A|-------------------------------------------------|
E|-------------------------------------------------|

Guitar 1
E|------------------------------------------------------------|
B|------------------------------------------------------------|
G|-----9---10---9---9----7---9---7--------5---7---5-----------|
D|---7---7----7---7----5---5---5---5----3---3---3-----------5-|
A|-5----------------------------------1-------------5-5-5-5-3-|
E|--------------------------------------------------3-3-3-3---|

Guitar 2
E|--full-------------------------------------|
B|--20b----20---18--17--18--17---------------|
G|------------------------------17-----17b-~-|
D|-------------------------------------------|
A|-------------------------------------------|
E|-------------------------------------------|

Guitar 1
E|----------------------------------|
B|----------------------------------|
G|--5----5---5---5----2---2---2---2-|
D|--5----5---5---5----2---2---2---2-|
A|--3----3---3---3----0---0---0---0-|
E|----------------------------------|

Guitar 2
E|--15b--15--13--12--13--12----------|-----|
B|--full---------------------13------|-15~-|
G|-------------------------------12--|-----|
D|-----------------------------------|-----|
A|-----------------------------------|-----|
E|-----------------------------------|-----|

Chords under Solo: { D | C | Bb | G | F | D | C | Bb | G
| A } (x2)  C | A

*Repeat Riff B*
*Repeat Riff A*

Guitar 1
E|-------------------------------------------------------------|
B|---3-------3-------------------------------------------------|
G|--2--2---3---3-5-5-5-5-5-5-5-5-3-3-3-3-3-3-3-3-5-5-5-5-5-5-5-|
D|-0-----3-------5-5-5-5-5-5-5-5-3-3-3-3-3-3-3-3-5-5-5-5-5-5-5-|
A|---------------3-3-3-3-3-3-3-3-1-1-1-1-1-1-1-1-3-3-3-3-3-3-3-|
E|-------------------------------------------------------------|

Guitar 2
E|-------------------------------------------------------------|
B|-------------------------------------------------------------|
G|-----3-3-----3-3-----5-5-----5-5-----3-3-----3-3-----5-5-5-5-|
D|-----3-3-----3-3-----5-5-----5-5-----3-3-----3-3-----5-5-5-5-|
A|-1-1-1-1-1-1-1-1-3-3-3-3-3-3-3-3-1-1-1-1-1-1-1-1-3-3-3-3-3-3-|
E|-------------------------------------------------------------|

*Repeat Chorus 2 (2 times) with slight variations*
(Chorus goes to Ending without playing Fill 1 )

Ending:

Guitar 1 (clean)
E|-------------------0------|----------------------------0-----|
B|---------------3-----3----|------2--------3--------3-----3---|
G|--7---5------0---0-----0--|----3---3----0---0----0---0-----0-|
D|--7---5----3--------------|--0-------------------------------|
A|--5---3----1--------------|-----------3--------1-------------|
E|--------------------------|----------------------------------|

Guitar 2 (disto)
E|-----------|-----------|
B|-----------|-----------|
G|-7---5---3-|-7---5---3-|
D|-7---5---3-|-7---5---3-|
A|-5---3---1-|-5---3---1-|
E|-----------|-----------|

Guitar 1
E|-------------------------0-----|-----------------------1-----|
B|-----2-------3-------3-----3---|-------1-------1-----3---n.h-|
G|---3---3---0---0---0---0-----0-|-----0-------0-----2------7--|
D|-0-----------------------------|---2-------2-----0-----------|
A|---------3-------1-------------|-3-------0-------------------|
E|-------------------------------|-----------------------------|

Guitar 2
E|---------------------|---------------------|
B|---------------------|---------------------|
G|-7--------5--------3-|-5--------2--------7-|
D|-7--------5--------3-|-5--------2--------7-|
A|-5--------3--------1-|-3--------0--------5-|
E|---------------------|---------------------|

Вверх

Deja Vu

Вступление: медленно играть.

E|------------------------|------------------------|
B|-----------0-1-3--1-----|---------0-1-3-3--1-----|
G|---------2-2-2-2--2-----|-------2-2-2-2-2--2-----|
D|-------2-2-2-2-2--2-----|----2--2-2-2-2-2--2-----|
A|----0-------------------|------------------------|
E|-0-------------------0~-|-1-------------------1~-|

E|-----------------------|-------------------------|
B|-------------3---------|-----------0-1-3-1----0~-|
G|----------0--2----0--0-|-------2---2-2-2-2----2~-|
D|-------2-----0----2--0-|----2------2-2-2-2----2~-|
A|----2-------------3--2-|-0-----------------------|
E|-0---------------------|-------------------------|

E|------------------------|------------------------|
B|-----------0-1-3--1-----|---------0-1-3-3--1-----|
G|---------2-2-2-2--2-----|-------2-2-2-2-2--2-----|
D|-------2-2-2-2-2--2-----|----2--2-2-2-2-2--2-----|
A|----0-------------------|------------------------|
E|-0-------------------0~-|-1-------------------1~-|

E|-----------------------|--------------------------|
B|-------------3---------|-------0-1-3-3-3-1-1-1-0~-|
G|----------0--2----0--0-|-----2-2-2-2-2-2-2-2-2-2~-|
D|-------2-----0----2--0-|---2---2-2-2-2-2-2-2-2-2~-|
A|----2-------------3--2-|-0---------------------0~-|
E|-0---------------------|--------------------------|

Проигрыш-1:

E|----------8-9-11-9-8---------|-----------8-----------|
B|-9--9--11------------9--8--9-|-8--9--11-----11--9--8-|
G|-----------------------------|-----------------------|
D|-----------------------------|-----------------------|
A|-----------------------------|-----------------------|
E|-----------------------------|-----------------------|

E|----------8-9-11-9-8---------|-----------8-------------|
B|-9--9--11------------9--8--9-|-8--9--11-------11--9--8-|
G|-----------------------------|-------------------------|
D|-----------------------------|-------------------------|
A|-----------------------------|-------------------------|
E|-----------------------------|-------------------------|

E|----------8-9-11-9-8---------|-----------8-------------|
B|-9--9--11------------9--8--9-|-8--9--11-------11--9--8-|
G|-----------------------------|-------------------------|
D|-----------------------------|-------------------------|
A|-----------------------------|-------------------------|
E|-----------------------------|-------------------------|

E|----------8-9-11-9-8----------|
B|-9--9--11------------9--8--9~-|
G|------------------------------|
D|------------------------------|
A|------------------------------|
E|------------------------------|

Проигрыш-3
E|-----------------------------------------|
B|----13-9----11-9-------13-9----11-9------|
G|-10------10------10-10------10-------10~-|
D|-----------------------------------------|
A|-----------------------------------------|
E|-----------------------------------------|

E|-----------------------------------|
B|----13-9----11-9-9-8----11-9-8-----|
G|-10------10----------10--------10~-|
D|-----------------------------------|
A|-----------------------------------|
E|-----------------------------------|

E|-----------------------------------------|
B|----13-9----11-9-------13-9----11-9------|
G|-10------10------10-10------10-------10~-|
D|-----------------------------------------|
A|-----------------------------------------|
E|-----------------------------------------|

E|-----------------------------------|
B|----13-9----11-9-9-8----11-9-8-----|
G|-10------10----------10--------10~-|
D|-----------------------------------|
A|-----------------------------------|
E|-----------------------------------|

Куплет:

F5
E|----------------------------------------|
B|----------------------------------------|
G|-10--10-----10---10--10--10-----10---10-|
D|-10--10-----10---10--10--10-----10---10-|
A|-8---8--8-8-8--8-8---8---8--8-8-8--8-8--|
E|----------------------------------------|
When    you  see   familiar    faces

E|----------------------------------------|
B|----------------------------------------|
G|-10--10-----10---10--10--10-----10---10-|
D|-10--10-----10---10--10--10-----10---10-|
A|-8---8--8-8-8--8-8---8---8--8-8-8--8-8--|
E|----------------------------------------|
But You don?t know where they?re from

D#5
E|---------------------------------------|
B|---------------------------------------|
G|-8---8------8----8---8---8------8----8-|
D|-8---8------8----8---8---8------8----8-|
A|-6---6--6-6-6--6-6---6---6--6-6-6--6-6-|
E|---------------------------------------|
Could    you  be     wrong

E|---------------------------------------|
B|---------------------------------------|
G|-8---8------8----8---8---8------8----8-|
D|-8---8------8----8---8---8------8----8-|
A|-6---6--6-6-6--6-6---6---6--6-6-6--6-6-|
E|---------------------------------------|

F5
E|----------------------------------------|
B|----------------------------------------|
G|-10--10-----10---10--10--10-----10---10-|
D|-10--10-----10---10--10--10-----10---10-|
A|-8---8--8-8-8--8-8---8---8--8-8-8--8-8--|
E|----------------------------------------|
When you?ve been particular places

E|----------------------------------------|
B|----------------------------------------|
G|-10--10-----10---10--10--10-----10---10-|
D|-10--10-----10---10--10--10-----10---10-|
A|-8---8--8-8-8--8-8---8---8--8-8-8--8-8--|
E|----------------------------------------|
that you know you never been before

D#5
E|---------------------------------------|
B|---------------------------------------|
G|-8---8------8----8---8---8------8----8-|
D|-8---8------8----8---8---8------8----8-|
A|-6---6--6-6-6--6-6---6---6--6-6-6--6-6-|
E|---------------------------------------|
Can     you    be      sure

E|---------------------------------------|
B|---------------------------------------|
G|-8---8------8----8---8---8------8----8-|
D|-8---8------8----8---8---8------8----8-|
A|-6---6--6-6-6--6-6---6---6--6-6-6--6-6-|
E|---------------------------------------|

D#7
E|---------------------------------------|
B|---------------------------------------|
G|-8---8------8----8---8---8------8----8-|
D|-8---8------8----8---8---8------8----8-|
A|-4---4--4-4-4--4-4---6---6--6-6-6--6-6-|
E|---------------------------------------|
Cause       you     know       this

E|----------------------------------------|
B|----------------------------------------|
G|-10--10-----10---10--10--10-----10---10-|
D|-10--10-----10---10--10--10-----10---10-|
A|-8---8--8-8-8--8-8---8---8--8-8-8--8-8--|
E|----------------------------------------|
has        happened     before

E|---------------------------------------|
B|---------------------------------------|
G|-8---8------8----8---8---8------8----8-|
D|-8---8------8----8---8---8------8----8-|
A|-4---4--4-4-4--4-4---6---6--6-6-6--6-6-|
E|---------------------------------------|
And  you    know    that   this

E|---------------------------------------|
B|---------------------------------------|
G|-10--10-----10---10--8---8------8----8-|
D|-10--10-----10---10--8---8------8----8-|
A|-8---8--8-8-8--8-8---6---6--6-6-6--6-6-|
E|---------------------------------------|
moment   in   time   is    for real

E|---------------------------------------|
B|---------------------------------------|
G|-8---8------8----8---8---8------8----8-|
D|-8---8------8----8---8---8------8----8-|
A|-4---4--4-4-4--4-4---6---6--6-6-6--6-6-|
E|---------------------------------------|
And you  know  when you feel  deja vu

Проигрыш-2: - повторить два раза.

E|----------------------------|----------------------------|
B|-------13--9------11--9-----|-------13--9------11--9-----|
G|-10-----------10---------10-|-10-----------10---------10-|
D|----------------------------|----------------------------|
A|----------------------------|----------------------------|
E|----------------------------|----------------------------|

E|----------------------------|----------------------------|
B|-------13--9------11--9-----|------13--9------11--9------|
G|-10-----------10---------10-|-10----------10---------10~-|
D|----------------------------|----------------------------|
A|----------------------------|----------------------------|
E|----------------------------|----------------------------|

Припев:

F5              D#5
E|--------------------|----------------------------|
B|--------------------|----------------------------|
G|-10---------------8-|-10----------8-----8-8-8-10-|
D|-10---------------8-|-10----------8-----8-8-8-10-|
A|-8----------------6-|-8-----8-8-8-6-----6-6-6-8--|
E|--------------------|----------------------------|
Feel like I?ve been here before  Feel like I?ve been here before

C#5
E|--------------------|---------------------|
B|--------------------|---------------------|
G|-10---------------8-|-10--------6-------8-|
D|-10---------------8-|-10--------6-------8-|
A|-8----------------6-|-8---------4-------6-|
E|--------------------|---------------------|
Feel like I've been here before  Feel like I've been here before

Проигрыш-1.

Проигрыш-4:

E|-------------------------------8----8-9|8--------------------|
B|--------------------8-9-8-9-11---11----|--11-9-8-9-8---------|
G|----------8-10-8-10--------------------|-------------10-8----|
D|-11-10-11------------------------------|------------------10-|
A|---------------------------------------|---------------------|
E|---------------------------------------|---------------------|

E|-------------------------------8----8-9|8--------------------|
B|--------------------8-9-8-9-11---11----|--11-9-8-9-8---------|
G|----------8-10-8-10--------------------|-------------10-8----|
D|-11-10-11------------------------------|------------------10-|
A|---------------------------------------|---------------------|
E|---------------------------------------|---------------------|

Проигрыш-5:

E|--------------------------|---------------------------------|
B|--------------------------|---------------------------------|
G|-6-6-6-6-6-6-6-6---6-6-8--|--6-6-6-6---6---6-6---6---6-6-8--|
D|-6-6-6-6-6-6-6-6---6-6-8--|--6-6-6-6---6---6-6---6---6-6-8--|
A|--------------------------|---------------------------------|
E|--------------------------|---------------------------------|

E|----------------------------------|
B|----------------------------------|
G|-10-10-10-10-10-10-10-10-10-10-13-| 2X
D|-10-10-10-10-10-10-10-10-10-10-13-|
A|----------------------------------|
E|----------------------------------|

E|-----------------------------------|
B|-----------------------------------|
G|--6-6-6-6----6---6-6---6----6-6-8--| 2X
D|--6-6-6-6----6---6-6---6----6-6-8--|
A|-----------------------------------|
E|-----------------------------------|

E|----------------------------|-----------------------------|
B|-9--9--9--9--8-8-8-8-8-9--8-|-9--9--9--9--8-9--8-8-8----8-|
G|-8--8--8--8--8-8-8-8-8-8--8-|-8--8--8--8--8-8--8-8-8-10-8-|
D|-10-10-10-10-8-8-8-8-8-10-8-|-10-10-10-10-8-10-8-8-8-8--8-|
A|----------------------------|-----------------------------|
E|----------------------------|-----------------------------|

Проигрыш-3. Повторить два раза.

Куплет 2: (под те же аккорды)

Ever had a conversation
That you realise you?ve had before
Isn?t it strange

Have you ever talked to someone
And you feel you know what?s coming next
It feels pre-arranged

?Cause you know that you?ve heard it before
And you feel that this moment in time is for surreal
?Cause you know when you feel deja vu

Проигрыш-2.

Припев.

Проигрыш-1.
Проигрыш-3. (Два раза).

Да, еще есть соло перед вторым куплетом,

На мой взгляд, там три чередующихся такта:

E|-5-4---2-5-4-5-4-2-|-5-4-0-2-5-4-5-4-2-|-5-4---2-5-4-5--4----|
B|-----5-------------|-------------------|-----5-------------5-|
G|-------------------|-------------------|---------------------|

Вверх

Fear Of The Dark

 Intro
x4
e|---------------------------------|---------------------------|
B|---------------------------------|---------------------------|
G|---------------------------------|---------------------------|
D|15-0-0-0-1-0-0-0-15-1-3-1-0-0-0-0|15-0-0-0-1-0-0-0-15-3-1-0--|
A|---------------------------------|--------------------------3|
E|---------------------------------|---------------------------|

1.
x2
e|--------------------------|--------------------------|
B|--------------------------|--------------------------|
G|--------------------------|--------------------------|
D|--------------------7--8--|--------------3--5--8--7--|
A|-5X5X5-5X5X5-5X5X5--5--6--|-5X5X5-5X5X5--1--3--6--5--|
E|-3X3X3-3X3X3-3X3X3--------|-3X3X3-3X3X3--------------|

x2
e|------------------------------|------------------------------|
B|------------------------------|------------------------------|
G|------------------------------|------------------------------|
D|-5-5-5-5--5-5--3--3-3---------|-5-5-5-5--5-5--3--3-3--8--7-8-|
A|-3-3-3-3--3-3--1--1-1--3--3-3-|-3-3-3-3--3-3--1--1-1--6--5-6-|
E|-----------------------1--1-1-|------------------------------|

x3
e|-----------------------------------------|
B|-----------------------------------------|
G|-----------------------------------------|
D|-57-5-0--35-3----13-1----01-1-0----------|
A|----------------5--------3----------1----|
E|--------------------------------------3--|

e|---------------------------------------|---------------------|
B|---------------------------------------|---------------------|
G|---------------------------------------|---------------------|
D|-57-5-0--35-3----13-1----01-1-0--------|---------------------|
A|----------------5--------3----------1--|-3----------------5--|
E|---------------------------------------|-1----------------3--|

e|-------------------------------------|---------|
B|-------------------------------------|---------|
G|-------------------------------------|---------|
D|--3----5----3--------3----5----3---7-|--8--10--|
A|--1-3--3-5--1-3-5----1-3--3-5--1-3-5-|--6---8--|
E|----1----3----1-3------1----3----1---|---------|

x4
e|---------------------------------|---------------------------|
B|---------------------------------|---------------------------|
G|---------------------------------|---------------------------|
D|15-0-0-0-1-0-0-0-15-1-3-1-0-0-0-0|15-0-0-0-1-0-0-0-15-3-1-0--|
A|---------------------------------|--------------------------3|
E|---------------------------------|---------------------------|

2.
x2
e|--------------------------|--------------------------|
B|--------------------------|--------------------------|
G|--------------------------|--------------------------|
D|--------------------7--8--|--------------3--5--8--7--|
A|-5X5X5-5X5X5-5X5X5--5--6--|-5X5X5-5X5X5--1--3--6--5--|
E|-3X3X3-3X3X3-3X3X3--------|-3X3X3-3X3X3--------------|

x2
e|------------------------------|------------------------------|
B|------------------------------|------------------------------|
G|------------------------------|------------------------------|
D|-5-5-5-5--5-5--3--3-3---------|-5-5-5-5--5-5--3--3-3--8--7-8-|
A|-3-3-3-3--3-3--1--1-1--3--3-3-|-3-3-3-3--3-3--1--1-1--6--5-6-|
E|-----------------------1--1-1-|------------------------------|

x3
e|-----------------------------------------|
B|-----------------------------------------|
G|-----------------------------------------|
D|-57-5-0--35-3----13-1----01-1-0----------|
A|----------------5--------3----------1----|
E|--------------------------------------3--|

e|---------------------------------------|--------------------|
B|---------------------------------------|--------------------|
G|---------------------------------------|--------------------|
D|-57-5-0--35-3----13-1----01-1-0--------|--------------------|
A|----------------5--------3----------1--|-3----------------5-|
E|---------------------------------------|-1----------------3-|

e|-------------------------------------|-----------|
B|-------------------------------------|-----------|
G|-------------------------------------|-----------|
D|--3----5----3--------3----5----3---7-|---8--10---|
A|--1-3--3-5--1-3-5----1-3--3-5--1-3-5-|---6---8---|
E|----1----3----1-3------1----3----1---|-----------|

Rhytm Guitar (Lead Guitar - Solo)
x2
e|----------------------------------------------------------|
B|----------------------------------------------------------|
G|----------------------------------------------------------|
D|--5--3-5--3-5-3--5--3-5--8-8--5--3-5--3-5-3--5--3-5--3----|
A|--3--1-3--1-3-1--3--1-3--6-6--3--1-3--1-3-1--3--1-3--1-6--|
E|-------------------------------------------------------4--|

x2
e|----------------------------------------------------------|
B|----------------------------------------------------------|
G|----------------------------------------------------------|
D|--7--5-7--5-7-5--7--5-7-1010--7--5-7--5-7-5--7--5-7--5-3--|
A|--5--3-5--3-5-3--5--3-5--8-8--5--3-5--3-5-3--5--3-5--3-1--|
E|----------------------------------------------------------|

x2
e|------------------------------|------------------------------|
B|------------------------------|------------------------------|
G|------------------------------|------------------------------|
D|-5-5-5-5--5-5--3--3-3---------|-5-5-5-5--5-5--3--3-3--8--7-8-|
A|-3-3-3-3--3-3--1--1-1--3--3-3-|-3-3-3-3--3-3--1--1-1--6--5-6-|
E|-----------------------1--1-1-|------------------------------|

Outro

e|-----------------------------------------||
B|-----------------------------------------||
G|-----------------------------------------||
D|-57-5-0--35-3----13-1----01-1-0----------||
A|----------------5--------3----------1----||
E|--------------------------------------3--||

Вверх

Fear Of The Dark (2 вариант)

Intro (w/distortion)

E|-------------------------------|-----------------------------|
B|-------------------------------|--------------5-5---------5--|
G|7-----7-7-9-9-10-10-9-9-7-7-9-9|5-----5-5-7-7-----7-7-5-5---5|
D|--7-7--------------------------|--5-5------------------------|
A|-------------------------------|-----------------------------|
E|-------------------------------|-----------------------------|
(twice)

E|-----------------------------|-------------------------------|
B|-----------------------------|-------------------------------|
G|-----------------------------|----------------4-4---------4--|
D|77----77-99-10-10-9-9-7-7-9-9|5-5-----5-5-7-7-----7-7-5-5---5|
A|---77------------------------|----5-5------------------------|
E|-----------------------------|-------------------------------|

E|-----------------------------|-------------------------------|
B|-----------------------------|-------------------------------|
G|-----------------------------|----------------2-2---------2--|
D|77----77-99-10-10-9-9-7-7-9-9|3-3-----3-3-5-5-----5-5-3-3---3|
A|---77------------------------|----3-3------------------------|
E|-----------------------------|-------------------------------|

The chord in the Verse are: D Bb C

The chords are played in the following form:

(for example C:)

E|-------------------|
B|----5---5---5---5--|
G|------5---5---5----|
D|--3----------------|
A|-------------------|
E|-------------------|

Lead guitar (accoustic)

D      Bb       C      Bb    C     D          Bb     C
E|---------------------------------------------------------|
B|--------8--------------------------------------8---------|
G|--7-9-10-10-9--------------------10-7---7-9-10---10-9----|
D|-7------------10---10----8-10-10------7---------------10-|
A|----------------10----10---------------------------------|
E|---------------------------------------------------------|
(twice)

D        Bb             C                  Bb      C      D
__I am a man who walks alone, and when Im walking a dark road
Bb                 C       Bb C  D
at night or strolling through the park
Bb              C
When the lights begin to change,
F      G      D
I sometimes feel a little strange
Bb                C
a little anxious when its dark

C               Bb     C               D     C
___ Fear of the dark ,____ Fear of the dark,____
Bb                 F           G      D
I have a constant fear that somethings always near
Bb     C               D      C
Fear of the dark, ____ Fear of the dark, ____
Bb          F         G      D
I have a phobia that someones always there

Chorus: (w/distortion)

E|---------------------------------|---------------------------|
B|---------------------------------|---------------------------|
G|---------------------------------|---------------------------|
D|-----7-7-5-5-7-7-----7-7-5-5-7-7-|-----------------5-5-------|
A|-5-5-------------5-5-------------|-----5-5-7-7-8-8-----8-8-7-|
E|---------------------------------|-5-5-----------------------|

<--- Repeat 3 times!!! --------->

Verse

The verse has the same chords that the part above, but theyre
played with distortion. Hear very carefully the song so you can
catch the rhythm.

Here are the lyrics:

Have you run your fingers down the wall
And have you felt your neck skin crawl
When youre searching for the light
Sometimes when youre scared to take a look
At the corner of the room
Youve sensed that somethings watching you

Solo:

(The easy part)

E|---------------------------------------------|
B|---------------------------------------------|
G|-7--7-7-9-10-9~-10-9-7--7--------------------|
D|--------------------------10-8--8-7-5-7^-7~--|
A|---------------------------------------------|
E|---------------------------------------------|

E|---------------------------------------------|
B|---------------------------------------------|
G|-7--7-7-9-10-9~-10-9-7--7----------5-7~------|
D|--------------------------10-8-7-5-----------|
A|---------------------------------------------|
E|---------------------------------------------|

E|------------------------------------------------------|
B|---------------8---------------8----------------------|
G|---7~---7-9-10---10-9---7-9-10---10-9--7--------------|
D|-7----7---------------7------------------10-7-7^-7~---|
A|------------------------------------------------------|
E|------------------------------------------------------|

E|------------------------------------------------------|
B|---------------8---------------8--------------10^-10~-|
G|---7~---7-9-10---10-9---7-9-10---10-9--7--------------|
D|-7----7---------------7------------------10-7---------|
A|------------------------------------------------------|
E|------------------------------------------------------|

{Solo-Really-Fast-Difficult-To-Catch}

Solo:

(Again, an easy part)

E|-------------------------------------------------------------|
B|-----10-6-8~-----10-6-8-6------------------------------------|
G|7-7-7-------7-7-7-------------10-7-9~-----10-7-9-5-----7-3-5-|
D|-------------------------8-8-8-------8-8-8--------5-5-5------|
A|-------------------------------------------------------------|
E|-------------------------------------------------------------|

E|---------------------------------------------|
B|---------------------------------------------|
G|-------10-7-9-------7----7-5---5-7---7-5---5-|
D|-7-7-7--------10-7--7--7-----7-----7-----7---|
A|---------------------------------------------|
E|---------------------------------------------|

Then, comes the Chorus again, the last verse, and the outro,
that is similar to the Intro, so you can get it easy.

Вверх

Flash Of The Blade

E|----------------|---------------|
B|+---------------|---------------|
G|--^-^-^-^-^-^-^-|-^-^-^-^-^-^-^-|
D|+7-0-7-0-7-0-7-0|7-0-7-0-7-0-7-0|
A|----------------|---------------|
E|----------------|---------------|

E|---------------|--------------------|
B|---------------|-------------------+|
G|-^-^-^-^-^-^-^-|--^-^--^-^--^-^--^--|
D|8-0-8-0-8-0-8-0|10-0-10-0-10-0-10-0+|
A|---------------|--------------------|
E|---------------|--------------------|

Riff A
E|----------------|---------------|
B|+---------------|---------------|
G|--^-^-^-^-^-^-^-|-^-^-^-^-^-^-^-|
D|+7-0-7-0-7-0-7-0|7-0-7-0-7-0-7-0|
A|----------------|---------------|
E|----------------|---------------|

E|---------------|--------------------|
B|---------------|--------------------|
G|-^-^-^-^-^-^-^-|--^-^--^-^--^-^--^--|
D|8-0-8-0-8-0-8-0|10-0-10-0-10-0-10-0-|
A|---------------|--------------------|
E|---------------|--------------------|

E|----------------|---------------|
B|----------------|---------------|
G|--^-^-^-^-^-^-^-|-^-^-^-^-^-^-^-|
D|-7-0-7-0-7-0-7-0|7-0-7-0-7-0-7-0|
A|----------------|---------------|
E|----------------|---------------|
2x
E|---------------|--------------------|
B|---------------|-------------------+|
G|-^-^-^-^-^-^-^-|--^-^--^-^--^-^--^--|
D|8-0-8-0-8-0-8-0|-5-0--5-0--5-0--5-0+|
A|---------------|--------------------|
E|---------------|--------------------|

E|----------------|---------------|---------------|
B|+---------------|---------------|---------------|
G|----------------|---------------|---------------|
D|+2-2-2-2-2-2-2-2|2-2-2-2-2-2-2-2|5-5-5-5-5-5-5-5|
A|-0-0-0-0-0-0-0-0|0-0-0-0-0-0-0-0|3-3-3-3-3-3-3-3|
E|----------------|---------------|---------------|

E|-----------------|----------------|----------------|
B|+----------------|----------------|----------------|
G|-----------------|----------------|----------------|
D|+4-4-4-4-4-4-4-4-|3-3-3-3-3-3-3-3-|3-3-3-3-3-3-3-3-|
A|-2-2-2-2-2-2-2-2-|1-1-1-1-1-1-1-1-|1-1-1-1-1-1-1-1-|
E|-----------------|----------------|----------------|

E|-----------------|----------------|----------------|
B|-----------------|----------------|----------------|
G|---------------2-|(2)-------------|----------------|
D|----------^----2-|(2)2-2-2-2-2-2-2|2-2-2-2-2-2-2-2-|
A|--^------3-2---0-|(0)0-0-0-0-0-0-0|0-0-0-0-0-0-0-0-|
E|-1-0-3-0-----3---|----------------|----------------|

E|-----------------|----------------|----------------|
B|-----------------|----------------|----------------|
G|-----------------|----------------|----------------|
D|-2-2-2-2-2-2-2-2-|5-5-5-5-5-5-5-5-|4-4-4-4-4-4-4-4-|
A|-0-0-0-0-0-0-0-0-|3-3-3-3-3-3-3-3-|2-2-2-2-2-2-2-2-|
E|-----------------|----------------|----------------|

E|-----------------|----------------|----------------|
B|-----------------|----------------|----------------|
G|-----------------|----------------|--------------2-|
D|-3-3-3-3-3-3-3-3-|3-3-3-3-3-3-3-3-|---------^----2-|
A|-1-1-1-1-1-1-1-1-|1-1-1-1-1-1-1-1-|-----^--3-0---0-|
E|-----------------|----------------|1-0-3-0-----3---|

E|-----------------||---------------|----------------|
B|-----------------||---------------|----------------|
G|-(2)-------------||--7------------|--7---6-----7---|
D|-(2)-------------||--7------------|--7---6-----7---|
A|-(0)-------------||--5------------|--5---4-----5---|
E|-----------------||---------------|----------------|

E|---|------------|---|--------------|
B|---|------------|---|--------------|
G|-9-|-9---8----9-|-5-|-5----4-----5-|
D|-9-|-9---8----9-|-5-|-5----4-----5-|
A|-7-|-7---6----7-|-3-|-3----2-----3-|
E|---|------------|---|--------------|

E|---------|------0-|--------|--------------|
B|---------|------0-|--------|--------------|
G|---------|--------|-7----7-|-7----6-----7-|
D|-5-------|-2------|-7----7-|-7----6-----7-|
A|-5-----5-|-2------|-5----5-|-5----4-----5-|
E|-3-----2-|-0------|--------|--------------|

E|---|-------------|---|--------------|
B|---|-------------|---|--------------|
G|-9-|--9---8----9-|-5-|-5----4-----5-|
D|-9-|--9---8----9-|-5-|-5----4-----5-|
A|-7-|--7---6----7-|-3-|-3----2-----3-|
E|---|-------------|---|--------------|

E|----------|------0-|
B|----------|------0-|
G|----------|--------|
D|-5--------|-2------|
A|-5------5-|-2------|
E|-3------2-|-0------|

E|----------------|---------------|
B|+---------------|---------------|
G|--^-^-^-^-^-^-^-|-^-^-^-^-^-^-^-|
D|+7-0-7-0-7-0-7-0|7-0-7-0-7-0-7-0|
A|----------------|---------------|
E|----------------|---------------|

E|---------------|--------------------|
B|---------------|--------------------|
G|-^-^-^-^-^-^-^-|--^-^--^-^--^-^--^--|
D|8-0-8-0-8-0-8-0|10-0-10-0-10-0-10-0-|
A|---------------|--------------------|
E|---------------|--------------------|

E|----------------|---------------|
B|----------------|---------------|
G|--^-^-^-^-^-^-^-|-^-^-^-^-^-^-^-|
D|-7-0-7-0-7-0-7-0|7-0-7-0-7-0-7-0|
A|----------------|---------------|
E|----------------|---------------|

E|---------------|--------------------|
B|---------------|-------------------+|
G|-^-^-^-^-^-^-^-|--^-^--^-^--^-^--^--|
D|8-0-8-0-8-0-8-0|-5-0--5-0--5-0--5-0+|
A|---------------|--------------------|
E|---------------|--------------------|

interlude a:
*3 guitars
E|---|---|------------------|
B|---|---|-5--5--5--5-------|
G|---|---|-------------7--5-|
D|-7-|-5-|------------------|
A|---|---|------------------|
E|---|---|------------------|

E|--5-0-5-7--8--7--5-0-|--5-0-5-7--8--7--5-0-|
B|---------------------|---------------------|
G|---------------------|---------------------|
D|---------------------|---------------------|
A|---------------------|---------------------|
E|---------------------|---------------------|

E|7-0--7--8--10-8--7--0|
B|---------------------|
G|---------------------|
D|---------------------|
A|---------------------|
E|---------------------|

E|--8-0-8-10-12-10-8-0-|--8-0-8-10-12-10-8-0-|
B|---------------------|---------------------|
G|---------------------|---------------------|
D|---------------------|---------------------|
A|---------------------|---------------------|
E|---------------------|---------------------|

E|10-0-10-12-13-12-10-0|
B|---------------------|
G|---------------------|
D|---------------------|
A|---------------------|
E|---------------------|

E|-----------/-|---|---|
B|----------/--|---|---|
G|-4----(4)/---|---|---|
D|-------------|-7-|-5-|
A|-------------|---|---|
E|-------------|---|---|

E|10-8--7--8--8--7--5-0|--5-0-5-7--8--7--5-0-|
B|---------------------|---------------------|
G|---------------------|---------------------|
D|---------------------|---------------------|
A|---------------------|---------------------|
E|---------------------|---------------------|

E|--5-0-5-7--8--7--5-0-|
B|---------------------|
G|---------------------|
D|---------------------|
A|---------------------|
E|---------------------|

E|13-12-10-12-12-10-8-0|--8-0-8-10-12-10-8-0-|
B|---------------------|---------------------|
G|---------------------|---------------------|
D|---------------------|---------------------|
A|---------------------|---------------------|
E|---------------------|---------------------|

E|10-0-10-12-13-12-10-0|
B|---------------------|
G|---------------------|
D|---------------------|
A|---------------------|
E|---------------------|

E|---------------------|---------------------|
B|---------------------|---------------------|
G|--5--5--5--5---------|-----------/--------9|
D|--------------7--5---|--6----(6)/--x/10----|
A|---------------------|---------------------|
E|---------------------|---------------------|

E|7-0--7--8--10-8--7--0|10-8--7--8--8--7--5-0|
B|---------------------|---------------------|
G|---------------------|---------------------|
D|---------------------|---------------------|
A|---------------------|---------------------|
E|---------------------|---------------------|

E|10-0-10-12-13-12-10-0|13-12-10-12-12-10-8-0|
B|---------------------|---------------------|
G|---------------------|---------------------|
D|---------------------|---------------------|
A|---------------------|---------------------|
E|---------------------|---------------------|

E|---------------------|---------------------|
B|---10----------------|--13------------13---|
G|----------------14---|------------14-------|
D|----------x/14-------|---------------------|
A|---------------------|---------------------|
E|---------------------|---------------------|

E|-12-12-12-12---------|
B|--------------15--13-|
G|---------------------|
D|---------------------|
A|---------------------|
E|---------------------|

E|--5-0-5-7--8--7--5-0-|--5-0-5-7--8--7--5-0-|
B|---------------------|---------------------|
G|---------------------|---------------------|
D|---------------------|---------------------|
A|---------------------|---------------------|
E|---------------------|---------------------|

E|7-0--7--8--10-8--7--0|
B|---------------------|
G|---------------------|
D|---------------------|
A|---------------------|
E|---------------------|

E|--8-0-8-10-12-10-8-0-|--8-0-8-10-12-10-8-0-|
B|---------------------|---------------------|
G|---------------------|---------------------|
D|---------------------|---------------------|
A|---------------------|---------------------|
E|---------------------|---------------------|

E|10-0-10-12-13-12-10-0|
B|---------------------|
G|---------------------|
D|---------------------|
A|---------------------|
E|---------------------|

E|-----------------|-----------------|------------------|
B|-----------------|-10--------------|-13------------13-|
G|-13------------9-|--------------14-|-----------14-----|
D|---------x/10----|--------x/14-----|------------------|
A|-----------------|-----------------|------------------|
E|-----------------|-----------------|------------------|

E|10-8--7--8--8--7--5-0|--5-0-5-7--8--7--5-0-|
B|---------------------|---------------------|
G|---------------------|---------------------|
D|---------------------|---------------------|
A|---------------------|---------------------|
E|---------------------|---------------------|

E|--5-0-5-7--8--7--5-0-|
B|---------------------|
G|---------------------|
D|---------------------|
A|---------------------|
E|---------------------|

E|-13-12-10-12-12-10-8-0-|-8-0-8-10-12-10-8-0-|
B|-----------------------|--------------------|
G|-----------------------|--------------------|
D|-----------------------|--------------------|
A|-----------------------|--------------------|
E|-----------------------|--------------------|

E|-10-0-10-12-13-12-10-0-|
B|-----------------------|
G|-----------------------|
D|-----------------------|
A|-----------------------|
E|-----------------------|

*4 guitars
E|---12-10-8-----------|---------------------|
B|-----------12-10-8---|---------------------|
G|---------------------|-10--9--7------------|
D|---------------------|-----------10--9--7--|
A|---------------------|---------------------|
E|---------------------|---------------------|

E|---8--7--5-----------|---------------------|
B|-----------8--6--5---|---------------------|
G|---------------------|--7--5--4------------|
D|---------------------|------------7--5--3--|
A|---------------------|---------------------|
E|---------------------|---------------------|

E|7-0--7--8--10-8--7--0|10-8--7--8--8--7--5-0|
B|---------------------|---------------------|
G|---------------------|---------------------|
D|---------------------|---------------------|
A|---------------------|---------------------|
E|---------------------|---------------------|

E|10-0-10-12-13-12-10-0|13-12-10-12-12-10-8-0|
B|---------------------|---------------------|
G|---------------------|---------------------|
D|---------------------|---------------------|
A|---------------------|---------------------|
E|---------------------|---------------------|

interlude b:
*2 guitars
E|----------------|-----------------|----------------|
B|----------------|-6/8------7------|-10b---10-----8-|
G|-2/4----2-------|---------------7-|----------------|
D|--------------4-|-----------------|----------------|
A|----------------|-----------------|----------------|
E|----------------|-----------------|----------------|

E|----------------|-----------------|---------------|
B|----------------|-----------------|-7b----7-----5-|
G|----------------|-7/9------7------|---------------|
D|-3/5----4-------|---------------9-|---------------|
A|--------------5-|-----------------|---------------|
E|----------------|-----------------|---------------|

E|---|----------------|-----------------|
B|-7-|----------------|-8/10-----9------|
G|---|-4/6----4-------|---------------9-|
D|---|--------------6-|-----------------|
A|---|----------------|-----------------|
E|---|----------------|-----------------|

E|---|----------------|-----------------|
B|---|----------------|-----------------|
G|-7-|----------------|-9/11-----9------|
D|---|-5/7----6-------|--------------11-|
A|---|--------------7-|-----------------|
E|---|----------------|-----------------|

E|-----------------|----|----------------|
B|-15b----15----14-|-12-|-6/8----7-------|
G|-----------------|----|--------------7-|
D|-----------------|----|----------------|
A|-----------------|----|----------------|
E|-----------------|----|----------------|

E|-----------------|---|-----------------|
B|-12b----12----10-|-9-|-6/8-----7-------|
G|-----------------|---|---------------7-|
D|-----------------|---|-----------------|
A|-----------------|---|-----------------|
E|-----------------|---|-----------------|

E|---------------|---------------|---|
B|-8-----7-------|-8-----7-------|---|
G|-------------7-|-------------7-|-5-|
D|---------------|---------------|---|
A|---------------|---------------|---|
E|---------------|---------------|---|

E|---------------|--------------|---|
B|-------------7-|------------7-|-8-|
G|-5-----7-------|-5-----7------|---|
D|---------------|--------------|---|
A|---------------|--------------|---|
E|---------------|--------------|---|

E|----------------|-----------------|---------------|
B|----------------|-6/8------7------|-10b---10----8-|
G|-2/4----2-------|---------------7-|---------------|
D|--------------4-|-----------------|---------------|
A|----------------|-----------------|---------------|
E|----------------|-----------------|---------------|

E|----------------|-----------------|---------------|
B|----------------|-----------------|-7b----7-----5-|
G|----------------|-7/9------7------|---------------|
D|-3/5----4-------|---------------9-|---------------|
A|--------------5-|-----------------|---------------|
E|----------------|-----------------|---------------|

E|---|-12b-|----------------|
B|-7-|-----|----------------|
G|---|-----|-2/4----2-------|
D|---|-----|--------------4-|
A|---|-----|----------------|
E|---|-----|----------------|

E|---|-13b-|----------------|
B|---|-----|----------------|
G|-7-|-----|----------------|
D|---|-----|-3/5----4-------|
A|---|-----|--------------5-|
E|---|-----|----------------|

E|---------------------|---------------------|---|
B|--6/8------7---------|--10b---10-----8-----|-7-|
G|----------------7----|---------------------|---|
D|---------------------|---------------------|---|
A|---------------------|---------------------|---|
E|---------------------|---------------------|---|

E|-----------------|---------------|---|
B|-----------------|-7b----7-----5-|---|
G|-7/9------7------|---------------|-7-|
D|---------------9-|---------------|---|
A|-----------------|---------------|---|
E|-----------------|---------------|---|

E|---|------|-------------------|
B|---|-8/10-|-10-10-10-10--8----|
G|-5-|------|----------------10-|
D|---|------|-------------------|
A|---|------|-------------------|
E|---|------|-------------------|

E|------/-|---|-------------|
B|-----/--|---|-5-5-5-5-----|
G|-2--/---|-5-|---------7-5-|
D|--------|---|-------------|
A|--------|---|-------------|
E|--------|---|-------------|

E|---|---|------|
B|---|---|-8/10-|
G|-9-|-5-|------|
D|---|---|------|
A|---|---|------|
E|---|---|------|

E|---|------------------|---|
B|---|----------------/-|---|
G|-4-|-2-------------/--|-5-|
D|---|------------------|---|
A|---|------------------|---|
E|---|------------------|---|

E|---------------------|--------------------|------------------|
B|-10-10-10-10--8------|--------------------|-10---------------|
G|----------------10---|---9-------------9--|---------------14-|
D|---------------------|-----------x/10-----|---------x/14-----|
A|---------------------|--------------------|------------------|
E|---------------------|--------------------|------------------|

E|---------------------|---------------------|-----------------|
B|--5--5--5--5---------|---------------------|-5---------------|
G|--------------7--5---|---------/--------5--|---------------9-|
D|---------------------|---6----/---x/7------|---------x/10----|
A|---------------------|---------------------|-----------------|
E|---------------------|---------------------|-----------------|

E|-------------------|-12-12-12-12---------|-------------------|
B|--13---------------|--------------15-13--|-------------------|
G|------------14--12-|---------------------|-13--------------9-|
D|-------------------|---------------------|----------x/10-----|
A|-------------------|---------------------|-------------------|
E|-------------------|---------------------|-------------------|

E|--------------------|--------------------|-------------------|
B|-10-----------------|-10-10-10-10--8-----|-------------------|
G|-----------10--9----|-----------------10-|-9---------------5-|
D|--------------------|--------------------|----------x/7------|
A|--------------------|--------------------|-------------------|
E|--------------------|--------------------|-------------------|

E|---------/----------|------------------|-x/12--10--8---------|
B|-10-----/-----------|-13---------------|-------------12-10-8-|
G|-----------------14-|-----------14--12-|---------------------|
D|------------x/14----|------------------|---------------------|
A|--------------------|------------------|---------------------|
E|--------------------|------------------|---------------------|

E|---------/----------|-------------------|-x/8----7--5--------|
B|-5------/-----------|-10----------------|--------------8-6-5-|
G|------------------9-|------------10---9-|--------------------|
D|------------x/10----|-------------------|--------------------|
A|--------------------|-------------------|--------------------|
E|--------------------|-------------------|--------------------|

E|-------------------|
B|-------------------|
G|-10--9--7----------|
D|-----------10--9-7-|
A|-------------------|
E|-------------------|

E|-------------------|
B|-------------------|
G|-7--5--4-----------|
D|-----------7--5--3-|
A|-------------------|
E|-------------------|

1 guitar
E|---|---|----------------|
B|---|---|----------------|
G|---|-7-|-7-----6------7-|
D|-2-|-7-|-7-----6------7-|
A|-2-|-5-|-5-----4------5-|
E|-0-|---|----------------|

E|---|----------------|---|
B|---|----------------|---|
G|-9-|-9-----8------9-|-5-|
D|-9-|-9-----8------9-|-5-|
A|-7-|-7-----6------7-|-3-|
E|---|----------------|---|

E|----------------|-----------|-----0-|
B|----------------|-----------|-----0-|
G|-5-----4------5-|-----------|-------|
D|-5-----4------5-|-5---------|-2-----|
A|-3-----2------3-|-5-------5-|-2-----|
E|----------------|-3-------2-|-0-----|

E|---|----------------|---|
B|---|----------------|---|
G|-7-|-7-----6------7-|-9-|
D|-7-|-7-----6------7-|-9-|
A|-5-|-5-----4------5-|-7-|
E|---|----------------|---|

E|----------------|---|----------------|
B|----------------|---|----------------|
G|-9-----8------9-|-5-|-5-----4------5-|
D|-9-----8------9-|-5-|-5-----4------5-|
A|-7-----6------7-|-3-|-3-----2------3-|
E|----------------|---|----------------|

E|---------------|--------||Repeat Riff A|-------|
B|---------------|--------||             |-------|
G|---------------|------9-||             |-------|
D|-5-------------|-2----9-||             |-7-(7)-|
A|-5-------5-----|-2----7-||             |-5-(5)-|
E|-3-(3)---2-(2)-|-0------||             |-------|

Вверх

Flight Of Icarus

    A    E    F#m
E|--5----0----2-----------------------|
B|--5----0----2-----------------------|
G|--6----1----2-----------------------|
D|--7----2----4----4-4--4----4-4------|
A|--7----2----4----4-4--4----4-4--etc-|
E|--5----0----2----2-2--2----2-2------|

LET RING        [2nd Verse-hold chord position]
E|--2----------------|-2----------|
B|--2----------------|----2-----5-|
G|--2----------------|-------2----|
D|--4----------------|------------|
A|--4----------------|------------|
E|--2----------------|------------|
As the sun...

A    E
E|--5----0-----------|
B|--5----0-----------|
G|--6----1-----------|
D|--7----2-----------|
A|--7----2-LET RING--|
E|--5----0-----------|
Stands on the Hill

A    F#m
E|--5----2--|
B|--5----2--|
G|--6----2--|
D|--7----4--|
A|--7----4--|
E|--5----2--|
A bird song shatters the still

BRIDGE:
F#(m)            Ab+5 (E/Ab)     A             B    C#
E|--------------------------------------------------------|
B|--------------------------------------------------------|
G|--------------------------------------------------------|
D|-(4)-------------------------------2-------------4----6-|
A|--4----------------7---------------0-------------2----4-|
E|--2----------------4------------------------------------|
His eyes seem so glazed, see the madman in his gaze

CHORUS:
Ill try and show the idea of the chorus, listen for the
strumming and chord slides. At the end go back to strumming
the F# power chord as in the intro.

F#m          E            D C# D                        E
E|--2------------0-------------------------------------------|
B|--2------------0-------------------------------------------|
G|--2------------1-------------------------------------------|
D|--4------------2------------76/7--6/76/7-etc-------6/7--9--|
A|--4------------2------------54/5--4/54/5-----------4/5--7--|
E|--2------------0-------------------------------------------|
Fly, on your way, like an eagle,        fly as high as the
Sun, on your way, like an eagle,        fly as high as the

RHYTHM FOR SOLOS:
F#m                 A    E    F#m
E|----------------------5----0----2---------|
B|----------------------5----0----2---------|
G|----------------------6----1----2---------|
D|--4---4-4-4-----------7----2----4---4-4-4-|
A|--4---4-4-4-etc-------7----2----4---4-4-4-| etc
E|--2---2-2-2-----------5----0----2---2-2-2-|

A    E                       A    E    F#m
E|--5----0-----------------------5----0----2---------|
B|--5----0-----------------------5----0----2---------|
G|--6----1----1------------------6----1----2---------|
D|--7----2----2---2-2-2----------7----2----4---4-4-4-|
A|--7----2----2---2-2-2-etc------7----2----4---4-4-4-| etc
E|--5----0----0---0-0-0----------5----0----2---2-2-2-|

For Solo 2 use BRIDGE

ENDING:
Play through BRIDGE several times then on the last one
stop at the B power chord(let it ring) and then strum
F#m fast and end with A E F#m as in the intro.

Вверх

Fortunes Of War

G|-----9---9---9-------12---12--12-------7--7--7-----4--4--4---|
D|---9---9---9---9----12--12---12--12---7--7--7--7--4--4--4--4-|
A|-7---------------10-----------------5------------2-----------|
E|-------------------------------------------------------------|
play slowly

G|----5---5---5-----7---7---7-----9---9---9-----9---9---9------|
D|--5---5---5---5-7---7---7---7-9---9---9---9-9---9---9---(9)-.|
A|-3-------------5-------------7-------------7----------------.|
E|-------------------------------------------------------------|
Ritardando on last repetition

Play this riff eight times. THE LAST NOTE IS NOT PLAYED THE
LAST TIME.

Second intro
G|--------------------------7------------------------9---------|
D|.-9---9------9---9---9---5---5-9---9---9---9---9--7--7-9---9-|
A|.---7----7-----7---7-------------7---7---7---7-----------7---|
E|-------------------------------------------------------------|
This is played on an acoustic bass guitar, but it sounds good
on an electric.

G|-----------------7---------------------------------------|
D|---9---9---9--5---5--9---9--------9----------------7-----|
A|-7----7---7-------------7------7-----7----3--3---5-----5-|
E|---------------------------------------------------------|

G|-------------------------------------------------------------|
D|--------------------------------------7-7-7------------------|
A|/7-7-7-7-7-7-7-10-10-10-7-7-7-7-7-7-7-------7-7-7-7-7-7-7-10-|
E|-------------------------------------------------------------|

G|-------|
D|-------|
A|-10-10-|
E|-------|
(/ = slide up)-|
This section uses an electric bass. An acoustic may be used, b-|
ut it will not sound as heavy as it should.

G|-----------------------|
D|----------------------.|
A|-7--7-7--7-7---3--3-5-.|
E|-----------------------|
( = slide down)
Play three times

G|-------------------------------------------------------------|
D|-------------------------------------7-7-7-------------------|
A|/7-7-7-7-7-7-7-10-10-10-7-7-7-7-7-7-7-----7-7-7-7-7-7-7-10-10|
E|-------------------------------------------------------------|

G|-------------------------------------------------------------|
D|-------------------------------------------------------------|
A|-10---7--7-7--7-7---3--3--5---/7--7-7--7-7-7-7--10-10-10--7--|
E|-------------------------------------------------------------|

G|--------------|
D|--------------|
A|-7-7--7-7-7-7-|
E|--------------|

G|----------------------------------------------------------|
D|-7-7-7----------------------------------------------------|
A|---------7--7-7--7-7-7-7--10-10-10---7--7-7--7-7--3--3--5-|
E|----------------------------------------------------------|

G|------------------------------------------------------------|
D|------------------------------------------------------------|
A|-7--7-7-7-0-3--5---7--7-7-7-0-3-3-5-5---7--7-7-7-0-3-3-5-5--|
E|------------------------------------------------------------|

G|----------------|
D|----------------|
A|-7--7-7-7-0-3-0-|
E|----------------|

G|------------------------------------------------------------|
D|------------------------------------------------------------|
A|-7--7-7-7-0-3--5---7--7-7-7-0-3-3-5-5---7--7-7-7-0-3-3-5-5--|
E|------------------------------------------------------------|

G|----------------|
D|----------------|
A|-7--7-7-7-0-3-0-|
E|----------------|

G|------------------------------------------------------------|
D|------------------------------------------------------------|
A|-7--7-7-7-0-3--5---7--7-7-7-0-3-3-0-0---7--7-7-7-0-3-3-5-5--|
E|------------------------------------------------------------|

G|----------------|
D|----------------|
A|-7--7-7-7-0-3-0-|
E|----------------|

G|-------------------------------------------------------------|
D|-------------------------------------------------------------|
A|-7--7-7-7-0-3-3-5---7--7-7-7-0-3-3-0-0--7--7-7-7--0-3-3-5-5--|
E|-------------------------------------------------------------|

G|---------------|
D|---------------|
A|-7-7-7-7-0-3-0-|
E|---------------|

G|-------------------------------------------------------------|
D|-------------------------------------------------------------|
A|-7-7-7-7-7-7-7-7-10-10-10-10-10-10-10-10-3-3-3-3-3-3-3-3-5-5-|
E|-------------------------------------------------------------|

G|-------------|
D|-------------|
A|-5-5-3-3-5-5-|
E|-------------|

Chorus

G|-------------------------------------------------------------|
D|-------------------------------------------------------------|
A|-7-7-7-7-7-7-7-7-10-10-10-10-10-10-10-10-3-3-3-3-3-3-3-3-0-0-|
E|-------------------------------------------------------------|

G|-------------|
D|-------------|
A|-0-0-0-0-0-0-|
E|-------------|

G|---------------------------------|
D|---------------------------------|
A|-3-3-3-3-3-3-3-3-5-5-5-5-5-5-5-5-|
E|---------------------------------|

G|-------------------------------------------|
D|.------------------------------------------|
A|.-7--7-7-7-7-7-7-7-7-7-7-7-7--3--3-3-3-3-3-|
E|-------------------------------------------|
fast

G|------------------------------------------------------------|
D|------------------------------------------------------------|
A|-3-3-3-3-3-3-3------------------------------5--5-5-5-5-5--3-|
E|----------------3--3-3-3-3-3-3-3-3-3-3-3-3------------------|

G|------------|
D|-----------.|
A|-3-3-3-3-3-.|
E|------------|
Play this riff four times.

G|-------------------------------------------------------------|
D|-------------------------------------------------------------|
A|-7--7-7-7-7-7-7-7-7-7-7-10-10-10-10-10-10-10-10-10-10-10-3-3-|
E|-------------------------------------------------------------|

G|-----------------|
D|-----------------|
A|-3-3-3-3-3-3-3-3-|
E|-----------------|

G|-------------------------------------------------------------|
D|-------------------------------------------------------------|
A|-3-5-5-5-5-5-5-5-5-5-5-5-----------------------3-3-3-3-3-3-3-|
E|-------------------------3-3-3-3-3-3-3-3-3-3-3---------------|

G|-----------------|
D|-----------------|
A|-3-3-3-3-5-5-5-5-|
E|-----------------|

G|-------------------------------------------------------------|
D|---------------7-7-7-5-5-5-4-4-4-----------------------------|
A|-5-5-5-5-5-5-5-------------------5------7--7-7-7-7-7-7-7-7-7-|
E|-------------------------------------------------------------|

G|------------------|
D|------------------|
A|-7-10-10-10-10-10-|
E|------------------|

G|-------------------------------------------------------------|
D|-------------------------------------------------------------|
A|-10-10-10-10-10-10-3-3-3-3-3-3-3-3-3-3-3-5-5-5-5-5-5-5-5-5-5-|
E|-------------------------------------------------------------|

G|-----------------|
D|-----------------|
A|-5---------------|
E|---3-3-3-3-3-3-3-|

G|-------------------------------------------------------------|
D|-----------------------------------------------------5-5-5-4-|
A|---------3-3-3-3-3-3-3-3-3-3-3-5-5-5-5-5-5-5-5-5-5-5---------|
E|-3-3-3-3-----------------------------------------------------|

G|-------------|
D|-4-4-0-0-0---|
A|-----------0-|
E|-------------|

G|-------------------------------------------------------------|
D|-------------------------------------------------------------|
A|-7--7-7-7-7-7-7-7-7-7-7-10-10-10-10-10-10-10-10-10-10-10-3-3-|
E|-------------------------------------------------------------|

G|-----------------|
D|-----------------|
A|-3-3-3-3-3-3-3-3-|
E|-----------------|

G|-------------------------------------------------------------|
D|-------------------------------------------------------------|
A|-3-5-5-5-5-5-5-5-5-5-5-5-5-------------------------3-3-3-3-3-|
E|----------------------------3-3-3-3-3-3-3-3-3-3-3------------|

G|-------------|
D|-------------|
A|-3-3-3-3-3-3-|
E|-------------|

G|---------------------|---------------------------------------|
D|-7-7-7-5-5-5-4-4-4---|.--------------------------------------|
A|-------------------5-|.-7--7-7-7-7-7-7-7-7-7-7-7-7--10-10-10-|
E|---------------------|---------------------------------------|

G|------------------------------------------------------------|
D|------------------------------------------------------------|
A|-10-10-10-10-10-10-10-10-10-10--3--3-3-3-3-3-3-3-3-3-3-3-3--|
E|------------------------------------------------------------|

G|------------------|
D|------------------|
A|-0--0-0-0-0-0-0-0-|
E|------------------|

G|-------------------------------------------------------------|
D|-------------------------------------------------------------|
A|-0-0-0-0-0-0--3--3-3-3-3-3-3-3-3-3-3-3-3--5--5-5-5-5-5-5-5-5-|
E|-------------------------------------------------------------|

G|----------------|
D|----------7-7-7-|
A|-5-5-5-5--------|
E|----------------|

G|---------------|---------------------------------------------|
D|-5-5-5-4-4-4---|.--------------------------------------------|
A|-------------5-|.-7--7-7-7-7-7-7-7-7-7-0-3-3-3-3-3-3-3-3-3---|
E|---------------|-------------------------------------------3-|

G|-----------------|
D|-----------------|
A|-----------------|
E|-3-3-3-3-3-3-3-3-|
"oh,ooh"

G|-------------------------|
D|------------------------.|
A|---5--5-5-5-5-3-3-3-3-0-.|
E|-3-----------------------|
Play 4 times
ritard. last time only

G|---------------------------------------------------|
D|---------------------------------------------------|
A|-7-7-7-7-7-7-7-7-10-10-10-10-10-10-10-10-3-3-3-3-3-|
E|---------------------------------------------------|

G|------------------------------------------------------------|
D|------------------------------------------------------------|
A|-3-3-3-5-5-5-5-3-3-5-5--7-7-7-7-7-7-7-7-7-10-10-10-10-10-10-|
E|------------------------------------------------------------|

G|-------------------|
D|-------------------|
A|-10-10-3-3-3-3-3-3-|
E|-------------------|

G|---------------------------------------|
D|---------------------------------------|
A|-3-3-0-0-0-0-0-0-0-0-3-3-3-3-3-3-3-3-5-|
E|---------------------------------------|
Ritard.

G|------9---9---9---------12---12--12----------7---7---7-------|
D|----9---9---9---9-----12--12---12--12------7---7---7---7---4-|
A|-7-----------------10--------------------5----------------2--|
E|-------------------------------------------------------------|

G|-4---4---4---|
D|---4---4---4-|
A|-------------|
E|-------------|
play slowly

G|-----5---5---5----------7---7---7--------9---9---9--------9--|
D|---5---5---5---5------7---7---7---7----9---9---9---9----9----|
A|-3------------------5----------------7----------------7------|
E|-------------------------------------------------------------|

G|---9---9---------|
D|-9---9---(9)-----|
A|-------------(7)-|
E|-----------------|
ritard.

G|-----------------------------7-------------------------------|
D|-9---9---------9---9---9---5---5----9---9---------9------5---|
A|---7------7------7---7----------------7------7------7--3---3-|
E|-------------------------------------------------------------|
This is played on an acoustic bass guitar

G|-----------9---|
D|--7------9---9-|
A|-5--5--7-------|
E|---------------|
ritard.

G|-9------------||
D|---9----------||
A|------7-----7-||
E|--------------||

Вверх

From Here To Eternity

Riff 1:
E|-----------------|-------------------|
B|-----------------|-------------------|
G|-7-----7---7---7-|-5-----5---5---5---|
D|-----------------|-------------------|
A|-5---5---5---5---|-3---3---3---3---3-|
E|-----------------|-------------------|

E|--------------------|-----------------|
B|--------------------|-----------------|
G|-4-----4----5--4--5-|-7-----7---7---5-|
D|--------------------|-----------------|
A|-2---2---2--3--2--3-|-5---5---5---3---|
E|--------------------|-----------------|

Solo during Riff 1:
E|-----------------------------------------|
B|-----------------------------------------|
G|--------10----10----10-12-12b14b12-10----|
D|-12--12----12----12-------------------12-|
A|-----------------------------------------|
E|-----------------------------------------|

E|--------------------------------------------|
B|--------------------------------------13b15-|
G|--------10----10----10-12-12b14b12-10-------|
D|-12--12----12----12-------------------------|
A|--------------------------------------------|
E|--------------------------------------------|

E|-----------------------------------------|
B|-----------------------------------------|
G|--------10----10----10-12-12b14b12-10----|
D|-12--12----12----12-------------------12-|
A|-----------------------------------------|
E|-----------------------------------------|

E|--------------------13-15-15b17b15-13-20b22-|
B|--------------13-15-------------------------|
G|-----10-12-14-------------------------------|
D|-12-----------------------------------------|
A|--------------------------------------------|
E|--------------------------------------------|

End of solo.

Verse:
She fell in love with his greasy machine
E|---|---|
B|---|---|
G|-9-|-7-|
D|-9-|-7-|
A|-7-|-5-|
E|---|---|

She leaned over wiped his kickstart clean
E|---|---|
B|---|---|
G|-5-|-7-|
D|-5-|-7-|
A|-3-|-5-|
E|---|---|

End of verse.

Chorus:
Hell ain't a bad place
E|-----0-------------------------|
B|-----0-------------------------|
G|-----1-------2-1---------------|
D|-----2-------------------------|
A|-----2-----2-------------------|
E|-0---0---0-------0-0-0-0-0-0-0-|

Hell is from here to eternity
E|----------------------------------|
B|----------------------------------|
G|-2--1---2--1---2--1---------------|
D|------2------2--------------------|
A|----------------------------------|
E|--------------------0-0-0-0-0-0-0-|

End of chorus.

Riff 2:
E|-----------------|-------------------|
B|-----------------|-------------------|
G|-9-----9---9---9-|-7-----7---7---7---|
D|-----------------|-------------------|
A|-7---7---7---7---|-5---5---5---5---5-|
E|-----------------|-------------------|

E|--------------------|-----------------|
B|--------------------|-----------------|
G|-6-----6----7--6--7-|-9-----9---9---7-|
D|--------------------|-----------------|
A|-4---4---4--5--4--5-|-7---7---7---5---|
E|--------------------|-----------------|

E|-----------------|-------------------|
B|-----------------|-------------------|
G|-9-----9---9---9-|-7-----7---7---7---|
D|-----------------|-------------------|
A|-7---7---7---7---|-5---5---5---5---5-|
E|-----------------|-------------------|

E|--------------------|-----------------|
B|--------------------|-----------------|
G|-5-----5----7--5--7-|-9-----9---9---7-|
D|--------------------|-----------------|
A|-3---3---3--5--3--5-|-7---7---7---5---|
E|--------------------|-----------------|

Solo during riff 2:
E|-----------------------------------------|
B|-----------------------------------------|
G|--------12----12----12-14-14b16b14-12----|
D|-14--14----14----14-------------------14-|
A|-----------------------------------------|
E|-----------------------------------------|

E|--------------------15-17-17b19b17-15-22b24-|
B|--------------15-17-------------------------|
G|-----12-14-16-------------------------------|
D|-14-----------------------------------------|
A|--------------------------------------------|
E|--------------------------------------------|

Solo-riff 1:
E|------------------|
B|------------------|
G|-9----7----5----7-|
D|-9----7----5----7-|
A|-7----5----3----5-|
E|------------------|

Solo-riff 2:
E|------------------|
B|------------------|
G|-7----5----3----5-|
D|-7----5----3----5-|
A|-5----3----1----3-|
E|------------------|

On the fifth time of last chorus:
Hell ain't a bad place
E|-----0-----------|-----|
B|-----0-----------|-----|
G|-----1-------2-1-|-(1)-|
D|-----2-------2-2-|-(2)-|
A|-----2-----2-2-2-|-(2)-|
E|-0---0---0-------|-----|

Hell is from here to e-ter---ni---ty
E|-----------------------------------0-|
B|-----------------------------------0-|
G|-2----1-------2----1----2-----1----1-|
D|-2----2--2----2----2--2-2-----2----2-|
A|---------2------------2------------2-|
E|-----------------------------------0-|

E|-(0)-|---|
B|-(0)-|---|
G|-(1)-|-1-|
D|-(2)-|-2-|
A|-(2)-|-2-|
E|-(0)-|-0-|

Song-structure:
Riff 1 (4 times)
Verse (4 times)
Chorus (2 times)
Verse (4 times)
Chorus (4 times)
Riff 2 (2 times)
Solo-riff 1 (2 times)
Solo-riff 2 (2 times)
Chorus (5 times)
End

Lyrics:

She fell in love with his greasy machine
She leaned over wiped his
kickstart clean
She'd never seen the beast before
But she left there wanting
more more more
But when she was walking on
down the road
She heard a sound that made
her heart explode
He whispered to her to get on the back
"I'll take you on a ride
from here to eternity"

Chorus:
Hell ain't a bad place
Hell is from here to eternity

She must be having one of her
crazy dreams
She'd never sat on a piece so mean
It made her feel like's she's on cloud nine
She even thought she heard the
engine sigh
But like all dreams that come to an end
They took a tumble at the devil's bend
The beast and Charlotte they were
two of a kind
They'd always take the line...
from here to eternity

Вверх

Genghis Kahn

-----------------------------------------------------------------------------
-0-0-0--7-7-7--5-5-5--4-4-4--2-2-2--0-0-0------------------------------------
-------------------------------------------3-3-3--0-3-5--5--5--5-------------
------------------------------------------------------------------3--3--3----
Intro

-----------------------------------------------------------------------------
-------------------0-0-0--7-7-7--5-5-5--4-4-4--2-2-2--0-0-0------------------
----------3--3--3--------------------------------------------3-3-3--0-3-5--5-
-5--5--5---------------------------------------------------------------------

---------------------------------|-----7-7-7---------------------7-7-7-------
---------------------------------|------------5-7-5--------------------5-7-5-
-5--5--------------------3--3--3-|--0----------------8-10-8---0--------------
-------3--3--3--5--5--5----------|-------------------------------------------
slower

--------7-7-7---------------------7-7-7--------------------------------------
---------------5-7-5---------------------5-7-5-------------------------------
--8---0---------------8-10-8---0-----------------3----0---3-3-3--5-7-5--3-5-3
-----------------------------------------------------------------------------

-----------------------------------------------------------------7-5-0-------
--------------------------------------------------------------5--------------
-0---3-3-3--5-7-5------0--3-3-3--5-7-5--3-5-3--0---3-3-3--5-7-----------0----
------------------3----------------------------------------------------------


--7-7-7-5-0-----------------7-7-7--------------7-7-7-------------------7-7-7-
-------------7-5----------0-------5-7-5------0--------5-7-5----------0-------
------------------8-10-8-----------------8-------------------8-10-8----------
-----------------------------------------------------------------------------

-----------------------------------------------------------------------------
-5-7-5-----------------------------------------------------------------------
-------8----0--3-3-3--5-7-5--3-5-3---0---3-3-3--5-7-5------0---3-3-3--5-7-5--
-------------------------------------------------------3---------------------

--------------------------7-5-0----------------------------------------------
-----------------------5----------0---5-5-5--7---8-8-7-5---8-8-7-5---3-2-----
-5-7-5--0---3-3-3--5-7---------------------------------------------------3---
-----------------------------------------------------------------------------

-----------------------------------------------------------------------------
-0---5-5-5-7---8-8-7-5---8-8-7-5--3-2---0--5-5-5-7--8-8-7-5---8-8-7-5--3-2---
--------------------------------------3------------------------------------3-
-----------------------------------------------------------------------------

-------------------------------|---------------------------------------------
-0--5-5-5-7--8-8-7-5--8-8-7-5--|-0-03-2-0-0--3-2--------------3--3-2-0-0--3-2
-------------------------------|-----------------3-0-0--0-2-3----------------
-------------------------------|---------------------------------------------
Much faster

-----------------------------------------0---------------------------------0-
-0-0--3-2--------------3--3-2-0-0-0-2-3----3-2-0-3--3-2-0-2--3-2-0-0-0-2-3---
----------3-0-0--0-2-3-------------------------------------------------------
-----------------------------------------------------------------------------

-----------------------------------------------------------------------------
-3-2-0-3--3-2-0-2--3-2-0-0--0-3-2-0-0-3-2---------------3--3-2-0-0--3-2-0-0--
-------------------------------------------3-0-0--0-2-3----------------------
-----------------------------------------------------------------------------

-----------------------------------0---------------------------------0-------
-3-2--------------3--3-2-0-0-0-2-3---3-2-0-3--3-2-0-2--3-2-0-0-0-2-3---3-2---
-----3-0-0--0-2-3------------------------------------------------------------
-----------------------------------------------------------------------------

-----------------------------------------------------------------------------
-3-2-0-3--3-2-0-2--3-2-0-0---------------------------------------------------
---------------------------/5--7--0-0-5-0-0-7-0-0-5-0---0-5-3-0-0--0-5-3----
-----------------------------------------------------------------------------
(/ = slide up)
( = slide down)

-----------------------------------------------------------------------------
------------------------------------------0-0-5-0-0-7-0-0-5-0--0-3-2-0-0--0-3
--0-0-5-0-0-7-0-0-5-0---0-5-3-0-0--0-5-3-------------------------------------
-----------------------------------------------------------------------------

-----------------------------------------------------------------------------
-2---------------------------------------------------------------------------
----0-0-5-0-0-7-0-0-5-0---0-5-3-0-0--0-5-3--0-0-5-0-0-7-0-0-5-0---0-5-3-0-0--
-----------------------------------------------------------------------------

-----------------------------------------------------------------------------
-----------------------------------------------0-0-5-0-0-7-0-0-5-0--0-3-2-0-0
-0-5-3--0-0-5-0-0-7-0-0-5-0---0-5-3-0-0--0-5-3-------------------------------
-----------------------------------------------------------------------------

-----------------------------------------------------------------------------
--0-3-2-----------------------------------3-2-0-0--3-2--------------3--3-2-0-
---------0-0-5-0-0-7-0-0-5-0---0-5-3-0-0---------------3-0-0--0-2-3----------
-----------------------------------------------------------------------------

-----------------------------------------------0-----------------------------
-0-0-3-2-0-0-0-3-2------------3--3-2-0-0-0-2-3---3-2-0-3--3-2-0-2--0-3-2-0-0-
-------------------0-0--0-2-3------------------------------------------------
-----------------------------------------------------------------------------

------------0-0------------------------------|-------------------------------
-0--0-0-2-3-----3-2-0-3--3-2-0-2--0-3-2-0-0--|--.--.-------------------------
---------------------------------------------|--5--7--7-7-7----7-7-7---7-7---
---------------------------------------------|-------------------------------
Slower
( . = staccatto)

-----------------------------------------------------------------------------
-5-4-2-0--.-----------------------3-2-0----.------------------------->--.----
----------3--3-3-3---3-3-3---3-3--------3--0--0-0-0----0-0-0---0-0-0-2--3----
-----------------------------------------------------------------------------
(> = accented)

-----------------------------------------------------------------------------
----------------------3-2----------------------------------------------------
-3-3-3--3-3-3---3-3-3-----3--3-2------.---------------------.----------------
----------------------------------3---0--0-0-0--0-0-0--2-0--0--0-0-0--0-0-0--

-----------------------------h---h-------------------------------------------
------.---------------------5-4-5-4--.--------------------3-2----.-----------
------7--7-7-7--7-7-7--7-7-----------3--3-3-3--3-3-3--3-3-----3--0--0-0-0----
-0-0-------------------------------------------------------------------------
(h = hammer-on)

-----------------------------------------------------------------------------
--------------->--.---------------------3-2----------------------------------
-0-0-0--0-0-0--2--3--3-3-3--3-3-3--3-3------3-2-3-2-0-----.------------------
------------------------------------------------------3---0--0-0-0--0-0-0--0-

-----------------------------------------------------------------------------
-----------------------------------------------------.-----------------------
-----h---h---2----h----.---------------------->-->---7--7-7-7--7-7-7--7-7----
-0--3-2-3-2----3-2-3---0--0-0-0--0-0-0--0-0---0--0---------------------------
Lead guitar enters

---h-h-----------------------------------------------------------------------
-/5-4-5-.---------------------3-2----.----------------------->--.------------
--------3--3-3-3--3-3-3--3-3------3--0--0-0-0--0-0-0--0-0-0--2--3--3-3-3--3-3
-----------------------------------------------------------------------------

-----------------------------------------------------------------------------
---------3-2-----------------------------------------------------------------
-3---3-------3-2-3-2------.-------------------------.--------------------->--
---------------------3-0--0--0-0-0--0-0-0--0-0-0-0--0--0-0-0--0-0-0--0-0--0--

---------------------------h-h-----------------------------------------------
----.--------------------/5-4-5--.--------------------3-2-----.--------------
->--7--7-7-7--7-7-7--7-7---------3--3-3-3--3-3-3--3-3----3-2--0--0-0-0--0-0-0
-0---------------------------------------------------------------------------

-----------------------------------------------------------------------------
------->--.-------------------3-2--------------------------------------------
-0-0-0-2--3--3-3-3--3-3-3--3------3-2-3-2------.---------------------->-->---
------------------------------------------3-0--0--0-0-0--0-0-0--0-0---0--0---

-----------------------------------------------------------------------------
------------------------------->--------->---------->-------->------------>--
-.--------------------->-->----7---------5----------3--------2------0-2---7--
-0--0-0-0--0-0-0--0-0--0--0-----------------------------------------------0--

-----------------------------------------------||
----->------->------>--------------------------||
-----5-------3------2------0-2--->-------------||
---------------------------------0-------------||
Rythm guitar
plays outro

Вверх

Hallowed Be Thy Name
mp3

-----------------------------------------------------------------------------
-----------------------------------------------------------------------------
--*--------------------------------------------------------------------------
-0-----0------0------0-------0------0------0------0------0-----0-----0-----0-
Andante                      Lyrics begin


-------------------------------------------------------------|
-------------------------------------------------------------|
--3----5-----/7---------------3-----5-----/7-----------------|
-------------------0-----0--------------------0------0-------|
(/ = slide up)                              end intro


Play 4 times     Play this
note only the
first time.


--------------------|--------------------------------------------------------
-------5--4--2--0--.|.-------------------------------------------------------
-3--5--------------.|.-7--7-7--7--7-7--7-7-7-7-7-7--3--3-3--3--3-3--3-3-3-3-3
--------------------|--------------------------------------------------------

--------------------------------------------------------|--------------------
-----------------------------------------------5-4-2-0-.|.-------------------
-3--5--5-5--5--5-5--5-5-5-5-5-5--7-0-3---0-3-5---------.|.-7--7-7--7--7-7----
--------------------------------------------------------|--------------------

-----------------------------------------------------------------------------
-----------------------------------------------------------------------------
-7-7-7-7-7-7--3--3-3--3--3-3--3-3-3-3-3-3--5--5-5--5--5-5--5-5-5-5-5-5--10-9-
-----------------------------------------------------------------------------

------------|-----------------------------------------------------|----------
-----------.|.------------9--9--------------9-------------9------.|.---------
-7--10-9-7-.|.--7--7-9-10-------10-9-7-9-10---10-9-7-9-10---10-9-.|.7-7-7-7-7
------------|-----------------------------------------------------|----------
Play 4  times

-----------------------------------------------------------------------------
-----------------------------------------------------------------------------
-7-7--7-7-7-7-7--7-7--7-7-7-7-7--7-7--7--7-7--7--5--3-3-3-3-3--3-3--3-3-3-3-3
-----------------------------------------------------------------------------

------------------------------------|----------------------------------------
-----------------------------------.|.---------------------------------------
-3-3--3-3-3-3-3--3-3--3--3-3--3--5-.|.-7--7-7--7--7-7--7-7-7-7-7-7--3--3-3--3
------------------------------------|----------------------------------------

----------------------------------------------------------------------------|
---------------------------------------------------------------------------.|
-3-3--3-3-3-3-3-3--5--5-5--5--5-5--5-5-5-5-5-5--7--7-7-7-7--10-9-7--10-9-7-.|
----------------------------------------------------------------------------|
Play 4 times

|----------------------------------------------------------------------------
|.---------------------------------------------------------------------------
|.-7-7-7-7-7--7-7--7-7-7-7-7--7-7--7-7-7-7-7--7-7--7--7-7--7--5--3-3-3-3-3--3
|----------------------------------------------------------------------------

-----------------------------------------------|-----------------------------
----------------------------------------------.|-----------------------------
-3-3-3-3-3--3-3--3-3-3-3-3--3-3--3--3-3--3--5-.|-7---0-7---0-3---0-7---------
-----------------------------------------------|-----------------------------

|------------4------------------|--------------------------------------------
|.-2-4-5-4-5---5-4-5-4-2-0-----.|.-------------------------------------------
|.-------------------------3-5-.|.-7--7-7--7-7--7-7-7-7-7-7--7--7-7--7-7--10-
|-------------------------------|--------------------------------------------
Play 4 times     Guitar Solo

-------------------------------------------------------------------|---------
------------------------------------------------------------------.|---------
-9-7--3-2-0--5--5-5--5-5--5-5-5-5-5-5--5--5-5--5-5--10-9-7--3-2-0-.|--7-7--7-
-------------------------------------------------------------------|---------
Play  6 times

------------------------------------|----------------------------------------
------------------------------------|.---------------------------------------
-7--7-7--7-7-7-7-7-7--7-7--7-7--7-7-|.-0-7---0-5---0-7---0-5--0-7-7--7-7-7-7-
------------------------------------|----------------------------------------

-----------------------------------------------------|-----------------------
----------------------------------------------------.|.----------------------
-7-7-7-7-7-7-7--7-7--7-7--7-7-7-7-7-7-7-7-7-7-7--7--.|.-7--7-7--7-7--7-7-7-7-
-----------------------------------------------------|-----------------------
Play 3 times
On last rep., accent the
last 8 notes (with drums)

-----------------------------------------------------------------------------
-----------------------------------------------------------------------------
-7-7--7-7--3--3-3--3-3--3-3-3-3-3-3--5--5-5--5-5--5-5-5-5-5-5--7--7-7--7-7---
-----------------------------------------------------------------------------

------------------------|----------------------------------------------------
-----------------------.|.---------------------------------------------------
-10-9-7-10-10-9-7-10---.|.-7--7-7--7-7--7-7-7-7-7-7--7-7--3--3-3--3-3--3-3-3-
------------------------|----------------------------------------------------

--------------------------------------------------------------------|--------
-----------------------------------------------------------5-4-2-0-.|--------
-3-3-3--5--5-5--5-5--5-5-5-5-5-5--7--7-7--7-7--7-0-3-0-3-5---------.|-7--7-7-
--------------------------------------------------------------------|--------

-----------------------------------------------------------------------------
-----------------------------------------------------------------------------
-7-7--7-7-7-7-7-7--3--3-3--3-3--3-3-3-3-3-3--5--5-5--5-5--5-5-5-5-5-5--7--7-7
-----------------------------------------------------------------------------

-----------------------------------------------------------------------------
-----------------------------------------------------------------------------
-7-7--10-9-7-10-9-7----7--7-7--7-7--7-7-7-7-7-7--3--3-3--3-3--3-3-3-3-3-3--5-
-----------------------------------------------------------------------------

-----------------------------------------------------------------------------
-----------------------------------------------------------------------------
-5-5--5-5--5-5-5-5-5-5--7--7-7--7-7--7-7-7---0-7------0-5--------0-3---------
-----------------------------------------------------------------------------


-----------------------------------------------------------------------------
-----------------------------------------------------------------------------
-0-5-------0-7---7-7-7-7-7-7-7-7-7-7-7-7-7-7-7-7-7-7-7-7-7-7-7-7-7-7-7-7-7-7-
-----------------------------------------------------------------------------

--------------------------------------------------------||
--------------------------------------------------------||
-7-7-7-7-7-7-7-7--------------7-7-7-7---------7-7-7-7--||
--------------------------------------------------------||
Wait for drum cue, then play end.


* Note that large spaces usually represent rests.

Вверх

Holy Smoke

--9--------4--------7-----2----9------------7h999-999-99----------9----------
--9--------4--------7-----2----9--------------------------77------9----------
--7--------2--------5-----0----7----7-7-7-7------------------7----7-7-7-7--7-
-----------------------------------------------------------------------------

------------------------4----------------------------------7----------------2
------------------------4----------------------------------7----------------2
-7-7-7--7-7-7-7--7-7-7--2--2-2-2--2-2-2-2--2-2-2-2--2-2-2--5--5-5-5--5-5-5--0
-----------------------------------------------------------------------------

---------------9--------------------9----9-9-9-9-9-------9----------------7--
---------------9------------------9----9-----------9-----9----------------7--
-0-0-0--0-0-0--7--7-7-7--7-7-7-7----------------------7--7--7-7-7--7-7-7--5--
-----------------------------------------------------------------------------

------------------------------------.--.------9----------------7-------------
----------------5--5-5-5--5-5-5--7--7--5--7---9----------------7-------------
-5-5-5--5-5-5---------------------------------7--7-7-7--7-7-7--5--5-5-5--5-5-
-----------------------------------------------------------------------------

------------------------.--.-----9----------------7--------------------------
----5--5-5-5--5-5-5--7--7--5--7--9----------------7----------------5--5-5-5--
-5-------------------------------7--7-7-7--7-7-7--5--5-5-5--5-5-5------------
-----------------------------------------------------------------------------

-----------.--.-----9----------------7------------------------------------.--
-5-5-5--7--7--5--7--9----------------7----------------5--5-5-5--5-5-5--7--7--
--------------------7--7-7-7--7-7-7--5--5-5-5--5-5-5-------------------------
-----------------------------------------------------------------------------

-.-----9---------------------------------7-------------------.-----.--9------
-5--7--9----------------5--5-5-5--5-5-5--7----------------7--7--5--7--9------
-------7--7-7-7--7-7-7-------------------5--5-5-5--5-5-5--------------7--7-7-
-----------------------------------------------------------------------------
" Holy smoke..."

----------------------------7--------------------.-----.---9-----------------
-----------5--5-5-5--5-5-5--7-----------------7--7--5--7---9---------------5-
-7--7-7-7-------------------5--5-5-5--5-5-5----------------7--7-7-7--7-7-7---
-----------------------------------------------------------------------------

----------------7-------------------------------------9----------------------
-5-5-5--5-5-5---7-----------------7---7-7-------5-4---9-----------------5--5-
----------------5--5-5-5--5-5-5-----------------------7--7-7-7--7-7-7--------
-----------------------------------------------------------------------------

-------------7---------------------------------9-----------------7-----------
-5-5--5-5-5--7----------------7---7-7----5-4---9-----------------7-----------
-------------5--5-5-5--5-5-5-------------------7--7-7-7--7-7-7---5--5-5-5----
-----------------------------------------------------------------------------
" Jimmy the reptile..."


------------------------------.--.-----9----------------7--------------------
----------5--5-5-5--5-5-5--7--7--5--7--9----------------7----------------5---
-5-5-5---------------------------------7--7-7-7--7-7-7--5--5-5-5--5-5-5------
-----------------------------------------------------------------------------

-------------------.--.-----9----------------7-------------------------------
-5-5-5--5-5-5---7--7--5--7--9----------------7-----------------5--5-5-5--5-5-
----------------------------7--7-7-7--7-7-7--5--5-5-5--5-5-5-----------------
-----------------------------------------------------------------------------

-------.--.-----9----------------7------------------------------------.--.---
-5--7--7--5--7--9----------------7----------------5--5-5-5--5-5-5--7--7--5--7
----------------7--7-7-7--7-7-7--5--5-5-5--5-5-5-----------------------------
-----------------------------------------------------------------------------

-9---------------------------------7-------------------.-----.--9------------
-9----------------5--5-5-5--5-5-5--7----------------7--7--5--7--9------------
-7--7-7-7--7-7-7-------------------5--5-5-5--5-5-5--------------7--7-7-7--7-7
-----------------------------------------------------------------------------

---------------------7--------------------.-----.---9------------------------
----5--5-5-5--5-5-5--7-----------------7--7--5--7---9---------------5--5-5-5-
-7-------------------5--5-5-5--5-5-5----------------7--7-7-7--7-7-7----------
-----------------------------------------------------------------------------

---------7-------------------------------------9-----------------------------
-5-5-5---7-----------------7---7-7-------5-4---9-----------------5--5-5-5--5-
---------5--5-5-5--5-5-5-----------------------7--7-7-7--7-7-7---------------
-----------------------------------------------------------------------------

Вверх

Hooks In You

Riff 1:
E|-----------------------------------|
B|-----------------------------------|
G|-----------------------------------|
D|-----9-----9-----7-----7-------7-6-|
A|-----7-----7-----5-----4-----------|
E|-0-0---0-0---0-0---0-0-------0-----|

E|-------------------------------|
B|-------------------------------|
G|-------------------------------|
D|-----9-----9---------------7-6-|
A|-----7-----7-------5---7-5-----|
E|-0-0---0-0---0-5-7---7---------|

Chorus:
Hooks in you, hooks in me, hooks in
E|-------------------------------|
B|-5-5-5-4-----5-5-5-4-----5-5-4-|
G|-4-4-4-4-----4-4-4-4-----4-4-4-|
D|-4-4-4-4-----4-4-4-4-----4-4-4-|
A|-2-2-2-2-----2-2-2-2-----2-2-2-|
E|-------------------------------|

the ceiling for the well hung feeling
E|-------------------------------|
B|-5-5-5-4-----5-5-5-4-----5-5-4-|
G|-4-4-4-4-----4-4-4-4-----4-4-4-|
D|-4-4-4-4-----4-4-4-4-----4-4-4-|
A|-0-0-0-0-----0-0-0-0-----0-0-0-|
E|-------------------------------|

No big deal, no big sin, strung up
E|-------------------------------|
B|-5-5-5-4-----5-5-5-4-----5-5-4-|
G|-4-4-4-4-----4-4-4-4-----4-4-4-|
D|-4-4-4-4-----4-4-4-4-----4-4-4-|
A|-2-2-2-2-----2-2-2-2-----2-2-2-|
E|-------------------------------|

on on love I got the hooks screwed in
E|-------------------------------|
B|-5-5-5-4-----5-5-5-4-----5-5-4-|
G|-4-4-4-4-----4-4-4-4-----4-4-4-|
D|-4-4-4-4-----4-4-4-4-----4-4-4-|
A|-0-0-0-0-----0-0-0-0-----0-0-0-|
E|-------------------------------|

Hooks in you, hooks in me, hooks in
E|-------------------------------|
B|-5-5-5-4-----5-5-5-4-----5-5-4-|
G|-4-4-4-4-----4-4-4-4-----4-4-4-|
D|-4-4-4-4-----4-4-4-4-----4-4-4-|
A|-2-2-2-2-----2-2-2-2-----2-2-2-|
E|-------------------------------|

the ceiling for the well hung feeling
E|-------------------------------|
B|-5-5-5-4-----5-5-5-4-----5-5-4-|
G|-4-4-4-4-----4-4-4-4-----4-4-4-|
D|-4-4-4-4-----4-4-4-4-----4-4-4-|
A|-0-0-0-0-----0-0-0-0-----0-0-0-|
E|-------------------------------|

No big deal, no big sin, strung up
E|-------------------------------|
B|-5-5-5-4-----5-5-5-4-----5-5-4-|
G|-4-4-4-4-----4-4-4-4-----4-4-4-|
D|-4-4-4-4-----4-4-4-4-----4-4-4-|
A|-2-2-2-2-----2-2-2-2-----2-2-2-|
E|-------------------------------|

on on love I got the hooks screwed in
E|-------------------------------|
B|-2---------------------------2-|
G|-2---------------4-2-2-4-2-2-2-|
D|-2---------------4-2-2-4-2-2-2-|
A|-0---------------------------0-|
E|-------------------------------|

Riff 3:
Hooks in you I got those hooks in you Hooks in you in you
E|-------------------------------------------------------|
B|-------------------------------------------------------|
G|-9------------5------------------------2---------------|
D|-9------------5------------------------2-------------3-|
A|-7------------3------------------------0-------------3-|
E|-----------------------------------------------------1-|

Hooks in you     I got those hooks in you
E|--------------------|
B|--------------------|
G|-9----------------5-|
D|-9----------------5-|
A|-7----------------3-|
E|--------------------|

Hooks in you in you
E|----------------------------------------------|
B|----------------------------------------------|
G|-2--------------------------------------------|
D|-2------------3-------------------------------|
A|-0------------3-------------------------------|
E|--------------1-1-1-1-1-1-1-1-1-1-1-1-1-1-1-1-|

Solo-riff:
E|---------------------------------|
B|---------------------------------|
G|---------------------------------|
D|-9-------------------------------|
A|-7-7-7-7-7-7-7-7-7-7-7-7-7-7-7-7-|
E|---------------------------------|

E|---------------------------------|
B|---------------------------------|
G|---------------------------------|
D|-5-------------------------------|
A|-3-3-3-3-3-3-3-3-3-3-3-3-3-3-3-3-|
E|---------------------------------|

E|---------------------------------|
B|---------------------------------|
G|---------------------------------|
D|-2-------------------------------|
A|-0-0-0-0-0-0-0-0-0-0-0-0-0-0-0-0-|
E|---------------------------------|

E|------------------------------|
B|------------------------------|
G|------------------------------|
D|------------------------------|
A|-3-----3-----3-----3-----3--3-|
E|-1-1-1-1-1-1-1-1-1-1-1-1-1--1-|

E|---------------------------------|
B|---------------------------------|
G|---------------------------------|
D|-9-------------------------------|
A|-7-7-7-7-7-7-7-7-7-7-7-7-7-7-7-7-|
E|---------------------------------|

E|---------------------------------|
B|---------------------------------|
G|---------------------------------|
D|-5-------------------------------|
A|-3-3-3-3-3-3-3-3-3-3-3-3-3-3-3-3-|
E|---------------------------------|

E|---------------------------------|
B|---------------------------------|
G|---------------------------------|
D|-2-------------------------------|
A|-0-0-0-0-0-0-0-0-0-0-0-0-0-0-0-0-|
E|---------------------------------|

E|------------------------------|
B|------------------------------|
G|------------------------------|
D|------------------------------|
A|-3-----3-----3-----3-----3--3-|
E|-1-1-1-1-1-1-1-1-1-1-1-1-1--1-|

E|---------------------------------|
B|---------------------------------|
G|---------------------------------|
D|-6-------------------------------|
A|-4-4-4-4-4-4-4-4-4-4-4-4-4-4-4-4-|
E|---------------------------------|

E|---------------------------------|
B|---------------------------------|
G|---------------------------------|
D|-2-------------------------------|
A|-0-0-0-0-0-0-0-0-0-0-0-0-0-0-0-0-|
E|---------------------------------|

E|---------------------------------|
B|---------------------------------|
G|---------------------------------|
D|---------------------------------|
A|-4-------------------------------|
E|-2-2-2-2-2-2-2-2-2-2-2-2-2-2-2-2-|

E|------------------------------|
B|------------------------------|
G|------------------------------|
D|-2-----2-----2-----2-----2--2-|
A|-0-0-0-0-0-0-0-0-0-0-0-0-0--0-|
E|------------------------------|

Riff 4:
Hooks in you
E|---------------------------------|
B|---------------------------------|
G|---------------------------------|
D|-9-------------------------------|
A|-7-7-7-7-7-7-7-7-7-7-7-7-7-7-7-7-|
E|---------------------------------|

I got those hooks in you
E|---------------------------------|
B|---------------------------------|
G|---------------------------------|
D|-5-------------------------------|
A|-3-3-3-3-3-3-3-3-3-3-3-3-3-3-3-3-|
E|---------------------------------|

Hooks in you
E|---------------------------------|
B|---------------------------------|
G|---------------------------------|
D|-2-------------------------------|
A|-0-0-0-0-0-0-0-0-0-0-0-0-0-0-0-0-|
E|---------------------------------|

in you
E|---------------------------------|
B|---------------------------------|
G|---------------------------------|
D|---------------------------------|
A|-3-------------------------------|
E|-1-1-1-1-1-1-1-1-1-1-1-1-1-1-1-1-|

Hooks in you
E|------------------------------|
B|------------------------------|
G|------------------------------|
D|-9-----9-----9-----9-----9--9-|
A|-7-7-7-7-7-7-7-7-7-7-7-7-7--7-|
E|------------------------------|

I got those hooks in you
E|------------------------------|
B|------------------------------|
G|------------------------------|
D|-5-----5-----5-----5-----5--5-|
A|-3-3-3-3-3-3-3-3-3-3-3-3-3--3-|
E|------------------------------|

Hooks in you
E|------------------------------|
B|------------------------------|
G|------------------------------|
D|-2-----2-----2-----2-----2--2-|
A|-0-0-0-0-0-0-0-0-0-0-0-0-0--0-|
E|------------------------------|

in you
E|------------------------------|
B|------------------------------|
G|------------------------------|
D|------------------------------|
A|-3-----3-----3-----3-----3--3-|
E|-1-1-1-1-1-1-1-1-1-1-1-1-1--1-|

E|---------------------------------|
B|---------------------------------|
G|---------------------------------|
D|-7-6---7-6---7-6---7-6---7-6---9-|
A|-----7-----7-----7-----7----7--7-|
E|---------------------------------|

Songstructure:
Riff 1 (6 times)
Chorus
Riff 1 (4 times)
Chorus
Riff 3
Solo-riff
Riff 1 (2 times)
Chorus
Riff 4

Lyrics:

I got the keys to view at number 22
Behind my Green doors there's nothing to see
Is that a future What can a creature
who've been hanging around waiting for a girl like me
Stone cold sober and sitting in silence, laid
back and looking for sympathy
I like a girl who knows where she's bound
I don't like girls who've been hanging around

Hooks in you, hooks in me, hooks in the ceiling
For that well hung feeling
No big deal, no big sin, strung up on love I
Got the hooks screwed in

She's tied up she can't come to the phone,
You must have got your wires crossed cos she ain't home
Knock on wood-you know I like that sound
She never could keep her feet on the ground

Hooks in you, hooks in me, hooks in the ceiling
For that well hung feeling
No big deal, no big sin, strung up on love I
Got the hooks screwed in

Hooks in you
I got those hooks in you
Hooks in you
in you

Right on the money got it wrapped up tight
New ideas for the decor tonight
Gonna make this house a preservation zone
Gonna set her in concrete set her up on her own

Hooks in you, hooks in me, hooks in the ceiling
For that well hung feeling
No big deal, no big sin, strung up on love I
Got the hooks screwed in

Hooks in you
I got those hooks in you
Hooks in you
in you

Вверх

Ides Of March

 -----------------------------------------------------------------------------
-----------------------------------------------------------------------------
-7--9-10--0-2-3--32---0-----10975---7--9----10-9-7----5~-7-----5--7----9--10
-----------------------------------------------------------------------------
(  = slide down )    The 1 and 0          ( ~ = slight bend )  Faster
above are a
ten, not
individual notes


-----------------------------------------------------------------------------
-----------------------------------------------------------------------------
-0-2-3----32--0----10975---7--9----10-9-7----5~-7----5---7--7-7--7--7-7--7--
-----------------------------------------------------------------------------
Faster


-----------------------------------------------------------------------------
-----------------------------------------------------------------------------
-7-7--7--9--10--10-10--10--10-10--10--10-10---0-2-3--3-3--3--3-3--3--3-3--2-2
-----------------------------------------------------------------------------

-----------------------------------------------------------------------------
-----------------------------------------------------------------------------
-0--0-0--0--0-0--0--0-0--10-9-7--5--5-5--5--5-5--5--5-5--5--7--9--9-9--9--9-9
-----------------------------------------------------------------------------

-----------------------------------------------------------------------------
-----------------------------------------------------------------------------
-9--9-9--10-9-7--7-7--7--7-7--7--7-7--5-5--7--7-7--7--7-7--7--7-7--5-5--7--7-
-----------------------------------------------------------------------------

-----------------------------------------------------------------------------
-----------------------------------------------------------------------------
-7--7--7-7--7--7-7--7--9--10--10-10--10--10-10--10--10-10---0-2-3--3-3--3--3-
-----------------------------------------------------------------------------

-----------------------------------------------------------------------------
-----------------------------------------------------------------------------
-3--3--3-3--2-2--0--0-0--0--0-0--0--0-0---10-9-7--5--5-5--5--5-5--5--5-5--5--
-----------------------------------------------------------------------------

-----------------------------------------------------------------------------
-----------------------------------------------------------------------------
-7--9--9-9--9--9-9--9--9-9--10-9-7--7-7--7--7-7--7--7-7--5-5--7--7-7--7--7-7-
-----------------------------------------------------------------------------

-----------------------------------------------------------------------------
-----------------------------------------------------------------------------
-7--7-7--5-5--7------9--10-----0-2-3------32-0---------10-9-7--5----7---9---
-----------------------------------------------------------------------------

---------------------||
---------------------||
-10-9-7----5/75-----||
------------------0--||

--------------------------------------------------------0-0---0-2-0----------
------------------------------------------------------------4-------4-0------
---5--7-7-7---------5--7-7-7-----------5-7-7-7-------------------------------
------------0-0-0-0-----------0-0-0-0-----------0-0-0-0----------------------

|--------------------------------------------0-0---0-2-0-----------|---------
|.-----------------------------------------------4-------4-0------.|---------
|.--5-7-7-7--7---5-7-7-7--7---5-7-7-7--7-7------------------------.|--3-3-3-3
|------------------------------------------------------------------|---------
Play 4 times


-----------------------------------------------------------------------------
-----------------------------------------------------------------------------
-2-2-2-2--5-7-7-7-7-7--5-7-7-7-7-5-3-3-3-3--2-2-2-2--5-7-7-7-7-7--5-7-7-7-7-5
-----------------------------------------------------------------------------

-----------------------------------------------------------------------------
-------------------5-5-5-5--4-4---4-------------------------------5-4-0------
-3-3-3-3--2-2-2-2---------------4---5-4---3-3-3-3-2-2-2-2-0-0-0-0------------
-----------------------------------------------------------------------------

---------------------------------------0-0---0-2-0---------------------------
-------------------------------------------4-------4-0-----------------------
-5-7-7-7-7-7--5-7-7-7-7-7--5-7-7-7-7-7------------------5-7-7-7-7-7-7--5-7-7-
-----------------------------------------------------------------------------

-----------------------0-0---0-2-0-------------------------------------------
---------------------------4-------4-0--------------2-0-----0-----0----------
-7-7-7--5-7-7-7-7-7-7---------------------5-5--7-7-------2-----2-----5-5--7-7
-----------------------------------------------------------------------------

-----------------------------------------------------------------------------
-5-6-7-2---0-------------2-0-----0----0-----------.---.-.---.-.----------.---
---------2------5-5-7-7-------2-----2-----3-3-3-3-3-0-3-3-0-3-3--5-5-5-5-5---
---------------------------------------------------------------------------7-
( . = staccatto )


-----------------------------------------------------------------------------
-.-.---.---------------------------------------------------------------------
-5-5---5-5-5-5--7-5---5----5---------------5-7-7-7-7-7--5-7-7-7-7-7--5-7-7-7-
-----7--------------7---7-----7--5--3--0-------------------------------------

---------------7---9-9-9-9-9-777---------------------------------------------
---------5--7--------------------9--7----------------------------------------
--5-6-7--------------------------------7---5-7-7-7-7-7--5-7-7-7-7-7-7--5-7-7-
-----------------------------------------------------------------------------

--------------9------7---------4---------------------------------------------
---------5-7----9-7----7--5--5---3--------------------------------------7-8-9
-7-5-6-7----------------------------5-7-7-7-7-7-7--5-7-7-7--7--7--5-7-7------
-----------------------------------------------------------------------------

-9--9-9-7--------------------------------------------------------0-0---0-2-0-
----------9-7--------------------------------------------------------4-------
---------------9-7------5-7-7-7-7-7--5-7-7-7-7-7--5-7-7-7-7-7-7--------------
--------------------9--------------------------------------------------------

-----------------------------------------------------------------------------
-4-0-----------.---.-.---.-.----------.---.-.----.-.-------------------------
-------3-3-3-3-3-0-3-3-0-3-3--5-5-5-5-5---5-5----5-5---7-5---5----5----------
----------------------------------------7------7-----------7----7----7--5-3-0

-----------------------------------------------------------------------------
---.-.------------------------.-.--------------------------.-.---------------
--02-2--2-5-2--2-5-2-2-0-----02-2--2-5-2--2-5-2-2-0-------02-2--2-5-2--2-5-2-
-------------------------3-0-------------------------3-0---------------------

-----------------------------------------------------------------------------
-----------.-.----------------------------.---------------------------.------
-2-0------02-2--2-5-2--2-5-2-2-0-------24-4--4-7-4--4-7-4-2-0------24-4--4-7-
-----3-0--------------------------3-0-------------------------3-0------------

-----------------------------------------------------------------------------
------------------------.------------------------------.---------------------
-7--4-7-4-2-0--------35-5---5-8-5--5-8-5-2-0--------35-5---5-8-5--5-8-5-2-0--
---------------3-0---------------------------3-0----------------------------3

---------------------------------------------------------------------0-0---0-
-------------------------------------------------------------------------4---
----0--7-5---5---5----------5-7-7-7-7-7--7-5-7-7-7-7-7--5-7-7-7-7-7----------
-0---------7---7---7-5-3-0---------------------------------------------------

-2-0---------------------------------------------0-0----0-2-0----------------
-----4-0----------------------------------------------4-------4-0------------
-----------5-7-7-7-7-7--5-7-7-7-7-7--5-7-7-7-7-7--------------------5-7-7-7-7
-----------------------------------------------------------------------------

----------------------------0-0---0-2-0--------------------------------------
-------------------------0------4--------4-0---------------------------------
-5-7-7-7-7--5-7-7-7-7-7------------------------5-7-7-7-7-7--5-7-7-7-7-7-7--5-
-----------------------------------------------------------------------------

----------------0-0----0-2-0-------------------------------------------------
---------------------4--------4-0--------------------------------------------
-7-7-7-7-7-7-7-----------------------3-3-3-3-3-3-3-3--2-2-2-2-2-2-2---5-7-7-7
-----------------------------------------------------------------------------

-----------------------------------------------------------------------------
-----------------------------------------------------------------------------
-7-7-7-7--5-7-7-7-7-5-3-3-3-3-3-3--2-2-2-2-2-2-2--5-7-7-7-7-7--7--5-7-7-7-7-5
-----------------------------------------------------------------------------

-----------------------------------------------------------------------------
-----------------------------------------------------7-5---------------------
-3-3-3-3-3-3-3-3--2-2-2-2-2-2-2-2--10-10-10-10-9-9-9-----7--3-3-3-3-3-3-3-3--
-----------------------------------------------------------------------------

-------------------------------------------------------------0-0----0-2-0----
-------------5-5--------------------------------------------------4-------4-0
-2-2-2-2-2-2------5---5-7-7-7-7-7--5-7-7-7-7-7--5-7-7-7-7-7------------------
-----------------------------------------------------------------------------

---------------------------------------0-0-----0-2-0-------------------------
--------------------------------------------4--------4-0-0-------------------
-5-7-7-7-7-7--5-7-7-7-7-7--5-7-7-7-7-7----------------------5-5-7-7--7-5-----
--------------------------------------------------------------------------7--

----------------------7------------------------------------------------------
------------------5-7---7----5-0-----------------------------------------.-.-
-5----5--5-5-7-7----------5------5-5-7-7--7-5-----5---5-5----3-3-3-3-3-0-3-3-
----7------------------------------------------7----7------------------------

-----------------------------------------------------------------------------
---.-.-----------.----.-.----.-.---------------------------------------------
-0-3-3---5-5-5-5-5----5-5----5-5---7-5---5---5---------7-5---5---5-----------
--------------------7------7-----------7---7---7-5-3-0-----7---7---7-5-3-0---

------------------------------||
------------------------^-----||
-7-5---5---5------------7----||
-----7---7---7-5-3-0----------||

Вверх

Infinite Dreams

[intro]
E|-------------------------------------|
B|-------------------------------------|
G|-------------------------------------|
D|-14^16--14^16v14p12---14--14^16~~~~~-|
A|-------------------------------------|
E|-------------------------------------|

E|--------------------------------------------------|
B|--------------------------------------------------|
G|----------------------15--12----------------------|
D|-14^16--14^16v14p12-----------14^16v14--12--14-()-|
A|--------------------------------------------------|
E|--------------------------------------------------|

[repeat twice, last time slide down ()]

Em7               C        D
Infinite dreams I cant deny them
infinity is hard to comprehend
I couldnt hear thouse screams even in my
wildest dreams
Suffocation waking in a sweat
scared to fall a sleep again in the case the
dream begins again
Em7               C        D

E(no 3rd)          C(no 3rd)      D(no 3rd)
Some-one chasing  I can-not   move
standing rigid a nigthmare statue
What a dream where will it end and will
I transcend.
Restless sleep the mind in turmoil
one nightmare ends another fertile
Its getting to me, so scared to sleep
but scared to wake now in too deep

[slow tempo]
E(no 3rd)        C(no 3rd)
Even though its reached new heights
D(no 3rd)
I rather like the resless nights it
E(no 3rd)        C(no 3rd)
makes me wonder, makes me think theres
D(no 3rd)
mopre to this Im on the brink its

G(no 3rd)         Eb(no 3rd)
not the   fear of whats beyond its
F(no 3rd)
just that I might not respond I
E(no 3rd)        C(no 3rd)
have an intrest al most craving but
F(no 3rd)
would I like to get far in. It

E(no 3rd)        C(no 3rd)     D(no 3rd)
cant be all co-incidence  too many things are evident, you
tell me youre an unbeliever spiritualist well Im neither but

G(no 3rd)         Eb(no 3rd)
wouldnt you like to know the truth
F(no 3rd)
of whats out there to have the proof and
G(no 3rd)         Eb(no 3rd)
find out just which side youre on where
F(no 3rd)
would you end in heaven or in

[riff 1]
Hell
E(!3)          C(!3)          D(!3)
E|-------------------------------------------------------------|
B|-------------------------------------------------------------|
G|-------------------------------------------------------------|
D|2-5-4-5-4-5-4-5-5-4-5-4-5-4-5-0-5-4-5-4-5-4-5-4-0-2-4-5-4-2-0|
A|---------------3---------------------------------------------|
E|-------------------------------------------------------------|

E(!3)           C(!3)             D(!3)
E|-----------------------------------------------------|
B|-----------------------------------------------------|
G|-----------------------------------------------------|
D|-2-5-4-5-4-5-4-5---5-4-5-4-5-4-5---0-5-4-5-7-5-4-----|
A|-----------------3-------------------------------7-5-|
E|-----------------------------------------------------|

[E!3 = E(no 3rd)]
[repeat riff 1]

E(!3)           C(!3)              D(!3)
E|------------------------------------------------------|
B|------------------------------------------------------|
G|-0-4-2-4-2-4-2-4---4-2-4-2-4-2-4------4-2-4-5-4-2-0---|
D|-----------------2------------------4---------------4-|
A|------------------------------------------------------|
E|------------------------------------------------------|

E(!3)           C(!3)              D(!3)(drums change)
E|------------------------------------------------------|
B|------------------------------------------------------|
G|-0-4-2-4-2-4-2-4---4-2-4-2-4-2-4------4-2-4-5-4-2-0---|
D|-----------------2------------------4---------------4-|
A|------------------------------------------------------|
E|------------------------------------------------------|

[riff 2]
[everything is played in triplets]
E(!3)         C(!3)              D(!3)
E|-------------------------------------------------------------|
B|-------------------------------------------------------------|
G|-------------------------------------------------------------|
D|------------------------------------------------4-5-4--5-4---|
A|-7-7-7--7-7-7--3-3-3--3-3-3-------5-5-5--5-5-5-------------5-|
E|-------------------------------------------------------------|

E(!3)           C(!3)            D(!3)
E|-------------------------------------------------------------|
B|-------------------------------------------------------------|
G|-------------------------------------------------------------|
D|-------------------------------------------------------------|
A|-7-7-7--7-7-7----3-3-3--3-3-3-----5-5-5--5-5-5--5-5-5--5-5-5-|
E|-------------------------------------------------------------|

[repeat riff 2]
G(!3)
E|-------------------------------------------------------------|
B|-------------------------------------------------------------|
G|-------------------------------------------------------------|
D|-------------------------------------------------------------|
A|------------------------------------------------2-2-2--2-3-5-|
E|-3-3-3--3-3-3----3-3-3--3-3-3-----3-3-3--3-3-3---------------|

G(!3)
E|-------------------------------------------------------------|
B|-------------------------------------------------------------|
G|-------------------------------------------------------------|
D|-------------------------------------------------------------|
A|------------------------------------------------2-2-2--2-3-5-|
E|-3-3-3--3-3-3--3-3-3--3-3-3-------3-3-3--3-3-3---------------|

[riff 3]
E(!3)         D(!3)              G(!3)         C(!3)  D(!3)
E|-------------------------------------------------------------|
B|-------------------------------------------------------------|
G|-------------------------------------------------------------|
D|----------------------------------5-5-5--5-5-5---------------|
A|-7-7-7--7-7-7--5-5-5--5-5-5---------------------3-3-3--5-5-5-|
E|-------------------------------------------------------------|

E(!3)         D(!3)              G(!3)
E|-------------------------------------------------------------|
B|-------------------------------------------------------------|
G|-------------------------------------------------------------|
D|-------------------------------------------------------------|
A|-7-7-7--7-7-7--5-5-5--5-5-5----------------------------------|
E|----------------------------------3---3----3-3----3------3-3-|

[repeat riff 3]

G(!3)
E|-------------------------------------------------------------|
B|-------------------------------------------------------------|
G|-------------------------------------------------------------|
D|-------------------------------------------------------------|
A|------------------------------------------------2-2-2--2-3-5-|
E|-3-3-3--3-3-3---3-3-3--3-3-3------3-3-3--3-3-3---------------|

G(!3)
E|-------------------------------------------------------------|
B|-------------------------------------------------------------|
G|-------------------------------------------------------------|
D|-------------------------------------------------------------|
A|------------------------------------------------2-2-2--2-3-5-|
E|-3-3-3--3-3-3----3-3-3--3-3-3-----3-3-3--3-3-3---------------|

F(!3)       C(!3)     G(!3)        F(!3)       C(!3)   G(!3)
E|-------------------------------------------------------------|
B|---------------------------8---8-----------------------------|
G|-10----p9p7-------------------------10----p9p7---------------|
D|-------------10--p9p7---------------------------10--p9p7-----|
A|-----------------------10---------------------------------10-|
E|-------------------------------------------------------------|

F(!3)       C(!3)     G(!3)         F(!3)       C(!3)
E|----------------------------------------------------------|
B|---------------------------8----8-------------------------|
G|-10----p9p7--------------------------10----p9p7-----------|
D|-------------10--p9p7----------------------------10--p9p7-|
A|-----------------------10---------------------------------|
E|----------------------------------------------------------|

[riff 4]
Em
E|---------------------------------------------|
B|-----------------------12--------------------|
G|-9----9h11h12---11h12------12---11--12~~~~~~-|
D|---------------------------------------------|
A|---------------------------------------------|
E|---------------------------------------------|

Em C [the guitar plays riff 4 while band plays Em C]
Em D [the guitar plays riff 4 while band plays Em D]
Em B [the guitar plays riff 4 while band plays Em B]
Em C [the guitar plays riff 4 while band plays Em C]
Em D [last chord for the band at the last tick]

[riff 5]
Em
E|-----------------------------------------|
B|-----------------------------------------|
G|-----------------------------------------|
D|-----------------------7-----------------|
A|-5----5h7h9------7h9--------9----7----9--|
E|-----------------------------------------|

Em C [the guitar plays riff 5 while band plays Em C]
Em D [the guitar plays riff 5 while band plays Em D]
Em B [the guitar plays riff 5 while band plays Em B]
Em C [the guitar plays riff 5 while band plays Em C]
Em D [last chord for the band at the last tick]

F#(!3)                         D(!3)         E(!3)  F#(!3) E(!3)
Help me help me to find my true self with-out seeing the fu-ture
F#(!3)                           D(!3)     E(!3)      A(!3)
Save me save me from torturing myself even within my  dreams.

[solo 1]
E(!3)^_____________v
E|---------------------------------|
B|--15^17----17-17-17v15--13----12-|
G|---------------------------------|
D|---------------------------------|
A|---------------------------------|
E|---------------------------------|
(bend up          release bend)

G(!3) _______E(!3)
E|-----15^17---v15-14-12-------------------------|
B|-12---------------------15-13-12---------------|
G|----------------------------------14-12-11-----|
D|--------------------------------------------14-|
A|-----------------------------------------------|
E|-----------------------------------------------|

G(!3) E(!3)                                           G(!3)
E|----------------------------12-------12-14-15-17-15-17-17^19-|
B|-------------13p12--15p13p12---15p12-------------------------|
G|------12p11-------14-----------------------------------------|
D|-12h14-----14------------------------------------------------|
A|-------------------------------------------------------------|
E|-------------------------------------------------------------|

E(!3)______
E|17^19-19-19-15-15-15-17-17-17-14-14-14-17p15p14-15p14---15p14|
B|------------------------------------------------------17-----|
G|-------------------------------------------------------------|
D|-------------------------------------------------------------|
A|-------------------------------------------------------------|
E|-------------------------------------------------------------|

G(!3) [solo 2] F#(!3)                     B(!3)
E|------------------------------------------------------|
B|-17--15p13-----17^19--[end solo 1]--------------------|
G|-----------16---------------------------------------9-|
D|-------------------------------------------9-11-12----|
A|--------------/9---------9-11-12--9-11-12-------------|
E|------------------------------------------------------|

F#(!3)                                           B(!3)
E|-------------------------------------------------------------|
B|-------15-14-12------------------------------------17--20^22-|
G|-10/11----------14-13h14p13-14-13-14-1311-13-11~~------------|
D|-------------------------------------------------------------|
A|-------------------------------------------------------------|
E|-------------------------------------------------------------|

F#(!3)___                  B(!3)   F#(!3)
E|-19^21----16-17-19-17p16---------16-17-----16----------------|
B|-------------------------19~~~~--------19-----18-19-15-17-14-|
G|-------------------------------------------------------------|
D|-------------------------------------------------------------|
A|-------------------------------------------------------------|
E|-------------------------------------------------------------|

Em                                                 B(!3)
E|------------------------------------------17-19-21--22^24~~~-|
B|-15----14-----------------------17-19-21---------------------|
G|----16----------------16-18-19-------------------------------|
D|------------16-18-19-----------------------------------------|
A|-------------------------------------------------------------|
E|-------------------------------------------------------------|

Em C [the guitar plays riff 4 while band plays Em C]
Em D [the guitar plays riff 4 while band plays Em D]
Em B [the guitar plays riff 4 while band plays Em B]
Em C [the guitar plays riff 4 while band plays Em C]
Em D [last chord for the band at the last tick]

Em   [the guitar plays riff 4 while band plays Em  ]
Em D [the guitar plays riff 4 while band plays Em D]

B(!3)            C(!3)    D(!3)
E|----------------------------------|
B|----------------------------------|
G|-4-------4--------5-4--5---7-5--7-|
D|-----4-------4--------------------|
A|----------------------------------|
E|----------------------------------|
Theres

E(!3)          C(!3)           D(!3)
got to be just more to it than this or tell me why do we exist.
Id like to think that when I die Id get a chance another time.
G(!3)          Eb(!3)          F(!3)
And to return and live again re - in car-nate playing the game
a - gain     and  a-gain   and a-
E(!3)
gain.

CHORDS

Em C D Em7 E(!3) C(!3) D(!3) G(!3) Eb(!3) F(!3) Em C Em D Em B
E|-0--0-2-7----------------------------------------0----0----0-|
B|-0--1-3-8----------------------------------------0----0----0-|
G|-0--0-2-7---9-----5-----7-----------8------------0----0----0-|
D|-2--2-0-9---9-----5-----7-----5-----8------3-----2----0----2-|
A|-2--3---7---7-----3-----5-----5-----6------3-----3---------2-|
E|-0--0---0---0-----------------3------------1-----------------|

F#(!3) A(!3) B(!3)
E|----------------|
B|----------------|
G|--------2-----4-|
D|-4------2-----4-|
A|-4------0-----2-|
E|-2--------------|

Вверх

Innocent Exile

       e q e q e e   e q e e e e e     e q e q e e   e q e e e e e 8
+---+----2---------+---2---4---4----+----2---------+---2---4---4----+
|8:-|*-0---0-------|-0---4---4---4-*|*-0---0-------|-0---4---4---4-*|
|8:-|*-------3---3-|---------------*|*-------3---3-|---------------*|
+---+----------3---+----------------+----------3---+----------------+
intro bass                      guitar enters

e e e e q e e   e e e e e e e e   e e e e q e e   e e e e e e e e
+----------------+-----------------+---------------+-----------------+
|*-----R---3-----|-R---3-----------|-----R---3-----|-R---3---5-3-----|
|*-5-5---5---5-5-|---5---5-5-0-3-4-|-5-5---5---5-5-|---5---5-----5-4-|
+----------------+-----------------+---------------+-----------------+
1st verse

e e e e q e e   e e e e e e e e   e e e e q e e   e e e e e e e e
+---------------+-----------------+---------------+------------------+
|-----R---1-----|-R---1-----------|-----R---1-----|-R---1-----------*|
|-3-3---3---3-3-|---3---3-3-0-1-2-|-3-3---3---3-3-|---3---3-3-0-4-0-*|
+---------------+-----------------+---------------+------------------+


e e e e e Q   e e e e e Q   e e e e e Q   e e e q e e e   e e e e e Q
+-------------+-------------+-------------+-------2-------+-------------+
|-----------R-|-----------R-|-----------R-|-----R---3-2-R-|-----------R-|
|-5-5-5-5-5---|-3-3-3-3-3---|-1-1-1-1-1---|-0-0-----------|-5-5-5-5-5---|
+-------------+-------------+-------------+---------------+-------------+


e e e e e Q   e e e e e Q   e e e q e e e    e e e e q e e   e e e e e e e e
+-------------+-------------+---------------+----------------+-----------------+
|-----------R-|-----------R-|-----R---------|*-----R---3-----|-R---3-----------|
|-3-3-3-3-3---|-1-1-1-1-1---|-0-0---3-0-3-4-|*-5-5---5---5-5-|---5---5-5-0-3-4-|
+-------------+-------------+---------------+----------------+-----------------+
2nd verse

e e e e q e e   e e e e e e e e   e e e e q e e   e e e e e e e e
+---------------+-----------------+---------------+-----------------+
|-----R---3-----|-R---3---5-3-----|-----R---1-----|-R---1-----------|
|-5-5---5---5-5-|---5---5-----5-4-|-3-3---3---3-3-|---3---3-3-0-1-2-|
+---------------+-----------------+---------------+-----------------+


e e e e q e e   e e e e e e e e    e e e e e Q   e e e e e Q   e e e e e Q
+---------------+------------------+-------------+-------------+-------------+
|-----R---1-----|-R---1-----------*|-----------R-|-----------R-|-----------R-|
|-3-3---3---3-3-|---3---3-3-0-4-0-*|-5-5-5-5-5---|-3-3-3-3-3---|-1-1-1-1-1---|
+---------------+------------------+-------------+-------------+-------------+


e e e q e e e   e e e e e Q   e e e e e Q   e e e e e Q   w+  w+  w
+-------2-------+-------------+-------------+-------------+---+---+---+
|-----R---3-2-R-|-----------R-|-----------R-|-----------R-|---|---|---|
|-0-0-----------|-5-5-5-5-5---|-3-3-3-3-3---|-1-1-1-1-1---|-0-|-0-|-0-|
+---------------+-------------+-------------+-------------+---+---+---+


e q e e e e e    Q e h   e e q h   e e q h   e e e e e q 3  Q e q e
+---7-----------+--------+---------+---------+--------------+---------+
|-9---9-9-9-7---|*-------|---------|---------|---R---R-----*|-------7-|
|-------------7-|*-------|-----3---|-----3---|-5---5---5-3-*|---------|
+---------------+--5-5-5-+-4-5---5-+-4-5---5-+--------------+-5-5-5---+


e e e e Q e   e e e e q q   e e e e e Q    Q e h   e e q h   e e q h
+-------------+-------------+-------------+--------+---------+---------+
|-5---------7-|-5---------R-|---R---R-----|*-------|---------|---------|
|---7-5-------|---7-5-------|-5---5---5-3-|*-------|-----3---|-----3---|
+-------8-5---+-------8-5---+-------------+--5-5-5-+-4-5---5-+-4-5---5-+


e e e e e q    w+  w      e q e q e e   e q e e e e e     e q e q e e
+--------------+---+---+----2---------+---2---4---4----+----2---------+
|---R---R-----*|-2-|-2-|*-0---0-------|-0---4---4---4-*|*-0---0-------|
|-5---5---5-3-*|---|---|*-------3---3-|---------------*|*-------3---3-|
+--------------+---+---+----------3---+----------------+----------3---+
as intro

e q e e e e e 8   e e q e e e e 3  e e e^e^e e^e^e e e    e e q e e e e 8
+---2---4---4----+-----------------+---------------------+-----------------+
|-0---4---4---4-*|*-----3---------*|-------5-6-7-7-7-5---|*-----3---------*|
|---------------*|*-5-5---5---3-4-*|-5-5-8-------------5-|*-5-5---5---3-4-*|
+----------------+----------3------+---------------------+----------3------+
compound rhythm (e e means q^e)         guitar solo

e e e e e e e e   e e e e e e e e   e e e e e e e e   e e e e e e e e 5
+------------------+-----------------+-----------------+------------------+
|*-----------------|-----------------|-----------------|-----------------*|
|*-5-5-5-5-5-5-5-5-|-3-3-3-3-3-3-3-3-|-1-1-1-1-1-1-1-1-|-0-0-0-0-3-0-3-4-*|
+------------------+-----------------+-----------------+------------------+


e e e e e e e e   e e e e q e e   e e e e e^e^e e e   e e e e e e e e
+-----------------+-----------0-2-+-3-3-3-3-2-2-------+-----------------+
|-----------------|---------3-----|-------------3-----|-----------------|
|-5-5-5-5-5-5-5-5-|-3-3-3-3-------|---------------4-2-|-0-0-0-0-3-0-3-4-|
+-----------------+---------------+-------------------+-----------------+


e e e e e e e e   e e e e q e e   e e e e e e e e   e e e e e e e e
+-----------------+---------------+-----------------+-----------------+
|-------------3---|---------3-3-3-|-----------------|-----3-0-3-0-3-0-|
|-5-5-5-5-5-5---5-|-3-3-3-3-------|-1-1-1-1-1-1-1-1-|-0-0-------------|
+-----------------+---------------+-----------------+-----------------+


e e e e e e e e   e e e e q e e   e e e^e^e e e e^e^e   e e e^e^e e e e^e^e
+-----------------+---------------+---------------------+---------------------+
|-0-0-0-0-0-0-0-0-|---------3-0-0-|---------------------|---------------------|
|-----------------|-3-3-3-3-------|-1-1-1-1-1-1-1-1-1-1-|-0-0-0-0-0-3-3-3-3-3-|
+-----------------+---------------+---------------------+---------------------+


e e e e e e e e   e e e e e e e e   e e e e e e e e   e e e e e e e e
+-----------------+-----------------+-----------------+-----------------+
|-------------3---|---------5-3-----|-----------------|-----------------|
|-5-5-5-5-5-5---5-|-3-3-3-3-----5-3-|-1-1-1-1-1-1-1-1-|-0-0-0-0-3-0-3-4-|
+-----------------+-----------------+-----------------+-----------------+


e e e e e e e e   e e e e q e e   e^e^e e^e^e e^e^e e^e^e
+-----------------+-----------0-2-+-3-3-3-3-3-3-2-2-2-2-2-2-+
|-----------------|---------3-----|-------------------------|
|-5-5-5-5-5-5-5-5-|-3-3-3-3-------|-------------------------|
+-----------------+---------------+-------------------------+


e^e^e e^e^e e^e^e e^e^e    e e e^e^e e e e^e^e   e e e^e^e e e e^e^e
+-------------------------+----------------------+---------------------+
|-3-3-3-3-3-3-------------|*---------------------|---------------------|
|-------------3-3-3-3-3-3-|*-5-5-5-5-5-5-5-5-5-5-|-3-3-3-3-3-3-3-3-3-3-|
+-------------------------+----------------------+---------------------+


e e e^e^e e e e^e^e   e e e^e^e e e e e    e e e e e Q   e e e e e Q
+---------------------+--------------------+-------------+-------------+
|---------------------|-------------------*|-----------R-|-----------R-|
|-1-1-1-1-1-1-1-1-1-1-|-0-0-0-0-0-3-0-3-4-*|-5-5-5-5-5---|-3-3-3-3-3---|
+---------------------+--------------------+-------------+-------------+
binary rhythm

e e e e e Q   e e e q e e e   e e e e e Q   e e e e e Q   e e e e e Q   w
+-------------+-------2-------+-------------+-------------+-------------+---+
|-----------R-|-----R---3-2-R-|-----------R-|-----------R-|-----------R-|---|
|-1-1-1-1-1---|-0-0-----------|-5-5-5-5-5---|-3-3-3-3-3---|-1-1-1-1-1---|-0-|
+-------------+---------------+-------------+-------------+-------------+---+


Q Q   Q Q   Q Q   Q Q     e^e^e e^e^e e^e^e e^e^e
+-------+-----+-----+-----+---------------------------+
|6:-----|-----|-----|-----|8:---------------------7-7-|
|8:-0-1-|-0-1-|-0---|-----|8:-5-5-5-5-5-5-5-5-5-5-----|
+-------+-----+---3-+-1-0-+---------------------------+


e^e^e e^e^e s s s s e^e^e   q q h+  w+  h h
+-7-7-7-7-7-7-7-7-5---------+-------+---+-----+
|-------------------7-7-5---|-5-----|---|---R-|
|-------------------------8-|---8-5-|-5-|-5--|
+---------------------------+-------+---+-----+

Вверх

Invaders

Intro:
s s s s s s s e   e+s   e   e   e   e   e   e   [x3]
G|---||-----------------------------5-------7------/9----||
D|-6-||-------------------------5-------5-------5--------||
A|-4-||-7-7-7-7-7-R-3-R---5------------------------------||
E|---||--------------------------------------------------||

s s s s e   s s s s e   s s s s+h
G|---------------------------------|
D|---------------------------------|
A|-7-7-7-7-R---3-3-3-3-R---5-5-3-5-|
E|---------------------------------|

Riff 1:
q   e e e e e e   q   q   e q e
G|---||-----------------|----------------|
D|-4-||-----------7-5---|-5---5----------|
A|-4-||-0---0-5h7-----7-|---------0-5-3--|
E|---||-----------------|----------------|

q   e e e e e e   q   e e e e e e [x4]
G|-----------------|-----------------||
D|-----------7-5---|-----------2-5---||
A|-0---0-5h7-----7-|-3---3-3-5-----3-||
E|-----------------|-----------------||

Verse:
>                 >
q   e e e e e e   q   e e e e e e
G||-----------------|-----------9-7---|
D||-----------------|-------7h9-----9-|
A||-7---7-7-7-7-7-7-|-7---7-----------|
E||-----------------|-----------------|

>                 >
q   e e e e e e   q   e e e e e e [x2]
G|-----------------|-----------7-5---||
D|-----------------|-------5h7-----7-||
A|-3---3-3-3-3-3-3-|-5---5-----------||
E|-----------------|-----------------||

>                 >
q   e e e e e e   q   q   e e e e
G|-----------------|-----9---7-------|
D|-----------------|-----------9-7---|
A|-7---7-7-7-7-7-7-|-7-------------10|
E|-----------------|-----------------|

>                 >
q   e e e e e e   q   e e e e e e
G|-----------------|-----------7-5---|
D|-----------------|-------5h7-----7-|
A|-3---3-3-3-3-3-3-|-5---5-----------|
E|-----------------|-----------------|

>                 >
q   e e e e e e   q   e e e e e e
G|-----------------|-----------9-7---|
D|-----------------|-------7h9-----9-|
A|-7---7-7-7-7-7-7-|-7---7-----------|
E|-----------------|-----------------|

>                 >
q   e e e e e e   q   e e e e e e
G|-----------------|-----------7-5---|
D|-----------------|-------5h7-----7-|
A|-3---3-3-3-3-3-3-|-5---5-----------|
E|-----------------|-----------------|

Riff 2:
q+e   q   e e e [x4]
G||-----------------||
D||-----------------||
A||-7-----5---4-----||
E||-------------5-3-||

Riff 3:
e e e e e e e e   e e e e e e e e [x4]
G||-----------------|-----------------||
D||-----------------|-----------------||
A||-----------------|-------R---R-----||
E||-7-7-7-7-7-7-7-7-|-7-7-4---4---4-5-||

Chorus:
q   q   q  q      e e e e e q
G||-----------------|-----5-6-8-------|
D||-----------------|-6-8-------------|
A||-R---6-------R---|-----------R-----|
E||---------4-------|-----------------|

q   q   q  q        q  e e e e e e [x2]
G||-----------------|-6h8--6-5---------||
D||-----------------|----------8-6-5---||
A||-R---6-------R---|----------------8-||
E||---------4-------|------------------||

Guitar Solo:
e e e q   e e e   e e e e e e e e
G||-----------------|-----------------|
D||-3-2-------------|-----------------|
A||-----5-3---3-3-3-|-3-3-3-3-3-3-3-3-|
E||-----------------|-----------------|

e e e e e e e e   e e e e e e e e
G|-----------------|-----------------|
D|-3-2-----3-2-----|-3-2-----3-2-----|
A|-----5-3-----5-3-|-----5-3-----5-3-|
E|-----------------|-----------------|

e e e q   e e e   e e e e e e e e
G|-----------------|-----------------|
D|-----------------|-----------------|
A|-3-2-------------|-----------------|
E|-----5-3---3-3-3-|-3-3-3-3-3-3-3-3-|

e e e e e e e e   e e e e e e e e [x2]
G|-----------------|-----------------||
D|-----------------|-----------------||
A|-3-2-----3-2-----|-3-2-----3-2-----||
E|-----5-3-----5-3-|-----5-3-----5-3-||

Outro:
s s s s s s s e   e+s   e   e   e   e   e   e   [x3]
G|---||-----------------------------5-------7------/9----||
D|-6-||-------------------------5-------5-------5--------||
A|-4-||-7-7-7-7-7-R-3-R---5------------------------------||
E|---||--------------------------------------------------||

s s s s e   s s s s e   s s s s+h
G|-----------------------------------|
D|-----------------------------------|
A|-7-7-7-7-R---3-3-3-3-R---7-7-5-7---|
E|-----------------------------------|

Вверх

Iron Maiden
mp3

   N.C.
E|---------------0--|-----------|---------------0--|-----------|
B|------------------|--1--------|------------------|--1--------|
G|-2-----2p1p0------|----0--2-0-|-2-----2p1p0------|----0--2-0-|
D|------------------|-----------|------------------|-----------|
A|------------------|-----------|------------------|-----------|
E|------------------|-----------|------------------|-----------|

E|------------------|-----------|------------------|-----------|
B|-1-------------5--|--1--------|-1-------------5--|--1--------|
G|-2-----2p1p0---0--|----0--2-0-|-2-----2p1p0---0--|----0--2-0-|
D|------------------|-----------|------------------|-----------|
A|------------------|-----------|------------------|-----------|
E|------------------|-----------|------------------|-----------|

[riff A]
Am-I
E|---------------0--|-----------|---------------0--|-----------|
B|---------------1--|--1--------|---------------1--|-1---------|
G|-2---2--2p1p0--2--|--2-0--2-0-|-2---2--2p1p0--2--|-2--0--2-0-|
D|-2----------------|--2--------|-2----------------|-2---------|
A|-0----------------|-----------|-0----------------|-----------|
E|------------------|-----------|------------------|-----------|
[end riff A]

[repeat riff A]

[section 1]
Am 5fr                          G
Wont you come into my room,   I wanna show you all my wares
I just want to see your blood, I just want to stand and stare
See the blood beging to flow   as it falls upon the floor
Iron Maiden cant be fought    Iron Maiden cant be sought

[repeat riff A]
[repeat riff A]

C                  G                D                   Am fr5
Oh Well            wher-ever        wher-ever you are
Iron Maidens      gonna get you    no matter how     far
see the blood flow watching it shed    upon above my  head
Iron Maiden        wants you for    dead.

[end section 1]

[repeat riff A]
[repeat riff A]

[repeat section 1]
[last time only D]

Dead.
D     N.C.
E|------|-------------------------|----------------------------|
B|------|-------------------------|------------------------1---|
G|------|-------------------------|----------------0---2-------|
D|------|---------------0---2---3-|--0---2---3-----------------|
A|------|--0---2---3--------------|----------------------------|
E|------|-------------------------|----------------------------|

[riff 2]
Am
E|--3----1---0---------0------|--------------------------0---1-|
B|-(1)------------3---------1-|--------0----1--------3---------|
G|-(2)-----------(2)----------|---2-----------------(2)--------|
D|-(2)-----------(2)----------|--(2)----------------(2)--------|
A|-(0)------------------------|--(0)---------------------------|
E|----------------------------|--------------------------------|
[Second guitar play the notes within ()]
[end riff 2]

[repeat riff 2]
[repeat riff 2]

Am7                 N.C.[repeat 3 times         ]    Am 5fr
E|-3----------------|------------------------------------|--5--|
B|-1----------------|------------------------------------|--5--|
G|-2----------------|------------------------------------|--5--|
D|-2----------------|--2------0--------------------------|--7--|
A|-0----------------|----2--0------3------------2--------|--7--|
E|------------------|------------3-----------2------5--3-|--5--|

[repeat section 1]
[END]
Am 5fr [strum as fast as you can]
E|--5--|
B|--5--|
G|--5--|
D|--7--|
A|--7--|
E|--5--|

CHORDS

Am-I  Am  Am 5fr  G  C    D  Am7
E|-------0-----5-----3--8----5---3-|
B|-------1-----5-----3--8----7---1-|
G|--2----2-----5-----4--9----7---2-|
D|--2----2-----7-----5--10---7---2-|
A|--0----0-----7-----5--10---5---0-|
E|-------------5-----3--8----------|

Вверх

Ive Got The Fire

Riff 1:
E|-------------------------------------------------------|
B|-------------------------------------------------------|
G|-------3-----------3---5-3-----------------------------|
D|---3-5-----5-3-5-5---5-----5-4-3-------------3---5-----|
A|-5-------------------------------5-4-3-1-----1---3---5-|
E|-----------------------------------------3-----------3-|

Riff 2:
E|------------------------------|------------------------------|
B|------------------------------|------------------------------|
G|------------------------------|------------------------------|
D|------------------------------|------------------------------|
A|----------------------5-------|-----------------------5------|
E|3-3-3-3-3-3-3-3-3-3-3-3-0-1-2-|-3-3-3-3-3-3-3-3-3-3-3-3-0-1-2|

Verse:
1.If you?re looking for someone that you can keep then, baby,
pass me by
2.So you think I?m skinny, don?t you sell me cheap I?m as wide
as a country-mile
E|---------------|
B|---------------|
G|-----3---5-----|
D|-5---3---5---5-|
A|-5---1---3---5-|
E|-3-----------3-|

And if you wanted something that?s twenty years deep Baby,
don?t even try
Some like it wide, I like it deep Guess which one is my style
E|---------------------------|
B|---------------------------|
G|-----3---5-------3---------|
D|-5---3---5---5-----5---3-5-|
A|-5---1---3---5-------------|
E|-3-----------3-------------|

And if you wanted someone to take your soul I?ll lift you up
little bit higher
So you think you can beat me by my own game Maybe I call you a
liar
E|-----------------------|
B|-----------------------|
G|-----3---5---3---3---3-|
D|-5---3---5---3---3---3-|
A|-5---1---3---1---1---1-|
E|-3---------------------|

Solo-riff:
E|---------------|
B|---------------|
G|-----3---5-----|
D|-5---3---5---5-|
A|-5---1---3---5-|
E|-3-----------3-|

E|-----------------------|
B|-----------------------|
G|-----3---5---3---3---3-|
D|-5---3---5---3---3---3-|
A|-5---1---3---1---1---1-|
E|-3---------------------|

Songstructure:
Riff 1 (2 times)
Riff 2
Verse 1
Riff 1 (2 times)
Solo and drum bridge
Solo-riff
Riff 1
Riff 2
Verse 2
Riff 1 (2 times)

Lyrics:

If you?re looking for someone that you can keep
then, baby, pass me by
And if you wanted something that?s twenty years deep
Baby, don?t even try
And if you wanted someone to take your soul
I?ll lift you up little bit higher

I?ve got the fire
I?ve got the fire

So you think I?m skinny, don?t you sell me cheap
I?m wide as a counrty-mile
Some like it wide, I like it deep
Guess which one is my style
So you think you can beat me by my own game
Maybe I call you a liar

I?ve got the fire
I?ve got the fire

Вверх

Killers

   Intro
e  e  e  e  e  e  e  e     e  e  e  e  e  e  e  e     e  e  e  e  e
||--------------------------|--------------------------|---------------------
||--------------------------|--------------------------|---------------------
||--7-----7-----7-----7-----|--7-----7-----7-----7-----|--5-----5-----3------
||-----0-----0-----0-----0--|-----0-----0-----0-----0--|-----0-----0---------

e  q       e  e  e  e  e  e  e  e     e  e  e  e  e  e  e  e     e  e  e
--------|--------------------------|--------------------------|--------------
--------|--------------------------|--------------------------|--------------
---2/---|--7-----7-----7-----7-----|--7-----7-----7-----7-----|--7-----7-----
0-------|-----0-----0-----0-----0--|-----0-----0-----0-----0--|-----0--------

e  e  e  e  e     e  e  e  e  e  e  q       e  e  e  e  e  e  e  e
---------------|-------------------------|--------------------------||-------
---------------|-------------------------|--------------------------||*------
---7-----7-----|--5-----5-----3-----2/---|--7-----7-----7-----7-----||*------
0-----0-----0--|-----0-----0-----0-------|-----0-----0-----0-----0--||-------
Oh______________________
Section A
e  e  e  e  e  e  e  e     e  e  e  e  e  e  e  e     e  e  e  e  e  e
-------------------------|--------------------------|------------------------
-------------------------|--------------------------|------------------------
-7-----7-----7-----7-----|--7-----7-----7-----7-----|--5-----5-----3---------
----0-----0-----0-----0--|-----0-----0-----0-----0--|-----0-----0-----0------
yeah                       yeah

q       e  e  e  e  e  e  e  e     e  e  e  e  e  e  e  e     e  e  e  e
-----|--------------------------|--------------------------|-----------------
-----|--------------------------|--------------------------|-----------------
2/---|--7-----7-----7-----7-----|--7-----7-----7-----7-----|--7-----7--------
-----|-----0-----0-----0-----0--|-----0-----0-----0-----0--|-----0-----0-----
Ah                         yeah

e  e  e  e     e  e  e  e  e  e  q       e  e  e  e  e  e  e  e
------------|-------------------------|--------------------------||----------
------------|-------------------------|--------------------------||----------
7-----7-----|--5-----5-----3-----2/---|--7-----7-----7-----7-----||----------
---0-----0--|-----0-----0-----0-------|-----0-----0-----0-----0--||----------

Section B
e  e  e  e  e  e  e  e     e   e  e   e  e   e  e   e     e  e  e  e  e
-------------------------|------------------------------|--------------------
-7-----7-----7-----7--9--|--10-----10-----10-----10-----|--5-----5-----5-----
----0-----0-----0--------|------0------0------0------0--|-----0-----0--------
-------------------------|------------------------------|--------------------

e  e  e     e  e  e  e  e  e  e  e     e  e  e  e  e  e  e  e     e   e
---------|--------------------------|--------------------------|-------------
---5-----|--7-----7-----7-----7-----|--7-----7-----7-----7--9--|--10---------
0-----0--|-----0-----0-----0-----0--|-----0-----0-----0--------|------0------
---------|--------------------------|--------------------------|-------------

|-- Ending 1 -------------------------------------------
e   e  e   e  e   e      e  e  e  e  e  e  e  e     e  e  e  e  e  e  e
---------------------|---------------------------|---------------------------
10-----10-----10-----|---5-----5-----5-----5-----|--7-----7-----7-----5------
----0------0------0--|------0-----0-----0-----0--|-----0-----0-----0---------
---------------------|---------------------------|---------------------------
Oh_______________________

---- |-- Ending 2 ------------------------------------------
e        e  e  e  e  e  e  e  e     e  e  e  e  e  e  e  e
----||---------------------------|--------------------------||---------------
7--*||---5-----5-----5-----5-----|--7-----7-----7-----7--5--||*--------------
---*||------0-----0-----0-----0--|-----0-----0-----0--------||*--------------
----||---------------------------|--------------------------||---------------
Ooh______________________________
Section C
e     s  s  e     s  s  e     s  s  e     s  s     e     s  s  e     s
-------------------------------------------------|---------------------------
-------------------------------------------------|---------------------------
-7-----7--7--7-----7--7--7-----7--7--7-----7--7--|--7-----7--7--7-----7------
-------------------------------------------------|---------------------------
Look out !!!

s  e     s  s  e     e     e  e  e  e  e  e  e  e     e  e  e  e  e  e  e
------------------------|--------------------------|-------------------------
------------------------|-----5--4-----5--4-----5--|--4-----5--4--5-----5----
7--7-----7--7--7-----0--|--5--------5--------5-----|-----5-----------5-------
------------------------|--------------------------|-------------------------


e     e     s  s  e     s  s  e     s  s  e     s  s     e     s  s  e
---|--------------------------------------------------|----------------------
7--|--------------------------------------------------|----------------------
---|--7-----7--7--7-----7--7--7-----7--7--7-----7--7--|--7-----7--7--7-------
---|--------------------------------------------------|----------------------


s  s  e     s  s  e     e     e  e  e  e  e  e  e  e     e  e  e  e  e  e
---------------------------|--------------------------|----------------------
---------------------------|-----5--4-----5--4-----5--|--4-----5--4--5-------
7--7--7-----7--7--7-----0--|--5--------5--------5-----|-----5-----------5----
---------------------------|--------------------------|----------------------

Section D
e  e       e     s  s  e     s  s  e     s  s  e     s  s     e     s  s
------||---------------------------------------------------|-----------------
5--7--||---------------------------------------------------|-----------------
------||---7-----7--7--7-----7--7--7-----7--7--7-----7--7--|--7-----7--7-----
------||---------------------------------------------------|-----------------
(1,4) You  walk        through the sub   -     way   His      eyes
(2)   My     innocent              victims           are      slaughtered
(3)        death       call  arises                  a        scream

e     s  s  e     s  s  e     e     e  e  e  e  e  e  e  e     e  e  e  e
---------------------------------|--------------------------|----------------
---------------------------------|-----5--4-----5--4-----5--|--4-----5--4----
7-----7--7--7-----7--7--7-----0--|--5--------5--------5-----|-----5----------
---------------------------------|--------------------------|----------------
burn  a     hole      through your  back
by      wrath       and   des  -  pite
breaks      the       still   of   the   night

e  e  e  e     e     s  s  e     s  s  e     s  s  e     s  s     e     s
------------|--------------------------------------------------|-------------
5-----5--7--|--------------------------------------------------|-------------
---5--------|--7-----7--7--7-----7--7--7-----7--7--7-----7--7--|--7-----7----
------------|--------------------------------------------------|-------------
A     foot   -    step  be -  hind        you   he       lun
The   mocking           of    religion          of       hatred
A  - nother       tomorrow                      remember

s  e     s  s  e     s  s  e     e     e  e  e  e  e  e  e  e     e  e  e
------------------------------------|--------------------------|-------------
------------------------------------|-----5--4-----5--4-----5--|--4-----5----
7--7-----7--7--7-----7--7--7-----0--|--5--------5--------5-----|-----5-------
------------------------------------|--------------------------|-------------
-     ges   pre -  pared for  at -  tack
that   burns  in  the   night
to     walk   in  the   light

Section E
e  e  e  e  e       e     s  s  e     s  s  e     s  s  e     e   [e]
---------------||-----------------------------------------------|------------
4--5-----5--7--||-----------------------------------------------|------------
------5--------||---3-----3--3--3-----3--3--3-----3--3--5-----7-|-[7]--------
---------------||-----------------------------------------------|------------
Scream                                   for  mer-cy
I                                        have no -one
I                                        have found you

s  s  e     s  s  e     s  s  e     s  s     e     s  s  e     s  s  e
------------------------------------------|----------------------------------
------------------------------------------|----------------------------------
7--7--7-----7--7--7-----7--7--7-----7--7--|--3-----3--3--3-----3--3--3-------
------------------------------------------|----------------------------------
He       laughs    as     hes  watching
Am       bound     to     destroy
And      now       there  no      place

s  s  e     e   [e]    s  s  e     s  s  e     s  s  e     s  s     e
--------------|--------------------------------------------------|-----------
------------5-|-[5]----5--5--5-----5--5--5-----5--5--5-----5--5--|-----------
3--3--3-------|--------------------------------------------------|--3--------
--------------|--------------------------------------------------|-----------
you      bleed______                                                Kill -
in       this   greed                                               A voice
to     run                                                 Excitement

s  s  e     s  s  e     s  s  e     e   [e]    s  s  e     s  s  e     s
--------------------------------------|--------------------------------------
--------------------------------------|--------------------------------------
3--3--3-----3--3--3-----3--3--5-----7-|-[7]----7--7--7-----7--7--7-----7-----
--------------------------------------|--------------------------------------
er                            be - hind______  you
in - side   me
shakes me

s  e     s  s     e     s  s  e     s  s  e     s  s  e     e   [q]
---------------|----------------------------------------------|--------------
---------------|----------------------------------------------|--------------
7--7-----7--7--|--3-----3--3--3-----3--3--3-----3--3--3-----2-|-[2]----------
---------------|----------------------------------------------|--------------
His      blood    lust   de    -   fies    all    his______
Com   -  pell  -  ing    to         satisfy_____________
Oh       God      help   me        what     have   I________

e  e  e  e  e  e   [q]          e  e  e  e  e  e   [q]          e  e
--------------------|-------------------------------|------------------------
--------------------|-------------------------------|------------------------
---2--2--2--0-----2-|-[2]----------2--2--2--0-----3-|-[3]----------3--3------
---------------2----|--------------------------2----|------------------------
needs________________________________________________
me___________________________________________________
done______________________________________________  Oh yeah

to CODA I
to CODA II                                        Section F
e  e  e  e   [q]          e  e  e  e  e  e                e     s  s  e
-----------|--------------------7------------||--||--------------------------
-----------|--------------5--7-----7--4-----*||--||*------------7--7--7------
3--2--3--5-|-[5]-------------------------5--*||--||*------7------------------
-----------|---------------------------------||--||--------------------------


s  s  e     s   s   e      s  s     e     s  s  e     s   s   e      s
------------------------------------|----------------------------------------
---9--9--9-----10--10--10-----9--9--|--9-----7--7--7-------------------------
------------------------------------|--------------------10--10--10-----9----
------------------------------------|----------------------------------------


s   s  s  e            e     s  s  e     s  s  e     s   s   e      s  s
-----------------|-----------------------------------------------------------
-----------------|-----------7--7--7-----9--9--9-----10--10--10-----9--9-----
10--10p9---------|-----7-----------------------------------------------------
----------10-----|-----------------------------------------------------------

Section G
e     s  s  e     s   s   e      Q               q     e  e  q     e
|----------------------------------------------||---------r-----------r------
|--9-----7--7--7------------------------------*||---------e-----------e------
|--------------------10--10--10---------------*||---------s-----------s------
|-----------------------------------10---------||---3-----t--5--5-----t------


e     e     s  s  e     s  s  e     e     e     e     q     e  e  q     e
---|--------------------------------------------r--|--------r-----------r----
---|--------------------------------------------e--|--------e-----------e----
7--|--7-----5--5--5-----5--5--5-----7-----7-----s--|--------s-----------s----
---|--------------------------------------------t--|--3-----t--5--5-----t----


e     e     e  e     e  e     e     e  e        q     e  e  q     e  e
---|-----------r--------r--------------r-----|--------r-----------r-----|----
---|-----------e--------e--------------e-----|--------e-----------e-----|----
7--|--7-----5--s-----5--s-----5-----7--s-----|--------s-----------s--7--|----
---|-----------t--------t--------------t-----|--3-----t--5--5-----t-----|----


e     s  s  e     s  s  e     e     e     e     q     e  Q           q
------------------------------------------r--|--------r--------------r-------
------------------------------------------e--|--------e--------------e-------
7-----5--5--5-----5--5--5-----7-----7-----s--|--------s--------------s-------
------------------------------------------t--|--3-----t--5-----------t-------

Section H
e     s  s  e     s  s  e     s  s  e     s  s     e     s  s  e
--||---------------------------------------------------|---------------------
--||---------------------------------------------------|---------------------
--||---------------------------------------------------|---------------------
--||---1-----1--1--1-----1--1--1-----1--1--1-----1--1--|--1-----1--1--1------
I_____________________________________________________

s  s  e     e     e     e   [e]    e     e     s  s  e     s  s  e
-----------------------------|-----------------------------------------------
-----------------------------|-----------------------------------------------
-----------------------------|-----------------------------------------------
---1--1--1-----0-----1-----3-|-[3]----3-----3-----3--3--3-----3--3--3--------
can  see______

s  s     e     s  s  e     s  s  e     e     e     e   [e]    s  s  e
------|----------------------------------------------|-----------------------
------|----------------------------------------------|-----------------------
------|--------------------------------0-----2-----3-|-[3]----3--3--3--------
3--3--|--3-----3--3--3-----3--3--3-------------------|-----------------------
What  a  knifes___________________

s  s  e     s  s  e     s  s     e     s  s  e     s  s  e     e     e
------------------------------|----------------------------------------------
------------------------------|----------------------------------------------
3--3--3-----3--3--3-----3--3--|--3-----3--3--3-----3--3--3-----2-----3-------
------------------------------|----------------------------------------------
meant  to   be______

e   [e]    s  s  e     s  s  e     s  s  e     s  s     e     s  s  e
--|--------------------------------------------------|-----------------------
--|--------------------------------------------------|-----------------------
5-|-[5]----5--5--5-----5--5--5-----5--5--5-----5--5--|--5-----5--5--5--------
--|--------------------------------------------------|-----------------------

Section I
s  s  e     e     e     e     [e]    e     e     s  s  e     s  s  e
--------------------------||-------------------------------------------------
--------------------------||-------------------------------------------------
5--5--5-----5-------------||-------------------------------------------------
------------------0-----1-||--[1]----1-----1-----1--1--1-----1--1--1---------
(And) youll_______________________

s  s     e     s  s  e     s  s  e     e     e     e   [e]    e     e
------|----------------------------------------------|-----------------------
------|----------------------------------------------|-----------------------
------|----------------------------------------------|-----------------------
1--1--|--1-----1--1--1-----1--1--1-----0-----1-----3-|-[3]----3-----3--------
ne -  ver know________

s  s  e     s  s  e     s  s     e     s  s  e     s  s  e     e     e
------------------------------|----------------------------------------------
------------------------------|----------------------------------------------
------------------------------|--------------------------------0-----2-------
3--3--3-----3--3--3-----3--3--|--3-----3--3--3-----3--3--3-------------------
How    I    came_____

e   [e]    s  s  e     s  s  e     s  s  e     s  s     e     s  s  e
--|--------------------------------------------------|-----------------------
--|--------------------------------------------------|-----------------------
3-|-[3]----3--3--3-----3--3--3-----3--3--3-----3--3--|--3-----3--3--3--------
--|--------------------------------------------------|-----------------------


s  s  e     s  s  e     s  s     q        e  q           e  q      [H]
------------------------------|-----------r--------------r-------|-----------
------------------------------|-----------e--------------e-------|-----------
3--3--3-----3--3--3-----3--3--|--5--------s--5-----------s--5----|-[5]-------
------------------------------|-----------t--------------t-------|-----------
to    fore -   see,        see,___        see,_______

Section J
e     s  s  e     s  s  e     s  s  e     s  s
-----------------||---------------------------------------------------|------
-----------------||---------------------------------------------------|------
------------x---||---7-----7--7--7-----7--7--7-----7--7--7-----7--7--|------
-----------------||---------------------------------------------------|------
Ah

e     s  s  e     s  s  e     s  s  e     s  s     e     s  s  e     s  s
------------------------------------------------|----------------------------
------------------------------------------------|----------------------------
7-----7--7--7-----7--7--7-----7--7--7-----7--7--|--3-----3--3--3-----3--3----
------------------------------------------------|----------------------------


e     s  s  e     s  s     e     s  s  e     s  s  e     s  s  e     e
------------------------|----------------------------------------------------
------------------------|----------------------------------------------------
5-----5--5--5-----5--5--|--7-----7--7--7-----7--7--7-----7--7--7-----5-------
------------------------|----------------------------------------------------


e     s  s  e     s  s  e     s  s  e     s  s     e     s  s  e     s
|--------------------------------------------------|-------------------------
|--------------------------------------------------|-------------------------
|--7-----7--7--7-----7--7--7-----7--7--7-----7--7--|--7-----7--7--7-----7----
|--------------------------------------------------|-------------------------


s  e     s  s  e     s  s     e     s  s  e     s  s  e     s  s  e     s
---------------------------|-------------------------------------------------
---------------------------|-------------------------------------------------
7--7-----7--7--7-----7--7--|--3-----3--3--3-----3--3--5-----5--5--5-----5----
---------------------------|-------------------------------------------------

Section K
s     e     s  s  e     s  s  e     s  s  e     s  s       e     s  s  e
---|--------------------------------------------------||---------------------
---|--------------------------------------------------||---7-----7--7--7-----
5--|--7-----7--7--7-----7--7--7-----7--7--7-----7--7--||---------------------
---|--------------------------------------------------||---------------------

s  s  e     s  s  e     e           e      s   s   e      s   s   e
---------------------------------|-------------------------------------------
---7--7--7-----7--7--7-----9-----|-----10-----10--10--10-----10--10--10------
---------------------------------|-------------------------------------------
---------------------------------|-------------------------------------------


s   s   e      e     e     s  s  e     s  s  e     s  s  e     s  s
---------------------|--------------------------------------------------|----
---10--10--10-----7--|--5-----5--5--5-----5--5--9-----9--9--9-----9--9--|----
---------------------|--------------------------------------------------|----
---------------------|--------------------------------------------------|----


e     s  s  e     s  s  e     s  s  e     e        e     s  s  e     s  s
------------------------------------------------|----------------------------
------------------------------------------------|--7-----7--7--7-----7--7----
------------------------------------------------|----------------------------
5-----5--5--5-----5--5--5-----5--5--5-----3-----|----------------------------


e     s  s  e     e           e      s   s   e      s   s   e      s   s
------------------------|----------------------------------------------------
7-----7--7--7-----9-----|-----10-----10--10--10-----10--10--10-----10--10----
------------------------|----------------------------------------------------
------------------------|----------------------------------------------------


e      e     e     s  s  e     s  s  e     s  s  e     s  s     e     s
----------|--------------------------------------------------|---------------
10-----7--|--5-----5--5--5-----5--5--9-----9--9--9-----9--9--|---------------
----------|--------------------------------------------------|---------------
----------|--------------------------------------------------|--5-----5------

Section L
s  e     s  s  e     e  e     e          q     e  e  q     e  e     e
------------------------------------||---------r-----------r-----|-----------
------------------------------------||---------e-----------e-----|-----------
------------------------------------||---------s-----------s--7--|--7--------
5--5-----5--5--5-----5--5-----3-----||---3-----t--5--5-----t-----|-----------


s  s  e     s  s  e     e     e     e     q     e  e  q     e  e     e
------------------------------------r--|--------r-----------r-----|----------
------------------------------------e--|--------e-----------e-----|----------
5--5--5-----5--5--5-----7-----7-----s--|--------s-----------s--7--|--7-------
------------------------------------t--|--3-----t--5--5-----t-----|----------


e  e     e  e     e     e  e        q     e  e  q     e  e     e     s  s
---r--------r--------------r-----|--------r-----------r-----|----------------
---e--------e--------------e-----|--------e-----------e-----|----------------
5--s-----5--s-----5-----7--s-----|--------s-----------s--7--|--7-----5--5----
---t--------t--------------t-----|--3-----t--5--5-----t-----|----------------


e     s  s  e     e     e     e     q     e  Q           q
------------------------------r--|--------r--------------r--------|----------
------------------------------e--|--------e--------------e--------|----------
5-----5--5--5-----7-----7-----s--|--------s--------------s--------|----------
------------------------------t--|--3-----t--5-----------t--------|----------

Section M
e  e  e  e  e  e  e  e     e  e  e  e  e  e  e  e   [e] e  e  e  e  e  e
-------------------------|-------------------------|-------------------------
-------------------------|-------------------------|-------------------------
-2--0--2--0--2--0--2--0--|--2--0--2--0--2--0--2--3-|-[3]-3--3--3--3--3--3----
-------------------------|-------------------------|-------------------------

Section N
e   [e]    s  s  e     s  s  e     s  s  e     e       e     s  s  e
--|--------7--7--7-----7--7--7-----7--7--7--------||-------------------------
--|-----------------------------------------------||-------------------------
5-|-[5]----------------------------------------5--||---7-----7--7--7---------
--|-----------------------------------------------||-------------------------
My      faith     in

s  s  e     s  s  e     s  s     e     s  s  e     s  s  e     s  s  e
------------------------------|----------------------------------------------
------------------------------|----------------------------------------------
7--7--7-----7--7--7-----7--7--|--7-----7--7--7-----7--7--7-----7--7--7-------
------------------------------|----------------------------------------------
be -  liev -  ing    is       stron - ger    than   life  lines     and

e     e  e  e  e  e  e  e  e     e  e  e  e  e  e  e  e     e     s  s  e
---|--------------------------|--------------------------|-------------------
---|-----5--4-----5--4-----5--|--4-----5--4--5-----5--7--|-------------------
0--|--5--------5--------5-----|-----5-----------5--------|--7-----7--7--7----
---|--------------------------|--------------------------|-------------------
ties                                           The    glim - mer  of

s  s  e     s  s  e     s  s     e     s  s  e     s  s  e     s  s  e
---------------------------------|-------------------------------------------
---------------------------------|-------------------------------------------
---7--7--7-----7--7--7-----7--7--|--7-----7--7--7-----7--7--7-----7--7--7----
---------------------------------|-------------------------------------------
me   -    tal       my           mo  -  ment   is  rea  -   dy      to

To Section C
e     e  e  e  e  e  e  e  e     e  e  e  e  e  e  e  e
------|--------------------------|--------------------------|
------|-----5--4-----5--4-----5--|--4-----5--4--5-----5--7--|
---0--|--5--------5--------5-----|-----5-----------5--------|
------|--------------------------|--------------------------|
strike                                          The

Coda I                              To Section C
[e] s  s  e       s  s  e     s  s  e     e
|-----7--7--7-------7--7--7-----7--7--7-----------|
|-------------------------------------------------|
|-[5]---------------------------------------5-----|
|-------------------------------------------------|

Coda II
q        e  e  e  e  e  e      e       s  s  e     s  s  e     s  s  e
s  s
|------------------------------||-------------------------------------------
---------|
|------------------------------||-------------------------------------------
---------|
|---5--------5--5--5--5--5--5--||--7-------7--7--7-----7--7--7-----7--7--7--
---7--7--|
|------------------------------||-------------------------------------------
---------|
ha,     ha,     ha,     ha,     ha,     ha,

e     s  s  e     s  s  e       s  s  e     e     e  e  e  e  e  e  e  e
|-------------------------------------------------|--------------------------|
|-------------------------------------------------|-----5--4-----5--4-----5--|
|--7-----7--7--7-----7--7--7-------7--7--7-----0--|--5--------5--------5-----|
|-------------------------------------------------|--------------------------|
ha,     ha,      ha,      ha,

e  e  e  e  e  e  e  e     q           q           q           e  e
|--------------------------|--------------r-----------r-----------------||
|--4-----5--5--5-----5--7--|--------------e-----------e-----------------||
|-----5-----------5--------|--7----------s-----------s-----------------||
|--------------------------|--------------t-----------t-----------0--0--||
Ah,ow

Вверх

Killers Solo

Daves Solo:

(see)   (see)   (see)
E|-------------------------------------------------------------|
B|-13b(15)-13b(15)-13b(15)-------------------------------------|
G|---------------------------14b(16)-(16)-(15)-14--12--14b(16)-|
D|-------------------------------------------------------------|
A|-------------------------------------------------------------|
E|-------------------------------------------------------------|

E|---------12-15-12---12---------12----------------------------|
B|-15b(17)----------x----15b(17)----15-12-15p12----------------|
G|----------------------------------------------14b(16)-14-12--|
D|-------------------------------------------------------------|
A|-------------------------------------------------------------|
E|-------------------------------------------------------------|

E|---------|
B|---------|
G|---12h14-|
D|-14------|
A|---------|
E|---------|

The open B is hardly heard as the high notes should be
hammered very quickly.
E|----------------------------------12-------------------------|
B|------------0h15h17-0h15h17-14p12----0h15h17-0h15h17-14p12---|
G|14b(16)-(16)----------------------------------------------14~|
D|-------------------------------------------------------------|
A|-------------------------------------------------------------|
E|-------------------------------------------------------------|

E|----------------14h15p14h15p14h15p14h17p15p14h15p14----------|
B|-------14h16h17-------------------------------------17p15----|
G|-14/16----------------------------------------------------15-|
D|-------------------------------------------------------------|
A|-------------------------------------------------------------|
E|-------------------------------------------------------------|

E|-14p12-------|
B|-------15p14-|
G|-------------|
D|-------------|
A|-------------|
E|-------------|

Concentrate on strumming 16th notes on the
open E string and quickly dart in and out with
the high notes.
E|--------------0-0---12-0-0-14-14-0-15--17-15-14--0-0--12-|
B|-12--(12)--0---------------------------------------------|
G|---------------------------------------------------------|
D|---------------------------------------------------------|
A|---------------------------------------------------------|
E|---------------------------------------------------------|

E|-12-0-0-14-0-0-15-15-0-0-17-15-14-0-0-12-12-12-0-0-14-14-0-0-|
B|-------------------------------------------------------------|
G|-------------------------------------------------------------|
D|-------------------------------------------------------------|
A|-------------------------------------------------------------|
E|-------------------------------------------------------------|

E|15-15-17-17-15-14-0-012-12-0-0-14-14-0-015-15-17-15-14-14-0-0|
B|-------------------------------------------------------------|
G|-------------------------------------------------------------|
D|-------------------------------------------------------------|
A|-------------------------------------------------------------|
E|-------------------------------------------------------------|

E|-12-0-0-14-0-0-15-15-0-0-17-14-15p14-17p14-17p14-17p14-17p14-|
B|-------------------------------------------------------------|
G|-------------------------------------------------------------|
D|-------------------------------------------------------------|
A|-------------------------------------------------------------|
E|-------------------------------------------------------------|

E|-17p14-17p14-17p14-14--17b(19)r17--17b(19)--17b(19)--17b(19)-|
B|-------------------------------------------------------------|
G|-------------------------------------------------------------|
D|-------------------------------------------------------------|
A|-------------------------------------------------------------|
E|-------------------------------------------------------------|

Adrians solo:

E|--------------------------------------------------|
B|-15-------15--------------------------------------|
G|-14b(16)--14--12-----12--14b(16)--14p12--14b(16)~-|
D|-----------------14-------------------------------|
A|--------------------------------------------------|
E|--------------------------------------------------|

E|---------12---------------12---------------12-------|
B|------------15p12------------15p12------------15p12-|
G|-14b(16)----------14b(16)----------14b(16)----------|
D|----------------------------------------------------|
A|----------------------------------------------------|
E|----------------------------------------------------|

E|---------12--15b(18)r15-----------------------12----|
B|-------------------------------------------------12-|
G|-14b(16)--------------------12h14--14b(16)-14-------|
D|----------------------------------------------------|
A|----------------------------------------------------|
E|----------------------------------------------------|

Hold the bends on the 3rd string to get the unison bend sound.
E|---------14-------------15-----------------------------|
B|------------14-------------15---------17------17-------|
G|-16b(18)--------17b(19)-------19b(21)----(21)----(21)~-|
D|-------------------------------------------------------|
A|-------------------------------------------------------|
E|-------------------------------------------------------|

E|-0--0--20b(22)-------r20-----------------7-------------|
B|--------------------------17---10b(12)----7--10------7-|
G|-------------------------------------------------9-----|
D|----------------------------------------------------9--|
A|-------------------------------------------------------|
E|-------------------------------------------------------|

E|-------------------------------------------------------|
B|-------------------------------------------------------|
G|-10p9--7---9b(11)--7-7~-----------2-4-5-4h5p4---7b(9)~-|
D|---------9------------------2-4-5-------------5--------|
A|------------------------3-5----------------------------|
E|-------------------------------------------------------|

Overdub:
E|----------------------------------------|
B|------------------3--5--3h5p3----7b(8)~-|
G|---------2--4--5---------------4--------|
D|-2--4-5---------------------------------|
A|----------------------------------------|
E|----------------------------------------|

Вверх

Look For The Truth

intro:

Em Em G D Cadd9 H Cadd9 D Em

main riff.                     RiffA
e|------------------------------|-----------------------------|
B|----------8-------------------|-----------8-8-8-------------|
G|-9--9--9--7--7-----------7--9-|-9--9--9---7-7-7-------------|
D|-9--9--9--5--7--9--9--9--7--9-|-9--9--9---5-5-5--12--12--12-|
A|-7--7--7-----5--9--9--9--5--7-|-7--7--7----------12--12--12-|
E|----------------7--7--7-------|------------------10--10--10-|

end1.                  end2.
e|---------------------|---------------|
B|---------------------|---------------|
G|---------------------|--5--5---7--7--|
D|---------------------|--5--5---7--7--|
A|-10-9-7----7---------|--3--3---5--5--|
E|--------10---10-9-7--|---------------|

Riff B
e|------------------------------------------------------|
B|-----------12--13--15--13--12---13-12-----------------|
G|-14----14-------------------------------14--12--14----|
D|----14---------------------------------------------14-|
A|------------------------------------------------------|
E|------------------------------------------------------|

Verse Riff2:
E5   C5  D5   B5  C5
E5   C5  D5   C5/B5  A5/G5

Chorus:
E5    D5/C5    G5(10th)  D5 (10th)
E5    D5/C5    G5(3rd)   D5(5th)

Riff under solo:
A5    C5    G5    A5

Вверх

Lord Of The Flies

------------|--9------9------9------9--------------9-----------------9-------
------------|--9------9------9------9--------9-7------9--7----9--7-----9-7-9-
------------|--7------7------7------7------7-----7---------7-------7---------
------------|----------------------------------------------------------------
Guitar intro.  Bass enters


------------9-------------------9-------------------9----------------9-------
----9-7-------9--7------9--7-------9-7-9-----9-7------9-7-----9--7------9-7-9
--7------7----------7---------7------------7------7--------7-------7---------
-----------------------------------------------------------------------------

---------9------------------9-----------9--9-9-9-9-9---9-9-9-9-9-9-999--9--9-
---9-7-----9--7-----9--7-------9-7-9----9--9-9-9-9-9---9-9-9-9-9-9-999--9--9-
-7-----7---------7-------7--------------7--7-7-7-7-7---7-7-7-7-7-7-777--7--7-
-----------------------------------------------------------------------------

-9-9-9-9--9-9-9-9-9-9--999--9-9-9-9-9--9-9-9-9-9-9--999--9-9-9-9-9--9-9-9-9-9
-9-9-9-9--9-9-9-9-9-9--999--9-9-9-9-9--9-9-9-9-9-9--999--9-9-9-9-9--9-9-9-9-9
-7-7-7-7--7-7-7-7-7-7--777--7-7-7-7-7--7-7-7-7-7-7--777--7-7-7-7-7--7-7-7-7-7
-----------------------------------------------------------------------------

-9--999----|-11----------------------11---------------9----------------|-----
-9--999----|.11----------------------11---------------9---------------.|-----
-7--777----|.-9-9-9-9-9-9-9-9-9-9-9-9-9-9-9-9-9-9-9-9-7-7-7-7-7-7-7-7-.|-----
-----------|-----------------------------------------------------------|-----
end intro                                                 Play 6 times
on the 3rd time,
lyrics enter
. .
-7-------------------------------9------------------------5-5--7-------------
-7-------------------------------9------------------------5-5--7-------------
-5-5-5-5-5-5-5-5-5-5-5-5-5-5-5-5-7-7-7-7-7-7-7-7-7-7-7-7--7-7--5-5-5-5-5-5-5-
-----------------------------------------------------------------------------
(. = staccatto)
.
------------------11-------------------11-9-7--------------------------------
------------------11-------------------11-9-7--------------------------------
-5-5-5-5-5-5-5-5-5-9-9-9-9-9-9-9-9-9-9--9-7-5--5-5-5-5-5-5-5-5-5-5-5-5-5-5-5-
-----------------------------------------------------------------------------
. .
---9------------------------9-9--7-------------------------------------------
---9------------------------9-9--7--------------------------------7----------
-5-7-7-7-7-7-7-7-7-7-7-7-7--7-7--5-5-5-5-5-5-5-5-5-5-5-5-5-5-5-5--7-0-0-0-0-0
------------------------------------------------------------------5----------

-----------------------------------------------------|-11--------------------
-----------------------------------------------------|.11--------------------
-0-0-0-0-0-0-0-0-0-0-0-0-0-0-0-0-0-0-0-0-0-0-0-0-0-0-|.-9-9-9-9-9-9-9-9-9-9-9
-----------------------------------------------------|-----------------------

-------------------9-----------------|-7-------------------------------9-----
-------------------9----------------.|-7-------------------------------9-----
-9-9-9-9-9-9-9-9-9-7-7-7-7-7-7-7-7--.|-5-5-5-5-5-5-5-5-5-5-5-5-5-5-5-5-7-7-7-
-------------------------------------|---------------------------------------
Play 4 times
. .                                                           . .
------------9-9--7------------------------------11-----------------------11-9
------------9-9--7------------------------------11-----------------------11-9
-7-7-7-7-7--7-7--5-5-5-5-5-5-5-5-5-5-5-5-5-5-5-5-9-9-9-9-9-9-9-9-9-9-9-9--9-7
-----------------------------------------------------------------------------
. .
-7----------------------------------9----------------9-9--7------------------
-7----------------------------------9----------------9-9--7------------------
-5--5-5-5-5-5-5-5-5-5-5-5-5-5-5-5-5-7-7-7-7-7-7-7-7--7-7--5-5-5-5-5-5-5-5-5-5
-----------------------------------------------------------------------------

-------------------------------------|-11-------------------------------7----
-------------7-----------------------|.11-------------------------------7----
-5-5-5-5-5-5-7-0-0-0-0-0-0-0-0-0-0-0-|.-9-9-9-9-9-9-9-9-9-9-9-9-9-9-9-9-5-5-5
-------------5-----------------------|---------------------------------------
"Saints and..." etc.

-----------------------------------------------------------9-----------------
---------------------------7-------------------------------9-----------------
-5-5-5-5-5-5-5-5-5-5-5-5-5-7-0-0-0-0-0-0-0-0-0-0-0-0-0-0-0-7-7-7-7-7-7-7-7---
---------------------------5-------------------------------------------------
. .
-7-7-7-7-9-111111-|-11-------11-------11-------------11----------------11----
-7-7-7-7-9-111111.|-11-------11-------11------11-9------11-9----11-9-----11-9
-5-5-5-5-7--9-9-9.|-9---------9--------9----9------9----------9------9-------
------------------|----------------------------------------------------------



----------------11-----------------11----------------------11----------------
-11-----11-9--------11-9----11-9-------11-9-11------11-9-------11-9---11-9---
------9------9-----------9-------9----------------9------9----------9------9-
-----------------------------------------------------------------------------

-11-------------------11-----------------11----------|-11--------------------
----11-9-11----11-9------11-9----11-9--------11-9-11-|.11--------------------
.-------------9------9---------9--------9------------|.-9-9-9-9-9-9-9-9-9-9-9
-----------------------------------------------------|-----------------------
Guitar solo
. .                         > >                           . .
---11-9-7-----------------------9-9-11-----------------------11-9-2----------
---11-9-7-----------------------7-9-11-----------------------11-9-2----------
-9--9-7-5-5-5-5-5-5-5-5-5-5-5-5---7--9-9-9-9-9-9-9-9-9-9-9-9--9-7-0-0-0-0-0-0
-----------------------------------------------------------------------------
(> = accented)

---7---------9---|-11-------------------------------7------------------------
---7---------9--.|.11-------------------------------7------------------------
-0-5-5-5-5-5-7--.|.-9-9-9-9-9-9-9-9-9-9-9-9-9-9-9-9-5-5-5-5-5-5-5-5-5-5-5-5-5
-----------------|-----------------------------------------------------------
. .
-------2-------------------------------9---------------7-7-7-7-9-111111--|-11
-------2-------------------------------9---------------7-7-7-7-9-111111-.|-11
-5-5-5-0-0-0-0-0-0-0-0-0-0-0-0-0-0-0-0-7-7-7-7-7-7-7-7-5-5-5-5-7--9-9-9-.|--9
-------------------------------------------------------------------------|---
Play 6 times


11--------------11-----------------11----------------------11----------------
11------9--11-------11-9----11-9-------11-9-11------9-11-------11-9----11-9--
-9---9--------9---------9--------9----------------9------9-----------9------9
-----------------------------------------------------------------------------

--11----.-.---||
-----11-9-11--||
--------------||
--------------||


Repeat

Вверх

Losfer Words

intro

E|--------------------------------------------|
B|--------------------------------------------|
G|--------------------------------------------|
D|--------------------------------------------|
A|-000-12-00-10-00-9-00-10-00-9-00-7-00-3-2-3-|
E|--------------------------------------------|

E|--------------------------------------------|
B|--------------------------------------------|
G|--------------------------------------------|
D|--------------------------------------5-5-5-|
A|-000-12-00-10-00-9-00-10-00-9-00------5-5-5-|
E|--------------------------------------3-3-3-|

E|----------------------------------------------|
B|----------------------------------------------|
G|----------------------------------------------|
D|----------------------------------------------|
A|--------5-5-5---------------------------5-5-5-|
E|-000000-3-3-3-000000-5-5-5-5-3-2-000000-3-3-3-|

E|----------------|
B|----------------|
G|--------9-9-9-9-|
D|--------7-7-7-7-|
A|----------------|
E|-000000---------|

Theme 1

E|----12-12-13-15-13-12----14-14-14-15-15-15-17-17-17-17p15p14-|
B|-13-------------------15-------------------------------------|
G|-------------------------------------------------------------|
D|-------------------------------------------------------------|
A|-------------------------------------------------------------|
E|-------------------------------------------------------------|

E|-----------------------|
B|-16-/11-11-13-13/15-13-|
G|-----------------------|
D|-----------------------|
A|-----------------------|
E|-----------------------|

Theme 2 (play under solo also)

E|-------------------------------------------------|
B|-------------------------------------------------|
G|-5p4p0-5p4p0-5p4p0-5p4p0-7p5p0-7p5p0-7p5p0-7p5p0-|
D|-------------------------------------------------|
A|-------------------------------------------------|
E|-------------------------------------------------|

E|------------------|
B|------------------|
G|-8----3---3-5-7-5-|
D|-8----3---3-5-7-5-|
A|-6----1---1-3-5-3-|
E|------------------|

Theme 3 (repeat)

E|-12-00-7-00-8-00-5-00-7-00-3-00-5-00-2-|
B|---------------------------------------|
G|---------------------------------------|
D|---------------------------------------|
A|---------------------------------------|
E|---------------------------------------|

Theme 4

E|--------------------------------------|
B|-/11-10v-8-10-8-------/11-10v-8-10-8--|
G|----------------8v------------------8-|
D|--------------------------------------|
A|--------------------------------------|
E|--------------------------------------|

E|------------------------------------------|
B|-/13-11v-10-11--------/13-11v-10-11-10----|
G|---------------10v--------------------10v-|
D|------------------------------------------|
A|------------------------------------------|
E|------------------------------------------|

last fill

E|----------11bv-|
B|-10-11-10------|
G|---------------|
D|---------------|
A|---------------|
E|---------------|

repeat intro and theme 1

fill for theme 1 at end

E|-15p13p12-15p13p12-15p13p12-15p13p12-|
B|-------------------------------------|
G|-------------------------------------|
D|-------------------------------------|
A|-------------------------------------|
E|-------------------------------------|

outro

E|---------------------------------------------|
B|-5-3-------3-5-3-------3-5-3-------3-5-3-----|
G|-----5-3-5-------5-3-5-------5-3-5-------5-3-|
D|---------------------------------------------|
A|---------------------------------------------|
E|---------------------------------------------|

Вверх

Man On The Edge

  INTRO
gtr.1
e|---------------|------------|---------------|------------|
B|---------------|------------|---------------|------------|
G|-9--7----------|----9--7----|-9--7----------|----9--7----|
D|------10--9----|-7-------10-|------10--9----|-7-------10-|
A|------------10-|------------|------------10-|------------|
E|---------------|------------|---------------|------------|

gtr.2
e|---|----|
B|---|----|
G|---|----|
D|---|----|
A|-7-|-10-|
E|-5-|--8-|

e|---------------|---------------|---------------|------------|
B|---------------|---------------|---------------|------------|
G|-9--7----------|-9--7----------|-9--7----------|----9--7----|
D|------10--9----|------10--9----|------10--9----|-7-------10-|
A|------------10-|------------10-|------------10-|------------|
E|---------------|---------------|---------------|------------|

e|----|----|---|
B|----|----|---|
G|----|----|---|
D|----|----|---|
A|-12-|-14-|-7-|
E|-10-|-12-|-5-|

gtr.1&2
e|------------|------------|------------|------------|
B|------------|------------|------------|------------|
G|-7--5--4--5-|-7--5--4--5-|-7--5--4--5-|-7--5--4--5-|
D|-5--5--5--5-|-5--5--5--5-|-5--5--5--5-|-5--5--5--5-|
A|------------|------------|------------|------------|
E|------------|------------|------------|------------|

1.
e|------------------------|------------------------|
B|------------------------|------------------------|
G|------------------------|------------------------|
D|-0--0-0-0-0--4--0-0-0-0-|-5--0-0-0-0--7--0-0-0-0-|
A|------------------------|------------------------|
E|------------------------|------------------------|

e|------------------------|------------------------|
B|------------------------|------------------------|
G|------------------------|------------------------|
D|------------------------|------------------------|
A|-0--0-0-0-0--4--0-0-0-0-|-5--0-0-0-0--7--0-0-0-0-|
E|------------------------|------------------------|

e|------------------------|------------------------|
B|------------------------|------------------------|
G|------------------------|------------------------|
D|-0--0-0-0-0--4--0-0-0-0-|-5--0-0-0-0--7--0-0-0-0-|
A|------------------------|------------------------|
E|------------------------|------------------------|

e|------------------------|------------------------|
B|------------------------|------------------------|
G|------------------------|------------------------|
D|------------------------|------------------------|
A|-0--0-0-0-0--4--0-0-0-0-|-5--0-0-0-0--7--0-0-0-0-|
E|------------------------|------------------------|

e|------------------|----------------|
B|------------------|----------------|
G|------------------|----------------|
D|-9--9--9--9--9--9-|--9--9-----5--5-|
A|-7--7--7--7--7--7-|-10-10-----7--7-|
E|------------------|----------------|

e|------------------|----------------|
B|------------------|----------------|
G|------------------|----------------|
D|-9--9--9--9--9--9-|-7--7------5--5-|
A|-7--7--7--7--7--7-|-5--5------7--7-|
E|------------------|----------------|

e|------------------|----------------|
B|------------------|----------------|
G|------------------|----------------|
D|-9--9--9--9--9--9-|--9--9-----5--5-|
A|-7--7--7--7--7--7-|-10-10-----7--7-|
E|------------------|----------------|

e|--------------------|
B|--------------------|
G|--------------------|
D|--7--7--7--7--7--7--|
A|--5--5--5--5--5--5--|
E|--------------------|

e|-------------------------|-------------------------|
B|-------------------------|-------------------------|
G|-------------------------|-------------------------|
D|--9--10--12--10---9---7--|--9--10--12--10---9---7--|
A|--7---8--10---8---7---5--|--7---8--10---8---7---5--|
E|-------------------------|-------------------------|

e|-------------------------|-------------------------|
B|-------------------------|-------------------------|
G|-------------------------|-------------------------|
D|--9--10--12--10---9---7--|--9--10--12--10---9---7--|
A|--7---8--10---8---7---5--|--7---8--10---8---7---5--|
E|-------------------------|-------------------------|

REFRAIN
e|---|---|---|-------------------|
B|---|---|---|-------------------|
G|---|---|---|-------------------|
D|---|---|-7-|-79-9-9-9-79-9-9-9-|
A|-7-|-3-|-5-|-57-7-7-7-57-7-7-7-|
E|-5-|-1-|---|-------------------|

e|---|---|---|-------------------|
B|---|---|---|-------------------|
G|---|---|---|-------------------|
D|---|---|-7-|-79-9-9-9-79-9-9-9-|
A|-7-|-3-|-5-|-57-7-7-7-57-7-7-7-|
E|-5-|-1-|---|-------------------|

e|-------------------|
B|-------------------|
G|-------------------|
D|-79-9-9-9-79-9-9-9-|
A|-57-7-7-7-57-7-7-7-|
E|-------------------|

2.
e|------------------------|------------------------|
B|------------------------|------------------------|
G|------------------------|------------------------|
D|-0--0-0-0-0--4--0-0-0-0-|-5--0-0-0-0--7--0-0-0-0-|
A|------------------------|------------------------|
E|------------------------|------------------------|

e|------------------------|------------------------|
B|------------------------|------------------------|
G|------------------------|------------------------|
D|------------------------|------------------------|
A|-0--0-0-0-0--4--0-0-0-0-|-5--0-0-0-0--7--0-0-0-0-|
E|------------------------|------------------------|

e|------------------------|------------------------|
B|------------------------|------------------------|
G|------------------------|------------------------|
D|-0--0-0-0-0--4--0-0-0-0-|-5--0-0-0-0--7--0-0-0-0-|
A|------------------------|------------------------|
E|------------------------|------------------------|

e|------------------------|------------------------|
B|------------------------|------------------------|
G|------------------------|------------------------|
D|------------------------|------------------------|
A|-0--0-0-0-0--4--0-0-0-0-|-5--0-0-0-0--7--0-0-0-0-|
E|------------------------|------------------------|

e|------------------|----------------|
B|------------------|----------------|
G|------------------|----------------|
D|-9--9--9--9--9--9-|--9--9-----5--5-|
A|-7--7--7--7--7--7-|-10-10-----7--7-|
E|------------------|----------------|

e|------------------|----------------|
B|------------------|----------------|
G|------------------|----------------|
D|-9--9--9--9--9--9-|--7--7-----5--5-|
A|-7--7--7--7--7--7-|--5--5-----7--7-|
E|------------------|----------------|

e|------------------|----------------|
B|------------------|----------------|
G|------------------|----------------|
D|-9--9--9--9--9--9-|--9--9-----5--5-|
A|-7--7--7--7--7--7-|-10-10-----7--7-|
E|------------------|----------------|

e|------------------|
B|------------------|
G|------------------|
D|-7--7--7--7--7--7-|
A|-5--5--5--5--5--5-|
E|------------------|

e|-----------------------|------------------------|
B|-----------------------|------------------------|
G|-----------------------|------------------------|
D|-9--10--12--10---9---7-|--9--10--12--10---9---7-|
A|-7---8--10---8---7---5-|--7---8--10---8---7---5-|
E|-----------------------|------------------------|

e|-----------------------|------------------------|
B|-----------------------|------------------------|
G|-----------------------|------------------------|
D|-9--10--12--10---9---7-|-9--10--12--10---9---7--|
A|-7---8--10---8---7---5-|-7---8--10---8---7---5--|
E|-----------------------|------------------------|

REFRAIN
e|---|---|---|-------------------|
B|---|---|---|-------------------|
G|---|---|---|-------------------|
D|---|---|-7-|-79-9-9-9-79-9-9-9-|
A|-7-|-3-|-5-|-57-7-7-7-57-7-7-7-|
E|-5-|-1-|---|-------------------|

e|---|---|---|-------------------|
B|---|---|---|-------------------|
G|---|---|---|-------------------|
D|---|---|-7-|-79-9-9-9-79-9-9-9-|
A|-7-|-3-|-5-|-57-7-7-7-57-7-7-7-|
E|-5-|-1-|---|-------------------|

SOLO
e|-------------------|-------------------|-------------------|
B|-------------------|-------------------|-------------------|
G|-2--4--5--4--2-4-2-|-2--4--5--4--2-4-2-|-4--6--7--6--4-6-4-|
D|-------------------|-------------------|-------------------|
A|-------------------|-------------------|-------------------|
E|-------------------|-------------------|-------------------|

e|-------------------|-------------------|-------------------|
B|-------------------|-------------------|-------------------|
G|-4--6--7--6--4-6-4-|-7-9--10--9--7-9-7-|-7--9--10-9--7-9-7-|
D|-------------------|-------------------|-------------------|
A|-------------------|-------------------|-------------------|
E|-------------------|-------------------|-------------------|

e|-----------------------|-----------------------|
B|-----------------------|-----------------------|
G|-9--11--12--11--9-11-9-|-9--11--12--11--9-11-9-|
D|-----------------------|-----------------------|
A|-----------------------|-----------------------|
E|-----------------------|-----------------------|

e|-------------------|-------------------|--------------------|
B|-------------------|-------------------|--------------------|
G|-2--4--5--4--2-4-2-|-4--6--7--6--4-6-4-|-7--9--10--9--7-9-7-|
D|-------------------|-------------------|--------------------|
A|-------------------|-------------------|--------------------|
E|-------------------|-------------------|--------------------|

e|-----------------------|-----------------------|
B|-----------------------|-----------------------|
G|-9--11--12--11--9-11-9-|-9--11--12--11--9-11-9-|
D|-----------------------|-----------------------|
A|-----------------------|-----------------------|
E|-----------------------|-----------------------|

gtr.1-SOLO
gtr.2-RHYTM
e|------------------|------------------|------------------|
B|------------------|------------------|------------------|
G|------------------|------------------|------------------|
D|-4--4--4--4--4--4-|-4--4--4--2--6--2-|-4--4--4--4--4--4-|
A|-2--2--2--2--2--2-|-2--2--2--0--4--0-|-2--2--2--2--2--2-|
E|------------------|------------------|------------------|

e|------------------|------------------|------------------|
B|------------------|------------------|------------------|
G|------------------|------------------|------------------|
D|-4--4--4--2--6--2-|-4--4--4--4--4--4-|-4--4--4--2--6--2-|
A|-2--2--2--0--4--0-|-2--2--2--2--2--2-|-2--2--2--0--4--0-|
E|------------------|------------------|------------------|

gtr.2-SOLO
gtr.1-RHYTM
e|------------------|------------------|------------------|
B|------------------|------------------|------------------|
G|------------------|------------------|------------------|
D|-4--4--4--4--4--4-|-4--4--4--2--6--2-|-7--7--7--7--7--7-|
A|-2--2--2--2--2--2-|-2--2--2--0--4--0-|-5--5--5--5--5--5-|
E|------------------|------------------|------------------|

e|------------------|------------------|------------------|
B|------------------|------------------|------------------|
G|------------------|------------------|------------------|
D|-7--7--7--5--9--5-|-7--7--7--7--7--7-|-7--7--7--5--9--5-|
A|-5--5--5--3--7--3-|-5--5--5--5--5--5-|-5--5--5--3--7--3-|
E|------------------|------------------|------------------|

gtr.1-SOLO
gtr.2-RHYTM
e|------------------|------------------|------------------|
B|------------------|------------------|------------------|
G|------------------|------------------|------------------|
D|-9--9--9--9--9--9-|-9--9--9--7-11--7-|-9--9--9--9--9--9-|
A|-7--7--7--7--7--7-|-7--7--7--5--9--5-|-7--7--7--7--7--7-|
E|------------------|------------------|------------------|

e|---------------|
B|---------------|
G|---------------|
D|-9--10--11--12-|
A|-7---8---9--10-|
E|---------------|

gtr.1&2
e|------------|------------|------------|------------|
B|------------|------------|------------|------------|
G|-7--5--4--5-|-7--5--4--5-|-7--5--4--5-|-7--5--4--5-|
D|-5--5--5--5-|-5--5--5--5-|-5--5--5--5-|-5--5--5--5-|
A|------------|------------|------------|------------|
E|------------|------------|------------|------------|

3.
e|------------------------|------------------------|
B|------------------------|------------------------|
G|------------------------|------------------------|
D|-0--0-0-0-0--4--0-0-0-0-|-5--0-0-0-0--7--0-0-0-0-|
A|------------------------|------------------------|
E|------------------------|------------------------|

e|------------------------|------------------------|
B|------------------------|------------------------|
G|------------------------|------------------------|
D|------------------------|------------------------|
A|-0--0-0-0-0--4--0-0-0-0-|-5--0-0-0-0--7--0-0-0-0-|
E|------------------------|------------------------|

e|------------------------|------------------------|
B|------------------------|------------------------|
G|------------------------|------------------------|
D|-0--0-0-0-0--4--0-0-0-0-|-5--0-0-0-0--7--0-0-0-0-|
A|------------------------|------------------------|
E|------------------------|------------------------|

e|------------------------|------------------------|
B|------------------------|------------------------|
G|------------------------|------------------------|
D|------------------------|------------------------|
A|-0--0-0-0-0--4--0-0-0-0-|-5--0-0-0-0--7--0-0-0-0-|
E|------------------------|------------------------|

e|------------------|----------------|
B|------------------|----------------|
G|------------------|----------------|
D|-9--9--9--9--9--9-|--9--9-----5--5-|
A|-7--7--7--7--7--7-|-10-10-----7--7-|
E|------------------|----------------|

e|------------------|----------------|
B|------------------|----------------|
G|------------------|----------------|
D|-9--9--9--9--9--9-|--7--7-----5--5-|
A|-7--7--7--7--7--7-|--5--5-----7--7-|
E|------------------|----------------|

e|------------------|----------------|
B|------------------|----------------|
G|------------------|----------------|
D|-9--9--9--9--9--9-|--9--9-----5--5-|
A|-7--7--7--7--7--7-|-10-10-----7--7-|
E|------------------|----------------|

e|------------------|
B|------------------|
G|------------------|
D|-7--7--7--7--7--7-|
A|-5--5--5--5--5--5-|
E|------------------|

e|-----------------------|-----------------------|
B|-----------------------|-----------------------|
G|-----------------------|-----------------------|
D|-9--10--12--10---9---7-|-9--10--12--10---9---7-|
A|-7---8--10---8---7---5-|-7---8--10---8---7---5-|
E|-----------------------|-----------------------|

e|-----------------------|-----------------------|
B|-----------------------|-----------------------|
G|-----------------------|-----------------------|
D|-9--10--12--10---9---7-|-9--10--12--10---9---7-|
A|-7---8--10---8---7---5-|-7---8--10---8---7---5-|
E|-----------------------|-----------------------|

REFRAIN
e|---|---|---|-------------------|
B|---|---|---|-------------------|
G|---|---|---|-------------------|
D|---|---|-7-|-79-9-9-9-79-9-9-9-|
A|-7-|-3-|-5-|-57-7-7-7-57-7-7-7-|
E|-5-|-1-|---|-------------------|

e|---|---|---|-------------------|
B|---|---|---|-------------------|
G|---|---|---|-------------------|
D|---|---|-7-|-79-9-9-9-79-9-9-9-|
A|-7-|-3-|-5-|-57-7-7-7-57-7-7-7-|
E|-5-|-1-|---|-------------------|

e|---|---|---|-------------------|
B|---|---|---|-------------------|
G|---|---|---|-------------------|
D|---|---|-7-|-79-9-9-9-79-9-9-9-|
A|-7-|-3-|-5-|-57-7-7-7-57-7-7-7-|
E|-5-|-1-|---|-------------------|

e|---|---|---|-------------------|
B|---|---|---|-------------------|
G|---|---|---|-------------------|
D|---|---|-7-|-79-9-9-9-79-9-9-9-|
A|-7-|-3-|-5-|-57-7-7-7-57-7-7-7-|
E|-5-|-1-|---|-------------------|

e|-------------------|
B|-------------------|
G|-------------------|
D|-79-9-9-9-79-9-9-9-|
A|-57-7-7-7-57-7-7-7-|
E|-------------------|

e|---|----|----|----|
B|---|----|----|----|
G|---|----|----|----|
D|-9-|-10-|-10-|-12-|
A|-7-|--8-|--9-|-10-|
E|---|----|----|----|

e|-------------------|----||
B|-------------------|----||
G|-2--4--5--4--2-4-2-|-02-||
D|-------------------|----||
A|-------------------|----||
E|-------------------|----||.

Вверх

Moonchild

 Em                  D
Seven deadly sins,  seven ways to win,
Am                  Cmaj7          Em
seven holy paths to hell  and your trip begins.

Em                     D
Seven downward slopes, seven bloodied hoopes
Am                     Cmaj7       D
seven are your burning fires       seven your desires

E!

E--------------------------------|------------------------------------|
B--------------------------------|--------------3-----3---------------|
G--------------------------------|------2---4p2---4p2---4p2-2h4-4p2---|
D--------------------------------|--2-----2---------------------------|
A--7-----------------------------|------------------------------------|
E--0-----------------------------|------------------------------------|
[fade in with volume]           [let it sustain]

[riff 1]
[repeat last measure]
E------------------------------------|--------------------------------|
B---------------3-----3--------------|--------------------------------|
G-----4p2---4p2---4p2---4p2-2h4-4p2--|----------*-/-------------------|
D---2-----2--------------------------|-----------/--------------------|
A------------------------------------|----------/-*-------------------|
E------------------------------------|--------------------------------|

[end riff 1]
[Guitar 1 repeat riff 1, Guitar 2 play this riff]
E!
E--------------------------------|------------------------------------|
B--------------------------------|------------------------------------|
G--------------------------------|------------------------------------|
D--9-----------------------------|------------------------------------|
A--7-----------------------------|------------------------------------|
E--0-----------------------------|------------------------------------|

E!
E--------------------------------|------------------------------------|
B--------------------------------|------------------------------------|
G--------------------------------|------------------------------------|
D--9-----------------------------|------------------------------------|
A--7-----------------------------|------------------------------------|
E--0-----------------------------|------------------------------------|

[intro]
E! B! D! A!
E--------------------------------|------------------------------------|
B--------------------------------|------------------------------------|
G--------------------------------|------------------------------------|
D--9-----7-----------------------|------------------------------------|
A--7--9--5--7--------------------|------------------------------------|
E-----7-----5--------------------|------------------------------------|

B! G! A! E!
E--------------------------------|------------------------------------|
B--------------------------------|------------------------------------|
G--------------------------------|------------------------------------|
D-----------2--------------------|------------------------------------|
A--9--5--7--2--------------------|------------------------------------|
E--7--3--5--0--------------------|------------------------------------|

E! B! D! A!
E--------------------------------|------------------------------------|
B--------------------------------|------------------------------------|
G--------------------------------|------------------------------------|
D--9-----7-----------------------|------------------------------------|
A--7--9--5--7--------------------|------------------------------------|
E-----7-----5--------------------|------------------------------------|

B! G! A! Dadd9/F#
E-----------0--------------------|------------------------------------|
B-----------3--------------------|------------------------------------|
G-----------2--------------------|------------------------------------|
D-----------0--------------------|------------------------------------|
A--9--5--7--0--------------------|------------------------------------|
E--7--3--5--2--------------------|------------------------------------|

[end intro]
[repeat intro]
[guitar 1 keep playing riff 1]
[repeat last measure]
E--------------------------------|------------------------------------|
B--------------------------------|------------------------------------|
G--------------------------------|--------------*-/-------------------|
D--9-----9-----9-----9-----------|---------------/--------------------|
A--7-----7-----7-----7-----------|--------------/-*-------------------|
E--0-----0-----0-----0-----------|------------------------------------|

[repeat last measure]
E--------------------------------|------------------------------------|
B--------------------------------|------------------------------------|
G--------------------------------|--------------*-/-------------------|
D--9-----9-----9-----9-----------|---------------/--------------------|
A--7-----7-----7-----7-----------|--------------/-*-------------------|
E--0-----0-----0-----0-----------|------------------------------------|

E!           E!+5               D!              E!
I am he, the bornless one the   fallen angel    watching you.
Babylon the  scarlet whore Ill infiltrate your gratitude

[riff 2]
E!                 E!+5              D!                 E!
E-------0----------|-------0---------|---------0--------|-----------0------
B----0-----0-------|----1-----0------|------------0-----|-------0----------
G------------------|-----------------|------2-----------|------------------
D--2---------------|--2--------------|--0---------------|--2---------------
A------------------|-----------------|------------------|------------------
E------------------|-----------------|------------------|------------------

E!                 E!+5              D!                 C!       D!
E-------0----------|-------0---------|---------0--------|------------------
B----0-----0-------|----1-----0------|------------0-----|-------0---3------
G------------------|-----------------|------2-----------|-----------2------
D--2---------------|--2--------------|--0---------------|--3--------0------
A------------------|-----------------|------------------|------------------
E------------------|-----------------|------------------|------------------
[end riff 2]

E!                E!+5              D!               E!
Dont you dare to save your son,    kill him now and save the young ones
E!                       E!+5                   D!
Be the mother of a birth strangled babe, be the Devils own,
C!       D!
Luci- fers my name

[riff 3]
E!                                   D!
E--0---------------|-----------------|--0-------------|--------------------
B-----0---3--------|-----------------|-----0---3------|--------------------
G-------------2----|--2^vp0----------|-------------2--|-2^vp0-----2p0------
D------------------|----------2------|----------------|--------2p0---2p0-2-
A------------------|-----------------|----------------|--------------------
E------------------|-----------------|----------------|--------------------
C!                                   D!
E--0---------------|-----------------|--0-------------|--------------------
B-----0---3--------|-----------------|-----0---3------|--------------------
G-------------2----|--2^vp0----------|-------------2--|-2^vp0-----2p0------
D------------------|----------2------|----------------|--------2p0---2p0-2-
A------------------|-----------------|----------------|--------------------
E------------------|-----------------|----------------|--------------------

[end riff 3]
E!                   D!
Moonchild   hear the Mandrake scream
C!                   D!
Moonchild   open the seveth seal

E!                   E!+5             D!                 E!
I count the heads of those unborn the accursed ones Ill find them all
If you die           by your own hand as asuicide   youll shall be damned

[Play riff 2]
E!              E!+5              D!                 E!
And if you try  to save your soul I will torment you you shall not grow old
E!                     E!+5
With every second  and passing breath
D!                         C!       D!
Youll be so alone your soul will bleed to death

[Play riff 3]
E!                   D!
Moonchild   hear the Mandrake scream
C!                   D!
Moonchild   open the seveth seal

[riff 4]
E------------------|-----------------|------------------|------------------
B------------------|-----------------|------------------|------------------
G--4---------------|---5-------------|----------2-------|---------4--------
D--4---------------|---5-------------|------4-----------|-----4------------
A--2---------------|---3-------------|---2--------------|--2---------------
E------------------|-----------------|------------------|------------------


the
[repeat 2 times riff 4 ]
B!                C!       B!    Bm7             B!
twins they are ex-hausted  seven is this         night
B!        C!               A!                    B!
Gemini is rising and the   red lips kiss to bite
B!           B!+5          A!(bass B)            B!
Seven angels seven demons  battle for his        soul
Gabriel lies sleeping this child was born to     die

[solo]
A!
E--------------------------------|------------------------------------|
B--------------------------------|------------------------------------|
G--------------------------------|------------------------------------|
D--------------------------------|--10p9------9-----------------------|
A--12^14v12---9~~~~~~------------|-------12-----12-10---9------------|
E--------------------------------|------------------------------------|

E----------------------------------|----------------------------------|
B----------------------------------|----------------------------------|
G------------------------------2---|--4p2-5p4-7^v-p-5--7-------------|
D------------------2---3-2-5-3---5-|----------------------------------|
A------2---3-2-5-3---5-------------|----------------------------------|
E--5-3---5-------------------------|----------------------------------|


E--------------------------------|------------------------------------|
B---20^22-----v20----17~~~~------|--18p17------17---------------------|
G--------------------------------|--------19------19p17---16~~~~~-----|
D--------------------------------|------------------------------------|
A--------------------------------|------------------------------------|
E--------------------------------|------------------------------------|

E----------------------------------------|----------------------------|
B----------------------------------10----|-12p10-13p12-15p13-15^-15^--|
G-----------------------9----12p10----12-|----------------------------|
D-------9----10p9-12p10---12-------------|----------------------------|
A-12p10---12-----------------------------|----------------------------|
E----------------------------------------|----------------------------|

[riff 5]
E!      B!      A#!              G!   E!
E--12----------------------------|-------------0----------------------|
B--15^17---12------11------------|-------------0----------------------|
G----------14^16---13^-----------|--12--------------------------------|
D--------------------------------|-------14---------------------------|
A--------------------------------|------------------------------------|
E--------------------------------|------------------------------------|

E!      B!      A#!              G!   E!    [push tremelo down]
E--12----------------------------|------------------------------------|
B--15^17---12------11------------|-------------15vvvvv----------------|
G----------14^16---13^-----------|--12---------14vvvvv----------------|
D--------------------------------|-------14---------------------------|
A--------------------------------|------------------------------------|
E--------------------------------|------------------------------------|

[end riff 5]
[repeat riff 5]
[fast solo]
A!
S  P h  p S  P h  p S  P h  p S  P h  p S  P h  p S  P h  p S  P h  p
E------------------------------------------------------------------------|
B------------------------------------------------------------------------|
G-12-9-10-9-12-9-10-9-12-9-10-9-12-9-10-9-12-9-10-9-12-9-10-9-12-9-10-9-
----12-9-10-9--|
D------------------------------------------------------------------------|
A------------------------------------------------------------------------|
E------------------------------------------------------------------------|

S  P h p S  P h p S  P h p S  P h p S  P h p S  P h p S  P h p S  P h p
E------------------------------------------------------------------------|
B------------------------------------------------------------------------|
G-12-7-9-7-12-7-9-7-12-7-9-7-12-7-9-7-12-7-9-7-12-7-9-7-12-7-9-7-12-7-9-7|
D------------------------------------------------------------------------|
A------------------------------------------------------------------------|
E------------------------------------------------------------------------|

S  P h p S  P h p S  P h p S  P h p S  P h p S  P h p S  P h p S  P h p
E------------------------------------------------------------------------|
B------------------------------------------------------------------------|
G-12-5-7-5-12-5-7-5-12-5-7-5-12-5-7-5-12-5-7-5-12-5-7-5-12-5-7-5-12-5-7-5|
D------------------------------------------------------------------------|
A------------------------------------------------------------------------|
E------------------------------------------------------------------------|

S  P h p S  P h p S  P h p S  P h p S  P h p S  P h p S  P h p
E------------------------------------------------------------------------|
B------------------------------------------------------------------------|
G-12-4-5-4-12-4-5-4-12-4-5-4-12-4-5-4-12-4-5-4-12-4-5-4-12-4-5-4---------|
D------------------------------------------------------------------------|
A------------------------------------------------------------------------|
E------------------------------------------------------------------------|


E---------------------------------------------------------------------|
B---12--12--13--13--15--15--12--12--13--13--15--15--13--13--15--15----|
G---------------------------------------------------------------------|
D---------------------------------------------------------------------|
A---------------------------------------------------------------------|
E---------------------------------------------------------------------|

_______
E---------------------------------------------------------------------|
B---17--17--15--15--17--17--18--18--17-17--18--18--20-------18^20-----|
G---------------------------------------------------------------------|
D---------------------------------------------------------------------|
A---------------------------------------------------------------------|
E---------------------------------------------------------------------|

_______________
E--------------------------------|-------------------------------------
B---20---20----v18-----18h20p18--|-17h18p17-20p18p17-17h18p17---------
G--------------------------------|-----------------------------19p17---
D--------------------------------|-------------------------------------
A--------------------------------|-------------------------------------
E--------------------------------|-------------------------------------

One  more     dies         and
B!     ________
E--------------------------------|------------------------------------|
B-----------18p17----------------|-------18^19vvvvvv18----------------|
G-16h17-19---------19p17---------|--16--------------------------------|
D--------------------------------|------------------------------------|
A--------------------------------|------------------------------------|
E--------------------------------|------------------------------------|

B!               C!                 B!   Bm7             B!
One more dies    one more lives one baby cries    one    mother grieves
B!               C!                 A!                   B!
For all the sins youll commit  You beg  forgiveness and none Ill give.
B!               B!+5               A!(bass B)           B!
A web of fear    shall be your coat to clothe you in the night
A lucky escape   for you young man  but Ill see you damned in endless night



[Play riff 3]
E!                       D!
Moonchild       hear the Mandrake scream
C!                       D!
Moonchild       open the seveth seal

[Play riff 3]
E!                       D!
Moonchild youll be mine soon child
C!                       D!
Moonchild        take my hand to- night.

[guitar 1 play riff 1, guitar 2 next riff]
(END)                                     [repeat last measure]
E--------------------------------|------------------------------------|
B--------------------------------|------------------------------------|
G--------------------------------|--------------*-/-------------------|
D--9-----9-----9-----9-----------|---------------/--------------------|
A--7-----7-----7-----7-----------|--------------/-*-------------------|
E--0-----0-----0-----0-----------|------------------------------------|

[repeat last to measures 4 times and end at then at END]

CHORDS
Em  D  Am  Cmaj7  E!  B!  D!  A!  G!  E!+5  C!  Bm7  B!+5  A#!
E--0---2--0---0------------------------------------2-------------------
B--0---3--1---0------------------------------------3----0--------------
G--0---2--2---0------9---4---7-----------------5---2----0-----3--------
D--2---0--2---2------9---4---7---7---5---10----5---4----5-----3--------
A--2------0---3------7---2---5---7---5---7-----3---2----2-----1--------
E--0-----------------0-----------5---3---0-----------------------------

Вверх

Mother Russia

Вступление-1:

|-----------6--3--5----13-12-13------------|---------------13-12-13--12-------------|
|--3-3-3-----------------------------------|-11------10-----------------------------|
|------------------------------------------|-----12---------------------------------|
|--------------------------------12-12-12--|------------------------------12-12-12--|
|------------------------------------------|----------------------------------------|
|------------------------------------------|----------------------------------------|

|----------------13-12-13------------|----------------------------------------|
|--11------10------------------------|--11------10------------------11-10-11--|
|------12----------------------------|------12--------10-9-10--9--------------|
|--------------------------12-12-12--|----------------------------------------|
|------------------------------------|----------------------------------------|
|------------------------------------|----------------------------------------|

Вступление -2: повторить два раза.



|-----5--6-----5-----------|-----5--6-----5--------|
|-----------8-----6--8--5--|-----------8-----6--5--|
|--7-----------------------|--7--------------------|
|--------------------------|-----------------------|
|--------------------------|-----------------------|
|--------------------------|-----------------------|

|-----5--6-----5-----------|-----------------------|
|-----------8-----6--8--5--|-----6--8--6--8--5-----|
|--7-----------------------|--7-----------------7--|
|--------------------------|-----------------------|
|--------------------------|-----------------------|
|--------------------------|-----------------------|


Проигрыш -1: повторить два раза.

|------------------------------------------------------|
|------------------------------------------------------|
|--------------------5----------------------------5----|
|-----7--7--5-7-8--8-3-7-5---------7--7--5-7-8--8-3-7--|
|--5--5--5--3-5-6--6---5-3-7----5--5--5--3-5-6--6---5--|
|--3-----------------------5----3----------------------|




|------------------------------------------------------|
|------------------------------------------------------|
|--------------------5---------------------------------|
|-----7--7--5-7-8--8-3-7-5--------5--5------5-5--------|
|--5--5--5--3-5-6--6---5-3-7---7--3--3--7-8-3-3-8-7-5--|
|--3-----------------------5---5--------5-6-----6-5-3--|


Куплет:

|-----------------------------------|----------------------------------|
|-----------------------------------|----------------------------------|
|--7---9-10------12--12--10--10-----|-------7---9-10-------12--12--10--|
|--7---9-10--12--12--12--10--10-----|-------7---9-10--12---12--12--10--|
|--5---7-8---12--10--10--8---8------|-------5---7-8---12---10--10--8---|
|------------10---------------------|-----------------10---------------|
Mother Russia how are you sleeping?    Middle winter cold winds blow

|-----------------------------------------------------------------------|
|-----------------------------------------------------------------------|
|--7---9-10------12--12--10--10--------------5---7--9--5---12--12-------|
|--7---9-10--12--12--12--10--10--------------5---7--9--5---12--12---12--|
|--5---7-8---12--10--10--8---8---------------3---5--7--3---10--10---12--|
|------------10-----------------------------------------------------10--|
From the trees the snowflakes drifting    swirling round like ghosts in the snow


|-------------------------------------------------------------|
|-------------------------------------------------------------|
|--10---12-14--10-----------10-------10---12-14--10-----------|
|--10---12-14--10--8--8--7--10-------10---12-14--10--8--8--7--|
|--8----10-12--8---8--8--7--8--------8----10-12--8---8--8--7--|
|------------------6--6--5---------------------------6--6--5--|
Mother Russia poetry majestic     tells the time of a great empire


|-----------------------------------------------------------------|
|-----------------------------------------------------------------|
|--7---9-10--7--12--12--10--------------------9------12--12--7----|
|--7---9-10--7--12--12--10--12--------10---12-9--10--12--12--7----|
|--5---7-8---5--10--10--8---12--------10---12-7--10--10--10--5----|
|---------------------------10--------8----10----8----------------|
Turning round the old man ponders  reminiscing an age gone by

Проигрыш -1. (повторить два раза)

Проигрыш -2: (повторить два раза):
|-----------------------------------|-----------------------------|
|-----------------------------------|-----------------------------|
|-----------------------------------|-----------------------------|
|------5-5-6-6-3-3-5-5-1-1-3-3------|------5-5-6-6-3-3-5-5-1-1----|
|--3-3-------------------------5-5--|--3-3---------------------5--|
|-----------------------------------|-----------------------------|


|-----------------------------------|-----------------------------|
|-----------------------------------|-----------------------------|
|-----------------------------------|-----------------------------|
|------5-5-6-6-3-3-5-5-1-1-3-3------|------1-1-3-3-1-1-3-3--------|
|--3-3-------------------------5-5--|--3-3-----------------5-5-3--|
|-----------------------------------|-----------------------------|

Проигрыш -3:

|-----------------7----5---------|--8--8--7--5-------------|
|------------5--------------7----|--------------8----------|
|-----------------4----2---------|--5--5--4--2-------4--7--|
|------------2--------------4----|--------------5----------|
|--2----5------------------------|-------------------2--5--|
|--------------------------------|-------------------------|



|-------7----5---------|--8--8--7--5-------------|-------7----5---------|
|--5--------------7----|--------------8----------|-----------------7----|
|-------4----2---------|--5--5--4--2-------4--7--|--5----4----2---------|
|--2--------------4----|--------------5----------|-----------------4----|
|----------------------|-------------------2--5--|--3-------------------|
|----------------------|-------------------------|----------------------|



|--8--8--7--5--10--8--7--5--|-------7----5---------|--8--8--7--5-----------|
|---------------------------|--5--------------7----|--------------8--------|
|--5--5--4--2--7---5--4--2--|-------4----2---------|--5--5--4--2-----4--7--|
|---------------------------|--2--------------4----|--------------5--------|
|---------------------------|----------------------|-----------------2--5--|
|---------------------------|----------------------|-----------------------|



|-------7----5---------|--8--8--7--5-------------|-------7----5---------|
|--5--------------7----|--------------8----------|--5--------------7----|
|-------4----2---------|--5--5--4--2-------4--7--|-------4----2---------|
|--2--------------4----|--------------5----------|--2--------------4----|
|----------------------|-------------------2--5--|----------------------|
|----------------------|-------------------------|----------------------|


|--8--8--7--5-------------|-------7----5-------|--8--8--7--5--10--8--7--5--|
|--------------8----------|-----------------7--|---------------------------|
|--5--5--4--2-------4--7--|--5----4----2-------|--5--5--4--2--7---5--4--2--|
|--------------5----------|-----------------4--|---------------------------|
|-------------------2--5--|--3-----------------|---------------------------|
|-------------------------|--------------------|---------------------------|



|-------7----5---------|--8--8--7---------------|
|--5--------------7----|-----------10--8--------|
|-------4----2---------|--5--5--4---------------|
|--2--------------4----|-----------7---5--------|
|----------------------|------------------------|
|----------------------|------------------------|

Теперь соло, которое увы, я осилить не смог.

Второй куплет. (Те же рифы, что и первый куплет).

И заканчивается все Вступлением-2.

Текст:

Mother Russia how are you sleeping?
Middle winter cold winds blow
From the trees the snowflakes drifting,
Swirling round like ghosts in the snow
Mother Russia poetry majestic,
Tells the time of a great empire
Turning round the old man ponders,
Reminiscing an age gone by

Mother Russia, dance of the Tsars,
Hold up your heads, be proud of what you are
Now it has come, freedom at last,
Turning the tides of history and your past
Mother Russia, dance of the Tsars,
Hold up your heads, remember who you are
Can you release the anger the grief,
Can you be happy now your people are free

Вверх

Murders In The Rue Morgue

 ----5-----7---12-----------5-----7---12------12-14-16-14-12-11-12-11-12-14---
-5-----5----7---12-7----5-----5----7---12------------------------------------
-----------------------------------------------------------------------------
-----------------------------------------------------------------------------


-12-11-12--11-12-14-12-11-9-7--14-16-14-12-11-12-11-12--11-12-14--12-11-9-7--
-----------------------------------------------------------------------------
-----------------------------------------------------------------------------
-----------------------------------------------------------------------------

|--------- 2 times ----------|
-7-7-7-7-7-7-7-7-7-7-7-------------------------------------------------------
-------------------------------------------.-.---------------------------.-.-
------------------------2--0-2-3--2-3-5--5-5-5--3-2-0-2--0-2-3--2-3-5--5-5-5-
-----------------------------------------------------------------------------

-----------------------------------------------------------------------------
------------------------------------------------.--------------.-------------
-3-2-0-2--0-2-3--2-3-2-0------------------------7-7-7-7-7--0-0-0-0-0-0-0-0-0-
-------------------------3-0-------------------------------------------------
Drum cue, then enter (Faster)

-----------------------------------------------------------------------------
-.---------------.------4-5-4----.--------------.----------.---------------.-
-4-4-4-4-4--2-3--5-5-5--------5--7-7-7-7-7--0-0-0-0-0-0-0--4-4-4-4-4--0-2--5-
-----------------------------------------------------------------------------

-----------------------------------------------------------------------------
-.-4-5-4----.--------------.--------------.--------------.-----4-5-4----.----
-5-------5--7-7-7-7-7--0-0-0-0-0-0-0-0-0--4-4-4-4-4--2-3-5-5-5-------5--7-7-7
-----------------------------------------------------------------------------

-----------------------------------------------------------------------------
----------.----------.--------------.-.--4-5-4-----.-------5-----------------
-7-7--0-0-0-0-0-0-0--4-4-4-4-4--0-2-5-5---------5--7-7-5-7---7-7-5-5-5-5-4---
---------------------------------------------------------------------------5-
"Murders in the..."


-----------------------------------------------------------------------------
-.-.-----5-7--9-9-9-9-9-7-5--.-------5-----------------------------------.---
-7-7-5-7---------------------7-7-5-7---7-7-7-7-7-7-5---7-----5-5-4-0-----7-7-
-----------------------------------------------------8---5-7---------0-------

-----------------------------------------------------------------------------
------------.--------------.---------------.------4-5-4-----.--------------.-
-7-7-7--0-0-0-0-0-0-0-0-0--4-4-4-4-4--0-0--5-5-5---------5--7-7-7-7-7--0-0-0-
-----------------------------------------------------------------------------

-----------------------------------------------------------------------------
--------------.--------------.-.--4-5-4----.--------------.--------------.---
-0-0-0-0-0-0--4-4-4-4-4--2-3-5-5--------5--7-7-7-7-7--0-0-0-0-0-0-0-0-0--4-4-
-----------------------------------------------------------------------------

-----------------------------------------------------------------------------
------------.-----4-5-4----.--------------.--------------.--------------.-.--
-4-4-4--0-0-5-5-5-------5--7-7-7-7-7--0-0-0-0-0-0-0-0-0--4-4-4-4-4--2-3-5-5--
-----------------------------------------------------------------------------

-----------------------------------------------------------------------------
-4-5-4----.-------5-----------------.-------5-7--9-9-9-9-9-7-5--.-------5----
-------5--7-7-5-7---7-7-5-5-5-5-4---7-7-5-7---------------------7-7-5-7---7--
----------------------------------5------------------------------------------

-----------------------------------------------------------------------------
---------------------------------------------------4-5--7-7-7-7-7-7--5-7-9--7
-7-7-7-7-7-5---7------5-5-4-0-7-------------/7--5---------------------------
-------------8---5-7----------0----------------------------------------------
Drum cue, then enter

-----------7------------------------------------------------.----------------
-5---5-5-7---7-5----------4-5--7-7-7-7--7-7--5-7-9-9--7-5---5--5-5-5-5-5-5-4-
---7--------------5-7---7---------------------------------7------------------
-----------------------------------------------------------------------------

-------7---------------------------------------------------------------------
---5-7---7-5---.-------5-------------------.-------5-7--9-9-9-9-9-7-5--.-----
-7-------------7-7-5-7---7--7--5-5-5-5-4---7-7-5-7---------------------7-7-5-
-----------------------------------------5-----------------------------------

-----------------------------------------------------------------------------
---5------------------------------------------.--------------.--------------.
-7---7-7-7-7-7-7-5---7-----5-5-4-0-7----------7-7-7-7-7--0-0-0-0-0-0-0-0-0--4
-------------------8---5-7---------0-----------------------------------------
Drum cue

-----------------------------------------------------------------------------
---------------.-----4-5-4-----.--------------.--------------.--------------.
-4-4-4-4--0-0--5-5-5--------5--7-7-7-7-7--0-0-0-0-0-0-0-0-0--4-4-4-4-4--2-3-5
-----------------------------------------------------------------------------

-----------------------------------------------------------------------------
-.--4-5-4----.--------------.--------------.---------------.-----4-5-4----.--
-5--------5--7-7-7-7-7--0-0-0-0-0-0-0-0-0--4-4-4-4-4--0-0--5-5-5-------5--7-7
-----------------------------------------------------------------------------

-----------------------------------------------------------------------------
------------.--------------.--------------.-.--4-5-4----.-------5------------
-7-7-7--0-0-0-0-0-0-0-0-0--4-4-4-4-4--2-3-5-5--------5--7-7-5-7---7-7--5-5-5-
-----------------------------------------------------------------------------

-----------------------------------------------------------------------------
-------.-------5-7-9-9-9-9-9-7-5--.-------5----------------------------------
-5-4---7-7-5-7--------------------7-7-5-7---7--7-7-7-7-7-5---7-----5-5-4-0-7-
-----5-----------------------------------------------------8---5-7---------0-

----------------.----------.----------.---------------------------------.----
--------9-9-9-9-7--9-9-9-9-7--9-9-9-9-7---/10-9-7----7---------/9-9-9-9-7----
--------------------------------------------------10---10-9-7----------------
-----------------------------------------------------------------------------
Drum cue  (Guitar solo)

---------.----------.--------------------------------.-------------9-.-------
-9-9-9-9-7--9-9-9-9-7--/10-9-7-----7-----------------2--2-2-2-2--0-0-0-------
--------------------------------10---10-9-7--3-3-3-3-------------------3-3-3-
-----------------------------------------------------------------------------

---.-------------9-.-----------.-------------9-.-----------.--.--------------
---2--2-2-2-2--0-0-0-----------2--2-2-2-2--0-0-0-----------2--0--0-0-0-0-----
-3--------------------3-3-3-3----------------------3-3-3-3---------------3-2-
-----------------------------------------------------------------------------

------------.--.---------------------------.-------------9-.----------.------
-.----------2--0--0-0-0-0------.-----------2--2-2-2-2--0-0-0----------2--2-2-
-0--3-3-3-3----------------3-2-0---3-3-3-3--------------------3-3-3-3--------
-----------------------------------------------------------------------------

--------9-.-----------.--.--------------------------.--.---------------------
-2-2--0-0-0-----------2--0--0-0-0-0------.----------2--0--0-0-0-0------.-----
-------------3-3-3-3-----------------3-2-0--3-3-3-3----------------3-2-0--3-3
-----------------------------------------------------------------------------

-----------------------------------------------------------------------------
-----------------------------------------------------------------------------
-3-3-2-0-2-2-2-2-2--3-3-3-3-2-0-2-2-2-2-2--3-3-3-3-2-0-2-2-2-2-2--3-3-3-3-2-0
-----------------------------------------------------------------------------

-----.--------.--------------------------------------------------------------
-.-.-3-.--.-.-5-9-7-5--.-------5-----------------.-------5-7-9-9-9-9-9-7-5--.
-2-3---3--3-5----------7-7-5-7---7-7-5-5-5-5-4---7-7-5-7--------------------7
-----------------------------------------------5-----------------------------

-----------------------------------------------------------------------------
-------5-----------------------------------------------.-------------.-------
-7-5-7---7--7-7-7-7-7-5---7-----5-5-4-0--7--------/7--7-7-7-7-7-0-0-0-0-0-0-
------------------------8---5-7----------0-----------------------------------
Drum cue

-----------------------------------------------------------------------------
--------.---------------.-----4-5-4----.--------------.--------------.-------
-0-0-0--4-4-4-4-4--0-0--5-5-5-------5--7-7-7-7-7--0-0-0-0-0-0-0-0-0--4-4-4-4-
-----------------------------------------------------------------------------

-----------------------------------------------------------------------------
--------.-.--4-5-4----.--------------.--------------.---------------.-----4-5
-4--2-3-5-5--------5--7-7-7-7-7--0-0-0-0-0-0-0-0-0--4-4-4-4-4--0-0--5-5-5----
-----------------------------------------------------------------------------

-----------------------------------------------------------------------------
-4----.--------------.--------------.--------------.-.--4-5-4----.-------5---
---5--7-7-7-7-7--0-0-0-0-0-0-0-0-0--4-4-4-4-4--2-3-5-5--------5--7-7-5-7---7-
-----------------------------------------------------------------------------

-----------------------------------------------------------------------------
-----------------.-------5-7-9-9-9-9-9-7-5--.-------5------------------------
-7--5-5-5-5-4----7-7-5-7--------------------7-7-5-7---7--7-7-7-7-7-5---7-----
--------------5------------------------------------------------------8---5-7-

-----------------------------------------||
-----------------------------------------||
-5-5-4-0-7-----/7-----------------------||
---------0-------------------------------||
Let note ring a while

Вверх

My Generation

 Start after the Chorus
G||------------------|---------------------|-------------------|
D||-7-7-7-/-10-12-14-|-14-14-14-12-10-7--5-|-7--7-7-7--7-7-7-7-|
A||------------------|---------------------|-------------------|
E||------------------|---------------------|-------------------|

G|---------------|->->------|------------------|---------------|
D|-5-5-5-5-5-5-5-|-7-5-->->-|------------------|-7--7-7-7--7-7-|
A|---------------|------7-6-|-5-5-5--3--0------|---------------|
E|---------------|----------|----------------3-|---------------|

look ou this part is preaty
fast...
G|-----|---------------|-----------|-5-5-/-7-7-/-9-9-9-9-7-7-.-|
D|-7-7-|-5-5-5-5-5-5-5-|-7-5---5-7-|-------------------------5-|
A|-----|---------------|-----7-----|---------------------------|
E|-----|---------------|-----------|---------------------------|

G|--------------------|----------------|--------->->-|---------|
D|-7--7-7-7--7--7-7-7-|-5--5-5-5-5-5-5-|-7-7-7-7-5-5-|---------|
A|--------------------|----------------|-------------|-5-5-5-5-|
E|--------------------|----------------|-------------|---------|

G|--------|----------------------|-------------------||
D|-->-->--|--7--7-7-7--7--7-7-7--|--5--5-5-5--5-5-5--||
A|--3--3--|----------------------|-------------------||
E|--------|----------------------|-------------------||

Вверх

No Prayer For The Dying

-----9---------12-------7-------5--------9---------12--------7----------5----
---9---9----12---12---7---7---5---5----9---9----12----12---7---7-----55---5--
-7-------10---------5-------3--------7-------10----------5-------3-3--------3
-----------------------------------------------------------------------------

-5---------9-9-----------------12-12----------------7-7------------5-5-------
-------9-9-----9-9-------12-12-------12-12------7-7-----7-7-----5-5---5-5----
---7-7-------------10-10--------------------5-5-------------3-3--------------
-----------------------------------------------------------------------------

--------9-9-----------------12-12---------------7-7------------5-5----------|
----9-9-----9-9-------12-12-------12-12-----7-7-----7-7----5-5-----5-5------|
7-7-------------10-10-------------------5-5-------------3-3-----------------|
----------------------------------------------------------------------------|
Not a repeat!


-----------7-------------5---7-------9---------7---7---------4-------5-----7-
---------7-------------5----7-------9---------7----7-------4--------5-----7--
-7---5---------2---3-------5-------7-------5-------5----2--------3-------5---
-----------------------------------------------------------------------------
"(There are)
times when Ive wondered.."


-------9------7----7--------4------5----7---------9------7----7--------4-----
----9--------7----7------4--------5----7-------9--------7----7------4--------
-7--------5------5----2-------3-------5-----7-------5-------5----2-----------
-----------------------------------------------------------------------------

------5----7-----------------------------------------------------------------
-----5----7------------------------------------------------------------------
-3-------5------7-7-7-7-7---5--5-5--5-5-5-----2-2-2-2-2---3--3-3--5-5-5------
-----------------------------------------------------------------------------

-----------------------------------------------------------------------------
-----------------------------------------------------------------------------
-7-7-7-7-7---5--5-5--5-5-5-----2-2-2-2-2---3--3-3--5-5-5-----7-7-7-7-7---5---
-----------------------------------------------------------------------------

-----------------------------------------------------------------------------
-----------------------------------------------------------------------------
-5-5--5-5-5-----2-2-2-2-2--3--3-3--5-5-5-----7-7-7-7-7---5--5-5--5-5-5-------
-----------------------------------------------------------------------------

------------------------9---------7---7------4----------5------7---------9---
---------------------------9-----7-----7--------4------5--------7-----9------
-2---2---2---3---5---7--------5------5----2---------3-------5------7---------
-----------------------------------------------------------------------------

-----7---7---------4------5----7--------9--------7---7-------4-------5---7---
----7-----7-----4----------5----7--------9------7-----7-------4----5------7--
-5------5----2--------3-------5------7------5-------5-----2------3-----5-----
-----------------------------------------------------------------------------

----9-----------7----7----------4------5----7--------------------------------
-------9-----7---------7-----4--------5----7---------------------------------
-7--------5---------5-----2--------3------5------7-7-7-7-7---5--5-5--5-5-5---
-----------------------------------------------------------------------------

-----------------------------------------------------------------------------
-----------------------------------------------------------------------------
-2-2-2-2-2---3--3-3--5-5-5----7-7-7-7-7---5--5-5--5-5-5---2-2-2-2-2---3--3-3-
-----------------------------------------------------------------------------

-----------------------------------------------------------------------------
-----------------------------------------------------------------------------
-5-5-5----7-7-7-7-7---5--5-5--5-5-5---2-2-2-2-2---3--3-3--5-5-5----7-7-7-7-7-
-----------------------------------------------------------------------------

-------------------------------------------9---------12---------7--------5---
-----------------------------------------9---9----12----12----7---7----5-----
-5--5-5--5-5-5----2---2---2---3---5----7-------10----------5---------3-------
-----------------------------------------------------------------------------

-----9---------12---------7----------5---5-------------9-9-----------------12
---9---9----12----12----7---7------5-------5-------9-9-----9-9-------12-12---
-7-------10-----------5--------3-3-----3-------7-7-------------10-10---------
-----------------------------------------------------------------------------

-12----------------7-7-----------5------5-----------9-9-----------------12-12
----12-12------7-7-----7-7-----5-------5--------9-9-----9-9-------12-12------
-----------5-5-------------3-3------3-------7-7-------------10-10------------
-----------------------------------------------------------------------------

----------------7-7------------5---5-------------9-9-----------------12-12---
-12-12------7-7-----7-7------5---5--5--------9-9-----9-9-------12-12-------12
--------5-5--------------3-3----------3--7-7-------------10-10---------------
-----------------------------------------------------------------------------

------------7-7-----------5-5------------------------------------------------
-12-----7-7-----7-7-----------5----------------------------------------------
----5-5-------------3-3-3--------5h7--7-7--7-7--7-7-7-7-7-7--5h7--7-7--7-7---
-----------------------------------------------------------------------------
(h = hammer on)


-----------------------------------------------------------------------------
-----------------------------------------------------------------------------
-7-7-7-7-7-7---3-3-3--3-3--3-3---5--5-5--5-5--5h7--7-7--7-7--7-7-7-7-7-7--5~7
-----------------------------------------------------------------------------

-----------------------------------------------------------|
--------------------------------5--5-4---4-4-4--7--7-5p4---|
-7-7--7-7--7-7-7-7-7-7---3-3-3-----------------------------|
-----------------------------------------------------------|  This is NOT
(p = Pull off)       a repeat!

|----------------------------------------------------------------------------
|.----7--9-----7--9-----7--9---7--9---7--10------7--9-----7--9-----7--9---7--
|.-7--------7--------7------------------------7--------7--------7------------
|----------------------------------------------------------------------------
Solo part.


-----------------------------------------------------------------------------
-9--7-10-----2--4-----2--4-----2--4---2--4---2--5-----3--5------3--5------5--
---------2--------2--------2----------------------3---------3---------5------
-----------------------------------------------------------------------------

----------------|------------------------------------------------------------
-7------5--7---.|.-------------------------------------------------------4---
-----5---------.|.--9-9-9--7--9---9---9-9-9--7--9---9---9-9-9--7--9----------
----------------|------------------------------------------------------------
Play 4 times.


-----------------------------------------------------------------------------
-5-4-2--0-2-4-----------------------------------------------------4--5-4-2---
---------------9--9-9--7--9---9---9-9-9--7--9---9---9-9-9--7--9--------------
-----------------------------------------------------------------------------

----------------|------------------------------------------------------------
-0-2-4--5-4-2--.|------------------------------------------------------------
---------------.|-9--9-9--9-9------7--7-7--7-7------2--2-2--2-2-----3---3----
----------------|------------------------------------------------------------
" God give me the answer to my life...", et cetera


-----------------------------------------------------------------------------
-----------------------------------------------------------------------------
-5---5---9--9-9--9-9------7--7-7--7-7------2--2-2--2-2--2----3---3----5---5--
-----------------------------------------------------------------------------

-----------------------------------------------------------------------------
-----------------------------------------------------------------------------
-9--9-9--9-9----7--7-7--7-7-----2--2-2--2-2----3---3----5---5----9--9-9--9-9-
-----------------------------------------------------------------------------

-----------------------------------------------------------9-----------12----
---------------------------------------------------------9---9-----12-----12-
---7--7-7--7-7-----2--2-2--2-2----3---3----5---5------7---------10-----------
-----------------------------------------------------------------------------

-----7--------5--------9----------12---------7----------5-----------------9-9
---7---7----5--------9---9-----12----12----7---7------5---5---5-------9-9----
-5--------3------7----------10----------5---------3-3-------3-----7-7--------
-----------------------------------------------------------------------------

-----------------12-12---------------7-7-------------5-5--------------9-9----
-9-9-------12-12-------12-12-----7-7-----7-7-----5-5-------5-------9-9----9-9
-----10-10-------------------5-5-------------3-3---------3-----7-7-----------
-----------------------------------------------------------------------------

-------------12-12---------------7-7---------------5---5-------------------||
-------12-12-------12-12-----7-7-----7-7------5-5---------5-----5----------||
-10-10-------------------5-5--------------3-3-------------------------7----||
---------------------------------------------------------------------------||
ritard.

Вверх

Number Of The Beast

[the intro is written in 5/4 measure (5 ticks in 1 measure)]

D!
E--------------------|
B--------------------|
G--------------------|
D--------------------|
A--12-12-12-12-10-10-|
E--10-10-14-14-10-10-|

[intro]

I      left   a-
E-------------------------------------------------------------------------|
B-------------------------------------------------------------------------|
G-------------------------------------------------------------------------|
D-------------------------------------------------------------------------|
A--12--x--x-12----x--x--x-12----x--x--x-12----x--x-12-12---12-12-10-10----|
E--10-10-10-10---10-10-10-10---10-10-10-10---10-10-10-10---14-14-10-10----|

lone                                             my     mind   was
E-------------------------------------------------------------------------|
B-------------------------------------------------------------------------|
G-------------------------------------------------------------------------|
D-------------------------------------------------------------------------|
A--12--x--x-12----x--x--x-12----x--x--x-12----x--x-12-12---12-12-10-10----|
E--10-10-10-10---10-10-10-10---10-10-10-10---10-10-10-10---14-14-10-10----|

blank                                     C!     I      need- ed
E-------------------------------------------------------------------------|
B-------------------------------------------------------------------------|
G-------------------------------------------------------------------------|
D-------------------------------------------------------------------------|
A--12--x--x-12----x--x--x-12----x--x--x-12---10-10-10-10---10-10--8--8----|
E--10-10-10-10---10-10-10-10---10-10-10-10----8--8--8--8---12-12--8--8----|

time        to      think      to         get   the      mem   ries
E-------------------------------------------------------------------------|
B-------------------------------------------------------------------------|
G-------------------------------------------------------------------------|
D-------------------------------------------------------------------------|
A--10--x--x-10----x--x--x-10----x--x--x-10----x--x--x-10---10-10-----8----|
E---8--8--8--8----8--8--8--8----8--8--8--8----8--8--8--8----8-12-----8----|

D! from my     mind                               What    did   I
E-------------------------------------------------------------------------|
B-------------------------------------------------------------------------|
G-------------------------------------------------------------------------|
D-------------------------------------------------------------------------|
A--12--x--x-12----x--x--x-12----x--x--x-12----x--x-12-12---12-12-10-10----|
E--10-10-10-10---10-10-10-10---10-10-10-10---10-10-10-10---14-14-10-10----|

see                                              can    I     be-
E-------------------------------------------------------------------------|
B-------------------------------------------------------------------------|
G-------------------------------------------------------------------------|
D-------------------------------------------------------------------------|
A--12--x--x-12----x--x--x-12----x--x--x-12----x--x-12-12---12-12-10-10----|
E--10-10-10-10---10-10-10-10---10-10-10-10---10-10-10-10---14-14-10-10----|

lieve                                     C!     That   what  I
E-------------------------------------------------------------------------|
B-------------------------------------------------------------------------|
G-------------------------------------------------------------------------|
D-------------------------------------------------------------------------|
A--12--x--x-12----x--x--x-12----x--x--x-12---10-10-10-10---10-10--8--8----|
E--10-10-10-10---10-10-10-10---10-10-10-10----8--8--8--8---12-12--8--8----|

sawe       that     night        was    real    and     not     just
E-------------------------------------------------------------------------|
B-------------------------------------------------------------------------|
G-------------------------------------------------------------------------|
D-------------------------------------------------------------------------|
A--10--x--x-10----x--x--x-10----x--x--x-10----x--x--x-10---10-10-----8----|
E---8--8--8--8----8--8--8--8----8--8--8--8----8--8--8--8----8-12-----8----|

fan- ta- sy                                     Just    what  I
E-------------------------------------------------------------------------|
B-------------------------------------------------------------------------|
G-------------------------------------------------------------------------|
D-------------------------------------------------------------------------|
A--12--x--x-12----x--x--x-12----x--x--x-12----x--x-12-12---12-12-10-10----|
E--10-10-10-10---10-10-10-10---10-10-10-10---10-10-10-10---14-14-10-10----|

[end intro]

[repeat intro]
saw in my own      dreams were the re-
flections of my warped mind staring
back at me.
Cos in my dreams  its always there. The evil
face that twists my mind and brings me
to despair.

D! / / / /

D! / / / / / / C! / / / / D! / / /

[the rest is written in 4/4 measure (4 ticks in 1 measure)]
[verse]
D!
Night was black was no use holding back Cos I just
C!         D!
had to see was   some-one  watching me
D!
In the mist dark figures move and twist    was all
C!         D!
this for real or just some kind of hell

[chorus]
C!            G!             C!              D!
Six    six    six    the num-ber of the beast
Hell and fire       was born   to be released

[play verse]
Torches blazed and secret chants were phrased as they
start to cry hands held to the sky
In the night the fires are burning bright the ritual
has begun           satans work is done

C!            G!             C!              D!
Six    six    six    the num-ber of the beast
Sac-   ri-    fice   is  going   on tonight

D!
E--(repeat three times---------------|---------------------------------)--|
B------------------------------------|------------------------------------|
G--2-2-2-4----2---4-4-4--5------4----|--5-5-5--7----5-------7--7--7--5----|
D--0-0-0-0----0---0-0-0--7------0----|--7-7-7--0----7-------0--0--0--7----|
A------------------------------------|------------------------------------|
E------------------------------------|------------------------------------|

[sorry no solo avaible]

Bb! / /  / F! / / /
Bb! / /  / F! / / /
Bb! / /  / F! / / /
Bb! / D! C!

C! Bb!                                G! F!
E------------------------------------|------------------------------------|
B------------------------------------|------------------------------------|
G------------------------------------|------------------------------------|
D----12----10------------------------|----8-----6-------------------------|
A-12----12----12-10-8-10-------------|-8-----8-----8--6-----6-------------|
E------------------------12-10-8-----|-------------------9-----8--6--4----|

F! /  /  / G! / A!  C! D!
D! / F!  / G! / Bb! C! D!
D! / F!  / G! / Bb! C! D!
D! / F!  / G! / Bb! C! D!
D! / F!  / G! / Bb! C! D!

[bass "solo"]
D! / F!  / G! / Bb! C! D!
D! / F!  / G! / Bb! C! D!

[play verse]
(This) cant go on I must inform the law can this
still be real or just some crazy dream
but I feel drawn towards the chanting hordes seems to
mesmerize cant avoid their eyes

C!            G!             C!              D!
Six    six    six    the num-ber of the beast
Six    six    six    the one for you and me

[play intro]
Im coming back      I will return
And Ill posess your body and Ill make you burn
I have the fire      I have the force
I have the power to  make my evil take its course

D! / / /  / D! / / / / /
D! / / C! / / / / / D! / C! D!

CHORDS
D!   C!   G!   Bb!   F!   A!
E-------------------------------------------------------------------------|
B-------------------------------------------------------------------------|
G--7----5-----------------------------------------------------------------|
D--7----5----5-----8----3----7--------------------------------------------|
A--5----3----5-----8----3----7--------------------------------------------|
E------------3-----6----1----5--------------------------------------------|

Вверх

Phantom Of The Opera

 --0-2--4-5-4-0-0-7-4-0-5-4-0---0-2----------0-4-5-4-0-0-7-4-0-5-4-0---0-2----
-----------------------------4--------------------------------------4--------
------------------------------------2-------------------------------------2--
-----------------------------------------------------------------------------
Intro

-0-2-4-5-4-0-0-7-4-0-5-4-0---0-2------0-2-4-5-4-0-0-7-4-0-5-4-0---0-2--------
---------------------------4------------------------------------4------------
----------------------------------2------------------------------------------
-----------------------------------------------------------------------------

------------------------------2-2-2--4-4-4--5--7-9-9--9-9-9--7-9-9--9-9-9----
---------------2-2-2--4-4-4--------------------------------------------------
-2-2-2--4-4-4----------------------------------------------------------------
-----------------------------------------------------------------------------

-7-9-9--9-9-9---7-9-9--9----------------------------------------------.--.--
-----------------------------2-2-2--5-2-2--2-2-2--5-2-2--2-2-2--5-2-2--5--0--
-----------------------------------------------------------------------------
-----------------------------------------------------------------------------

-------------------------------------------.--.------------------------------
-2-2-2--5-2-2--2-2-2--5-2-2--2-2-2--5-2-2--5--0---2-2-2--5-2-2--2-2-2--5-2-2-
-----------------------------------------------------------------------------
-----------------------------------------------------------------------------

---------------.--.----------------------------------------------------------
-2-2-2--5-2-2--5--0---4-4-4--7-4-4--4-4-4--7-4-4--5-5-5--9-5-5--5-5-5--9-5-5-
-----------------------------------------------------------------------------
-----------------------------------------------------------------------------

-----------------------------------------------------------------------------
-4-4-4--7-4-4--4-4-4--7-4-4--5-5-5--9-5-5--5-5-5--9-5-5---4-4-4--7-4-4--4-4-4
-----------------------------------------------------------------------------
-----------------------------------------------------------------------------

---------------------------------------------------->-->-->------------------
-7-4-4--4-4-4--7-4-4--5-5-5--9-5-5--5-5-5--9-5-5----2--2--2---->-->-->--->-->
---------------------------------------------------------------2--2--2---3--3
-----------------------------------------------------------------------------

--------------------------------------------------------->-->-->-------------
-->-----5------2-2-2--5-2-2--2-2-2--5-2-2--2-2-2--5-2-2--0--0--0----2-2-2----
--3---5----5-----------------------------------------------------------------
-----------------------------------------------------------------------------

------------------------------------>-->-->--->-->-->------------------------
-5-2-2--2-2-2--5-2-2--2-2-2--5-2-2--0--0--0---2--2--2--->-->-->--->-->-->----
--------------------------------------------------------2--2--2---3--3--3--5-
-----------------------------------------------------------------------------

------------------------------------------------->-->-->---------------------
-5-----2-2-2--5-2-2--2-2-2--5-2-2--2-2-2--5-2-2--0--0--0--2-2-2--5-2-2--2-2-2
---5-------------------------------------------------------------------------
-----------------------------------------------------------------------------

---------------------->-->-->----0-4-5-4-0-0-7-4-0-5-4-0---0-2---------------
-5-2-2--2-2-2--5-2-2--0--0--0----------------------------4-------2-2-2--5-2-2
-----------------------------------------------------------------------------
-----------------------------------------------------------------------------
" Ive been looking so long... "

------------------------------->-->-->---------------------------------------
-2-2-2--5-2-2---2-2-2--5-2-2---0--0--0---2-2-2--5-2-2--2-2-2--5-2-2--2-2-2---
-----------------------------------------------------------------------------
-----------------------------------------------------------------------------

-------->-->-->---0-2-4-5-4-0-0-7-4-0-5-4-0---0-2----------------------------
-5-2-2--0--0--0-----------------------------4-------2-2-2--5-2-2--2-2-2--5-2-
-----------------------------------------------------------------------------
-----------------------------------------------------------------------------

------------------>-->-->--->-->-->------------------------------------------
-2--2-2-2--5-2-2--0--0--0---2--2--2--->-->-->--->-->-->-----5------2-2-2--5-2
--------------------------------------2--2--2---3--3--3---5---5--------------
-----------------------------------------------------------------------------

-------------------------------->-->-->--------------------------------------
-2--2-2-2--5-2-2--2-2-2--5-2-2--0--0--0--2-2-2--5-2-2--2-2-2--5-2-2--2-2-2---
-----------------------------------------------------------------------------
-----------------------------------------------------------------------------

-------->-->-->-->-->-->-----------------------------------------------------
-5-2-2--0--0--0--2--2--2--->-->-->--->-->-->-----5----2-2-2--5-2-2--2-2-2--5-
---------------------------2--2--2---3--3--3---5---5-------------------------
-----------------------------------------------------------------------------

-------------------->-->-->-------------------------------------------->-->--
-2-2--2-2-2--5-2-2--0--0--0--2-2-2--5-2-2--2-2-2--5-2-2--2-2-2--5-2-2--0--0--
-----------------------------------------------------------------------------
-----------------------------------------------------------------------------

->---0-2-4-5-4-0-0-7-4-0-5-4-0-----0--2--------------------------------------
-0------------------------------4---------2-2-2--5-2-2--2-2-2--5-2-2--2-2-2--
-----------------------------------------------------------------------------
-----------------------------------------------------------------------------

-------->-->-->--------------------------------------------->-->-->---0-2-4-5
-5-2-2--0--0--0---2-2-2--5-2-2--2-2-2--5-2-2--2-2-2--5-2-2--0--0--0----------
-----------------------------------------------------------------------------
-----------------------------------------------------------------------------

-4-0-0-7-4-0-5-4-0----0-2--------------------------------------------->-->-->
--------------------4-------2-2-2--5-2-2--2-2-2--5-2-2--2-2-2--5-2-2--0--0--0
-----------------------------------------------------------------------------
-----------------------------------------------------------------------------

-------------------------------------------->-->-->--->-->-->----------------
--2-2-2--5-2-2--2-2-2--5-2-2--2-2-2--5-2-2--0--0--0---2--2--2--->-->-->-->-->
----------------------------------------------------------------2--2--2--3--3
-----------------------------------------------------------------------------

-------------------------------------------------------->-->-->--------------
-->-----5-----2-2-2--5-2-2--2-2-2--5-2-2--2-2-2--5-2-2--0--0--0---2-2-2--5-2-
--3---5---5------------------------------------------------------------------
-----------------------------------------------------------------------------

-------------------------------->-->-->-->-->-->-----------------------------
-2--2-2-2--5-2-2--2-2-2--5-2-2--0--0--0--2--2--2--->-->-->--->-->-->-----5---
---------------------------------------------------2--2--2---3--3--3---5---5-
-----------------------------------------------------------------------------

------------------------------------------->-->-->---------------------------
-2-2-2--5-2-2--2-2-2--5-2-2--2-2-2--5-2-2--0--0--0---2-2-2--5-2-2--2-2-2--5-2
-----------------------------------------------------------------------------
-----------------------------------------------------------------------------

------------------>-->-->--->-->-->------------------------------|
-2--2-2-2--5-2-2--0--0--0---2--2--2--->-->-->--->-->-->-----5----|
--------------------------------------2--2--2---3--3--3---5---5--|
-----------------------------------------------------------------|

------9----------9---------9-------------------9--------9--------9-----------
--------9----------9---------9--->--->-----------9--------9--------9--->-->--
--7-7-------7-7-------7-7--------7---5----7-7-------7-7------7-7-------7--9--
-----------------------------------------------------------------------------
Intermission

------7--------7----------5--------5--------9--------9---------9-------------
--------7--------7----------5--------5--------9--------9---------9-->-->-----
-5-5-------5-5-------3-3-------3-3------7-7------7-7-------7-7------7--5-----
-----------------------------------------------------------------------------

------9----------9---------9------------------9--------9--------9------------
--------9----------9---------9--->-->-----------9--------9--------9--->-->---
--7-7-------7-7-------7-7--------7--5----7-7-------7-7------7-7-------7--9---
-----------------------------------------------------------------------------

------7--------7----------5--------5--------9--------9---------9-------------
--------7--------7----------5--------5--------9--------9---------9-->-->-----
-5-5-------5-5-------3-3-------3-3------7-7------7-7-------7-7------7--5-----
-----------------------------------------------------------------------------

------9--------9-------9----------------9--------9--------9------------------
--------9--------9-------9-->-->----------9--------9--------9-->-->-->-------
-7-7-------7-7------7-7-----7--5----7-7------7-7------7-7------7--5--3---3-3-
-----------------------------------------------------------------------------

-----------------------------------------------------------------------------
----------------------------------------------7-------------------------7----
--3---2--0--7--7-7-7--7---7-7-7--10--9-7--------10-9-----7--7-7--7---10---10-
------------------------------------------10---------10----------------------

-----------------------------------------------------------------------------
------------------------------------------------------------------------7----
-9-----3--3-3--3--3--2--0--7--7-7-7--7--7-7--9-10-7--7--9---10-10-10--7---5--
----10-----------------------------------------------------------------------

-----------------------------------------------------------------------------
-----------------7--5--------5-----------------------------------------------
-7---7-7-7--10---------7--5-----7--5--0--3---3-3-3-3--2--0---7---7-7-7-7--7-7
-----------------------------------------------------------------------------

--------------------9--7-----------------------------------------------------
--------------------------9--------------------7-5---------------------------
-7--8---7-7-7--10------------5--7---7-7-7--8--------0--3---3-3-3-3--2--0--7--
-----------------------------------------------------------------------------

----------------------------------------9---------|
------------.----------.--.---7-5-5--7------------|
-7-7-7-7--7-7----8--10-9--7----------------5-7~--|
--------------------------------------------------|


-----14--16-----14--16-----14--16------14--16------14--16------14--16------14
--14---------14---------14---------14----------14----------14----------14----
-----------------------------------------------------------------------------
-----------------------------------------------------------------------------

-16------14--16-------14--16------14--16-----14--16-----14--16-------12--14--
-----14-----------14----------14----------14---------14----------12----------
-----------------------------------------------------------------------------
-----------------------------------------------------------------------------

-----12--14------12--14------12--14------10--12-------10--12-----10--12------
-12----------12----------12-----------10----------10----------10---------10--
-----------------------------------------------------------------------------
-----------------------------------------------------------------------------

--10--12------12--14-------12--14------12--14------12--14--------14--16------
----------12-----------12----------12----------12------------14----------14--
-----------------------------------------------------------------------------
-----------------------------------------------------------------------------

-14--16-------14---16------14--16-------12--14------12--14-----12--14-----12-
----------14-----------14-----------12----------12----------12---------12----
-----------------------------------------------------------------------------
-----------------------------------------------------------------------------

-14------10--12-----10--12------10--12------10--12------12--14-----12--14----
------10---------10---------10----------10----------12----------12---------12
-----------------------------------------------------------------------------
-----------------------------------------------------------------------------

--12--14-------12--14----------------------------16--------------------------
-----------12------------14--14--14--16--14--14------14--14--16--14--14--12--
-----------------------------------------------------------------------------
-----------------------------------------------------------------------------

----------------------14----------------------------------------------12-----
-12--12--14--12--12-------12--12--14--12--12---10--10--10--12--10--10----10--
-----------------------------------------------------------------------------
-----------------------------------------------------------------------------

------------------------------------------14----------12---------------------
-10--12--10--10---12--12--12--14--12--12------12--12------12--12--14--14--14-
-----------------------------------------------------------------------------
-----------------------------------------------------------------------------

-------------16--------------------------------------------14----------------
-16--14--14------14--14--16--14-14--12--12--12--14--12--12----12--12--14--12-
-----------------------------------------------------------------------------
-----------------------------------------------------------------------------

-----------------------------12------------------------------14-14-14--12-12-
-12--10--10--10--12--10--10-----10--10--12--10--10--12-12-12-----------------
-----------------------------------------------------------------------------
-----------------------------------------------------------------------------

-11-----|--------------------------------------------------------------------
----12-|.-------------------------------------------------------------------
--------|.-7-7-7--7-7-7--7-7-7--7-7-7--10-10-10--10-10-10--10-10-10--10-10-10
--------|--------------------------------------------------------------------

----------------------------------------------------------------------------|
-----------------------------------------------------------------------.---.|
-12-12-12--12-12-12--12-12-12--12-12-12--15-15-15--15-15-15--14-14-14-10---.|
----------------------------------------------------------------------------|

|----------------------------------------------------------------------------
|.---------------------------------------------------------------------------
|.--7-7-7--7-7-7--7-7-7--7-7-7--10-10-10--10-10-10--10-10-10--10-10-10--12-12
|----------------------------------------------------------------------------

---------------------------     ---------
| 1.                            | 2.
--------------------------------------------------9-7-0----------|-----------
------------------------------------9-7-0--9-7-0---------9-7-0--.|--9-7-0----
-12--12-12-12--12-12-12--12-12-12-------------------------------.|-----------
-----------------------------------------------------------------|-----------

---------------9-7-0---------------------------------------------------------
-9-7-0--9-7-0----------------------------------------------------------------
------------------------7-7-7--7-7-7--7-7-7--7-7-7--10-10-10--10-10-10--10-10
-----------------------------------------------------------------------------

-----------------------------------------------------------------------------
-----------------------------------------------------------------------------
-10--10-10-10--12-12-12--12-12-12--12-12-12--12-12-12--15-15-15--15-15-15----
-----------------------------------------------------------------------------

-----------------------------------------------------------------------------
------------.----------------------------------------------------------------
--14-14-14--10---7-7-7--7-7-7--7-7-7--7-7-7--10-10-10--10-10-10--10-10-10----
-----------------------------------------------------------------------------

-----------------------------------------------------------------------------
-----------------------------------------------------------------------------
-10-10-10--12-12-12--12-12-12--12-12-12--12-12-12--15-15-15--15-15-15--14-14-
-----------------------------------------------------------------------------

--------------|-------.------>------>-----------------.------>------>--------
------.-------|.------2--2-2-2--2-2-2--2-2-2-0---0----2--2-2-2--2-2-2--2-2-2-
-14--10--15--|.-------------------------------2-----------------------------
--------------|--------------------------------------------------------------
ritard.    Free time  (Guitar Solos)

---------.------>------>---------------.-------.--->-----------------|-------
-0---0---5--5-5-5--5-5-5--5-5-5-3---3--7---7-7-7---7----------------.|-2-2-2-
---2------------------------------5--------------------3--3---5--5--.|-------
---------------------------------------------------------------------|-------
Play 12 Times

-----------------------|------------------------------------------->-->-->---
------------------5----|-2-2-2--5-2-2--2-2-2--5-2-2--2-2-2--5-2-2--0--0--0---
--2-2-2--3-3-3--5---5--|-----------------------------------------------------
-----------------------|-----------------------------------------------------
Faster

------------------------------------------->-->-->---------------------------
-2-2-2--5-2-2--2-2-2--5-2-2--2-2-2--5-2-2--0--0--0---2-2-2------------------5
------------------------------------------------------------2-2-2--3-3-3--5--
-----------------------------------------------------------------------------

---------------------------------------------->-->-->------------------------
----2-2-2--5-2-2--2-2-2--5-2-2--2-2-2--5-2-2--0--0--0---2-2-2--5-2-2--2-2-2--
-5---------------------------------------------------------------------------
-----------------------------------------------------------------------------

---------------------->-->-->---0-2-4-5-4-0-0-7-4-0-5-4-0-----0-2------------
-5-2-2--2-2-2--5-2-2--0--0--0------------------------------4---------2-2-2---
-----------------------------------------------------------------------------
-----------------------------------------------------------------------------

------------------------------------->-->-->---------------------------------
--5-2-2--2-2-2--5-2-2--2-2-2--5-2-2--0--0--0--2-2-2--5-2-2--2-2-2--5-2-2--2-2
-----------------------------------------------------------------------------
-----------------------------------------------------------------------------

----------->-->-->--0-2-4-5-4-0-0-7-4-0-5-4-0---0-2--------------------------
-2--5-2-2--0--0--0----------------------------4-------2-2-2--5-2-2--2-2-2--5-
-----------------------------------------------------------------------------
-----------------------------------------------------------------------------

-------------------->-->-->-------------------------------------------->-->--
-2-2--2-2-2--5-2-2--0--0--0--2-2-2--5-2-2--2-2-2--5-2-2--2-2-2--5-2-2--0--0--
-----------------------------------------------------------------------------
-----------------------------------------------------------------------------

->------------------------------------------------------------------------>--
-0--2-2-2------------------5----2-2-2--5-2-2--2-2-2--5-2-2--2-2-2--5-2-2--0--
-----------2-2-2--3-3-3--5---5-----------------------------------------------
-----------------------------------------------------------------------------

->-->-------------------------------------------->-->-->---------------------
-0--0--2-2-2--5-2-2--2-2-2--5-2-2--2-2-2--5-2-2--0--0--0---2-2-2-------------
------------------------------------------------------------------2-2-2--3-3-
-----------------------------------------------------------------------------

---------------||
------5--->----||
-3--5---5-7---||
---------------||

Вверх

Powerslave
mp3

Intro/Verse

-------------------------------------------------------------------------------
---
-------------------------------------------------------------------------------
---
-------------------------------------------------------------------------------
---
-------------------------------------------------------------------------------
---
-7-----------------------10------------------------8-7-------------------------
10
-5--5-5-5--5-5-5--5-5-5--8--5-5-5--5-5-5--5-5-5--6-5--5-5-5--5-5-5---5-5-5--8

-----------------------------------
-----------------------------------
-----------------------------------
-----------------------------------
---5-4-5-7-5h7p5-4h5p4------------
-5----------------------6----------

Prechorus

------------------------------------------------
-5/13---9/10-9----6----5/13---9/10--9---6-----
------------------------------------------------
-2/10---6/7--6----3----2/10---6/7---6---3-----
------------------------------------------------
------------------------------------------------

Tell me why I had to be....
Chorus

----------------------------------------------------------------------------
----------------------------------------------------------------------------
-9--5--7--------------------------------------------------------------------
-9--5--7--------------------------------------------------------------------
-7--3--5--------------------------------------------------------------------
----------3p0-0-0-0--0-0-3p0--0-0-0-0-0-0h2-2-2-2h3-3-3-3h5-5-5-5-3-2-0-

presolo

-0----------------------------------
-0----------------------------------
-0----------------------------------
-2----------------------------------
-2----------------------------------
-0----------------------------------

(clean sound)

-----------------------------------
-----3-------3-------3------------
-------4-------4-------4----------
---4-------4-------4--------------(repeat)
-2-------2-------2-------2--0-----
-----------------------------------

guitar solo 1

-------------------------------------------------------------------------------
---
-5/7-5h7p5/3/2--3p2~~~--2h3p2---------------------------------------------10/12
-
--------------------------------4/2/4---6-7-9-9br-p7/6h7p6---------7-9br-7-----
--
------------------------------------------------------------9---7-9------------
---
--------------------------------------------------------------9----------------
---
-------------------------------------------------------------------------------
---

------------------------------------------------------------9-10-9h10p9--------
---
-10h12p10--7h10p7-----------------------------------10-12--------------12-10-12
--
-------------------9-7h9p7/6---6/4--4----------9/11----------------------------
---
------------------------------9-------------7-9--------------------------------
----
------------------------------------------9------------------------------------
-----
-------------------------------------------------------------------------------
-----

-9-10-12-10-9h10p9------------------------------------------------10-9h10p9----
---
--------------------10---------------------------------------10-12-----------12
-10
-----------------------9/7-9br-7h9p7-6h7p6/4---------7-9/11--------------------
---
--------------------------------------------------7-9--------------------------
-----
------------------------------------------------9------------------------------
-----
-------------------------------------------------------------------------------
-----

-12b--12bp10-9h10p9------------------------------------------------------------
----
---------------------12----------------14h15-17-15-14h15p14-----15-14h15p14----
--
--------------------------------14h16-------------------------16--------------1
6-14
--------------------------14/16------------------------------------------------
----
-------------------------------------------------------------------------------
-----
-------------------------------------------------------------------------------
-----

--------------14-15-17-17br-17b-----17-15-14h15p14----14-15-17-15-14h15p14-----
-
----14-15-17-----------------------------------------17-----------------------1
7---
-16----------------------------------------------------------------------------
-----
-------------------------------------------------------------------------------
------
-------------------------------------------------------------------------------
------
-------------------------------------------------------------------------------
------

-14h15p14----------------------------------------------------7---------7-------
---
-----------17-15-14h15p14-------------------------------------10----7---10p7---
---
---------------------------16-14----------------------------------9b-----------
----
---------------------------------16-15-14/12-14p12-14p12-----------------------
--
-------------------------------------------------------------------------------
----
-------------------------------------------------------------------------------
----

-----------------------------------
-----------------------------------
-9p7-9-7---------------------------
---------9-7-9/-------------------
----------------------------------
-----------------------------------

Solo rhythm

------------------------------------------------------------------------
------------------------------------------------------------------------
----------------------------------------7-7-7-----2-----2-----2-2-2----
-4---4----4-4----4--4-----4--4-----5---7-7-7-----2-----2-----2-2-2----
-2-0-2--0-2-2--0-2--2--0--2--2-0--5---5-5-5-----0-----0-----0-0-0----
------------------------------------3----------------3------3-----------

Harmony interlude

-------------------------------------------------------------------------------
-
-------------------------------------------------------------------------------
-
-------------------------------------------------------------------------------
-
-------4-5-4--------------4-5-4---7/9-7~~-----7-9-7h9p7----------------4-5-4-
-5~~-7-------7-4-5~~---7-------7-----------10-----------10-7-9~~--5-7--------
-------------------------------------------------------------------------------
-

-----------------------------------
-----------------------------------
-----------------------------------(repeat)
-----------------------------------
-7-4-5~~--------------------------
-----------------------------------

Solo outro

-------------------------------------------
-------------------------------------------
-10-9----8-7---5-4------------------------
-10-9----8-7---5-4---5-2------------------
--8-7----6-5---3-2---5-2------------------
----------------------3-0------------------

Outro to song
Slave to the power of death....

----------------------------------------------------------------------
----------------------------------------------------------------------
-5--7--------------------------------------5-7-7-7-9-----------------
-5--7--------------------------------------5-7-7-7-9-(trem picking)---
-3--5--------------------------------------3-5-5-5-7-----------------
--------3p0-0-0-0-0---0-0-3p0-0-0-0-0-0-----------------------------

-------------------------------------------------------------------------------
------
-----------------------5/6--5/6---9/6---9-10--13--12/13/12-10--9/10/9--6/9/6--5
--
-------------------------------------------------------------------------------
------
----------------3--3---2/3--2/3---6/3---6--7--10---9/10/9---7---6/7/6---3/6/3--
2--
----------------3--3-----------------
-----------------------------------------------
-5-4-5-7-5-4---1--1------------------------------------------------------------
----

-----------------------------------
-----------------------------------
--9/---------------------------------
--9/---------------------------------
--7/---------------------------------
-----------------------------------

Вверх

Powerslave (2 вариант)
mp3

|----------------------------------------------------------------------------
|.---------------------------------------------------------------------------
|.-0--0-0-0--0-0-0--0-0-0-3--0--0-0-0--0-0-0--0-0-0-1--0--0-0-0--0-0-0--0-0-0
|----------------------------------------------------------------------------

-----7--6--7--9--7-6-7-6------|--9----5-------9----5-------9----5------9---5-
--------------------------8--.|--9----5--6----9----5--6----9----5--6---9---5-
3--0-------------------------.|--7----3--6----7----3--6----7----3--6---7---3-
------------------------------|----------4------------4------------4---------
Play 5 times.
Lyrics begin on second time.

---|--------------------------9-----------9-------------9--------------------
-6-|.--------------------------9------------9-------------9------------------
-6-|.-7--7-7-7--7-7-7--7-7-7-----7-7-7-7-7----7-7-7-7-7------10-7-7-7-7-7--10
-4-|-------------------------------------------------------------------------

---------------------------------------------------|-------------------------
--------------------------------------------------.|.------------------------
-7-7-7-7-7-9-9-9-9-10-10-10-10-12-12-12-12-10-9-7-.|.-0--0-0-0--0-0-0--0-0-0-
---------------------------------------------------|-------------------------
Play 4 times

------------------------------------------------------------7--6--7--9--7-6-7
-----------------------------------------------------------------------------
3--0--0-0-0--0-0-0--0-0-0-1--0--0--0-0-0--0-0-0--0-0-0-3--0------------------
-----------------------------------------------------------------------------

-6-----|-9----5-------9----5-------9----5-------9----5-----|-----------------
---8--.|-9----5--6----9----5--6----9----5--6----9----5--6--|.----------------
------.|-7----3--6----7----3--6----7----3--6----7----3--6--|.-7--7-7-7--7-7-7
-------|---------4------------4------------4------------4--|-----------------
Play 5
times.

-------9-------------9-------------9-----------------------------------------
---------9-------------9--------------9--------------------------------------
-7-7-7------7-7-7-7-7----7-7-7-7-7-------10-7-7-7-7-7-10-7-7-7-7-7-9-9-9-9-10
-----------------------------------------------------------------------------

-------------------------------|-|-9--|----------/16--14--13-----------------
------------------------------.|-|-9--|----7--9--------------14--16--9----7--
-10-10-10-12-12-12-12-10-9-7--.|-|-7--|--7------------------------------7----
-------------------------------|-|----|--------------------------------------
play 4 times.                           Slowly     ( / = slide up )

---9------------6-7-9-7--6------------------9-----------9-7-6--------13-14-16
-9---9----7--9----------------7--9------7-9---9----7-9-----------7-9---------
--------7-------------------7---------7----------7-------------7-------------
-----------------------------------------------------------------------------

-14-13-16-14-13------------------------------------9----6-7-9-7-6------------
----------------14-----7--9----9-7-6----6-7-9----9---7------------7----5---5-
---------------------7----------------7--------9--------------------7----5---
-----------------------------------------------------------------------------

-----------7-9-7-6----------9----6-7-9-7-6-----------------7---9-7-6-------9-
---5-5---7---------7--9---9---7-------------7-5---5----5-7---7-------7---9---
-5----------------------9-----------------------5----5-----------------9-----
-----------------------------------------------------------------------------

----9-9-9-7-6-------------6-7-9-7-6---7---9---------------6-7-9-7-6----------
-7-------------7-5---5-5------------7---7---7--9---9---7------------7-5-5-5-5
-------------------5-----------------------------9---9-----------------------
-----------------------------------------------------------------------------

-----------------------------------------------------------------------------
-5-5-5-5-5-5-5-5-7-5---------------------------------------------------------
---------------------7-----------------------------5-5-5----------7-5-4------
-------------------------7-5-7--5-7-5-7--5-7-7-5-3--------5--3-5--------5--7-
faster


-----------------------------------------------------------------------------
-----------------------------------------------------------------------------
------------------------5---------7-5-4-------------------------------5-5-5--
-5-7--5-7-5-7--5-7-5--3---5--3-5--------5--7-5-7--5-7-5-7--5-7-7-5--3--------

------------------------------------------------------9-7-6------------------
------------------------------------------------------------7---9-7-9--7-9-7-
----------7-7-7-5-4-----------------------------5----------------------------
-3-5-3-5------------5-7-5-7--5-7-5-7--5-7-7-5-3---5--------------------------

------------7-7-7----------9-7-6-----------------------7---9-7-6-------7-7-7-
-9-7-9-7-5--------5-7-5-7---------7--9-7-9--7-9-7-9--7---7-------7--5--------
-----------------------------------------------------------------------------
-----------------------------------------------------------------------------

-------6-7-9-7-6------------------------------7-7-7---------9-7-6------------
-7-5-7-----------7--9-7-9--7-9-7-9--7-9-9-7-5--------7-5-7--------7--9-7-9---
-----------------------------------------------------------------------------
-----------------------------------------------------------------------------

------6-7-9-7-6---------7-7-7------------------------------------------------
-7-9------------7--5-5---------7-7-5-7-5-7-5---------------------------------
---------------------------------------------7--------------------------5-5-5
------------------------------------------------7-5-7--5-7-5-7--5-7-5-3------

-----------------------------------------------------------------------------
-----------------------------------------------------------------------------
---------7-7-7-5-4------------------------------5-5-5---------7-7-7-5-4------
-3-5-3-5-----------5--7-5-7--5-7-5-7--5-7-7-5-3-------5--3-5------------7-5-7

-----------------------------------------------------------------------------
-----------------------------------------------------------------------------
--------------------5-5-5----------7-7-7-5-4------------------------------5--
-5-7-5-7--5-7-7-5-3--------3-5-3-5-----------5--7-5-7--5-7-5-7--5-7-7-5-3----

----------------------------------|------------------------------------------
-3-2------------------------------|.-----------------------------------------
---------6-5-----3-2--------------|.-0--0-0-0--0-0-0--0-0-0-3--0--0-0-0--0-0-
--------------------------3-0-----|------------------------------------------
A bit slower


----------------------------------------7-6-7-9-7-6-7-6----|-9----5-------9--
--------------------------------------------------------8-.|-9----5--6----9--
0--0-0-0-1--0--0-0-0--0-0-0--0-0-0-3--0-------------------.|-7----3--6----7--
-----------------------------------------------------------|---------4-------
Play 5 times

-5------9----5-------9-----5------|--------------------------9---------------
-5--6---9----5--6----9-----5--6---|.---------------------------9-------------
-3--6---7----3--6----7-----3--6---|.--7--7-7-7--7-7-7--7-7-7------7-7-7-7-7--
----4-----------4-------------4---|------------------------------------------

-9--------------9------------------------------------------------------------
---9--------------9----------------------------------------------------------
------7-7-7-7-7------10-7-7-7-7-7--10-7-7-7-7-7-9-9-9-9-10-10-10-10-12-12-12-
-----------------------------------------------------------------------------
G
------------|----------------------------------------------------------------
-----------.|----------------------------------------------------------------
-12-10-9-7-.|--3-3-3-3-3-3----5-5-5-5-5-5--7-7-7-7-7-7-7-7-7-7-7-7-7-7-7-7-7-
------------|----------------------------------------------------------------
Play four times
on last time,
play only until
"G".

-----------------------------------------------------------------------------
-----------------------------------------------------------------------------
-7-7-7-7-7--7-7-7--------------ho-ho---8-8-8-8-8--8-8-8-8-8-8-8-8-8-8-8-8----
--------------------5-4-5-7-5-4-5-4------------------------------------------
on cue      ( ho = last
two notes are
hammer-ons / pull offs)

--------9-9-9--------------------------------------------------------------||
--------------9-9-9--------------------------------------------------------||
-7-8-7---------------7-7-7----------------------------------------------7-||
----------------------------0--0-0-0-0-0-0-0-0-0-0-0-0-0-0-0-0-0-0-0-0-----||
on cue                                                              on cue

Вверх

Prodigal Son

Intro:

||-------------0------------0------------0---------------------||
||------0-----0------0-----0------0-----0----------------------||
||o----8-----8------6-----6------5-----5------1h2p1-----1h2p1-o||
||o---9-----9------7-----7------5-----5------2-----2---2------o||
||---9-----9------7-----7------5-----5------2---------2--------||
||--7-----7------5-----5------3-----3------0---------0---------||


strum ....................
||--0------0------0------0------||
||--0------0------0------0------||
||o-8-/-/--6-/-/--4-/-/--1-/-/-o||
||o-9-/-/--7-/-/--5-/-/--2-/-/-o||
||--9------7------5------2------||
||--7------5------3------0------||


Riff A                                                      (end Riff A)
||--------------------------------------------------------------------------||
||-----0----------0----------0----------2-----3-2-3-2------0----------0-----||
||-----1-/-/------1-/-/------1-/-/------2-/-/-2-2-2-2------1-/-/------1-/-/-||
||-5-7-2-/-/--5-7-2-/-/--5-7-2-/-/--5-7-2-/-/-4-2-4-2--5-7-2-/-/--5-7-2-/-/-||
||-5-7-2------5-7-2------5-7-2------5-7-0-----0-0-0-0--5-7-2------5-7-2-----||
||-3-5-0------3-5-0------3-5-0------3-5----------------3-5-0------3-5-0-----||



Em                  G                                       Riff B
Listen to me Lamia, listen to what Ive got to say.       |-------------------|
Am                       C                 D [w/ Riff B]  |-3---3---3-3-3-----|
Ive got these feelings, and they wont go away.          |-0h2-0h2-0-2-0h2p0-|
Em                          G                             |-0---0---0-0-0-----|
Ive got these fears inside thatll bring me to my knees. |-------------------|
Am                      C                 D [w/ Riff B]   |-------------------|
Oh help me Lamia or Im sure Ill die, oh please.

Em                G
I feel unsettled, now I know that Ive done wrong.
Am                             C                        D [w/ Riff B]
Ive messed around with mystic things and magic for too long.
Em                              G
I feel Im being paid with this nightmare inside me,
Am                                C                        D
The devils got a hold on my soul and he just wont let me be.


[w/ Riff A]
G5 A5 E                        G5   A5 E
Im on my knees,                oh help me please.
G5 A5 A D/A A D/A A         G5   A5 E
Im on my knees,                help me please.



A     B      C           B   E
Oh Lamia please try to help me.
A       B     C          B                        D   Dsus4   D
The devils got a hold of my soul and he wont let me be.
A          B        C          B          E
Lamia Ive got this curse, Im turning to bad.
A       B     C          B                         E    D    E    D
The devils got a hold of my soul, and its driving me mad. Oh


Oh Lamia please try to help me.
The devils got a hold of my soul and he wont let me be.
Lamia Ive got this curse, Im turning to bad.
The devils got a hold of my soul, and its driving me mad. Oh

Вверх

Quest For Fire

Intro: (Play 2 times)

E-|-----------------------------------------------------|---------------------|
B-|-----------------------------------------------------|---------------------|
G-|-----------------------------------------------------|---------------------|
D-|-9xxxx-11xxx-12xxx-14xx16--14xx12-11-12--------------|---------------------|
A-|-7xxxx-9xxxx-10xxx-12xx14--12xx10-9--10--10xxxx--12x-|---------------------|
E-|-----------------------------------------8xxxxx--10x-|---------------------|

Verse 1:

E-|---------------------------|---------------------------|
B-|---------------------------|---------------------------|
G-|---------------------------|---------------------------|
D-|-9---9-9---9-9-9---9-9---9-|-7---7-7---7-7-7---7-7---7-|
A-|-7---7-7---7-7-7---7-7---7-|-5---5-5---5-5-5---5-5---5-|
E-|---------------------------|---------------------------|

E-|---------------------------|---------------------------|
B-|---------------------------|---------------------------|
G-|---------------------------|---------------------------|
D-|-9---9-9---9-9-9---9-9---9-|-7---7-7---7-7-7---7-7---7-|
A-|-7---7-7---7-7-7---7-7---7-|-5---5-5---5-5-5---5-5---5-|
E-|---------------------------|---------------------------|

E-|---------------------------|---------------------------|
B-|---------------------------|---------------------------|
G-|---------------------------|---------------------------|
D-|-5---5-5---5-5-5---5-5---5-|-9---9-9---9-9-9---9-9---9-|
A-|-3---3-3---3-3-3---3-3---3-|-7---7-7---7-7-7---7-7---7-|
E-|---------------------------|---------------------------|

E-|---------------------------|---------------------------|
B-|---------------------------|---------------------------|
G-|---------------------------|---------------------------|
D-|-5---5-5---5-5-5---5-5---5-|-4---4-4---4-4-4---4-4---4-|
A-|-3---3-3---3-3-3---3-3---3-|-2---2-2---2-2-2---2-2---2-|
E-|---------------------------|---------------------------|

Chorus:

B5	A5	G5	A5	A5	/	/	/

G5	F5#	E5	G5	B5	/	/	/

B5	A5	G5	A5	A5	/	/	/

G5	F5#	E5	G5	E5	/	/	/

Verse 2

Chorus 2

Riff 1

/ 3         / 3  / 3
E-|---------------------------------------------------------------------------|
B-|-----------3-5---3------3-5-3----------------------------------------------|
G-|-------4-5-----5--------------5-4-2----------------------------------------|
D-|-5---5------------------------------5- Switch between G and D every second |
A-|------------------------------------5- time. Start with the lower note.    |
E-|---------------------------------------------------------------------------|

Solo:

/ 3   / 3   / 3   / 3   / 3
E-|-----|---------------------------------------------------|
B-|-----|-10p8---10p8---10p8---10p8---10p8------------------|
G-|-7b9-|------9------9------9------9------9p7-b9-----------|
D-|-----|-----------------------------------------7~~~~~----|
A-|-----|---------------------------------------------------|
E-|-----|---------------------------------------------------|

T-bar
E-|------------------------------------|----------------------------------8-8-|
B-|------------------------------------|---5---5---5------8---8---8-----5-----|
G-|--------------------------------0-5-|-2---2---2------5---5---5-------------|
D-|-0-(2)------------------------------|--------------------------------------|
A-|--------5b7-3-0-0h3---3p0---3-5-----|--------------------------------------|
E-|--------------------------3---------|--------------------------------------|

E-|---8-8-7---5----|-15b17--11-11--15-12----------12----12----------12-15b17--|
B-|-5--------------|---------------------15-13-15----------15-13-15-----------|
G-|----------------|----------------------------------------------------------|
D-|----------------|----------------------------------------------------------|
A-|----------------|----------------------------------------------------------|
E-|----------------|----------------------------------------------------------|

E-|----------------------------------------14-15-17-15-14----|
B-|-15p12----15p12----15p12----15p12----17----------------17-|
G-|-------14-------14-------14-------14----------------------|
D-|----------------------------------------------------------|
A-|----------------------------------------------------------|
E-|----------------------------------------------------------|

E-|----17b19-17-15----17-14-------12----------------------|
B-|-17-------------15-------15-17----15-12----------------|
G-|----------------------------------------14-12-14-------|
D-|-------------------------------------------------14----|
A-|-------------------------------------------------------|
E-|-------------------------------------------------------|

E-|-----------------------------------------|-15b17-15-12---------------------|
B-|---------------------------------8-10b12-|-------------15-b17-b17-b17-b17--|
G-|---------------------4---4-7-4-7---------|---------------------------------|
D-|---------5---5-7-5-7---7-----------------|---------------------------------|
A-|-5-7-5-7---7-----------------------------|---------------------------------|
E-|-----------------------------------------|---------------------------------|

E-|-15b17------12h15-------|
B-|------------------15b17-|
G-|------------------------|
D-|------------------------|
A-|------------------------|
E-|------------------------|

Chorus (2x)

Outro:	(same as intro)

Verse 1:

In a time when dinosaurs walked the earth
When the land was swamp and caves were home
In an age when prize possession was fire
To search for landscapes men would roam.

Then the tribes they came to steal their fire
And the wolves they howled into the night
As they fought a vicious angry battle
to save the power of warmth and light.

Chorus 1:

Drawn by quest for fire
They searched all through the land
Drawn by quest for fire
Discovery of man.

Verse 2:

And they thought that when the embers died away
That the flame of life had burnt and died
Didn't know the sparks that made the fire
Were made by rubbing stick and stone.

So they ploughed through the forest and swamps of danger
And they fought the cannibal tribes and beasts
In the search to find another fire
To regain the power of light and heat.

Chorus 2:

Drawn by quest for fire
They searched across the land
Drawn by quest for fire
Discovery of man.

Вверх

Remember Tomorrow

|-----9-----9---------9-----9---------10------10-10--------9----9--------9---
|.--9-----9---------9-----9----9---10------10-------10---9----9----9---9----9
|.7-----7-----7-7-7-----7----7---8-------8-------------7----7----7---7----7--
|----------------------------------------------------------------------------

-9--------9----9---------10-----10----------9----9------|
--------9----9----9---10-----10-----10----9----9-----9-.|
--7-7-7----7----7---8------8------8-----7----7-----7---.|
--------------------------------------------------------|

Play 3 times.  On the second time, the drums and lyrics come in.


-----------------------------------------------------------------------------
-----------------------------------------------------------------------------
--------2--2-2---------------3--3-3-3-3--2----------------2--2-2-------------
-0--0-0---------3-2-3--3--3-----------------3--2---0--0-0---------3-2-3--3--3

-----------------------------------------------------------------------------
-----------------------------------------------------------------------------
-3--3-3-3-3--2---------------2--2-2-------------3--3-3-3-3--2----------------
---------------3--2---0--0-0--------3-2-3--3--3---------------3--2---0--0-0--

---------------------------------9-----9----------9-----9------------9-------
-------------------------------9-----9----------9-----9------9-----9---------
-2--2-2--------------3-------7-----7-----7-7--7-----7------7-----7-----------
---------3-2-3--3--3---------------------------------------------------------
.
-------9-----------9---------9-----.---------|-------9-----9--------9-----9--
-----9-----------9------9----------9---------|.----9-----9--------9-----9----
---7------7-7--7------7----------------------|.--7-----7----7-7-7-----7------
---------------------------------------------|-------------------------------

----------10-----10--10--------9----9---------9-----9---------9-----9--------
---9---10-----10--------10---9----9-----9---9-----9---------9-----9-----9----
-7---8------8--------------7----7-----7---7-----7-----7-7-7-----7-----7------
-----------------------------------------------------------------------------

------10-----10----------9----9-----|----------------------------------------
---10-----10------10---9----9-----9.|----------------------------------------
-8------8-------8----7----7-----7--.|--------2--2-2---------------3--3-3-3-3-
------------------------------------|-0--0-0---------3-2-3--3--3-------------

-----------------------------------------------------------------------------
-----------------------------------------------------------------------------
--2----------------2--2-2--------------3--3-3-3-3--2-----------------2--2-2--
----3--2---0--0-0---------3-2-3--3--3-----------------3--2---0--0-0----------

-----------------------------------------------------------------------------
-----------------------------------------------------------------------------
-------------3--3-3-3-3--2-----------------2--2-2--------------3--3-3-3------
-3-2-3--3--3---------------3--2---0--0-0-----------3-2-3--3--3---------------

-----------------------------------------------------------------------------
-----------------------------------------------------------------------------
-5-5--5-5-5--5-5-5---5--3-3---5-5--5-5-5--5--5-3-3-3-3----5-5--5-5-5--5-5-5--
-----------------------------------------------------------------------------
Solo part

-----------------------------------------------------------------------------
-----------------------------------------------------------------------------
-5--3-3---5-5--5-5-5--5--5-3-3-3-3----5-5--5-5-5--5-5-5---5--3-3---5-5--5-5-5
-----------------------------------------------------------------------------

-----------------------------------------------------------------------|-----
-----------------------------------------------------------------------|.----
-5--5-3-3-3-3----5-5--5-5-5--5-5-5---5--3-3---5-5--5-5-5--5--5-3-3-3-3-|.-7-7
-----------------------------------------------------------------------|-----

-----------------------------------------------------------------------------
-----------------------------------------------------------------------------
--7-7-7--7-7-7--7--10-10----7-7--7-7-7--7-7-7-9-10-12----7-7--7-7-7--7-7-7---
-----------------------------------------------------------------------------


-----------------------------------------------------------------------------
-----------------------------.---.-------------------------------------------
-7--10-10----7-7--7-7-7--7--12--12--12-10-9-5-----7-7--7-7-7--7-7-7--7--10---
-----------------------------------------------------------------------------

-----------------------------------------------------------------------------
-----------------------------------------------------------------------------
-10----7-7--7-7-7--7-7-7-9-10-12----7-7--7-7-7--7-7-7--7--10--10---7-7--7-7-7
-----------------------------------------------------------------------------

-----------------------------------------------------------------------------
-----.---.-------------------------------------------------------------------
-7--12--12--12-10-9-5----0-0--0-0-0--0-0-0-0-0-0--5-5--5-5-5--5-5-5-5-5-5----
-----------------------------------------------------------------------------

-----------------------------------------------------------------------------
-----------------------------------------------------------------------------
-2-2--2-2-2--2-2-2-2-2-2---3-3--3-3-3--3-3-3-3-3-3---3-3--3-3-3--3-3-3-3-3-3-
-----------------------------------------------------------------------------

----------------------------------------------------------------------------|
---------------------------------------------------------------------------.|
-5-5--5-5-5--5-5-5-5-5-5---2-2--2-2-2--2-2-2-2-2-2---3-3-3-3-3--5-5-5-5-5--.|
----------------------------------------------------------------------------|


|-----9----9---------9-----9---------10-----10--10--------9----9-------9----9
|.--9----9---------9-----9----9---10-----10--------10---9----9---9---9----9--
|.7----7-----7-7-7-----7----7---8------8--------------7----7---7---7----7----
|----------------------------------------------------------------------------

---------9-----9----------10-----10----------9----9-----|--------------------
-------9-----9-----9---10-----10------10---9----9----9-.|.-------------------
-7-7-7-----7-----7---8------8-------8----7----7----7---.|.--------2--2-2-----
--------------------------------------------------------|-0--0-0----------3-2

Play three times


-----------------------------------------------------------------------------
-----------------------------------------------------------------------------
---------------3--3-3-3-3--2----------------2--2-2---------------3--3-3-3-3--
---3-2-3--3--3-----------------3--2---0--0-0---------3-2-3--3--3-------------

-----------------------------------------------------------------------------
-----------------------------------------------------------------------------
--2---------------2--2-2-------------3--3-3-3-3--2----------------2--2-2-----
----3--2---0--0-0--------3-2-3--3--3---------------3--2---0--0-0----------3-2



___________________  _____________________________________________
1.                 | 2.
------------------------------|----------------------------------------------
-----------------------------.|----------------------------------------------
---------3--3-3-3-3--2-------.|-3-------------0-1-2-3--17-18-19-19-19-19-17--
-3--3--3---------------3-2----|----0-00000000------------------------------17

_____________________________________________________________________________

----------------------------------------------------------------------------||
------------------------------------------------------------------------2--||
-19-17----19--17---19-17----19-17-------------------------------------------||
-------17-------17-------17-------17---0-0-0-0-0-0-0-0-0---0--0--0--0--0----||



Repeat

Вверх

Revelations

INTRO:
Play the open C chord part by strumming evenly up and down
through the chord rather than explicity picking the single
notes.
G     A     G     A          C
||----------------------------------------------------------------|
||--------------------------------1-let ring----------------------|
||---------2-----------2----------0----2-p-0--let ring------------|
||---------2-----------2----------2------------2--let ring--------|
||---------0-----------0----------3------------3--let ring--------|
||---3-----------3------------------------------------------------|

C     D      repeat 3x             G   A   G
|-------------------------||----------------------------|
|-------------------------||----------------------------|
|----5-----7--------------||----------------2-----------|
|----5-----7--------------||----------------2-----------|
|----3-----5--------------||----------------0-----------|
|-------------------------||------------3-------3-------|

RIFF A:
Oh! God of earth and alter...
A            F             G              A            G
|--------------(1)---(1)------3-----3-----------------------------|
|--------------(1)---(1)------3-----3-----------------------------|
|--2----2-------2-----2-------4-----4--------2----2---2-----------|
|--2----2-------3-----3-------5-----5--------2----2---2-----------|
|--0----0-------3-----3-------5-----5--------0----0---0-----------|
|---------------1-----1-------3-----3---------------------3~------|
|
At the end of the verse stay on the G chord before going into harmony.

BASSLINE:
The bass mirrors the guitar riff except when the vocals enter
he plays:
|-----------------------------------------------------------------|
|-----------------------------------------------------------------|
|-----------3-------------3-------------3-------------------------|
|--5--5---5------1--1---1------3--3---3------5--5---5--3----------|


HARMONY:
Gtr III: (Bruce) (RHYTHM 1)
Am                         F(maj7)
|-------------------------------------------------------|
|--------1------------1-------------1------------1------|
|-----------2------------2-------------2------------2---|
|-----2------------2-------------3------------3---------|
|--0------------0-------------3------------3------------|
|-------------------------------------------------------|

C                           Gadd4/B
|-------------------------------------------------------|
|--------1------------1--------------1------------1-----|
|-----------0------------0--------------0------------0--|
|-----2------------2--------------0------------0--------|
|--3------------3--------------2------------2-----------|
|-------------------------------------------------------|

Gtr I: (Dave)

|-------------------------------------------------------------|
|---------------------------------------------6-5h6p5---------|
|-9--7--9~----10--9--7~----9--7--5---4----------------7-5-7p5-|
|---------------------------------------7--5------------------|
|-------------------------------------------------------------|
|-------------------------------------------------------------|

Gtr II: (Adrian)
|-----------------------------------------------------|
|--10--8--10~----10--8--6~---8--6--5------------------|
|--------------------------------------7--5--4--------|
|-----------------------------------------------------|
|-----------------------------------------------------|
|-----------------------------------------------------|
repeat 2x
|-----------------------------------|
|--10--8h10p8---6--5--6p5-----------|
|-----------------------------------|
|-----------------------------------|
|-----------------------------------|
|-----------------------------------|

Then
|-----------------------------------------------------------------|
|--13--12--13~----13--12--10~----------13-------------------------|
|----------------------------------12------12~---10--9--7---------|
|-----------------------------------------------------------------|
|-----------------------------------------------------------------|
|-----------------------------------------------------------------|

|-----------------------------------|
|--10--8h10p8----6--5--6p5----------|
|-----------------------------------|
|-----------------------------------|
|-----------------------------------|
|-----------------------------------|

RIFF B(i):
Play with upstrokes
|            |
A  G  A      A  G  A          G    D      F      G
|--------------------------------3-----------1------3-------------|
|--------------------------------3-----------1------3-------------|
|--2--0--2------2--0--2----------4----7------2------4-------------|
|--2--0--2------2--0--2----------5----7------3------5-------------|
|--0-----0------0-----0----------5----5------3------5-------------|
|--------------------------------3-----------1------3-------------|

RIFF B:
Play with upstrokes
|                      |                       |
A  G  A                A  G  A                 A  G
|-----------------------------------------------------------------|
|-----------------------------------------------------------------|
|--2--0--2----------------2--0--2-----------------2--0------------|
|--2--0--2--2--2--2--2----2--0--2--2--2--2--2-----2--0------------|
|--0-----0--0--0--0--0----0-----0--0--0--0--0-----0---------------|
|-----------------------------------------------------------------|

G           D            F          G
|--3------------------------1----------3------|
|--3------------------------1----------3------|
|--4-----------7---7--7-----2----------4------|
|--5---5--5----7---7--7-----3---3--3---5------|
|--5---5--5----5---5--5-----3---3--3---5------|
|--3---3--3-----------------1---1--1---3------|

VERSES:

PLAY RHYTHM 1 (Both Guitars). Dave sticks fairly close to the
picking pattern but Adrian varies it sligthly. Dave's guitar has a
phaser on it and Adrians is chorused.
At the end of the verses in place of the Gsus4 chord of RHYTHM 1
slide up and down the bottom E string to cover up turning on the
distortion.

SAMPLE BASSLINE:

|-----------------------------------------------------------------|
|--7--------------------------------------------------------------|
|-------5--7--8------5--7--3-----------3--5--3--2-----------------|
|--------------------------------------------------(3)--(0)-------|


|-----------------------------------5--7--5--4--------------------|
|--7--------------5--7--5-----------------------5-----------------|
|-----5--7--8--------------------------------------7--------------|
|-----------------------------------------------------------------|

Finish verse with;
|--5--7--5--4-------------|
|-------------------------|
|-------------------------|
|-------------------------|

CHORUS:

A          G      A           C   D          F      G
|-----------------------------------------------1------3----------|
|-----------------------------------------------1------3----------|
|--2----2--2---------2----2--2-------7----------2------4----------|
|--2----2--2---------2----2--2-------7----------3------5----------|
|--0----0--0---------0----0--0---3---5----------3------5----------|
|-------------3~--------------------------------1------3----------|

BASSLINE:
|-----------------------------------------------------------------|
|-----------------------------------------------------------------|
|--------------------------------3---5--5-5-3---------------------|
|--5----5--5--3------5----5--5----------------5-3--1---3----------|

After second chorus RIFF B(i), RIFF B

RHYTHM FOR SOLO'S: (Solo's at end of post)
A  Gsus4/D A            A (G) A
|-------------------------------------------------------|
|-------------------------------------------------------|
|--5--5--5--5--5--5--5-----5--5--5--5--5--5--5----5--5--|
|--7--5--7--7--7--7--7-----7--5--7--7--7--7--7----7--5--|
|--7--5--7--7--7--7--7-----7--5--7--7--7--7--7----7--5--|
|-(5)---------------------------------------------------|

D        C        B         A
|-----------------------------------|
|-----------------------------------|
|-----------------------------------|
|--7--------5--------4---------2----|
|--5--0--0--3--0--0--2---------0----|
|-----------------------------------|

AFTER SOLO:
Dave plays:
A    G    C    D     F     G     C     A
|-------3---------------1-----3---------------|
|-------3---------------1-----3---------------|
|--2----4----5----7-----2-----4-----5-----2---|
|--2----5----5----7-----3-----5-----5-----2---|
|--0----5----3----5-----3-----5-----3-----0---|
|-------3---------------1-----3---------------|

Adrian Plays:
|-------------------------------------------------------|
|-------------------------------------------------------|
|-------------------------------------------------------|
|---------7--5~---------------------2--0----------------|
|--5-h-7---------7--5--------3-h-5--------3---0---------|
|-------------------------------------------------------|

|-------------------------------------------------------|
|-------------------------------------------------------|
|-------------------------------------------------------|
|----------------------------------------2--------------|
|---------3--2~---------------------3----0--------------|
|--1-h-3---------3--1--------1-h-3----------------------|


THEN DAVE HARMONISES WITH:
|-------------------------------------------------------|
|-------------------------------------------------------|
|--2-h-4--5--4~--2--------------------------------------|
|-------------------2--------2-h-3--5--3--2-------------|
|--------------------------------------------3----------|
|-------------------------------------------------------|

|-------------------------------------------------------|
|-------------------------------------------------------|
|-------------------------------------------------------|
|---------2---------------------------------------------|
|--3-h-5-----5--3--0----------2-h-3--5--3~--------------|
|-------------------------------------------------------|


Then RIFF B, RIFF A, RHYTHM 1.

ENDING:
Play through RHYTHM 1 and play
Am
|--------------0------------------------------|
|-----------1---------------------------------|
|--------2------------------------------------|
|-----2---------------------------------------|
|--0------------------------------------------|
|---------------------------------------------|

BASS PLAYS:
|--------2------------------------------------|
|-----2-----2---------------------------------|
|--0-----------0------------------------------|
|---------------------------------------------|

SOLO 1: (Dave)

|-------------------------s/7--7h8p7------------------------------|
|-------------------------------------8h10p8----------------------|
|--7b(9)r7-p5--7~-s--------------------------7h9p7--7b(9)r7p5-7~-|
|-----------------------------------------------------------------|
|-----------------------------------------------------------------|
|-----------------------------------------------------------------|


|-----s/12--15-hold--15p13p12---------------------------|
|------------------------------15b(17)r15-p13-----------|
|----------------------------------------------14~------|
|-------------------------------------------------------|
|-------------------------------------------------------|
|-------------------------------------------------------|


|--15--15p13p12--15p13p12--15p13p12--15--15p13p12-----------------|
|--------------------------------------------------13-------------|
|------------------------------------------------------14~-s-----|
|-----------------------------------------------------------------|
|-----------------------------------------------------------------|
|-----------------------------------------------------------------|


|-----------------------20--20--20-----------20-------------------|
|----------17--20b(22)--------------20b(22)------20b(22)~---------|
|----s/19---------------------------------------------------------|
|-----------------------------------------------------------------|
|-----------------------------------------------------------------|
|-----------------------------------------------------------------|


|----------20b(22)--20b(22)r20-p17-----------20--20p19p17---------|
|--20--17---------------------------20b(22)-----------------------|
|-----------------------------------------------------------------|
|-----------------------------------------------------------------|
|-----------------------------------------------------------------|
|-----------------------------------------------------------------|


|--20p19p17--20p19p17--20p19p17-----------------------------------|
|--------------------------------20p17--20p19p17--20p19p17--------|
|-----------------------------------------------------------------|
|-----------------------------------------------------------------|
|-----------------------------------------------------------------|
|-----------------------------------------------------------------|


|-------------------------------------------------------|
|--20p19p17--20b(22)--20p18p17--20p18p17----------------|
|-----------------------------------------19b(21)-------|
|-------------------------------------------------------|
|-------------------------------------------------------|
|-------------------------------------------------------|


|---------------------------------------------|
|---------------------------------------------|
|--17--19--17--19b(20)--19--17----------------|
|--17--19--17--19b(20)--19--17--19~-----------|
|---------------------------------------------|
|---------------------------------------------|

SOLO 2: (Adrian)

|-------------------------------------------------------|
|-------------------------PH----------------------------|
|-------------------------7b(9)----7--5-----------------|
|--5h7p5h7p5h7p5h7p5h7p5-----------------7~-------------|
|-------------------------------------------------------|
|-------------------------------------------------------|


|-------------------------------------------------------|
|-------------------------------------------------------|
|--5b(7)------------------------------------------------|
|---------7--5------------------------------------------|
|---------------7-s-5-p3--------------s/5--7~~---------|
|--------------------------5~---------------------------|


|-----------------------------------------------------------------|
|-----------------------------------------------------------------|
|------------0h5b(7)~----5b(7)--7--7p5-------s/9--s/12--s/14------|
|-----0h5h7-----------------------------7~------------------------|
|--7--------------------------------------------------------------|
|-----------------------------------------------------------------|


|-----------15----------------------------------------------------|
|--15b(17)------15b(17)r15-p13------------13-s-------------------|
|-------------------------------14~----14-------------------------|
|-----------------------------------------------------------------|
|-----------------------------------------------------------------|
|-----------------------------------------------------------------|


|----------------------------17-----------------17----------------|
|--s/-17--20--20p17--20b(22)-----20p17--20b(22)-----20b(22)~------|
|-----------------------------------------------------------------|
|-----------------------------------------------------------------|
|-----------------------------------------------------------------|
|-----------------------------------------------------------------|


|----------------------17-----------17-----------17---------------|
|-----20--20--20b(22)------20b(22)------20b(22)------20b(22)------|
|-----------------------------------------------------------------|
|-----------------------------------------------------------------|
|-----------------------------------------------------------------|
|-----------------------------------------------------------------|


|--17~--h20p17h19p17------17h20p17h19p17------17h20p17h19p17------|
|---------------------20------------------20----------------------|
|-----------------------------------------------------------------|
|-----------------------------------------------------------------|
|-----------------------------------------------------------------|
|-----------------------------------------------------------------|


|-----17h20p17--20b(22)--20b(22)--20b(22)--20b(22)~~--------------|
|--20-------------------------------------------------------------|
|-----------------------------------------------------------------|
|-----------------------------------------------------------------|
|-----------------------------------------------------------------|
|-----------------------------------------------------------------|

Вверх

Rime Of The Ancient Mariner

 Chords used:

C5  D5  E5  A5  E   F  F#m  G  Cadd2
E --- --- --- --- -0- -1- -2- -3- --3--
B --- --- --- --- -0- -1- -2- -3- --3--
G -5- -7- -9- -2- -1- -2- -2- -4- --5--
D -5- -7- -9- -2- -2- -3- -4- -5- --5--
A -3- -5- -7- -0- -2- -3- -4- -5- --3--
E --- --- --- --- -0- -1- -2- -3- -----

---

Intro:

E ------------------------------------------------------------
B ------------------------------------------------------------
G ---------------------9------9------9------9------5---7---9-  etc.
D --5-4---------2------9------9------9------9------5---7---9-
A ------5-5-7--2------7------7------7------7------3---5---7-
E --------------0--0-0-0--0-0-0--0-0-0--0-0-0--0-0------------

Riff A:
E ----------------------------------------------------------------------
B ----------------------------------------------------------------------
G ----------------------------------------------------------------------
D -5-4-2-4--5-4-2-4--5-4-2-4--5-4-2-4--5-4-2-4--5-4-2-4--5--5-----------
A -------------------------------------------------------------5-7-9-7-
E ----------------------------------------------------------------------


Verse:

E5
Hear the rime of the ancient mariner, see his eye as he stops one of
Mesmerises one of the wedding guests - "stay here and listen to the nightmares

Riff B:
E -----------------
B -----------------
G -----------------
D -------0-2-4-0-2-
A -----------------
E -----------------
three.
of the sea"

C5
And the music plays on as the bride passes by.

D5                                  Riff B             D5  E5
Caught by his spell and the mariner tells his tale.

Riff B
Driven south the the land of the snow and ice to a place where nobodys been.

E5                                          C5
Through the snow fog flies on the albatross hailed in Gods name,

Riff B           E5
hoping good luck it brings.

C5
And the ship sails on, back to the north.

D5                                        Riff B
Through the fog and ice and the albatross follows on.


Shanty A: (positions may be wrong - I havent seen the video for ages)

LHS (Dave Murray)
E ------------------------------------------------------
B ------------------------------------------------------
G ------------------------7~----------------------------
D -9-7-5-7-9--9-9-9-7-5-7-----9-7-5-7-9--9-9-9-7-5-7-4~-
A ------------------------------------------------------
E ------------------------------------------------------

RHS (Adrian Smith)
E ------------------------------------------------------
B ------------------------------------------------------
G ------------------------4~----------------------------
D -5-4-2-4-5--5-5-5-4-2-4-----5-4-2-4-5--5-5-5-4-2-4----
A ---------------------------------------------------5~-
E ------------------------------------------------------


LHS (Dave Murray)
E ----------------------------------------------------------
B ----------------------------------------------------------
G ------------------------7~--------------------------------
D -9-7-5-7-9--9-9-9-7-5-7-----9-7-5-7-9--9-9-9--9--4-5-7-5-
A ----------------------------------------------------------
E ----------------------------------------------------------

RHS (Adrian Smith)
E ----------------------------------------------------------
B ----------------------------------------------------------
G ------------------------4~--------------------------------
D -5-4-2-4-5--5-5-5-4-2-4-----5-4-2-4-5--5-5-5--5--0-2-4-2--
A ----------------------------------------------------------
E ----------------------------------------------------------

(lots of E5 power chordage)

LHS (Dave Murray)
E -----------------------------------------------------------------
B -----------------------------------------------------------------
G -----------------------------------------------------------------
D -9-7-5-7-9--9-9-9-7-5-7-9~---12-10-9-10-12--12-12-12-10-9-10-12~-
A -----------------------------------------------------------------
E -----------------------------------------------------------------

RHS (Adrian Smith)
E -------------------------------------------------------
B -------------------------------------------------------
G -------------------------------------------------------
D -5-4-2-4-5--5-5-5-4-2-4-5~--7-5-4-5-7--7-7-7--5-4-5-7~-
A -------------------------------------------------------
E -------------------------------------------------------


LHS (Dave Murray)
E ---------------------------------------------------------------------
B ---------------------------------------------------------------------
G ---------------------------------------------------------------------
D -9-7-5-7-9--9-9-9-7-5-7-9~---12-10-9-10-12--12-12-12--12---7-9-10-9-
A ---------------------------------------------------------------------
E ---------------------------------------------------------------------

RHS (Adrian Smith)
E ----------------------------------------------------------
B ----------------------------------------------------------
G ----------------------------------------------------------
D -5-4-2-4-5--5-5-5-4-2-4-5~--7-5-4-5-7--7-7-7--7---0-2-4-2-
A ----------------------------------------------------------
E ----------------------------------------------------------
(end Shanty A)

E5                                         Riff B
The mariner kills the bird of good omen.
His shipmates cry against what hes done.
But when the fog clears they justify him.

E5
And makes themselves a part of the crime.

C5            D5
Sailing on and on and on across the


Shanty B:

LHS (Dave Murray)
E -------------------------------------------------------
B -------------------------------------------------------
G -4--4-4-7-5-4---4--4-4---4~--4-4-7-5-4---4--4-----4----
D --------------7--------7---------------7-------7-----5-
A -------------------------------------------------------
E -------------------------------------------------------

RHS (Adrian Smith)
E -------------------------------------------------
B -------------------------------------------------
G -------------------------------------------------
D --2--2-2-5-4-2---2--2-----2~--2-2-5-4-2---2-2----
A ---------------5-------5----------------5------5-
E -------------------------------------------------
sea...                                         Sailing on and on and on...

(Shanty B)
till all is calm.

E5                                          Riff B
The albatross begins with his vengeance.
A terrible curse, a thirst has begun.
His shipmates blame bad luck on the mariner.
Around his neck the dead bird is hung.

C5                D5                  Shanty B
And the curse goes on and on and on at sea.
And the curse goes on and on for them and me.

E5                                                             Riff B
Day after day, day after day we struck nor breath nor motion.
As idle as a painted ship upon a painted ocean.

C5                                                     Riff B
Water water everywhere, and all the boards did shrink

E5                                                Riff A
Water water everywhere, nor any drop to drink.

E5                       E5
There, calls the         mariner, there comes a ship over the
how can she sail with no wind in her sails and no

E --------------------------------------------------------------
B --------------------------------------------------------------
G --------------------------------------------------------------
D ----------------------------7---------------------------7-----  (Murray)
A -------7-7-7--9-9-9--101010--10-9--7-7-7--9-9-9--101010--10-9-  (Murray)
E -------0-0-0--2-2-2--3-3-3--5-3-2--0-0-0--2-2-2--3-3-3--5-3-2-  (Smith)
line.                                                       But
tide ?


LHS (Dave Murray)
E ----------------------------------------------------------------------------
B ----------------------------------------------------------------------------
G ----------------------------------------------------------------------------
D ----------------------------------------------------------------------------
A -3-3-3--3-3-3--3-3-3--3-3-3--3-3-3--3-3-3--3-3-3--3-3-3--3-3-3--3-3-3--(etc)
E ----------------------------------------------------------------------------

RHS (Adrian Smith)
E ---------3--------------------------------3---------------------------------
B ---------3----------------------------------3-------------------------------
G --5------5------------------------------------5-----------------------------
D --5---------------------------------------------5---------------------------
A --3---------------------------------------------3---------------------------
E ----------------------------------------------------------------------------
See...                                    Onward she comes...  Onward she


LHS (Dave Murray)
E ----------------------------------------------------------------------------
B ----------------------------------------------------------------------------
G ----------------------------------------------------------------------------
D ----------------------------------------------------------------------------
A -0-0-0--0-0-0--0-0-0--0-0-0--0-0-0--0-0-0--0-0-0--0-0-0--0-0-0--0-0-0--(etc)
E ----------------------------------------------------------------------------

RHS (Adrian Smith)
E -------0--------------------------------------------------------------------
B -------2--------------------------------------------------------------------
G -2-----2----------2---------------------------------------------------------
D -2----------------2---------------------------------------------------------
A -0----------------0---------------------------------------------------------
E ----------------------------------------------------------------------------
nears out of the sun...

Cadd2                                A
She, she life in death, she lets him live, her chosen one.

F#m  A5  E   F   G     (AS plays chords, DM plays single-note triplets)
F#m  A5  E   F   G

LHS (Dave Murray)
E -------------------------------------------------------------------------
B -------------------------------------------------------------------------
G -------------------------------------------------------------------------
D ----------------------------7-7-7--7-------------------------------------
A -10-7-7--7-7-7-(repeat x 3)----------10-9-(1st measure x 2)--------6-6-6-
E ------------------------------------------------------------8-8-8--------

RHS (Adrian Smith)
E ---------------------------------------------------------------------
B ---------------------------------------------------------------------
G ------------------------------------------------------------5------8-
D ------------------------------------------------------------5------8-
A ------------------------------------------------------------3------6-
E -3-0-0--0-0-0-(repeat x 3)-5-5-5--5-3-2--(1st measure x 2)----------

(play the above section 4 times - on 4th time through, play the following
instead of the 2 chords)

E ----------------------
B --------------------5-
G --------------------6-
D --7---6^7^6-----8---6-
A ------------7/9---94-
E ----------------------


Middle Section:

LHS (Dave Murray)
E ------------------------------------------
B ------------------------------------------
G -------10-------------------------------7-
D ----11--------------------------------8---
A -12---------------------------------9-----
E ------------------------------------------

RHS (Adrian Smith)    (volume swells)
E ---------------------------------------
B ---------------------------------------
G --5---------7---9---10---12---13---8~-
D ---------------------------------------
A ---------------------------------------
E ---------------------------------------


LHS (Dave Murray)
E ------------------------------------------
B ------------------------------------------
G -------10-------------------------------8-
D ----11--------------------------------9---
A -12--------------------------------10-----
E ------------------------------------------

RHS (Adrian Smith)    (volume swells)
E ---------------------------------------
B ---------------------------------------
G --5---------7---9---10---12---13---6~-
D ---------------------------------------
A ---------------------------------------
E ---------------------------------------

(alternate between the two combinations above)

One after one by the star-dogged moon, too quick for a groan or sigh.
Each turned his face with a ghastly pang and cursed me with his eye.
Four times fifty living men, and I heard nor sigh nor groan.
With heavy thump, a lifeless lump, they dropped down one by one.

LHS (Dave Murray)
E --------------------------------------------
B --------------------------------------------
G -10---------------------------------8-------
D ----12--------------------------------10----
A -------12--------------------------------10-
E --------------------------------------------

RHS (Adrian Smith)    (volume swells)
E ----------------------------------------------
B --6------------------------------------------
G --7--------7---9---10---12---13---8---<7>w-
D ----------------------------------------------
A ----------------------------------------------
E ----------------------------------------------


LHS (Dave Murray)
E ------------------------------------------
B ------------------------------------------
G -10---------------------------------7-----
D ----12--------------------------------9---
A -------12-------------------------------9-
E ------------------------------------------

RHS (Adrian Smith)    (volume swells)
E -----------------------------------------------
B --6-------------------------------------------
G --7--------7---9---10---12---13---7~---<5>w-
D -----------------------------------------------
A -----------------------------------------------
E -----------------------------------------------

(play twice)

Вверх

Running Free

Intro:
(play 2x)

E       G   F#  E            C          D
e----------------------------------------------------|
B----------------------------------------------------|
G--9-------12--11--9-9--------x-5------xxx-7-----xxx-|
D--9-------12--11--9-9--------x-5------xxx-7-----xxx-|
A--7-------10--9---7-7--------x-3------xxx-5-----xxx-|
E----------------------------------------------------|


Verse:
(play 2x)

E               C       D	     E               G       A
e----------------------------------|---------------------------------|
B----------------------------------|---------------------------------|
G--9---xxx-9---xxx-5---xxx-7---xxx-|-9---xxx-9-------------------xxx-|
D--9---xxx-9---xxx-5---xxx-7---xxx-|-9---xxx-9---xxx-5---xxx-7---xxx-|
A--7---xxx-7---xxx-3---xxx-5---xxx-|-7---xxx-7---xxx-5---xxx-7---xxx-|
E----------------------------------|-------------xxx-3---xxx-5-------|

Keep in mind that the strummed chords (x) at the end of the bars are
played continuessly with the 1st chord of the beginning of the riff.
I also play the strummed chord (upstroke, downstroke, upstroke) and
very rapidly.


Chorus:
(play 2x)

E       G   E                  C        D
e----------------------------------------------------|
B----------------------------------------------------|
G--9-------12--9---7-9--x-9---xxx-5----xxx-7-----xxx-|
D--9-------12--9---7-9--x-9---xxx-5----xxx-7-----xxx-|
A--7-------10--7---5-7--x-7---xxx-3----xxx-5-----xxx-|
E----------------------------------------------------|


Solo:

e--9--------------------------------------------------------|
B---12-10-12-10--10-----------------------------------------|
G--------------12--12-11-12-11-9-11-9--9--------------------| 2x
D------------------------------------12-12-11-12-11-9-------|
A----------------------------------------------------12-----|

e--17-15-14-15-14--14-----------------------------------------|
B----------------17--17-15-17-15-14-15-14--14-----------------|
G----------------------------------------16--16-14-16-14------| 2x
D-------------------------------------------------------17-16-|

e-------------------------------------------------------------|
B-------------------------------------------------------------|
G-16-14---------16-14----------16-14----16-14----16-14--------|
D------17-16---------17-16----------17-------17-------17-16---|


Outro:
(play 4x)

e--------------------------|--------------------------------|
B--------------------------|----------------------------12-|
G--------------------------|-12-12-12-11-12-11--------------|
D--9-----9-----9-----9-----|-------------------12-12-12-----|
A--7-----7-----7-----7-----|--------------------------------|
E--0---0-0---0-0---0-0---0-|--------------------------------|
PM......................|
(play this bar 3x)

I think they change the pick-up or turn on an effect on the 3rd x.
On the 4th x replace last bar with:

e-----------------|
B-----------------|
G--9----5--7---x--| play Chorus
D--9----5--7---x--|
A--7----3--5---x--|
E--0--------------|


Break:

e------------------------------------------------------|
B------------------------------------------------------|
G--9-9-------7-9-9-------7-9-9------5-5----5-7-7----7--| 2x
D--9-9-------7-9-9-------7-9-9------5-5----5-7-7----7--|
A--7-7-------5-7-7-------7-9-9------3-3----3-5-5----5--|
E------------------------------------------------------|

e------5-6-5-5-----5-6-5-5----5-6-5-5--------------------|
B-----------8-----------8----------8---------------------|
G--9-9---------9-9---------9-9--------5-5----5-7-7----7--| 2x
D--9-9---------9-9---------9-9--------5-5----5-7-7----7--|
A--7-7---------7-7---------9-9--------3-3----3-5-5----5--|
E--------------------------------------------------------|


Ending:

Just play the sequence sustaining each chord:

| E     GG    AA   xC   xxxD   xxx |  2x

then:
e-9---------------------------------------------------------|
B--12-10-12-10--10------------------------------------------|
G-------------12--12-11-12-11-9-11-9--9---------------------|
D-----------------------------------12-12-11-12-11-9-11-9---|
A--------------------------------------------------------12-|


/f   /f        /f    /f
e-10---10--------12----12--|   /f - means full bend.
B--------------------------|

Вверх

Run To The Hills
mp3

INTRO:

Gtr I (Adrian)
|----------------------------------------------------------|
|----------------------------------------------------------|
|-x-9--9---7----x-7--7---9-----x-5--5---7----x-0--0---2----|
|-x-9--9---7----x-7--7---9-----x-5--5---7----x-0--0---2----|
|----------------------------------------------------------|
|----------------------------------------------------------|

Gtr II (Dave)

All these notes are played using the third finger so there are
also grace notes due to changing position but Ive just shown
the basic fingerings. Most of the bends should be "overbent" and
shaken heavily.

Neck Pickup
|-------------------------------------------------------------------|
|-15-15b17-15b17-15~---13-13b15-13b15-15b17~---11-11b13-11b13-13b15~|
|-------------------------------------------------------------------|
|-------------------------------------------------------------------|
|-------------------------------------------------------------------|
|-------------------------------------------------------------------|

To Bridge
LAST TIME                     pickup
|-------------------------|--------------|------------------------|
|-------------------------|----------3---|-----------------13b15~-|
|--10-10b12-10b12-12b14~--|-x-0--0---2---|--10-10b12-10b12--------|
|-------------------------|-x-0--0---0---|------------------------|
|-------------------------|--------------|------------------------|
|-------------------------|--------------|------------------------|

RHYTHM FOR VERSES:

D        C      C B+5 C B+5     D        C      C B+5 C B+5
|-------------------------------|---------------------------------|
|-------------------------------|---------------------------------|
|-------------------------------|---------------------------------|
|---7--------5------5--5--5--5--|---7--------5------5--5--5--5----|
|---5--------3------3--2--3--2--|---5--------3------3--2--3--2----|
|-------------------------------|---------------------------------|

A        C        F     D
|---------------------------2---|
|---------------------------3---|
|---2--------5--------2-----2---|
|---2--------5--------3-----0---|
|---0--------3--------3-----0---|
|---------------------1---------|

CHORUS:

G          F         C                G    E  F  F#
|---3----------1--------------------------3--------------|
|---3----------1--------------------------3--------------|
|---4----------2---------5----------------4----1--2--3---|
|---5----------3---------5----------------5----2--3--4---|
|---5----------3---------3----------------5----2--3--4---|
|---3----------1--------------------------3----0--1--2---|
Run to the Hills     Run for your lives


RHYTHM FOR SOLO:

E(m)      F#m  G          C
|-------------(2)-(3)--------------------------------------|
|-------------(2)--3---------------------------------------|
|-------------(2)--4---------------------------------------|
|---2---------(4)--5----------5----------------------------|
|---2---------(4)--5----------3----------2-3-2-3-2-3-2-3---|
|---0------------------------------------------------------|

BRIDGE:

Im just showing the basic fingerings. Listen for the
strumming and muting.

A           B           C           D
|-------------------------------------------------|
|-------------------------------------------------|
|--2--2--2~----4--4--4~----5--5--5~----7--7--7~---|
|--2--2--2~----4--4--4~----5--5--5~----7--7--7~---|
|-------------------------------------------------|
|-------------------------------------------------|

ENDING:

C let ring         B         G strum fast
|--------------------------------3--------------|
|--------------------------------3--------------|
|---5------------------4---------4--------------|
|---5------------------4---------5--------------|
|---3------------------2---------5--------------|
|--------------------------------3--------------|
Run    for     your      lives

Played with Phaser: rate ~ one quarter note.

E5                 F#5      G5
|---------------------------------------12------12-----12--12-----|
|--15b(17)--r15---15b(17)-r15-b(17)~------------------------------|
|-------------------------------------------12------14------------|
|-----------------------------------------------------------------|
|-----------------------------------------------------------------|
|-----------------------------------------------------------------|

C5
|----------12---------------------------------------------|
|--15b(17)----12--15p12h15p12------12---------------------|
|------------------------------14------14b(16)--14b(16)~--|
|---------------------------------------------------------|
|---------------------------------------------------------|
|---------------------------------------------------------|


|--------------------------------------------------------|
|--------------------------------------------------------|
|--14b(16)--14--12--14--12--12-----------------------12--|
|------------------------------14~~~-----------12h14-----|
|--------------------------------------------------------|
|--------------------------------------------------------|

E5
|--------------------------------------------------------|
|----------------------------------15--15-----12h14--12--|
|-----------------------12--14--12---------14------------|
|--14--12---------12h14----------------------------------|
|----------14p12-----------------------------------------|
|--------------------------------------------------------|

F#5        G5
|--------------------------------------------10h12p10----|
|--12h15p12h15p12------12h15--15-s-2-s/-12--------------|
|------------------14------------------------------------|
|--------------------------------------------------------|
|--------------------------------------------------------|
|--------------------------------------------------------|

C5
|--10h12p10h12-----12p10h12p10--10h12p10-----10h12--12b(15)~~--|
|---------------12------------------------12-------------------|
|--------------------------------------------------------------|
|--------------------------------------------------------------|
|--------------------------------------------------------------|
|--------------------------------------------------------------|

E5
|--12b(15)-s-1-s/-7---------12h15p12h15p12h15p12--12h15p12--|
|------------------------------------------------------------|
|------------------------------------------------------------|
|------------------------------------------------------------|
|------------------------------------------------------------|
|------------------------------------------------------------|

F#5  G5
|-----------------------------------------------------------|
|--15p12h15p12h15p12h15-------------------------------------|
|------------------------12h14p12h14p12h14p12h14p12---------|
|----------------------------------------------------12h14--|
|-----------------------------------------------------------|
|-----------------------------------------------------------|

C5
|----------------------------------------------|
|--------------15--------------------------15--|
|--12h14p12----14b(16)--HOLD-BEND---r(14)--14--|
|----------------------------------------------|
|----------------------------------------------|
|----------------------------------------------|


|-----------------------------------------------------------------|
|-----------------------------------------------------------------|
|--12-Tbar-(9)-/-(12)--(9)-/-(12)--(9)-/-(12)--(5)-/-(12)----|
|-----------------------------------------------------------------|
|-----------------------------------------------------------------|
|-----------------------------------------------------------------|

E5
|---------------------------15--17-Tbar--(16)-/-(17)--(16)-/----|
|-----------------------------------------------------------------|
|--(9)-/-(12)--(7)-/-(12)----------------------------------------|
|-----------------------------------------------------------------|
|-----------------------------------------------------------------|
|-----------------------------------------------------------------|


|--(17)--(16)-/-(17)---------------------------------|
|-----------------------15-shake with Tbar as before--|
|-----------------------------------------------------|
|-----------------------------------------------------|
|-----------------------------------------------------|
|-----------------------------------------------------|

G5
|-----------------------------------------------|
|--17-Tbar shake---------------------------PH---|
|------------------------14-Tbar shake-----16~--|
|-----------------------------------------------|
|-----------------------------------------------|
|-----------------------------------------------|

C5
|----0----12--15b(18)--r(16)-r15--15--Tbar----(12)----(10)-s---|
|--0----12--------------------------------------------------------|
|-----------------------------------------------------------------|
|-----------------------------------------------------------------|
|-----------------------------------------------------------------|
|-----------------------------------------------------------------|

Вверх

Seventh Son Of A Seventh Son

[Intro]
C5 D5 E5  //
C5 D5 E5  //
C5 D5 C5  //
C5 /// A5 ///

C5 D5 E5  //
C5 D5 E5  //
C5 D5 C5  //
C5 /// A5 ///

[Solo guitar during intro]
C5 D5 E5              C5 D5 E5          C5 D5 C5
--------------------------------------------------------------------
--------------------------------------------------------------------
---5--7--9----7--9-------5--7--9----7--9---5--7--5----5--5----------
--------------------------------------------------------------------
--------------------------------------------------------------------
--------------------------------------------------------------------

C5             A5
--------------------------------------------------------------------
--------------------------------------------------------------------
---5--5--5--5--4--2--0--2------2---0---2----------------------------
--------------------------------------------------------------------
--------------------------------------------------------------------
--------------------------------------------------------------------

(repeat twice)

[verse]
E5 /// /// /// ///  (etc)

[first Ohh]
When he starts singing  Ohhhhhh
Play C . . .  /////// . . . //// Em  . . . .
--------------------------------------------------------------------------
--------------------------------------------------------------------------
-5------5--5--5--7--4--5-----5--5--5--7--4--5------4h-5p-4-2-------------
--------------------------------------------------------------------------
--------------------------------------------------------------------------
--------------------------------------------------------------------------

note : . := 1 tick rest
h := hamer on
p := pull off
:= slide down

repeat playing verse

E5 /// /// /// (etc)

repeat ohhh

[chorus]

Seventh son of a Seventh son  (etc)
E5 /  /  /  D5 E5 G5 E5  /   /    E5   /  /  /  D5 E5 G5 E5 A5 G5 F#5 E5
--------------------------------------------------------------------------
--------------------------------------------------------------------------
-------------------5-----------------------------------5-----7--5--4------
----7--7--7--5--7-----7---7-------------7--7--7--5--7-----7------------7--
--------------------------------------------------------------------------
-0----------------------------0----0--------------------------------------

Seventh son of a Seventh son  (etc)
E5 /  /  /  D5 E5 G5 E5  /   /    E5   /  /  /  D5 E5 G5 G5   F#5 D5 E5
--------------------------------------------------------------------------
--------------------------------------------------------------------------
-------------------5-----------------------------------5--5-----4---------
----7--7--7--5--7-----7---7-------------7--7--7--5--7--------------5---7--
--------------------------------------------------------------------------
-0----------------------------0----0--------------------------------------

(repeat twice)

[verse see above]

[second Ohh]
E
------------------------------------------------
------------------------------------------------
------------------------------------------------
------------------------------------------------
-7-----9---10---9---10---12---10---9---10-9-7---
------------------------------------------------

D
------------------------------------------------
------------------------------------------------
------------------------------------------------
------------------------------------------------
-5-----7---8----7---8----10---8----7---8--7-5---
------------------------------------------------

C
------------------------------------------------
------------------------------------------------
------------------------------------------------
------------------------------------------------
-3-----5---6----5---6----8----6----5---6--5-3---
------------------------------------------------

A
------------------------------------------------
------------------------------------------------
------------------------------------------------
------------------------------------------------
-0-----2---3----2---3----5----3----2---3--2-0---
------------------------------------------------


Play verse
Play first Ohh
Play chorus
Play second Ohh

[bridge first riff]
(play this a little fast)
Em
--------------------------------------------------
--------------------------------------------------
--------------------------------------------------
-------9--7--9--5--7--4--5-----------4--5--4--5---
-7--7-----------------------7--5--7---------------
--------------------------------------------------

Repeat first riff 4 times
[bridge second riff]
(for second guitar)
Em
--------------------------------------------------
--------------------------------------------------
-------9--7--9--5--7--4--5-----------4--5--4--5---
-7--7-----------------------7--5--7---------------
--------------------------------------------------
--------------------------------------------------

First guitar should play first riff 4 times while
Seccond guitar plays the second riff.

Slow down at the last for notes to get fade to the
quiet part

[Quiet Part]

This is easy to play but watch the measure because
it changes all the time from 8/5 to 8/3

Em
--------------------------------------------------
--------------------------------------------------
--------------------------------------------------
-7--7--7--7--9--9--9--9--9--9--9--9--9--etc-------
-7--7--7--7--7--7--7--7--7--7--7--7--7------------
(0)-----------------------------------------------

Em
--------------------------------------------------
--------------------------------------------------
--------------------------------------------------
-7--7--9--9--10-10-10-10-10-10-10-10-10--etc------
-7--7--7--7--7--7--7--7--7--7--7--7--7------------
(0)-----------------------------------------------

This is repeat several times.

C
--------------------------------------------------
--------------------------------------------------
--------------------------------------------------
--------------------------------------------------
-8--8--8--8--10-10-10-10-10-10-10-10-10--etc------
-8--8--8--8--8--8--8--8--8--8--8--8--8------------

C
--------------------------------------------------
--------------------------------------------------
--------------------------------------------------
--------------------------------------------------
-8--8--10-10-11-11-11-11-11-11-11-11-11--etc------
-8--8--8--8--8--8--8--8--8--8--8--8--8------------

Repeat this also several times and then go back to
Em.
Singer sings today is born the seventh son...

[Bridge to heavy part]
E5 D5 E5
--------------------------------------------------
---------------8--10--------8-10------------------
-9--7--9----9------------9--------9---------------
-9--7--9------------------------------------------
-7--5--7------------------------------------------
--------------------------------------------------

E5 D5 E5
--------------------------------------------------
---------------8--10--------8-10------------------
-9--7--9----9------------9--------9---------------
-9--7--9------------------------------------------
-7--5--7------------------------------------------
--------------------------------------------------

E5 D5 D5
--------------------------------------------------
---------------8--10--------8-10------------------
-9--7--7----9------------9--------9---------------
-9--7--7------------------------------------------
-7--5--5------------------------------------------
--------------------------------------------------

D5 D5 E5
--------------------------------------------------
---------------8--10--------8-10------------------
-7--7--9----9------------9--------9---------------
-7--7--9------------------------------------------
-5--5--7------------------------------------------
--------------------------------------------------

Fast solo not included.

I hope this will help you a lot. Besure to study
the bridge first riff and second riff well. If you
can play them well you have an excellent exercise
to warm your fingers before playing.

Вверх

Still Life

INTRO:

Gtr II (Adrian)
Ill show the picking pattern for the three chords used in
the backing to the solo. Ill show the chord changes with the
solo.
Played with a 3/4 time feel.
A(m)
|-------------------------------------------------------|
|-------------------------------------------------------|
|----------14------14--------------14------14-----------|
|------14------14------14------14------14------14---etc-|
|--12----------------------12---------------------------|
|-------------------------------------------------------|

F
|-----------------------------------------------------|
|-----------------------------------------------------|
|---------10------10-------------10------10-----------|
|-----10------10------10-----10------10------10---etc-|
|--8----------------------8---------------------------|
|-----------------------------------------------------|

G
|--------------------------------------------------------|
|--------------------------------------------------------|
|----------12-------12--------------12------12-----------|
|------12------12-------12------12------12------12---etc-|
|--10-----------------------10---------------------------|
|--------------------------------------------------------|


Gtr I (Dave): with Phaser and Delay
A(m)                                             F
|-----------------------------------------------------------|
|-----------------------------------------------------------|
|--7-s/-9-hold------9b(10)r9-hold---7h9p7--7s5--4s/5s4-hold-|
|-----------------------------------------------------------|
|-----------------------------------------------------------|
|-----------------------------------------------------------|

A(m)
|--------------------------------------------------------------|
|--------------------------------------------------------------|
|----5p4--(s)2-hold--------------4h5--7s/9-hold--9b(10)r9-hold-|
|--------------------------------------------------------------|
|--------------------------------------------------------------|
|--------------------------------------------------------------|

G
|------------------------------------------------------------|
|---------------------12--13--15-15b(17)---r15-----15p13h15~-|
|--7s/9--10--12-s/14-----------------------------------------|
|------------------------------------------------------------|
|------------------------------------------------------------|
|------------------------------------------------------------|

A(m)                                    F
|------------------------------------------------------------|
|--13h15p13--12s10-s/12-s10----8h10p8---5h8p5----------------|
|------------------------------------------------7b(9)r7p5-7-|
|------------------------------------------------------------|
|------------------------------------------------------------|
|------------------------------------------------------------|

A(m)
|-------------------------------------------------------------|
|-(8)---------------------15b(17)-r15-b(17)~----15b(16.5)-r15-|
|--7b(9)r7p5--------------------------------------------------|
|-------------7~----------------------------------------------|
|-------------------------------------------------------------|
|-------------------------------------------------------------|

G                                   A(m)
|-------------------------------------------------------15b(17)~-|
|--15--13--15b(17)--15~------------13h15p13--12------------------|
|----------------------------------------------------------------|
|----------------------------------------------------------------|
|----------------------------------------------------------------|
|----------------------------------------------------------------|


"Quiet" bit with "Take a Look..."
Ill try and show the basic idea. Finger the open Am and try to
follow the melody by lifting your finger on 2nd string. Then pick
the Fmaj7 chord anyway you want.
Am
|-------------------------------------------------|
|----------------0--------1--------0--------------|
|-------2-----------2--------2--------2-----2-----|
|----2-----2-----------------------------------2--|
|-0-----------0--------0--------0--------0--------|
|-------------------------------------------------|

Fmaj7                                     G    A   A     G
|--------0-------0-------------------------------------------|
|----------1-------1------1------------------8-s/-10--10-s-8-|
|-------------2------2-------2-----2---------7-s/-9---9--s-7-|
|----3-----------------3--------3----------------------------|
|--3---------------------------------------------------------|
|------------------------------------------------------------|

Oh! They drain my strength away...:
C/G
|-----|
|-----|
|--5--|
|--5--|
|--3--|
|--3--|


Main Verse Riff:
Similar idea to the previous part except you follow the melody
on the 3rd string. When muting the strings and strumming between
the parts shown lift your 3rd or 4th finger off the 3rd string,
i.e. dont hold the melody notes down,just keep the A power chord
fingered. Play the extended notes with upstrokes to emphasise the
melody.
A(m)
|--------------------------------------------|
|--------------------------------------------|
|--2---------4-(2)---5-(2)---4-(2)---2-----2-|
|--2---------2-------2-------2-------2-----2-|
|--0--x-x-x--0--x-x--0--x-x--0--x-x--0--x--0-|
|--------------------------------------------|

F                                    G    A         G
|--1----------------------------------------------------|
|--1---------------------Gtr II plays---8-s/-10--10-s-8-|
|--2------------------------------------7-s/-9---9--s-7-|
|--3----------------------------------------------------|
|--3----------------------------------------------------|
|-------------------------------------------------------|

|--------------------------------------------------------|
|--------------------------------------------------------|
|---------------------------------------7--/--9---9----7-|
|---------------------------------------5--/--7---7----5-|
|------------------------Gtr I plays----5--/--7---7----5-|
|--------------------------------------------------------|

Sometimes Gtr II plays:

|----------------------------------------1----------------------|
|---------5-------6-----8-----10---------1------8-s/-10--10-s-8-|
|--2------4--xxx--5-xxx-7-xxx-9----------2------7-s/-9---9--s-7-|
|--2-------------------------------------3----------------------|
|--0--xxx--------------------------------3----------------------|
|---------------------------------------------------------------|

C/G
Oh! They drain my strength away...


CHORUS:
Both Guitars.
A  (G) A    F    C
|-----------------------------------------------------------|
|-----------------------------------------------------------|
|--2--p0--2----5--------------------------------------------|
|--2--p0--2----3----5-----------------5---4-----------------|
|--0------0----3----3--------0----3-----------5----3----(0)-|
|-----------------------------------------------------------|------|
Night     - mare-res

A  (G) A    F    C
|----------------------------------------------|
|----------------------------------------------|
|--2--p0--2----5-------------------------------|
|--2--p0--2----3----5------------------5----4~-|
|--0------0----3----3--------0----3------------|
|----------------------------------------------|
Spirits     call me
-ing

|------------------------------------------------------------|
|------------------------------------------------------------|
|--2--p0--2----5---------------------------------------------|
|--2--p0--2----3----5------------------5----4----------------|
|--0------0----3----3--------0----3--------------5----3----0-|
|------------------------------------------------------------|
Night       mare-ares

|--------------------------------------------------|
|--------------------------------------------------|
|--2--p0--2----5-----------------------------------|
|--2--p0--2----3----5---------------------5-----4~-|
|--0------0----3----3---------0-----3--------------|
|--------------------------------------------------|
They wont leave be
-me


BREAK:
Gtr I:
D  C  D    E  F
|---------------------------------------------------|
|---------------------------------3--5--3h5p3-------|
|-------------4--5-----------------------------5--4-|
|--7--5--7----2--3----------------------------------|
|--5--3--5----2--3----------------------------------|
|---------------------------------------------------|

Play with upstroke
|       |
A  G  A    G  A
|-----------------------------------------------------|
|-----------------------------------------------------|
|--2--0--2----0--2------------------------------------|
|--2--0--2----0--2--------------5----4----------------|
|--0-----0-------0----0----3--------------5----3----0-|
|-----------------------------------------------------|

Gtr II:
D  C  D    E  F          A   G   A   G   A
|-----------------------------------------------------------------|
|---------------------------10--8---10--8---10--------------------|
|---------------------------9---7---9---7---9---------------------|
|--7--5--7----9--10---------7---5---7---5---7----------5--4-------|
|--5--3--5----7--9-------------------------------0--3-------5-3-0-|
|-----------------------------------------------------------------|

THE HARMONY:
Ill just show the notes, move between notes with hammers
and pulls wherever it feels natural.
The approximate bassline is shown aswell.

Gtr I: (Dave)
A
|------------------------------------------|
|--------------5--6--5-------------------5-|
|--5--4--5--7-----------7----5--4--5--7----|
|------------------------------------------|
|------------------------------------------|
|------------------------------------------|

F                                                 G   A  A  G
|----------------------------------------------------------------|
|--12--13---10--12---8--10---6--8---5--6------5------------------|
|------------------------------------------7------5--7---5--4----|
|--------------------------------------------------------------5-|
|----------------------------------------------------------------|
|----------------------------------------------------------------|

Gtr II:
A
|----------------------------------------|
|----------------------------------------|
|-----------4--5--7--5--4-----------4--5-|
|--7--5--7-----------------7--5--7-------|
|----------------------------------------|
|----------------------------------------|

F                                      G  A  A  G
|----------------------------------------------------|
|--5--6-----5----------------------------------------|
|--------7-----5--7--4--5-----4----------------------|
|--------------------------7-----5--7-----5----------|
|--------------------------------------8-----8--7--3-|
|----------------------------------------------------|

RHYTHM FOR SOLOS: Listen for strumming and muting.
Solo 1:
D       E       F       A       G       F
|---------------------------------------------|
|---------------------------------------------|
|---------------------------------------------|
|--7-------9-7-----10-7----14------12------10-|
|--5--xxx--7-5xxx--8--5xx--12--xx--10--xx--8--|
|---------------------------------------------|

Solo 2:
E       F#        Ab        B        A       G
|-------------------------------------------------|
|-------------------------------------------------|
|------------------------------11-------9-------7-|
|--9-------11-9------13-9------9--------7-------5-|
|--7--xxx--9--7-xxx--11-7-xxx--9--xxx---7--xxx--5-|
|-------------------------------------------------|

ENDING:
Play with upstrokes
|       |
A   G  A    G  A
|-------------------|
|-------------------|
|--2---0--2----0--2-|
|--2---0--2----0--2-|
|--0------0----x--0-|
|--------------3----|
Now we rest in peace.

SOLOS:
Transcribing solos is not my strong point but you should the
main ideas from the following. These are the album solos.
Some of fast licks, especially Daves are more approximations
than anything else.

Solo 1: (Adrian)D minor

|---------5-------------------------------|
|-------------5b(7)-r5--------------------|
|--7~--------------------7p5--7-----------|
|--------------------------------5--3-----|
|--------------------------------------5~-|
|-----------------------------------------|


|-------10---------10--13p10-----15p10-----13p10-----15p10----|
|--s/10----13----10----------10--------10--------10--------10-|
|-------------------------------------------------------------|
|-------------------------------------------------------------|
|-------------------------------------------------------------|
|-------------------------------------------------------------|


|--13p10-----15p10-----13p10-----15p10-----13p10---------------|
|--------10--------10--------10--------10--------10----13--13~-|
|--------------------------------------------------------------|
|--------------------------------------------------------------|
|--------------------------------------------------------------|
|--------------------------------------------------------------|


|------18b(20)--(20)--(20)--(20)--(20)--(20)r(19)-|
|--15---------------------------------------------|
|-------------------------------------------------|
|-------------------------------------------------|
|-------------------------------------------------|
|-------------------------------------------------|


|--18p17p15------15------------------------------------------|
|------------18------18p17p15------15------------------------|
|------------------------------17------17p15--17b(19)r17-p15-|
|------------------------------------------------------------|
|------------------------------------------------------------|
|------------------------------------------------------------|

Bend, Tap, release tap, release bend and pull off.
|---------------------------------------------------------|
|---------------------------------------------------------|
|--12b(14)-T-15-p(14)r12-p10----12b(14)-T-17-p(14)r12-p10-|
|---------------------------------------------------------|
|---------------------------------------------------------|
|---------------------------------------------------------|


|------------------------------------------------------------|
|--17b(18)-(18)--18p17p15-----15-----------------------------|
|--------------------------17-----17p15p14------14-----------|
|-------------------------------------------17------17p15p14-|
|------------------------------------------------------------|
|------------------------------------------------------------|


|------------------------------------|
|------------------------------------|
|------------------------------------|
|------14--15p14p12----12h14p12--14~-|
|--17--------------------------------|
|------------------------------------|

Solo 2: (Dave)E minor

|-------------------------------|
|-------------------------------|
|--2b(4)--2b(4)--2b(4)r2-p0-----|
|----------------------------2~-|
|-------------------------------|
|-------------------------------|


|---------------------------------------------------------|
|---------------------------------------------------------|
|--0h2p0h2p0h2p0h2p0h3p0h3p0h3p0h3p0h4p0h4p0h5p0h5p0--7~~-|
|---------------------------------------------------------|
|---------------------------------------------------------|
|---------------------------------------------------------|


|-----------------------------------------------------------|
|--12h15p12h15p12h15p12------12h15p12--12h15p12h15p12h15p12-|
|------------------------14---------------------------------|
|-----------------------------------------------------------|
|-----------------------------------------------------------|
|-----------------------------------------------------------|


|--------------------------------------------------------|
|------12---------------------14b(15)--slowly release or-|
|--14------12h14p12h14p12-----14b(16)--drop with T-bar---|
|--------------------------------------------------------|
|--------------------------------------------------------|
|--------------------------------------------------------|


|------15b(17)-------12--15p12p0--15p12p0--15p12p0--15p12p0-|
|--12-------------12----------------------------------------|
|-----------------------------------------------------------|
|-----------------------------------------------------------|
|-----------------------------------------------------------|
|-----------------------------------------------------------|


|--15p12h15p12h15--15p12p0----------|
|---------------------------15b(17)-|
|-----------------------------------|
|-----------------------------------|
|-----------------------------------|
|-----------------------------------|


|------------14h15p14-----14--15p14h15p14h15p14--------|
|--15-s/-17------------17------------------------17p15-|
|------------------------------------------------------|
|------------------------------------------------------|
|------------------------------------------------------|
|------------------------------------------------------|


|------------------------------------17b(19)--17b(19)--17b(19)r17-|
|--17b(19)-r17-p15--17~----------15-------------------------------|
|-----------------------------------------------------------------|
|-----------------------------------------------------------------|
|-----------------------------------------------------------------|
|-----------------------------------------------------------------|


|--14h15p14h15p14h15--------------------15b(17)-|
|---------------------17p15h17~-----12----------|
|-----------------------------------------------|
|-----------------------------------------------|
|-----------------------------------------------|
|-----------------------------------------------|

Trill and drop with T-bar
|--12h15p12h15p12h15-etc--------------------------12-|
|-------------------------------------------------12-|
|----------------------------------------------------|
|----------------------------------------------------|
|----------------------------------------------------|
|----------------------------------------------------|

Вверх

Strange World

Em                   G
The only place where you can dream,
D             C
Liven here is not what it seems.
Em             G
Ship of white, light in the sky,
D               C
Nobody there to reason why.
Em             G
Here I am, Im not really there,
D             C
Smiling faces ever so rare.
Em              G
A lets walk in deepest space,
D                 C
Living here, just isnt the place.


Em             G
Stalk of light come from the ground,
D                C
When I cry there isnt a sound.
Em              G
All my feelings cannot be held,
D               C
Im happy in my new strange world.
Em               G
Shades of green, grasses twine,
D              C
Girls drinking plasma wine.
Em                G
A look at love, a dream enfolds,
D                 C                 Em
Liven here youll never grow old.


Dont you hear me call?

Вверх

Sun And Steel

Opening-riff:
E---------------|------------|
B---------------|------------|
G---------------|------------|
D---------------|------------|
A--4-7-4-2------|--(2)-------|
E--2-5-2-0------|--(0)-------|

E-------------------------------------------------|
B-------------------------------------------------|
G-------------------------------------------------|
D-------------------------------------------------|
A--4-7-4-2-7---4---4------------------------------|
E--2-5-2-0-5---2---2--2-2-2--2-2-2--2-2-2--2-2-2--|

E--------------------------------------|
B--------------------------------------|
G--------------------------------------|
D--------------------------------------|
A--7---4---4------------------------2--|
E--5---2---2--2-2-2---2-2-2--2-2-2--0--|

E------------------------------------------|
B------------------------------------------|
G------------------------------------------|
D------------------------------------------|
A--7---4---4-------------------------------|
E--5---2---2--2-2-2---2-2-2--2-2-2--2-2-2--|

E-------------------------------------|
B-------------------------------------|
G-------------------------------------|
D-------------------------------------|
A--7---4---4-----------------4--7--4--|
E--5---2---2--2-2-2---2-2-2--2--5--2--|

Verse:
You killed your first man at 13
E-------------------------------------------|
B-------------------------------------------|
G-------------------------------------------|
D-------------------------------------------|
A--2--2-------------------------------------|
E--0--0--0-0-0--0-0-0--0-0-0--0-0-0--0-0-0--|

Killer instict, animal supreme
E---------------------------------------------|
B---------------------------------------------|
G---------------------------------------------|
D---------------------------------------------|
A--2--2------------------------------4-7-4-2--|
E--0--0--0-0-0--0-0-0--0-0-0--0-0-0--2-5-2-0--|

Riff 2:
E------------------------------------------|
B------------------------------------------|
G------------------------------------------|
D------------------------------------------|
A--7---4---4-------------------------------|
E--5---2---2--2-2-2---2-2-2--2-2-2--2-2-2--|

E-------------------------------------|
B-------------------------------------|
G-------------------------------------|
D-------------------------------------|
A--7---4---4-----------------4--7--4--|
E--5---2---2--2-2-2---2-2-2--2--5--2--|

Chorus:
Sunlight, falling on your steel. Death in life is...
E--0-------------------|--3----------------------|
B--2-------------------|--3----------------------|
G--2-------------------|--0----------------------|
D--2-------------------|--0----------------------|
A--0-------------------|--2----------------------|
E----------------------|--3----------------------|

..your ideal, life is like a wheel
E--2----------------------|--0------------------|
B--3----------------------|--1------------------|
G--2----------------------|--0------------------|
D--0----------------------|--2------------------|
A-------------------------|--3------------------|
E-------------------------|---------------------|

E--3-----2--------|
B----3------3-----|
G------0-------2--|
D-----------------|
A-----------------|
E-----------------|

End of chorus.

Riff 3:
E--------------|------------------|
B--------------|------------------|
G--------------|------------------|
D--9---7-9-10--|--9-7------4-5----|
A--------------|------10-------5--|
E--------------|------------------|

E---------------------------|
B---------------------------|
G----------------7----------|
D--7-9-10---9-10-----4-5----|
A------------------------4--|
E---------------------------|

E------------------------------|
B------------------------------|
G----------------7---------11--|
D--7-9-10---9-10-----10-12-----|
A------------------------------|
E------------------------------|

E--------------------------------|
B------------------10---8-10-12--|
G--9-11-12---11-12---------------|
D--------------------------------|
A--------------------------------|
E--------------------------------|

End of riff 3.

Solo-riff:
E--------------------------------------------|
B--------------------------------------------|
G--------------------------------------------|
D--------------------------------------------|
A--4--------------------------------------2--|
E--2--2-2-2--2-2-2--2-2-2---2-2-2--2-2-2--0--|

Riff 4:
E----------------------------------|
B----------------------------------|
G----------------------------------|
D----------------------------------|
A----------------------------------|
E---2-2-2-3-3-3-4-4-4-5-5-5--6--7--|

E--------------------------|
B--------------------------|
G--------------------------|
D--------------------------|
A--------------------------|
E--3---4---5---6--7--8--9--|

End of riff 4.

Song-structure:
Opening-riff
Verse
Riff 2
Verse
Riff 2
Chorus (2 times)
Riff 2
Verse
Riff 2
Verse
Riff 2
Chorus (2 times)
Riff 3 (2 times)
Solo-riff (3 times)
Riff 4
Chorus (4 times)
END

Lyrics:

You killed your first man at 13,
Killer instinct, animal supreme,
By 16 you had learned to fight
The way of the warrior, you took it as your right.

Chorus:
Sunlight, falling on your steel,
Death in life is your ideal,
Life is like a wheel, rolling on and on

Through earth and water, fire and wind,
You came at last-nothing was the end,
Make a cut by fire and stones,
Take you and your blade and brake you both
in two-break you both in two

Вверх

Tailgunner

   INTRO
|
|Both Guitars
|
E|---------------------------------|---------------------------------|
B|---------------------------------|---------------------------------|
G|---------------------------------|---------------------------------|
D|-11--11--11--11--11--11--11--11--|-11--11--11--11--11--11--11--11--|
A|-9---9---9---9---9---9---9---9---|-9---9---9---9---9---9---9---9---|
E|->----------->----------->-------|----->----------->------->-------|

|
|Both Guitars
|
E|---------------------------------|---------------------------------|
B|---------------------------------|---------------------------------|
G|---------------------------------|---------------------------------|
D|-11--11--11--11--11--11--11--11--|-11--11--11--11--11--11--11--11--|
A|-9---9---9---9---9---9---9---9---|-9---9---9---9---9---9---9---9---|
E|->----------->----------->-------|----->----------->------->-------|

|
|Both Guitars
|
E|---------------------------------|---------------------------------|
B|---------------------------------|---------------------------------|
G|---------------------------------|---------------------------------|
D|-11--11--11--11--11--11--11--11--|-11--11--11--11--11--11--11--11--|
A|-9---9---9---9---9---9---9---9---|-9---9---9---9---9---9---9---9---|
E|->----------->----------->-------|----->----------->------->-------|

|
|Both Guitars
|
E|---------------------------------|---------------------------------|
B|---------------------------------|---------------------------------|
G|---------------------------------|---------------------------------|
D|-11--11--11--11--11--11--11--11--|-11--11--11--11--11--11--11--11--|
A|-9---9---9---9---9---9---9---9---|-9---9---9---9---9---9---9---9---|
E|->----------->----------->-------|----->----------->------->-------|

|
|Both Guitars
|
E|---------------------------------|---------------------------------|
B|---------------------------------|---------------------------------|
G|---------------------------------|---------------------------------|
D|-11--11--11--11--11--11--11--11--|-11--11--11--11--11--11--11--11--|
A|-9---9---9---9---9---9---9---9---|-9---9---9---9---9---9---9---9---|
E|->----------->----------->-------|----->----------->------->-------|

|                                 |
|Both Guitars                     |Guitar 1
|                                 |
E|---------------------------------|---------------------------------|
B|---------------------------------|---------------------11--11--11--|
G|---------------------------------|---------------------11--11--11--|
D|-11--11--11--11--11--11--11--11--|-11--11--11--11--11--11--11--11--|
A|-9---9---9---9---9---9---9---9---|-9---9---9---9---9---9---9---9---|
E|->----------->----------->-------|----->---------------------------|
|
|Guitar 2
|
|---------------------------------|
|---------------------7---7---7---|
|---------------------6---6---6---|
|---------------------8---8---8---|
|---------------------------------|
|---------------------------------|

|
|Guitar 1
|
E|---------------------------------|---------------------------------|
B|-11-9-------9-------------------|-(9)-----------------------------|
G|-11-9-------9-------------------|-(9)-----------------------------|
D|-11-9-------9-------------------|-(9)-----------------------------|
A|-9--7-------7-------------------|-(7)-----------------------------|
E|---------------------------------|---------------------------------|
|
|Guitar 2
|
E|---------------------------------|---------------------------------|
B|-7--5-------5-------------------|-(5)-----------------------------|
G|-6--4-------4-------------------|-(4)-----------------------------|
D|-8--6-------6-------------------|-(6)-----------------------------|
A|---------------------------------|---------------------------------|
E|---------------------------------|---------------------------------|

|
|Guitar 1
|
E|---------------------------------|---------------------------------|
B|-(9)-----------------------------|-(9)-----------------9---9---9---|
G|-(9)-----------------------------|-(9)-----------------9---9---9---|
D|-(9)-----------------------------|-(9)-----------------9---9---9---|
A|-(7)-----------------------------|-(7)-----------------7---7---7---|
E|---------------------------------|---------------------------------|
|
|Guitar 2
|
E|---------------------------------|---------------------------------|
B|-(5)-----------------------------|-(5)-----------------5---5---5---|
G|-(4)-----------------------------|-(4)-----------------4---4---4---|
D|-(6)-----------------------------|-(6)-----------------6---6---6---|
A|---------------------------------|---------------------------------|
E|---------------------------------|---------------------------------|

|
|Guitar 1
|
E|---------------------------------|---------------------------------|
B|-9-/-11--------------------------|-(11)----------------------------|
G|-9-/-11--------------------------|-(11)----------------------------|
D|-9-/-11--------------------------|-(11)----------------------------|
A|-7-/-9---------------------------|-(9)-----------------------------|
E|---------------------------------|---------------------------------|
|
|Guitar 2
|
E|---------------------------------|---------------------------------|
B|-5-/-7---------------------------|-(7)-----------------------------|
G|-4-/-6---------------------------|-(6)-----------------------------|
D|-6-/-8---------------------------|-(8)-----------------------------|
A|---------------------------------|---------------------------------|
E|---------------------------------|---------------------------------|

|
|Guitar 1
|
E|---------------------------------|---------------------------------|
B|-(11)----------------------------|-(11)----------------------------|
G|-(11)----------------------------|-(11)----------------------------|
D|-(11)----------------------------|-(11)----------------------------|
A|-(9)-----------------------------|-(9)-----------------------------|
E|---------------------------------|---------------------------------|
|
|Guitar 2
|
E|---------------------------------|---------------------------------|
B|-(7)-----------------------------|-(7)-----------------------------|
G|-(6)-----------------------------|-(6)-----------------------------|
D|-(8)-----------------------------|-(8)-----------------------------|
A|---------------------------------|---------------------------------|
E|---------------------------------|---------------------------------|

|
|Guitar 1
|
E|---------------------------------|---------------------------------|
B|---------------------------------|---------------------------------|
G|-3---4---4---4---3-------3---4---|-4---4---3-------3---4---4---4---|
D|---------------------4-----------|-------------4-------------------|
A|---------------------------------|---------------------------------|
E|---------------------------------|---------------------------------|
|
|Guitar 2
|
E|---------------------------------|---------------------------------|
B|---------------------------------|---------------------------------|
G|---------------------------------|---------------------------------|
D|---------------------------------|---------------------------------|
A|-1---2---2---2---1-------1---2---|-2---2---1-------1---2---2---2---|
E|---------------------2-----------|-------------2-------------------|

|
|Guitar 1
|
E|---------------------------------|---------------------------------|
B|---------------------------------|-2---2---2---2---2---2---2---2---|
G|-4---3---------------------------|---------------------------------|
D|---------4---11--11--11--11--11--|-4---4---4---4---4---4---4---4---|
A|-------------9---9---9---9---9---|---------------------------------|
E|---------------------------------|---------------------------------|
|
|Guitar 2
|
E|-------------------------2-------|---------------------------------|
B|-------------5-------------------|---------------------------------|
G|---------------------------------|---------------------------------|
D|---------------------------------|-8-------------------------------|
A|---------------------------------|---------------------------------|
E|---------------------------------|---------------------------------|

|
|Guitar 1
|
E|---------------------------------|---------------------------------|
B|---------------------------------|---------------------------------|
G|-3---4---4---4---3-------3---4---|-4---4---3-------3---4---4---4---|
D|---------------------4-----------|-------------4-------------------|
A|---------------------------------|---------------------------------|
E|---------------------------------|---------------------------------|
|
|Guitar 2
|
E|---------------------------------|---------------------------------|
B|---------------------------------|---------------------------------|
G|---------------------------------|---------------------------------|
D|---------------------------------|---------------------------------|
A|-1---2---2---2---1-------1---2---|-2---2---1-------1---2---2---2---|
E|---------------------2-----------|-------------2-------------------|

|
|Guitar 1
|
E|---------------------------------|---------------------------------|
B|---------------------------------|-2---2---2---2---2---11--11--11--|
G|-4---3---------------------------|---------------------11--11--11--|
D|---------4---11--11--11--11--11--|-4---4---4---4---4---11--11--11--|
A|-------------9---9---9---9---9---|---------------------9---9---9---|
E|---------------------------------|---------------------------------|
|
|Guitar 2
|
E|-------------------------2-------|---------------------------------|
B|-------------5-------------------|---------------------------------|
G|---------------------------------|---------------------------------|
D|---------------------------------|-8-------------------------------|
A|---------------------------------|---------------------------------|
E|---------------------------------|---------------------------------|

|
|Guitar 1
|
E|---------------------------------|---------------------------------|
B|-11-9-------9-------------------|-(9)-----------------------------|
G|-11-9-------9-------------------|-(9)-----------------------------|
D|-11-9-------9-------------------|-(9)-----------------------------|
A|-9--7-------7-------------------|-(7)-----------------------------|
E|---------------------------------|---------------------------------|
|
|Guitar 2
|
E|---------------------------------|---------------------------------|
B|-7--5-------5-------------------|-(5)-----------------------------|
G|-6--4-------4-------------------|-(4)-----------------------------|
D|-8--6-------6-------------------|-(6)-----------------------------|
A|---------------------------------|---------------------------------|
E|---------------------------------|---------------------------------|
|
|Guitar 3
|
E|---------------------------------|---------------------------------|
B|-------------------------0-------|-(0)-----------------------------|
G|-------------3-------------------|-----3---------------------------|
D|-2-------------------------------|-----------------2---------------|
A|---------------------------------|---------------------------------|
E|---------------------------------|---------------------------------|

|
|Guitar 1
|
E|---------------------------------|---------------------------------|
B|-(9)-----------------------------|-(9)-----------------9---9---9---|
G|-(9)-----------------------------|-(9)-----------------9---9---9---|
D|-(9)-----------------------------|-(9)-----------------9---9---9---|
A|-(7)-----------------------------|-(7)-----------------7---7---7---|
E|---------------------------------|---------------------------------|
|
|Guitar 2
|
E|---------------------------------|---------------------------------|
B|-(5)-----------------------------|-(5)-----------------5---5---5---|
G|-(4)-----------------------------|-(4)-----------------4---4---4---|
D|-(6)-----------------------------|-(6)-----------------6---6---6---|
A|---------------------------------|---------------------------------|
E|---------------------------------|---------------------------------|
|
|Guitar 3
|
E|---------------------------------|---------------------------------|
B|-------------------------0-------|-(0)-----------------------------|
G|-------------3-------------------|-----3---------------------------|
D|-2-------------------------------|-----------------2---------------|
A|---------------------------------|---------------------------------|
E|---------------------------------|---------------------------------|

|
|Guitar 1
|
E|---------------------------------|---------------------------------|
B|-9-/-11--------------------------|-(11)----------------------------|
G|-9-/-11--------------------------|-(11)----------------------------|
D|-9-/-11--------------------------|-(11)----------------------------|
A|-7-/-9---------------------------|-(9)-----------------------------|
E|---------------------------------|---------------------------------|
|
|Guitar 2
|
E|---------------------------------|---------------------------------|
B|-5-/-7---------------------------|-(7)-----------------------------|
G|-4-/-6---------------------------|-(6)-----------------------------|
D|-6-/-8---------------------------|-(8)-----------------------------|
A|---------------------------------|---------------------------------|
E|---------------------------------|---------------------------------|
|
|Guitar 3
|
E|---------------------------------|---------------------------------|
B|-------------------------0-------|-(0)-----------------------------|
G|-------------3-------------------|-----3---------------------------|
D|-4-------------------------------|-----------------4---------------|
A|---------------------------------|---------------------------------|
E|---------------------------------|---------------------------------|

|
|Guitar 1
|
E|---------------------------------|---------------------------------|
B|-(11)----------------------------|-(11)----------------------------|
G|-(11)----------------------------|-(11)----------------------------|
D|-(11)----------------------------|-(11)----------------------------|
A|-(9)-----------------------------|-(9)-----------------------------|
E|---------------------------------|---------------------------------|
|
|Guitar 2
|
E|---------------------------------|---------------------------------|
B|-(7)-----------------------------|-(7)-----------------------------|
G|-(6)-----------------------------|-(6)-----------------------------|
D|-(8)-----------------------------|-(8)-----------------------------|
A|---------------------------------|---------------------------------|
E|---------------------------------|---------------------------------|
|
|Guitar 3
|
E|---------------------------------|---------------------------------|
B|---------------------------------|---------------------------------|
G|---------------------------------|---------------------------------|
D|-(4)-----------------------------|-(4)-----------------------------|
A|---------------------------------|---------------------------------|
E|---------------------------------|---------------------------------|


1st VERSE
|
|Guitar 1
|
E|---------------------------------|---------------------------------|
B|---------------------------------|---------------------------------|
G|-3---4---4---4---3-------3---4---|-4---4---3-------3---4---4---4---|
D|---------------------4-----------|-------------4-------------------|
A|---------------------------------|---------------------------------|
E|---------------------------------|---------------------------------|
|
|Guitar 2
|
E|---------------------------------|---------------------------------|
B|---------------------------------|---------------------------------|
G|---------------------------------|---------------------------------|
D|---------------------------------|---------------------------------|
A|-1---2---2---2---1-------1---2---|-2---2---1-------1---2---2---2---|
E|---------------------2-----------|-------------2-------------------|

|
|Guitar 1
|
E|---------------------------------|---------------------------------|
B|-------------------------11------|-(11)----------------------------|
G|-4---3-------------------11------|-(11)----------------------------|
D|---------4---4-----------11------|-(11)----------------------------|
A|-------------------------9-------|-(9)-----------------------------|
E|---------------------------------|---------------------------------|
|
|Guitar 2
|
E|---------------------------------|---------------------------------|
B|-------------------------11------|-(11)----------------------------|
G|-------------------------11------|-(11)----------------------------|
D|-------------------------11------|-(11)----------------------------|
A|-2---1-------------------9-------|-(9)-----------------------------|
E|---------2---2-------------------|---------------------------------|

|
|Guitar 1
|
E|---------------------------------|---------------------------------|
B|---------------------------------|---------------------------------|
G|-3---4---4---4---3-------3---4---|-4---4---3-------3---4---4---4---|
D|---------------------4-----------|-------------4-------------------|
A|---------------------------------|---------------------------------|
E|---------------------------------|---------------------------------|
|
|Guitar 2
|
E|---------------------------------|---------------------------------|
B|---------------------------------|---------------------------------|
G|---------------------------------|---------------------------------|
D|---------------------------------|---------------------------------|
A|-1---2---2---2---1-------1---2---|-2---2---1-------1---2---2---2---|
E|---------------------2-----------|-------------2-------------------|

|                                 |
|Guitar 1                         |Both Guitars
|                                 |
E|---------------------------------|---------------------------------|
B|-------------------------11------|-(11)----------------11--11--11--|
G|-4---3-------------------11------|-(11)----------------11--11--11--|
D|---------4---4-----------11------|-(11)----------------11--11--11--|
A|-------------------------9-------|-(9)-----------------9---9---9---|
E|---------------------------------|---------------------------------|
|
|Guitar 2
|
E|---------------------------------|
B|-------------------------11------|
G|-------------------------11------|
D|-------------------------11------|
A|-2---1-------------------9-------|
E|---------2---2-------------------|

|
|Both Guitars
|
E|---------------------------------|---------------------------------|
B|-11-9---------------------------|-(9)-----------------------------|
G|-11-9---------------------------|-(9)-----------------------------|
D|-11-9---------------------------|-(9)-----------------------------|
A|-9--7---------------------------|-(7)-----------------------------|
E|---------------------------------|---------------------------------|

|
|Both Guitars
|
E|-------------4-----------6-------|---------------------------------|
B|-5-----------5-----------7-------|---------------------------------|
G|-4-------------------------------|-----4---3-------4---3-----------|
D|---------------------------------|-------------4-----------4-------|
A|---------------------------------|---------------------------------|
E|---------------------------------|---------------------------------|

|
|Both Guitars
|
E|---------------------------------|---------------------------------|
B|-9-/-11--------------------------|-(11)----------------------------|
G|-9-/-11--------------------------|-(11)----------------------------|
D|-9-/-11--------------------------|-(11)----------------------------|
A|-7-/-9---------------------------|-(9)-----------------------------|
E|---------------------------------|---------------------------------|

|
|Both Guitars
|
E|---------------------------------|---------------------------------|
B|-(11)----------------------------|-(11)----------------------------|
G|-(11)----------------------------|-(11)----------------------------|
D|-(11)----------------------------|-(11)----------------------------|
A|-(9)-----------------------------|-(9)-----------------------------|
E|---------------------------------|---------------------------------|

|
|Guitar 1
|
E|---------------------------------|---------------------------------|
B|---------------------------------|---------------------------------|
G|-3---4---4---4---3-------3---4---|-4---4---3-------3---4---4---4---|
D|---------------------4-----------|-------------4-------------------|
A|---------------------------------|---------------------------------|
E|---------------------------------|---------------------------------|
|
|Guitar 2
|
E|---------------------------------|---------------------------------|
B|---------------------------------|---------------------------------|
G|---------------------------------|---------------------------------|
D|---------------------------------|---------------------------------|
A|-1---2---2---2---1-------1---2---|-2---2---1-------1---2---2---2---|
E|---------------------2-----------|-------------2-------------------|

|
|Guitar 1
|
E|---------------------------------|---------------------------------|
B|-------------------------11------|-(11)----------------------------|
G|-4---3-------------------11------|-(11)----------------------------|
D|---------4---4-----------11------|-(11)----------------------------|
A|-------------------------9-------|-(9)-----------------------------|
E|---------------------------------|---------------------------------|
|
|Guitar 2
|
E|---------------------------------|---------------------------------|
B|-------------------------11------|-(11)----------------------------|
G|-------------------------11------|-(11)----------------------------|
D|-------------------------11------|-(11)----------------------------|
A|-2---1-------------------9-------|-(9)-----------------------------|
E|---------2---2-------------------|---------------------------------|

|
|Guitar 1
|
E|---------------------------------|---------------------------------|
B|---------------------------------|---------------------------------|
G|-3---4---4---4---3-------3---4---|-4---4---3-------3---4---4---4---|
D|---------------------4-----------|-------------4-------------------|
A|---------------------------------|---------------------------------|
E|---------------------------------|---------------------------------|
|
|Guitar 2
|
E|---------------------------------|---------------------------------|
B|---------------------------------|---------------------------------|
G|---------------------------------|---------------------------------|
D|---------------------------------|---------------------------------|
A|-1---2---2---2---1-------1---2---|-2---2---1-------1---2---2---2---|
E|---------------------2-----------|-------------2-------------------|

|                                 |
|Guitar 1                         |Both Guitars
|                                 |
E|---------------------------------|---------------------------------|
B|-------------------------11------|-(11)----------------11--11--11--|
G|-4---3-------------------11------|-(11)----------------11--11--11--|
D|---------4---4-----------11------|-(11)----------------11--11--11--|
A|-------------------------9-------|-(9)-----------------9---9---9---|
E|---------------------------------|---------------------------------|
|
|Guitar 2
|
E|---------------------------------|
B|-------------------------11------|
G|-------------------------11------|
D|-------------------------11------|
A|-2---1-------------------9-------|
E|---------2---2-------------------|

|
|Both Guitars
|
E|---------------------------------|---------------------------------|
B|-11-9---------------------------|-(9)-----------------------------|
G|-11-9---------------------------|-(9)-----------------------------|
D|-11-9---------------------------|-(9)-----------------------------|
A|-9--7---------------------------|-(7)-----------------------------|
E|---------------------------------|---------------------------------|

|
|Both Guitars
|
E|-------------4-----------6-------|-7-----------6-------------------|
B|-5-----------5-----------7-------|-9-----------7-----------5-------|
G|-4-------------------------------|-------------------------4-------|
D|---------------------------------|---------------------------------|
A|---------------------------------|---------------------------------|
E|---------------------------------|---------------------------------|

|
|Both Guitars
|
E|---------------------------------|---------------------------------|
B|-9-/-11--------------------------|-(11)----------------------------|
G|-9-/-11--------------------------|-(11)----------------------------|
D|-9-/-11--------------------------|-(11)----------------------------|
A|-7-/-9---------------------------|-(9)-----------------------------|
E|---------------------------------|---------------------------------|

|
|Both Guitars
|
E|---------------------------------|---------------------------------|
B|-(11)----------------------------|-(11)----------------------------|
G|-(11)----------------------------|-(11)----------------------------|
D|-(11)----------------------------|-(11)----------------------------|
A|-(9)-----------------------------|-(9)-----------------------------|
E|---------------------------------|---------------------------------|


CHORUS
|
|Both Guitars
|
E|---------------------------------|---------------------------------|
B|---------------------------------|---------------------------------|
G|-10----------12----------10------|-----12----------14--------------|
D|-10----------12----------10------|-----12----------14--------------|
A|-8-----------10----------8-------|-----10----------12--------------|
E|---------------------------------|---------------------------------|

|
|Both Guitars
|
E|---------------------------------|---------------------------------|
B|---------------------------------|---------------------------------|
G|-8-----------10----------8-------|-----10----------12--------------|
D|-8-----------10----------8-------|-----10----------12--------------|
A|-6-----------8-----------6-------|-----8-----------10--------------|
E|---------------------------------|---------------------------------|

|
|Both Guitars
|
E|---------------------------------|---------------------------------|
B|---------------------------------|---------------------------------|
G|-5-/-7-------7-----------7-------|-----7-----------7--5-----------|
D|-5-/-7-------7-----------7-------|-----7-----------7--5-----------|
A|-3-/-5---5---5---5---5---5---5---|-5---5---5---5---5--3-----------|
E|---------------------------------|---------------------------------|

|
|Both Guitars
|
E|---------------------------------|---------------------------------|
B|---------------------------------|---------------------------------|
G|-5-/-7-------7-----------7-------|-----7-----------7--5-----------|
D|-5-/-7-------7-----------7-------|-----7-----------7--5-----------|
A|-3-/-5---5---5---5---5---5---5---|-5---5---5---5---5--3-----------|
E|---------------------------------|---------------------------------|

|
|Both Guitars
|
E|---------------------------------|---------------------------------|
B|---------------------------------|---------------------------------|
G|-10----------12----------10------|-----12----------14--------------|
D|-10----------12----------10------|-----12----------14--------------|
A|-8-----------10----------8-------|-----10----------12--------------|
E|---------------------------------|---------------------------------|

|
|Both Guitars
|
E|---------------------------------|---------------------------------|
B|---------------------------------|---------------------------------|
G|-8-----------10----------8-------|-----10----------12--------------|
D|-8-----------10----------8-------|-----10----------12--------------|
A|-6-----------8-----------6-------|-----8-----------10--------------|
E|---------------------------------|---------------------------------|

|
|Both Guitars
|
E|---------------------------------|---------------------------------|
B|---------------------------------|---------------------------------|
G|-5-/-7-------7-----------7-------|-----7-----------7--5-----------|
D|-5-/-7-------7-----------7-------|-----7-----------7--5-----------|
A|-3-/-5---5---5---5---5---5---5---|-5---5---5---5---5--3-----------|
E|---------------------------------|---------------------------------|

|
|Both Guitars
|
E|---------------------------------|---------------------------------|
B|---------------------------------|---------------------------------|
G|-5-/-7-------7-----------7-------|-----7-----------7--5-----------|
D|-5-/-7-------7-----------7-------|-----7-----------7--5-----------|
A|-3-/-5---5---5---5---5---5---5---|-5---5---5---5---5--3-----------|
E|---------------------------------|---------------------------------|

|
|Both Guitars
|
E|---------------------------------|---------------------------------|
B|---------------------------------|---------------------------------|
G|-12----------14----------12------|-----14--------------------------|
D|-12----------14----------12------|-----14----------9---------------|
A|-10----------12----------10------|-----12----------9---------------|
E|---------------------------------|-----------------7---------------|

|
|Both Guitars
|
E|---------------------------------|---------------------------------|
B|---------------------------------|---------------------------------|
G|-10----------12----------10------|-----12----------14--------------|
D|-10----------12----------10------|-----12----------14--------------|
A|-8-----------10----------8-------|-----10----------12--------------|
E|---------------------------------|---------------------------------|

|
|Both Guitars
|
E|---------------------------------|---------------------------------|
B|---------------------------------|---------------------------------|
G|-7-/-9-------9-----------9-------|-----9-----------9--7-----------|
D|-7-/-9-------9-----------9-------|-----9-----------9--7-----------|
A|-5-/-7---7---7---7---7---7---7---|-7---7---7---7---7--5-----------|
E|---------------------------------|---------------------------------|

|
|Both Guitars
|
E|---------------------------------|---------------------------------|
B|---------------------------------|---------------------------------|
G|-7---9-------9-----------9-------|-----9-----------9---7-----------|
D|-7---9-------9-----------9-------|-----9-----------9---7-----------|
A|-5-/-7---7---7---7---7---7---7---|-7---7---7---7---7--5-----------|
E|---------------------------------|---------------------------------|

|
|Both Guitars
|
E|---------------------------------|---------------------------------|
B|---------------------------------|---------------------------------|
G|-12----------14----------12------|-----14--------------------------|
D|-12----------14----------12------|-----14----------9---------------|
A|-10----------12----------10------|-----12----------9---------------|
E|---------------------------------|-----------------7---------------|

|
|Both Guitars
|
E|---------------------------------|---------------------------------|
B|---------------------------------|---------------------------------|
G|-10----------12----------10------|-----12----------14--------------|
D|-10----------12----------10------|-----12----------14--------------|
A|-8-----------10----------8-------|-----10----------12--------------|
E|---------------------------------|---------------------------------|

|
|Both Guitars
|
E|---------------------------------|---------------------------------|
B|---------------------------------|---------------------------------|
G|-7-/-9-------9-----------9-------|-----9-----------9--7-----------|
D|-7-/-9-------9-----------9-------|-----9-----------9--7-----------|
A|-5-/-7---7---7---7---7---7---7---|-7---7---7---7---7--5-----------|
E|---------------------------------|---------------------------------|

|
|Both Guitars
|
E|---------------------------------|---------------------------------|
B|---------------------------------|---------------------------------|
G|-7---9-------9-----------9-------|-----9-----------9---7-----------|
D|-7---9-------9-----------9-------|-----9-----------9---7-----------|
A|-5-/-7---7---7---7---7---7---7---|-7---7---7---7---7--5-----------|
E|---------------------------------|---------------------------------|


INTERLUDE
|
|Guitar 1
|
E|---------------------------------|---------------------------------|
B|---------------------------------|---------------------------------|
G|-------------3-----------5-------|-----3-----------6---5---3-------|
D|-6---4---4-------4---4-------3---|-3-------3---3---------------3---|
A|---------------------------------|---------------------------------|
E|---------------------------------|---------------------------------|
|
|Guitar 2
|
E|---------------------------------|---------------------------------|
B|---------------------------------|---------------------------------|
G|---------------------------------|---------------------------------|
D|---------------------------------|---------------------------------|
A|-------------1-----------3-------|-----1-----------4---3---1-------|
E|-4---2---2-------2---2-------1---|-1-------1---1---------------1---|

|
|Guitar 1
|
E|---------------------------------|---------------------------------|
B|---------------------------------|---------------------------------|
G|-------------3-----------5-------|-----3-----------6---5---3-------|
D|-6---3---3-------3---3-------3---|-3-------3---3-------------------|
A|---------------------------------|---------------------------------|
E|---------------------------------|---------------------------------|
|
|Guitar 2
|
E|---------------------------------|---------------------------------|
B|---------------------------------|---------------------------------|
G|---------------------------------|---------------------------------|
D|---------------------------------|---------------------------------|
A|-------------1-----------3-------|-----1-----------4---3---1-------|
E|-4---1---1-------1---1-------1---|-1-------1---1-------------------|

|
|Guitar 1
|
E|---------------------------------|---------------------------------|
B|---------------------------------|---------------------------------|
G|-------------3-----------5-------|-----3-----------6---5---3-------|
D|-6---4---4-------4---4-------3---|-3-------3---3---------------3---|
A|---------------------------------|---------------------------------|
E|---------------------------------|---------------------------------|
|
|Guitar 2
|
E|---------------------------------|---------------------------------|
B|---------------------------------|---------------------------------|
G|---------------------------------|---------------------------------|
D|---------------------------------|---------------------------------|
A|-------------1-----------3-------|-----1-----------4---3---1-------|
E|-4---2---2-------2---2-------1---|-1-------1---1---------------1---|


|
|Guitar 1
|
E|---------------------------------|---------------------------------|
B|---------------------------------|---------------------------------|
G|-------------3-----------5-------|-----3-----------6---5---3-------|
D|-6---3---3-------3---3-------3---|-4-------4---4---------------4---|
A|---------------------------------|---------------------------------|
E|---------------------------------|---------------------------------|
|
|Guitar 2
|
E|---------------------------------|---------------------------------|
B|---------------------------------|---------------------------------|
G|---------------------------------|---------------------------------|
D|---------------------------------|---------------------------------|
A|-------------1-----------3-------|-----1-----------4---3---1-------|
E|-4---1---1-------1---1-------1---|-2-------2---2---------------2---|


GUITAR SOLO
|
|Guitar 1
|
E|---------------------------------|---------------------------------|
B|---------------------------------|---------------------------------|
G|---------------------------------|---------------------------------|
D|-----------------4---------------|-----------------4-----------4---|
A|-(4)-6---6---6-------6---6---6---|-4---6---6---6-------6-----------|
E|---------------------------------|---------------------------------|

|
|Guitar 1
|
E|---------------------------------|---------------------------------|
B|---------------------------------|---------------------------------|
G|---------------------------------|---------------------------------|
D|-----------------4-----------4---|-----4-------4---6---4-----------|
A|-(4)-6---6---6-------6---6-------|-------------------------6---4---|
E|---------------------------------|---------------------------------|

|
|Guitar 1
|
E|---------------------------------|---------------------------------|
B|---------------------------------|---------------------------------|
G|---------------------------------|---------------------------------|
D|-----------------4---------------|-----------------4---------------|
A|-(4)-6---6---6-------6---6---6---|-4---6---6---6-------6-------4---|
E|---------------------------------|---------------------------------|

|
|Guitar 1
|
E|---------------------------------|---------------------------------|
B|---------------------------------|---------------------------------|
G|---------------------------------|---------------------------------|
D|-----------------4-----------4---|-----4-------4---6-p-4-------3---|
A|-(4)-6---6---6-------6---6-------|-------------------------6-------|
E|---------------------------------|---------------------------------|
|
|Guitar 2
|
|---------------------------------|
|---------------------------------|
|---------------------------------|
|---------------------------------|
|-----------------------------4---|
|---------------------------------|

|
|Guitar 1
|
E|---------------------------------|---------------------------------|
B|---------------------------------|---------------------------------|
G|-----------------3---------------|-----------------3---------------|
D|-3---4---4---4-------4---4---4---|-3---4---4---4-------4-------3---|
A|---------------------------------|---------------------------------|
E|---------------------------------|---------------------------------|
|
|Guitar 2
|
E|---------------------------------|---------------------------------|
B|---------------------------------|---------------------------------|
G|---------------------------------|---------------------------------|
D|-----------------4---------------|-----------------4---------------|
A|-(4)-6---6---6-------6---6---6---|-4---6---6---6-------6-------4---|
E|---------------------------------|---------------------------------|

|
|Guitar 1
|
E|---------------------------------|---------------------------------|
B|---------------------------------|---------------------------------|
G|-----------------3-----------3---|-----3-------3---4-p-3-----------|
D|-(3)-4---4---4-------4---4-------|-------------------------4---3---|
A|---------------------------------|---------------------------------|
E|---------------------------------|---------------------------------|
|
|Guitar 2
|
E|---------------------------------|---------------------------------|
B|---------------------------------|---------------------------------|
G|---------------------------------|---------------------------------|
D|-----------------4-----------4---|-----4-------4---6---4-----------|
A|-(4)-6---6---6-------6---6-------|-------------------------6---4---|
E|---------------------------------|---------------------------------|

|
|Guitar 1
|
E|---------------------------------|---------------------------------|
B|---------------------------------|---------------------------------|
G|-----------------3---------------|-----------------3---------------|
D|-(3)-4---4---4-------4---4---4---|-3---4---4---4-------4-------3---|
A|---------------------------------|---------------------------------|
E|---------------------------------|---------------------------------|
|
|Guitar 2
|
E|---------------------------------|---------------------------------|
B|---------------------------------|---------------------------------|
G|---------------------------------|---------------------------------|
D|-----------------4---------------|-----------------4---------------|
A|-(4)-6---6---6-------6---6---6---|-4---6---6---6-------6-------4---|
E|---------------------------------|---------------------------------|

|
|Guitar 1
|
E|---------------------------------|---------------------------------|
B|---------------------------------|---------------------------------|
G|-----------------3-----------3---|-----3-------3---4-p-3-----------|
D|-(3)-4---4---4-------4---4-------|-------------------------4-------|
A|---------------------------------|-----------------------------6---|
E|---------------------------------|---------------------------------|
|
|Guitar 2
|
E|---------------------------------|---------------------------------|
B|---------------------------------|---------------------------------|
G|---------------------------------|---------------------------------|
D|-----------------4-----------4---|-----4-------4---6---4-----------|
A|-(4)-6---6---6-------6---6-------|-------------------------6---4---|
E|---------------------------------|---------------------------------|

|
|Guitar 1
|
E|---------------------------------|---------------------------------|
B|---------------------------------|---------------------------------|
G|---------------------------------|---------------------------------|
D|-----3---3---3-------3---3---3---|-----3---3---3---4---3-----------|
A|-(6)-------------6---------------|-6---------------------------6---|
E|---------------------------------|---------------------------------|

|
|Guitar 1
|
E|---------------------------------|---------------------------------|
B|---------------------------------|---------------------------------|
G|---------------------------------|---------------------------------|
D|-----3---3---3-------3---3---3---|-4---4---4---4---6---4---3-------|
A|-(6)-------------6---------------|-----------------------------6---|
E|---------------------------------|---------------------------------|

|
|Guitar 1
|
E|---------------------------------|---------------------------------|
B|---------------------------------|---------------------------------|
G|---------------------------------|---------------------------------|
D|-----3---3---3-------3---3---3---|-----3---3---3---4---3-----------|
A|-(6)-------------6---------------|-6---------------------------6---|
E|---------------------------------|---------------------------------|

|
|Guitar 1
|
E|---------------------------------|---------------------------------|
B|---------------------------------|---------------------------------|
G|---------------------------------|---------------------------------|
D|-----3---3---3-------3---3---3---|-4---4---4---4---6---4---3-------|
A|-(6)-------------6---------------|-----------------------------6---|
E|---------------------------------|---------------------------------|


INTERLUDE
|
|Guitar 1
|
E|---------------------------------|---------------------------------|
B|---------------------------------|---------------------------------|
G|-------------3-----------5-------|-----3-----------6---5---3-------|
D|-6---4---4-------4---4-------3---|-3-------3---3---------------3---|
A|---------------------------------|---------------------------------|
E|---------------------------------|---------------------------------|
|
|Guitar 2
|
E|---------------------------------|---------------------------------|
B|---------------------------------|---------------------------------|
G|---------------------------------|---------------------------------|
D|---------------------------------|---------------------------------|
A|-------------1-----------3-------|-----1-----------4---3---1-------|
E|-4---2---2-------2---2-------1---|-1-------1---1---------------1---|

|
|Guitar 1
|
E|---------------------------------|---------------------------------|
B|---------------------------------|---------------------------------|
G|-------------3-----------5-------|-----3-----------6---5---3-------|
D|-6---3---3-------3---3-------3---|-3-------3---3-------------------|
A|---------------------------------|---------------------------------|
E|---------------------------------|---------------------------------|
|
|Guitar 2
|
E|---------------------------------|---------------------------------|
B|---------------------------------|---------------------------------|
G|---------------------------------|---------------------------------|
D|---------------------------------|---------------------------------|
A|-------------1-----------3-------|-----1-----------4---3---1-------|
E|-4---1---1-------1---1-------1---|-1-------1---1-------------------|

|
|Guitar 1
|
E|---------------------------------|---------------------------------|
B|---------------------------------|---------------------------------|
G|-------------3-----------5-------|-----3-----------6---5---3-------|
D|-6---4---4-------4---4-------3---|-3-------3---3---------------3---|
A|---------------------------------|---------------------------------|
E|---------------------------------|---------------------------------|
|
|Guitar 2
|
E|---------------------------------|---------------------------------|
B|---------------------------------|---------------------------------|
G|---------------------------------|---------------------------------|
D|---------------------------------|---------------------------------|
A|-------------1-----------3-------|-----1-----------4---3---1-------|
E|-4---2---2-------2---2-------1---|-1-------1---1---------------1---|

|
|Guitar 1
|
E|---------------------------------|---------------------------------|
B|---------------------------------|---------------------------------|
G|-------------3-----------5-------|-----3-----------6---5---3-------|
D|-6---3---3-------3---3-------3---|-3-------3---3-------------------|
A|---------------------------------|---------------------------------|
E|---------------------------------|---------------------------------|
|
|Guitar 2
|
E|---------------------------------|---------------------------------|
B|---------------------------------|---------------------------------|
G|---------------------------------|---------------------------------|
D|---------------------------------|---------------------------------|
A|-------------1-----------3-------|-----1-----------4---3---1-------|
E|-4---1---1-------1---1-------1---|-1-------1---1-------------------|


2nd VERSE
|
|Guitar 1
|
E|---------------------------------|---------------------------------|
B|---------------------------------|---------------------------------|
G|-3---4---4---4---3-------3---4---|-4---4---3-------3---4---4---4---|
D|---------------------4-----------|-------------4-------------------|
A|---------------------------------|---------------------------------|
E|---------------------------------|---------------------------------|
|
|Guitar 2
|
E|---------------------------------|---------------------------------|
B|---------------------------------|---------------------------------|
G|---------------------------------|---------------------------------|
D|---------------------------------|---------------------------------|
A|-1---2---2---2---1-------1---2---|-2---2---1-------1---2---2---2---|
E|---------------------2-----------|-------------2-------------------|

|
|Guitar 1
|
E|---------------------------------|---------------------------------|
B|-------------------------11------|-(11)----------------------------|
G|-4---3-------------------11------|-(11)----------------------------|
D|---------4---4-----------11------|-(11)----------------------------|
A|-------------------------9-------|-(9)-----------------------------|
E|---------------------------------|---------------------------------|
|
|Guitar 2
|
E|---------------------------------|---------------------------------|
B|-------------------------11------|-(11)----------------------------|
G|-------------------------11------|-(11)----------------------------|
D|-------------------------11------|-(11)----------------------------|
A|-2---1-------------------9-------|-(9)-----------------------------|
E|---------2---2-------------------|---------------------------------|

|
|Guitar 1
|
E|---------------------------------|---------------------------------|
B|---------------------------------|---------------------------------|
G|-3---4---4---4---3-------3---4---|-4---4---3-------3---4---4---4---|
D|---------------------4-----------|-------------4-------------------|
A|---------------------------------|---------------------------------|
E|---------------------------------|---------------------------------|
|
|Guitar 2
|
E|---------------------------------|---------------------------------|
B|---------------------------------|---------------------------------|
G|---------------------------------|---------------------------------|
D|---------------------------------|---------------------------------|
A|-1---2---2---2---1-------1---2---|-2---2---1-------1---2---2---2---|
E|---------------------2-----------|-------------2-------------------|

|                                 |
|Guitar 1                         |Both Guitars
|                                 |
E|---------------------------------|---------------------------------|
B|-------------------------11------|-(11)----------------11--11--11--|
G|-4---3-------------------11------|-(11)----------------11--11--11--|
D|---------4---4-----------11------|-(11)----------------11--11--11--|
A|-------------------------9-------|-(9)-----------------9---9---9---|
E|---------------------------------|---------------------------------|
|
|Guitar 2
|
E|---------------------------------|
B|-------------------------11------|
G|-------------------------11------|
D|-------------------------11------|
A|-2---1-------------------9-------|
E|---------2---2-------------------|

|
|Both Guitars
|
E|---------------------------------|---------------------------------|
B|-11-9---------------------------|-(9)-----------------------------|
G|-11-9---------------------------|-(9)-----------------------------|
D|-11-9---------------------------|-(9)-----------------------------|
A|-9--7---------------------------|-(7)-----------------------------|
E|---------------------------------|---------------------------------|

|
|Both Guitars
|
E|-------------4-----------6-------|---------------------------------|
B|-5-----------5-----------7-------|---------------------------------|
G|-4-------------------------------|-----4---3-------4---3-----------|
D|---------------------------------|-------------4-----------4-------|
A|---------------------------------|---------------------------------|
E|---------------------------------|---------------------------------|

|
|Both Guitars
|
E|---------------------------------|---------------------------------|
B|-9-/-11--------------------------|-(11)----------------------------|
G|-9-/-11--------------------------|-(11)----------------------------|
D|-9-/-11--------------------------|-(11)----------------------------|
A|-7-/-9---------------------------|-(9)-----------------------------|
E|---------------------------------|---------------------------------|

|
|Both Guitars
|
E|---------------------------------|---------------------------------|
B|-(11)----------------------------|-(11)----------------------------|
G|-(11)----------------------------|-(11)----------------------------|
D|-(11)----------------------------|-(11)----------------------------|
A|-(9)-----------------------------|-(9)-----------------------------|
E|---------------------------------|---------------------------------|

|
|Guitar 1
|
E|---------------------------------|---------------------------------|
B|---------------------------------|---------------------------------|
G|-3---4---4---4---3-------3---4---|-4---4---3-------3---4---4---4---|
D|---------------------4-----------|-------------4-------------------|
A|---------------------------------|---------------------------------|
E|---------------------------------|---------------------------------|
|
|Guitar 2
|
E|---------------------------------|---------------------------------|
B|---------------------------------|---------------------------------|
G|---------------------------------|---------------------------------|
D|---------------------------------|---------------------------------|
A|-1---2---2---2---1-------1---2---|-2---2---1-------1---2---2---2---|
E|---------------------2-----------|-------------2-------------------|

|
|Guitar 1
|
E|---------------------------------|---------------------------------|
B|-------------------------11------|-(11)----------------------------|
G|-4---3-------------------11------|-(11)----------------------------|
D|---------4---4-----------11------|-(11)----------------------------|
A|-------------------------9-------|-(9)-----------------------------|
E|---------------------------------|---------------------------------|
|
|Guitar 2
|
E|---------------------------------|---------------------------------|
B|-------------------------11------|-(11)----------------------------|
G|-------------------------11------|-(11)----------------------------|
D|-------------------------11------|-(11)----------------------------|
A|-2---1-------------------9-------|-(9)-----------------------------|
E|---------2---2-------------------|---------------------------------|

|
|Guitar 1
|
E|---------------------------------|---------------------------------|
B|---------------------------------|---------------------------------|
G|-3---4---4---4---3-------3---4---|-4---4---3-------3---4---4---4---|
D|---------------------4-----------|-------------4-------------------|
A|---------------------------------|---------------------------------|
E|---------------------------------|---------------------------------|
|
|Guitar 2
|
E|---------------------------------|---------------------------------|
B|---------------------------------|---------------------------------|
G|---------------------------------|---------------------------------|
D|---------------------------------|---------------------------------|
A|-1---2---2---2---1-------1---2---|-2---2---1-------1---2---2---2---|
E|---------------------2-----------|-------------2-------------------|

|                                 |
|Guitar 1                         |Both Guitars
|                                 |
E|---------------------------------|---------------------------------|
B|-------------------------11------|-(11)----------------11--11--11--|
G|-4---3-------------------11------|-(11)----------------11--11--11--|
D|---------4---4-----------11------|-(11)----------------11--11--11--|
A|-------------------------9-------|-(9)-----------------9---9---9---|
E|---------------------------------|---------------------------------|
|
|Guitar 2
|
E|---------------------------------|
B|-------------------------11------|
G|-------------------------11------|
D|-------------------------11------|
A|-2---1-------------------9-------|
E|---------2---2-------------------|

|
|Both Guitars
|
E|---------------------------------|---------------------------------|
B|-11-9---------------------------|-(9)-----------------------------|
G|-11-9---------------------------|-(9)-----------------------------|
D|-11-9---------------------------|-(9)-----------------------------|
A|-9--7---------------------------|-(7)-----------------------------|
E|---------------------------------|---------------------------------|

|
|Both Guitars
|
E|-------------4-----------6-------|-7-----------6-------------------|
B|-5-----------5-----------7-------|-9-----------7-----------5-------|
G|-4-------------------------------|-------------------------4-------|
D|---------------------------------|---------------------------------|
A|---------------------------------|---------------------------------|
E|---------------------------------|---------------------------------|

|
|Both Guitars
|
E|---------------------------------|---------------------------------|
B|-9-/-11--------------------------|-(11)----------------------------|
G|-9-/-11--------------------------|-(11)----------------------------|
D|-9-/-11--------------------------|-(11)----------------------------|
A|-7-/-9---------------------------|-(9)-----------------------------|
E|---------------------------------|---------------------------------|

|
|Both Guitars
|
E|---------------------------------|---------------------------------|
B|-(11)----------------------------|-(11)----------------------------|
G|-(11)----------------------------|-(11)----------------------------|
D|-(11)----------------------------|-(11)----------------------------|
A|-(9)-----------------------------|-(9)-----------------------------|
E|---------------------------------|---------------------------------|


CHORUS
|
|Both Guitars
|
E|---------------------------------|---------------------------------|
B|---------------------------------|---------------------------------|
G|-10----------12----------10------|-----12----------14--------------|
D|-10----------12----------10------|-----12----------14--------------|
A|-8-----------10----------8-------|-----10----------12--------------|
E|---------------------------------|---------------------------------|

|
|Both Guitars
|
E|---------------------------------|---------------------------------|
B|---------------------------------|---------------------------------|
G|-8-----------10----------8-------|-----10----------12--------------|
D|-8-----------10----------8-------|-----10----------12--------------|
A|-6-----------8-----------6-------|-----8-----------10--------------|
E|---------------------------------|---------------------------------|

|
|Both Guitars
|
E|---------------------------------|---------------------------------|
B|---------------------------------|---------------------------------|
G|-5-/-7-------7-----------7-------|-----7-----------7--5-----------|
D|-5-/-7-------7-----------7-------|-----7-----------7--5-----------|
A|-3-/-5---5---5---5---5---5---5---|-5---5---5---5---5--3-----------|
E|---------------------------------|---------------------------------|

|
|Both Guitars
|
E|---------------------------------|---------------------------------|
B|---------------------------------|---------------------------------|
G|-5-/-7-------7-----------7-------|-----7-----------7--5-----------|
D|-5-/-7-------7-----------7-------|-----7-----------7--5-----------|
A|-3-/-5---5---5---5---5---5---5---|-5---5---5---5---5--3-----------|
E|---------------------------------|---------------------------------|

|
|Both Guitars
|
E|---------------------------------|---------------------------------|
B|---------------------------------|---------------------------------|
G|-10----------12----------10------|-----12----------14--------------|
D|-10----------12----------10------|-----12----------14--------------|
A|-8-----------10----------8-------|-----10----------12--------------|
E|---------------------------------|---------------------------------|

|
|Both Guitars
|
E|---------------------------------|---------------------------------|
B|---------------------------------|---------------------------------|
G|-8-----------10----------8-------|-----10----------12--------------|
D|-8-----------10----------8-------|-----10----------12--------------|
A|-6-----------8-----------6-------|-----8-----------10--------------|
E|---------------------------------|---------------------------------|

|
|Both Guitars
|
E|---------------------------------|---------------------------------|
B|---------------------------------|---------------------------------|
G|-5-/-7-------7-----------7-------|-----7-----------7--5-----------|
D|-5-/-7-------7-----------7-------|-----7-----------7--5-----------|
A|-3-/-5---5---5---5---5---5---5---|-5---5---5---5---5--3-----------|
E|---------------------------------|---------------------------------|

|
|Both Guitars
|
E|---------------------------------|---------------------------------|
B|---------------------------------|---------------------------------|
G|-5-/-7-------7-----------7-------|-----7-----------7--5-----------|
D|-5-/-7-------7-----------7-------|-----7-----------7--5-----------|
A|-3-/-5---5---5---5---5---5---5---|-5---5---5---5---5--3-----------|
E|---------------------------------|---------------------------------|

|
|Both Guitars
|
E|---------------------------------|---------------------------------|
B|---------------------------------|---------------------------------|
G|-12----------14----------12------|-----14--------------------------|
D|-12----------14----------12------|-----14----------9---------------|
A|-10----------12----------10------|-----12----------9---------------|
E|---------------------------------|-----------------7---------------|

|
|Both Guitars
|
E|---------------------------------|---------------------------------|
B|---------------------------------|---------------------------------|
G|-10----------12----------10------|-----12----------14--------------|
D|-10----------12----------10------|-----12----------14--------------|
A|-8-----------10----------8-------|-----10----------12--------------|
E|---------------------------------|---------------------------------|

|
|Both Guitars
|
E|---------------------------------|---------------------------------|
B|---------------------------------|---------------------------------|
G|-7-/-9-------9-----------9-------|-----9-----------9--7-----------|
D|-7-/-9-------9-----------9-------|-----9-----------9--7-----------|
A|-5-/-7---7---7---7---7---7---7---|-7---7---7---7---7--5-----------|
E|---------------------------------|---------------------------------|

|
|Both Guitars
|
E|---------------------------------|---------------------------------|
B|---------------------------------|---------------------------------|
G|-7---9-------9-----------9-------|-----9-----------9---7-----------|
D|-7---9-------9-----------9-------|-----9-----------9---7-----------|
A|-5-/-7---7---7---7---7---7-

Вверх

The Clairvoyant

THE CLAIRVOYANT - IRON MAIDEN


BASS [solo intro]
G------------------|-----------------|------------------|------------------
D------7-----7-----|-----5-----5-----|-4----------------|------------------
A--5-5---5-5---5-5-|-5-5---5-5---5-5-|---5-5-5--5-5-5-5-|-5-5-5-5--5-5-5-5-
E------------------|-----------------|------------------|------------------

Guitar 1 [damped]    [% = repeat last measure]
E-------------------|---------|---------|---------|
B-------------------|---------|---------|---------|
G-------------------|---*-/---|---*-/---|---*-/---|
D-------------------|----/----|----/----|----/----|
A--5-5-5-5--5-5-5-5-|---/-*---|---/-*---|---/-*---|
E-------------------|---------|---------|---------|

D!
E------------------|-----------------|------------------|------------------
B------------------|-----------------|------------------|------------------
G------------------|-----------------|------------------|------------------
D--7--5----7-------|-7/9--7--5-------|--7---------------|------------------
A------------------|-----------------|-----5------------|------------------
E------------------|-----------------|------------------|------------------

D!
E------------------|-----------------|------------------|------------------
B------------------|-----------------|------------------|------------------
G------------------|-----------------|------------------|------------------
D--7--5----7-------|-7/9--7--5-------|--7--7------------|---5-5-5-5p4---5--
A------------------|-----------------|------------------|-------------7----
E------------------|-----------------|------------------|------------------

[riff 1]
C!
E------------------|-----------------|------------------|------------------
B------------------|-----------------|------------------|------------------
G------------------|-----------------|------------------|------------------
D------------------|-5-5-5-5p4---5---|------------------|---5-5-5-5p4-7-5--
A------------------|-----------7-----|------------------|------------------
E------------------|-----------------|------------------|------------------

D!
E------------------|-----------------|------------------|------------------
B------------------|-----------------|------------------|------------------
G------------------|-----------------|------------------|------------------
D--4---------------|-5-5-5-5p4-7-5---|--4---------------|------------------
A----5-------------|-----------------|-----5------------|------------------
E------------------|-----------------|------------------|------------------

[end riff 1]
D!
E------------------|-----------------|------------------|------------------
B------------------|-----------------|------------------|------------------
G--14--12--14------|-14/16---14--12--|--14--------------|------------------
D------------------|-----------------|-------12---------|------------------
A------------------|-----------------|------------------|------------------
E------------------|-----------------|------------------|------------------

D!
E------------------|-----------------|------------------|------------------
B------------------|-----------------|-------15---------|------------------
G--14--12--14------|-14/16--14--12---|--14--------------|------------------
D------------------|-----------------|------------------|--5-5-5-5p4---5---
A------------------|-----------------|------------------|------------7-----
E------------------|-----------------|------------------|------------------

[play riff 1]
[to D minor]

[riff 2]
D!                                   Cadd9!
E------------------|--5--------------|------------------|--3---------------
B-----6------------|-----------------|-----3------------|------------------
G--7-----6---------|-----------------|--5-----5---------|------------------
D------------------|-----------------|------------------|------------------
A------------------|-----------------|------------------|------------------
E------------------|-----------------|------------------|------------------

Gm add9                              Bb!                C!
E------------------|-----------------|------------------|------------------
B------------------|---3-------------|------------------|------------------
G-----3------------|-----------------|--------3---------|--------5---------
D--5-----5---------|-----------------|-----3------------|-----5------------
A------------------|-----------------|--1---------------|--3---------------
E------------------|-----------------|------------------|------------------

[play riff 2]
Dm /  /    /        / /     /  /  Cadd9! / / /  / / /
Feel the sweat  break on my brow
Gmadd9!/ / / / / /   / Bb! /   /     /  C!  /     / /
Is it me   or is it shadows that are dancing on the walls ?

Dm /  /    /        / /     /  /  Cadd9! / / /  / / /
Is it  a  dream or    is it now
Gmadd9!/   /   / /  /    /   / Bb! /   /     /  C!  /     /  /
Is  this a vision or  nor-mali- ty    I  see be-  fore my

Eyes.
[riff 3]
Dm/A              Gm/Bb              C/D (bass G)      Dm/A
E------------------|-----8------10---|------------------|------------------
B--10--8------10---|-11--------------|--8-----------8---|-10--8------------
G------------------|-----------------|-----10-----------|-------------10---
D------------------|-----------------|------------------|------------------
A------------------|-----------------|------------------|------------------
E------------------|-----------------|------------------|------------------

Dm/A              Gm/Bb              C/D (bass plays G)
E------------------|-----8------10---|--3---------------|------------------
B--10--8------10---|-11--------------|--5---------------|------------------
G------------------|-----------------|--5---------------|------------------
D------------------|-----------------|--0---------------|------------------
A------------------|-----------------|------------------|------------------
E------------------|-----------------|------------------|------------------

[repeat riff 2]
Dm                         Cadd9!
I wonder why I wonder how,
Gm add9                   Bb!              C!
that it seems that the    power is getting stronger evry day

Dm                         Cadd9!
I feel a strength an inner fire,
Gm add9                   Bb!              C!
but I am scared I wont be able   to  con-  trol it anymore

[repeat riff 3]
[riff 4]
Cm/G              Fm/Ab             Bb/C (bass F)       Cm/G
E------------------|-----------------|------------------|------------------
B------------------|------11-----13--|------------------|------------------
G--12---10-----12--|-13--------------|-10-----------10--|--12--10----------
D------------------|-----------------|------13----------|--------------13--
A------------------|-----------------|------------------|------------------
E------------------|-----------------|------------------|------------------

Cm/G              Fm/Ab             Bb/C (bass F)      [slower]
E------------------|-----------------|------------------|------------------
B------------------|------11-----13--|------------------|------------------
G--12---10-----12--|-13--------------|-10---------------|-----------------
D------------------|-----------------|------------------|------------------
A------------------|-----------------|------------------|------------------
E------------------|-----------------|------------------|------------------
Theres a
D!      D!+5       C!/D    D!            D!         D!+5  C! D!
time to live and a time to die when its time to meet the ma-ker. Theres a
D!      D!+5       C!/D    D!            D!              D!+5     C! D!
time to live but isnt it strange that as soon as youre born youre dying.

[repeat "theres a..." but play the last measure the next riff]

D!    D!+5  C!   No chord [faster]
E------------------|-----------------|------------------|------------------
B------------------|-----------------|------------------|------------------
G--------------5-5-|-----4--0--5-----|------------------|------------------
D------------------|-----------------|------------------|------------------
A------------------|-----------------|------------------|------------------
E------------------|-----------------|------------------|------------------

[to E major]
[solo]

E!             ________
E--19^21-------19^21-21-21v19-|--17-16h17p16----16-----------------|
B-----------------------------|--------------19----19^21-----------|
G-----------------------------|------------------------------------|
D-----------------------------|------------------------------------|
A-----------------------------|------------------------------------|
E-----------------------------|------------------------------------|

E!
E-----------------------------|------------------------------------|
B--19-17----------------------|------------------------------------|
G--------20-18--16------------|------------------------------------|
D------------------19-18p19---|--18~~~~~~~~~-------------------14h-|
A-----------------------------|------------------------------------|
E-----------------------------|------------------------------------|

E!                            ___3___
E-----------------------------|------------------------------------|
B-----------------------------|--16h17p16--------------------------|
G-----14p13-----13-14-16/18---|-----------18-16-13-16-14p13-------|
D--16-------16----------------|------------------------------------|
A-----------------------------|------------------------------------|
E-----------------------------|------------------------------------|

E!
E-----------------------------|------------------------------------|
B-----------------------------|------------------------------------|
G-----------------------------|------------------------------------|
D--16-14-13-------------------|------------------------------------|
A-----------16--14-12-11-12---|--11~~~~~~~-------------------------|
E-----------------------------|------------------------------------|

E!__3___
E-----------------------------|------------------------------------|
B-----------------------------|------------------------------------|
G-/18-16-18-----16h18p16-----|------------------------------------|
D-----------------------------|-/19-18-19---18h19p18-----------16--|
A-----------------------------|------------------------------------|
E-----------------------------|------------------------------------|

E!
E------------------------16---|------------------------------------|
B---------------16-17-19------|--19^21~~~~~~~~~~-------------------|
G--------16-18----------------|------------------------------------|
D--18-19----------------------|------------------------------------|
A-----------------------------|------------------------------------|
E-----------------------------|------------------------------------|

E!                                                           ___
E-----------------------------------|--16h17p16----16-17-19-19^21--|
B--19^21v19-17-16h17p16----16h17h19-|-----------19-----------------|
G-----------------------18----------|------------------------------|
D-----------------------------------|------------------------------|
A-----------------------------------|------------------------------|
E-----------------------------------|------------------------------|

_________                     [guitar 2 play riff 5]
E---------v19--------17-------|--16h17p16-------------------------|
B-----------------------------|------------------------------------|
G-----------------------------|------------------------------------|
D-----------------------------|------------------------------------|
A-----------------------------|------------------------------------|
E-----------------------------|------------------------------------|

D!3
____3______   ____3____       ____3______   ____3____
E-----------------------------|------------------------------------|
B--20^22v20-17---20-----17----|------------------------------------|
G-------------------19--------|--19^21v19-16---19----16------------|
D-----------------------------|-------------------19---------------|
A-----------------------------|------------------------------------|
E-----------------------------|------------------------------------|
[guitar 1 let echo device repeat last 3 tones]

E-----------------------------|------------------------------------|
B-----------------------------|------------------------------------|
G--14^16v14-12---14----12-----|------------------------------------|
D-------------------14--------|-14---------------------------------|
A-----------------------------|------------------------------------|
E-----------------------------|------------------------------------|

E!              _____3_____                   ____3_____
E--17-16h17p16-----------16-17p-|-16h17p16---------------16--------|
B--------------17-----17--------|----------17--------17------------|
G------------------16-----------|----------------16----------------|
D-------------------------------|----------------------------------|
A-------------------------------|----------------------------------|
E-------------------------------|----------------------------------|

_________
E--19^21---------v19----17----|--16h17p16-------------------------|
B-----------------------------|------------------------------------|
G-----------------------------|------------------------------------|
D-----------------------------|------------------------------------|
A-----------------------------|------------------------------------|
E-----------------------------|------------------------------------|
[end solo and end riff 5]

[riff 5 for guitar 2]
E!                            D!
E-----------------------------|------------------------------------|
B-----------------------------|------------------------------------|
G-----------------------------|------------------------------------|
D-----7-7-7---7-6-------------|------------------------------------|
A-----------------7-5---------|------------------------------------|
E-----------------------------|------------------------------------|

E-----------------------------|------------------------------------|
B-----------------------------|------------------------------------|
G-----------------------------|------------------------------------|
D-----7-7-7---7-6-------------|------------------------------------|
A-----------------7-5---------|------------------------------------|
E-----------------------------|------------------------------------|

D!                            E!
E-----------------------------|------------------------------------|
B-----------------------------|------------------------------------|
G-----------------------------|------------------------------------|
D-----7-7-7---7-6-------------|------------------------------------|
A-----------------7-7---------|------------------------------------|
E-----------------------------|------------------------------------|

E-----------------------------|------------------|-----------------|
B-----------------------------|------------------|-----------------|
G-----------------------------|------------------|-----------------|
D-----7-7-7---7-6-------------|------------------|-----------------|
A-----------------7-7---------|------------------|-----------------|
E-----------------------------|------------------|-----------------|
[end riff 5]

[repeat riff 2]
Dm                         Cadd9!
Just by looking through your eyes,
Gm add9                   Bb!              C!
He could see the future penetrating right in through your mind

Dm                         Cadd9!
See the truth and see your lies
Gm add9                   Bb!              C!
But for all his power couldnt forsee his own demise

[repeat riff 3]
[repeat riff 4]
Theres a
D!      D!+5       C!/D    D!            D!         D!+5  C! D!
time to live and a time to die when its time to meet the ma-ker. Theres a
D!      D!+5       C!/D    D!            D!              D!+5     C! D!
time to live but isnt it strange that as soon as youre born youre dying.

[to C minor]
Theres a
C!      C!+5       Bb!/C   C!            C!         C!+5  Bb! C!
time to live and a time to die when its time to meet the ma-ker. Theres a
C!      C!+5       Bb!/C   C!            C!
time to live but isnt it strange that as soon as youre

born youre dying.
C!    C!+5  Bb!  No chord [faster]
E------------------|-----------------|
B------------------|-----------------|
G--------------3-3-|-----2-----3-----|
D------------------|--------3--------|
A------------------|-----------------|
E------------------|-----------------|

D!
E------------------|-----------------|------------------|------------------
B------------------|-----------------|------------------|------------------
G------------------|-----------------|------------------|------------------
D-/7--5----7-------|-7/9--7--5-------|-/7---------------|------------------
A------------------|-----------------|-----5~~~~~~~-----|------------------
E------------------|-----------------|------------------|------------------

D!
I feel   re-      born      a-      gain
E------------------|-----------------|------------------|
B------------------|-----------------|------------------|
G------------------|-----------------|------------------|
D--7--5----7-------|-7/9--7--5-------|--7--7------------|
A------------------|-----------------|------------------|
E------------------|-----------------|------------------|

C!
E-----------------------------|------------------------------------|
B-----------------------------|------------------------------------|
G-----------------------------|------------------------------------|
D---5-5-5-5p4---5-------------|------------------------------------|
A-------------7---------------|------------------------------------|
E-----------------------------|------------------------------------|

E-----------------------------|------------------------------------|
B-----------------------------|------------------------------------|
G-----------------------------|------------------------------------|
D---5-5-5-5p4---5-------------|------------------------------------|
A-------------7---------------|------------------------------------|
E-----------------------------|------------------------------------|

D!
E-----------------------------|------------------------------------|
B-----------------------------|------------------------------------|
G-----------------------------|------------------------------------|
D---5-5-5-5p4-7-5-------------|----4-------------------------------|
A-----------------------------|---------5--------------------------|
E-----------------------------|------------------------------------|

>      >         >
E-----------------------------|------------------------------------|
B-----------------------------|------------------------------------|
G-----------------------------|------------------------------------|
D---5-5-5-5---4---------------|---5-4----5-4-------5--4------------|
A-----------------5-----------|-------5-------5----------5---------|
E-----------------------------|------------------------------------|

>       >     >            >    >    >
E-----------------------------|------------------------------------|
B-----------------------------|------------------------------------|
G-----------------------------|------------------------------------|
D------5-4-----5--4-----------|------------------------------------|
A---5------5---------5--------|---5----5----5----------------------|
E-----------------------------|------------------------------------|



CHORDS

D! C! Dm Cadd9! Gm add9 Bb! Dm/A Gm/Bb C/D Cm/G Fm/Ab Bb/C D!+5
E-------1----3-----5-----------1-----3----3----3----1----------------------
B-3-----3----3-----3-----------3-----3----5----4----1---3------3-----------
G-2--5--2----5-----3------3----2-----3----5----5----1---3------3-----------
D-0--5--0----5-----5------3----0-----0----0----5--------3------0-----------
A----3-------3------------1----0-----1------------------3------------------
E--------------------------------------------------------------------------

C!/D (D by Bass) D  E!  C!+5
E------------------2-------------------------------------------------------
B------------------3-------------------------------------------------------
G---5--------------2--9----5-----------------------------------------------
D---5-----------------9----6-----------------------------------------------
A---3-----------------7----3-----------------------------------------------
E---------------------0----------------------------------------------------

Вверх

The Edge Of Darkness

 --------------------------|--9----9---9----7----7---7---9---9---9------9---9-
--------------------------|--9------9------7------7-----9-----9------9---9---
--------------------------|--7-------------5------------7----------7---------
--------------------------|--------------------------------------------------
Intro (Helicopter sounds)   Slowly


-9-----------7----7---7---9----9---9-------9---9---9----9---9--7----7---7---9
-9--9---9----7--7---7-----9--9---9-----------9-----9--9---9----7--7---7-----9
-7----7---7--5------------7------------7-7---------7-----------5------------7
-----------------------------------------------------------------------------

---9---9-----9-9---9---9----9---9--7-----7----7---9--------9----9-9---9------
-9---9-----9-----9-----9--9---9----7---7----7-----9--9---9----9-----9--------
-----------------------7-----------5--------------7----7---------------------
-----------------------------------------------------------------------------

-9----9---9----7----7---7--9-----9---9-------7-------9-----9------9---9--7---
-9--9---9------7--7---7----9---9---9-------7-------9-------9----9---9----7---
-7-------------5-5---------7-7-----------5-------7---------7--7----------5-5-
-----------------------------------------------------------------------------
Guitar 1 enters

---7---7--9-----9---9-------7------9----9--9---9---9--7-7---7---7--9-9---9---
-7---7----9---9---9-------7------9------9----9---9----7---7---7----9---9---9-
----------7-7-----------5------7--------7-------------5------------7---------
-----------------------------------------------------------------------------
Vocals enter

-9-------7-------9----9----9---9---9--7----7---7---7--9---9---9---9------7---
-------7-------9------9--9---9---9----7--7---7---7----9-9---9---9------7-----
-----5-------7--------7---------------5---------------7--------------5-------
-----------------------------------------------------------------------------

-----5--------2----9---9---9---9--7---7---7---7--9---9---9---9------5------7-
---5--------2------9-9---9---9----7-7---7---7----9-9---9---9------5------7---
-3--------0--------7--------------5--------------7--------------3------5-----
-----------------------------------------------------------------------------

-9---9---9---9--7---7---7---7--9---9---9---9------5------2---9---9---9---9---
-9-9---9---9----7-7---7---7----9-9---9---9------5------2-----9-9---9---9-----
-7--------------5--------------7--------------3------0-------7---------------
-----------------------------------------------------------------------------
Drums enter(cymbal)

-7---7---7---7--9---9---9---9------5------7---9---9---9---9--7---7---7---7---
-7-7---7---7----9-9---9---9------5------7-----9-9---9---9----7-7---7---7-----
-5--------------7--------------3------5-------7--------------5---------------
-----------------------------------------------------------------------------

-9---9---9---9-------5------2--9---9---9---9--7---7---7---7--9---9---9--9----
-9-9---9---9-------5------2----9-9---9---9----7-7---7---7----9-9---9---9-----
-7---------------3------0------7--------------5--------------7---------------
-----------------------------------------------------------------------------

-----5------7-------9---9---9------5---5---5------7---7--7------5------7----|
---5------7-------9---9---9------5---5---5------7---7---7-----5------7------|
-3------5-------7--------------3--------------5-------------3------5--------|
----------------------------------------------------------------------------|

-9-9-9-9-9----7-7-7-7-7----9-9-9-9-9----5-5-5----7-7-7----9-9-9-9-9----7-7-7-
-9-9-9-9-9----7-7-7-7-7----9-9-9-9-9----5-5-5----7-7-7----9-9-9-9-9----7-7-7-
-7-7-7-7-7----5-5-5-5-5----7-7-7-7-7----3-3-3----5-5-5----7-7-7-7-7----5-5-5-
-----------------------------------------------------------------------------
Heavier

-7-7----9-9-9-9-9----5-5-5----2-2-2----9-9-9-9-9----7-7-7-7-7----9-9-9-9-9---
-7-7----9-9-9-9-9----5-5-5----2-2-2----9-9-9-9-9----7-7-7-7-7----9-9-9-9-9---
-5-5----7-7-7-7-7----3-3-3----0-0-0----7-7-7-7-7----5-5-5-5-5----7-7-7-7-7---
-----------------------------------------------------------------------------

-5-5-5----7-7-7----9-9-9-9-9----7-7-7-7-7----9-9-9-9-9----5-5-5----2-2-2-----
-5-5-5----7-7-7----9-9-9-9-9----7-7-7-7-7----9-9-9-9-9----5-5-5----2-2-2-----
-3-3-3----5-5-5----7-7-7-7-7----5-5-5-5-5----7-7-7-7-7----3-3-3----0-0-0-----
-----------------------------------------------------------------------------

-9-9-9-9-9----7-7-7-7-7----9-9-9-9-9----5-5-5----7-7-7----9-9-9-9-9----7-7-7-
-9-9-9-9-9----7-7-7-7-7----9-9-9-9-9----5-5-5----7-7-7----9-9-9-9-9----7-7-7-
-7-7-7-7-7----5-5-5-5-5----7-7-7-7-7----3-3-3----5-5-5----7-7-7-7-7----5-5-5-
-----------------------------------------------------------------------------

-7-7----9-9-9-9-9----5-5-5----2-2-2----9-9-9-9-9----7-7-7-7-7----9-9-9-9-9---
-7-7----9-9-9-9-9----5-5-5----2-2-2----9-9-9-9-9----7-7-7-7-7----9-9-9-9-9---
-5-5----7-7-7-7-7----3-3-3----0-0-0----7-7-7-7-7----5-5-5-5-5----7-7-7-7-7---
-----------------------------------------------------------------------------

-5-5-5----7-7-7----9-9-9-9-9----5-5-5-5-5----7-7-7-7-7----5-5-5----7-7-7----|
-5-5-5----7-7-7----9-9-9-9-9----5-5-5-5-5----7-7-7-7-7----5-5-5----7-7-7----|
-3-3-3----5-5-5----7-7-7-7-7----3-3-3-3-3----5-5-5-5-5----3-3-3----5-5-5----|
----------------------------------------------------------------------------|

-9------------------------------12-------------------------------------------
-9------------------------------12-------------------------------------------
-7--7-7-7-7--7-7-7-7--7-7-7-7---10---10-10-10-10---10-10-10-10---10-10-10-10-
-----------------------------------------------------------------------------
Much faster



->------------------------------5------------7------------9------------------
-7--7-7-7-7--7-7-7-7--7-7-7-7---5------.-.---7------.-.---9------------------
--------------------------------3--3-3-3-3---5--5-5-5-5---7--7-7-7-7--7-7-7-7
-----------------------------------------------------------------------------

-----------12----------------------------------------------5-----------------
-----------12----------------------------------------------5-----------------
-7-7-7-7---10---10-10-10-10---10-10-10-10---10-10-10-10----3--3-3-3-3--3-3-3-
-----------------------------------------------------------------------------

-------------7------------9------------------------------12------------------
-------------7------.-.---9------------------------------12------------------
3--3-3-3-3---5--5-5-5-5---7--7-7-7-7--7-7-7-7--7-7-7-7---10---10-10-10-10----
-----------------------------------------------------------------------------

-----------------------------7------------------------------5----------------
-----------------------------7------------------------------5--.-------------
-10-10-10-10---10-10-10-10---5--5-5-5-5--5-5-5-5--5-5-5-5---3--3--3-3-3-3----
-----------------------------------------------------------------------------

-7-------------9-----------------------------------------12--7---------------
-7-.-----------9-----------------------------------------12--7---------------
-5-5--5-5-5-5--7--7-7-7-7-7-7-7-7-7-7-7-7-7-7-7-7-7-7-7--10--5-5-5-5-5--5-5-5
-----------------------------------------------------------------------------

------------4-------------5---7---9----------------------------------------12
------------4-.-----------5---7---9----------------------------------------12
5--5-5-5-5--2-2--2-2-2-2--3-3-5-5-7--7-7-7-7-7-7-7-7-7-7-7-7-7-7-7-7-7-7-7-10
-----------------------------------------------------------------------------

-7----------------------------4-------------5-------7----9-------------------
-7----------------------------4-.-----------5-------7----9-------------------
-5-5-5-5-5--5-5-5-5--5-5-5-5--2-2--2-2-2-2--3-3-3-3-5-5--7--7-7-7-7-7-7-7-7-7
-----------------------------------------------------------------------------

------------12--------------------------------------------5------------------
------------12--------------------------------------------5------------------
7-7-7-7-7---10--10-10-10-10---10-10-10-10---10-10-10-10---3-3-3-3-3---3-3-3-3
-----------------------------------------------------------------------------

---------7------------9-----------------------------------------12--7--------
---------7------------9-----------------------------------------12--7--------
3-3-3-3--5-5-5-5-5-5--7--7-7-7-7-7-7-7-7-7-7-7-7-7-7-7-7-7-7-7--10--5-5-5-5-5
-----------------------------------------------------------------------------

---------------------------------5-------7----9------------------------------
---------------------.-----------5-------7----9------------------------------
-5-5-5-5--5-5-5-5--2-2--2-2-2-2--3-3-3-3-5-5--7--7-7-7-7-7-7-7-7-7-7-7-7-7-7-
-----------------------------------------------------------------------------

-----------12--7----------------------------4-------------5-------7--9-------
-----------12--7----------------------------4-.-----------5-------7--9-------
7-7-7-7-7--10--5-5-5-5-5--5-5-5-5--5-5-5-5--2-2--2-2-2-2--3-3-3-3-5--7--7-7-7
-----------------------------------------------------------------------------

---------------------------------12--7-----------------------------4---------
---------------------------------12--7-----------------------------4-.-------
7-7-7-7-7-7-7-7-7-7-7-7-7-7-7-7--10--5--5-5-5-5--5-5-5-5--5-5-5-5--2-2--2-2-2
-----------------------------------------------------------------------------

--5-------7--9---------------------------------------12--7-------------------
--5-------7--9---------------------------------------12--7-------------------
2-3-3-3-3-5--7--7-7-7-7--7-7-7-7--7-7-7-7--7-7-7-7---10--5--5-5-5-5--5-5-5-5-
-----------------------------------------------------------------------------

----------4--------------5-------7---9-----------------------------12--------
----------4-.------------5-------7---9-----------------------------12--------
-5-5-5-5--2-2--2-2-2-2---3-3-3-3-5-5-7--7-7-7-7--7-7-7-7--7-7-7-7--10--10-10-
-----------------------------------------------------------------------------

---------------------------------7-----------------------------5-------------
---------------------------------7-----------------------------5-.-----------
10-10--10-10-10-10--10-10-10-10--5--5-5-5-5--5-5-5-5--5-5-5-5--3-3--3-3-3-3--
-----------------------------------------------------------------------------

7--------------9------------------------------12-----------------------------
7-.------------9------------------------------12-----------------------------
5-5--5-5-5-5---7--7-7-7-7--7-7-7-7--7-7-7-7---10--10-10-10-10---10-10-10-10--
-----------------------------------------------------------------------------

--------------7-----------------------------5-------------7------------------
--------------7-----------------------------5-.-----------7-.----------------
-10-10-10-10--5--5-5-5-5--5-5-5-5--5-5-5-5--3-3--3-3-3-3--5-5--5-5-5-5-------
-----------------------------------------------------------------------------

-9-----------------------------------------12--7-----------------------------
-9-----------------------------------------12--7-----------------------------
-7--7-7-7-7-7-7-7-7-7-7-7-7-7-7-7-7-7-7-7--10--5-5-5-5-5--5-5-5-5--5-5-5-5---
-----------------------------------------------------------------------------
Guitar solo 1

4-------------5-------7---9-----------------------------------------12--7----
4-.-----------5-------7---9-----------------------------------------12--7----
2-2--2-2-2-2--3-3-3-3-5-5-7--7-7-7-7-7-7-7-7-7-7-7-7-7-7-7-7-7-7-7--10--5----
-----------------------------------------------------------------------------

-----------------------------4-------------5-------7---9---------------------
-----------------------------4-.-----------5-------7---9---------------------
-5-5-5-5--5-5-5-5--5-5-5-5---2-2--2-2-2-2--3-3-3-3-5-5-7--7-7-7-7-7-7-7-7-7--
-----------------------------------------------------------------------------
Guitar solo 2

-----------------------12--7-----------------------------4-------------5-----
-----------------------12--7-----------------------------4-.-----------5-----
-7-7-7-7-7-7-7-7-7-7---10--5--5-5-5-5--5-5-5-5--5-5-5-5--2-2--2-2-2-2--3-3-3-
-----------------------------------------------------------------------------

---7---9----------------------------------------12--7------------------------
---7---9----------------------------------------12--7------------------------
-3-5-5-7--7-7-7-7-7-7-7-7-7-7-7-7-7-7-7-7-7-7---10--5--5-5-5-5--5-5-5-5--5-5-
-----------------------------------------------------------------------------

------4-------------5-------7----9-----------------------------12------------
------4-.-----------5-------7----9-----------------------------12------------
-5-5--2-2--2-2-2-2--3-3-3-3-5-5--7--7-7-7-7--7-7-7-7--7-7-7-7--10-10-10-10-10
-----------------------------------------------------------------------------
5x
--------------------------7---------------------------5-------------7--------
--------------------------7---------------------------5-.-----------7-.------
10-10-10-10--10-10-10-10--5-5-5-5-5--5-5-5-5--5-5-5-5-3-3--3-3-3-3--5-5-5-5-5
-----------------------------------------------------------------------------

-9------------------------------12-------------------------------------------
-9------------------------------12-------------------------------------------
-7--7-7-7-7--7-7-7-7--7-7-7-7---10---10-10-10-10---10-10-10-10---10-10-10-10-
-----------------------------------------------------------------------------

->------------------------------5------------7------------9------------------
-7--7-7-7-7--7-7-7-7--7-7-7-7---5------.-.---7------.-.---9------------------
--------------------------------3--3-3-3-3---5--5-5-5-5---7--7-7-7-7--7-7-7-7
-----------------------------------------------------------------------------

-----------12----------------------------------------------5-----------------
-----------12----------------------------------------------5-----------------
-7-7-7-7---10---10-10-10-10---10-10-10-10---10-10-10-10----3--3-3-3-3--3-3-3-
-----------------------------------------------------------------------------

-------------7------------9------------------------------12------------------
-------------7------.-.---9------------------------------12------------------
3--3-3-3-3---5--5-5-5-5---7--7-7-7-7--7-7-7-7--7-7-7-7---10---10-10-10-10----
-----------------------------------------------------------------------------

-----------------------------7------------------------------5----------------
-----------------------------7------------------------------5--.-------------
-10-10-10-10---10-10-10-10---5--5-5-5-5--5-5-5-5--5-5-5-5---3--3--3-3-3-3----
-----------------------------------------------------------------------------

-7-------------9-----------------------------------------12------------------
-7-.-----------9-----------------------------------------12------------------
-5-5--5-5-5-5--7--7-7-7-7-7-7-7-7-7-7-7-7-7-7-7-7-7-7-7--10--10-10-10-10--10-
-----------------------------------------------------------------------------

------------------------7------------------------------5-------------7-------
------------------------7------------------------------5-.-----------7-.-----
-10-10-10--10-10-10-10--5--5-5-5-5--5-5-5-5--5-5-5-5---3-3--3-3-3-3--5-5--5-5
-----------------------------------------------------------------------------
Ritard.

-9-9-9-9-9----7-7-7-7-7----9-9-9-9-9----5-5-5----7-7-7----9-9-9-9-9----7-7-7-
-9-9-9-9-9----7-7-7-7-7----9-9-9-9-9----5-5-5----7-7-7----9-9-9-9-9----7-7-7-
-7-7-7-7-7----5-5-5-5-5----7-7-7-7-7----3-3-3----5-5-5----7-7-7-7-7----5-5-5-
-----------------------------------------------------------------------------

-7-7----9-9-9-9-9----5-5-5----2-2-2----9-9-9-9-9----7-7-7-7-7----9-9-9-9-9---
-7-7----9-9-9-9-9----5-5-5----2-2-2----9-9-9-9-9----7-7-7-7-7----9-9-9-9-9---
-5-5----7-7-7-7-7----3-3-3----0-0-0----7-7-7-7-7----5-5-5-5-5----7-7-7-7-7---
-----------------------------------------------------------------------------

-5-5-5----7-7-7----9-9-9-9-9----5-5-5-5-5----7-7-7-7-7----5-5-5----7-7-7----|
-5-5-5----7-7-7----9-9-9-9-9----5-5-5-5-5----7-7-7-7-7----5-5-5----7-7-7----|
-3-3-3----5-5-5----7-7-7-7-7----3-3-3-3-3----5-5-5-5-5----3-3-3----5-5-5----|
----------------------------------------------------------------------------|

-----9---9---9-----7---7---7------9---9---9------5------7-------9---9---9----
---9---9---9-----7---7---7------9---9---9------5------7-------9---9---9------
-7-------------5--------------7--------------3------5-------7----------------
-----------------------------------------------------------------------------

-----7---7---7------9---9---9-----5------2-------9---9---9-----7---7---7-----
---7---7---7------9---9---9-----5------2-------9---9---9-----7---7---7-------
-5--------------7-------------3------0-------7-------------5-----------------
-----------------------------------------------------------------------------

-----9---9---9-----5-----7-------9---9---9------5---5---5-----7---7---7-----5
---9---9---9-----5-----7-------9---9---9------5---5---5-----7---7---7-----5--
-7-------------3-----5-------7--------------3-------------5-------------3----
-----------------------------------------------------------------------------

-----7------9---9---9------7---7---7------9---9---9---9---9-----------------|
---7------9---9---9------7---7---7------9---9---9---9---9-------------------|
-5------7--------------5--------------7-------------------------------------|
----------------------------------------------------------------------------|

Вверх

The Evil That Men Do

INTRO
-----------------------------------------------------------------5b-3------
-----------------------------------------------------------3h5p3-----------
---0---4-2-0-2-4-----0---4-2-0-2-4-------0---4-2-0-2-4-2-------------------
-2---2-------------2---2-----------2---2---2-------------------------------
---------------------------------------------------------------------------
---------------------------------------------------------------------------

---------------------------------------------------------------------------
---------------------------------------------------------------------------
---0---4-2-0-2-4-------0---4-2-0-2-4-----0---4-2-0-2-4---------------------
-2---2-----------2---2---2-------------2---2------------2------------------
---------------------------------------------------------------------------
---------------------------------------------------------------------------

---------------------------------------------------------------------------
---------------------------------------------------------------------------
-------------------------------------------------------/7times/------------
-9--7--12--9--5--12--5--------5--12--11-12-11--9-----9--------------5------
-7--5--10--7--5--10--3--3--3--3--10--9--10--9--7-----7--7-7-7---7-7-3------
--------------------------------------------------------_3_/---_3_/------

---------------------------------------------------------------------------
---------------------------------------------------------------------------
/3times/------------------------/3times/------/3times/------/3times/-------
--------------12-11-12-11-9---9-------------5---------/ 3 --/ 3 ---------
-3-3-3----3-3-10--9-10--9-7---7--7-7-7--7-7-3--3-3-3--3-3-5----------------
-_3_/----_3__/-----------------_3_/--_3_/--_3_/------3--3-3-3---------

--------------------------------------|----------------------
--------------------------------------|----------------------
--------------------5--4-2-------2----|-----0---4-2-0-2-4----
---------------5-----------5-4-5------|---2---2-----------2--
----------0-2--3-------------------3--|----------------------
-3-3--2-3-----------------------------|----------------------

------------------------------------------------------------
----------------------------------------------0-1-3-5-5b----
---0---4-2-0-2-0-------0---4-2-0-2-4------0-2---------------
-2---2-----------4---2---2-----------2----------------------
------------------------------------------------------------
------------------------------------------------------------

---------------------------------------------------------------------------
------------------------------------------------------------------0-1-3----
---0---4-2-0-2-4-------0---4-2-0-2-0-------0---4-2-0-2-4------0-2----------
-2---2-----------2---2---2-----------4---2---2-----------2--4--------------
---------------------------------------------------------------------------
---------------------------------------------------------------------------

---------------------------------------------------------------------------
---------------------------------------------------------------------------
-------------------------------------------4-------------------------4--4--
-9-9-9-9---5--7---9-9-9-9---5--2-----------2---2--4h5p4h5p4h5p4-0-2--2--2--
-7-7-7-7---3--5---7-7-7-7---3--0-------------------------------------------
---------------------------------------------------------------------------

---------------------------------|--14----14-16-17--16-14-12---
---------------------------------|-----------------------------
---------------------------9-9---|-----------------------------
--5---7h9p7h9p7h9p7--4-5---------|-----------------------------
---------------------------------|-----------------------------
---------------------------------|-----------------------------

-16-12----12---------------------------------------------------------12----
-------12----12------------------------------------11-------10----10-------
----------------11--------------12-11-9-12-11-9-12------11-----11----------
-------------------11---12-11-9--------------------------------------------
---------------------------------------------------------------------------
---------------------------------------------------------------------------

------------------------12---------------12---------16-16-16--12----12--11-
--10-9-10---------10-------12------10----------------------------12--------
----------9----11----11---------11----11-------9---------------------------
---------------------------------------------------------------------------
---------------------------------------------------------------------------
---------------------------------------------------------------------------

--------------------21--19-17-16-17-16--14-16--14h16p14--------------------
--12----12----------------------------------------------14-12-10-----------
-----11----11----------------------------------------------------13-11-12--
--------------11-----------------------------------------------------------
---------------------------------------------------------------------------
---------------------------------------------------------------------------

Вверх

The Mercenary

Intro: Riff 1
Em
----------------------------------------
----------------------------------------
----------------------------------------
-9-7-9-12-11-9--9-7-9-12h11h14-
-7-5-7-10-9--7--7-5-7--10h9h-12-
-------------------------------------------


Verse:
Em
---------------------------
---------------------------
-------------------------
--9--7--9----12--11--9-
--7--5--7----10---9--7-
---------------------------
Pay to kill, die to lose

------------------------------------
------------------------------------
-----------------------------------
--9--7---9-12h-11h----14--
--7--5---7-10h-9h-----12--
------------------------
Hunted, hunter which you are

дальше также (на каждый слог)

Diablo come again
To make trophies out of men

Lose your skin, lose your skull
One by one the sack is full
In the heat dehydrate
Know which breath will be your last


Pre-chorus:
Em           D               C
---------------------------------------------
---------------------------------------------
---------------------------------------------
-9-9-9-9-9-9-7-7-7-7-7-7-7-7-5-5-5--
-7-7-7-7-7-7-5-5-5-5-5-5-5-5-3-3-3--
---------------------------------------------
Nowhere to run, nowhere to hide

C              D            Em
---------------------------------------------
---------------------------------------------
---------------------------------------------
-5-5-5-5-5-5-5-7-7-7-7-7-7-9-9-9-9-9-
-3-3-3-3-3-3-3-5-5-5-5-5-5-7-7-7-7-7-
---------------------------------------------
You?ve got to kill to stay alive
дальше также

Nowhere to run, nowhere to hide
You?ve got to kill to stay alive

Bridge=intro

Chorus:
C              D                   Em
------------------------------------------------------------
------------------------------------------------------------
------------------------------------------------------------
-5-5-5-5-5-5-5-7-7-7-7-7-7-7-7-7-7-9-9-9-12-11-9-7--12-11-9-7
-3-3-3-3-3-3-3-5-5-5-5-5-5-5-5-5-5-7-7-7-10-9--7-5--10--9--7-5
-----------------------------------------------------------
Show them no fear, show them no pain

C              D                   Em
-----------------------------------------------------------
------------------------------------------------------------
------------------------------------------------------------
-5-5-5-5-5-5-5-7-7-7-7-7-7-7-7-7-7-9-9-9-12-11-12-14-12-11-12-14
-3-3-3-3-3-3-3-5-5-5-5-5-5-5-5-5-5-7-7-7-10-9--10-12-10--9--10-12
------------------------------------------------------------
Show them no fear, show them no pain
дальше также

Show them no fear, show them no pain
Show them no fear, show them no pain.


Verse:
Human heart, human mind
Intellect intertwined
Focus sharp in the night
Watch the jungle burning bright

Toe to toe throw the line
Everyone?s caught hand tied
Iron will Iron fist
How could it have come to this?

Pre-chorus:
Nowhere to run, nowhere to hide
You?ve got to kill to stay alive
Nowhere to run, nowhere to hide
You?ve got to kill to stay alive

Chorus:
Show them no fear, show them no pain
Show them no fear, show them no pain
Show them no fear, show them no pain
Show them no fear, show them no pain

Вверх

The Number Of The Beast
mp3

[the intro is written in 5/4 measure (5 ticks in 1 measure)]

D!
E--------------------|
B--------------------|
G--------------------|
D--------------------|
A--12-12-12-12-10-10-|
E--10-10-14-14-10-10-|

[intro]

I      left   a-
E-------------------------------------------------------------------------|
B-------------------------------------------------------------------------|
G-------------------------------------------------------------------------|
D-------------------------------------------------------------------------|
A--12--x--x-12----x--x--x-12----x--x--x-12----x--x-12-12---12-12-10-10----|
E--10-10-10-10---10-10-10-10---10-10-10-10---10-10-10-10---14-14-10-10----|

lone                                             my     mind   was
E-------------------------------------------------------------------------|
B-------------------------------------------------------------------------|
G-------------------------------------------------------------------------|
D-------------------------------------------------------------------------|
A--12--x--x-12----x--x--x-12----x--x--x-12----x--x-12-12---12-12-10-10----|
E--10-10-10-10---10-10-10-10---10-10-10-10---10-10-10-10---14-14-10-10----|

blank                                     C!     I      need- ed
E-------------------------------------------------------------------------|
B-------------------------------------------------------------------------|
G-------------------------------------------------------------------------|
D-------------------------------------------------------------------------|
A--12--x--x-12----x--x--x-12----x--x--x-12---10-10-10-10---10-10--8--8----|
E--10-10-10-10---10-10-10-10---10-10-10-10----8--8--8--8---12-12--8--8----|

time        to      think      to         get   the      mem'   ries
E-------------------------------------------------------------------------|
B-------------------------------------------------------------------------|
G-------------------------------------------------------------------------|
D-------------------------------------------------------------------------|
A--10--x--x-10----x--x--x-10----x--x--x-10----x--x--x-10---10-10-----8----|
E---8--8--8--8----8--8--8--8----8--8--8--8----8--8--8--8----8-12-----8----|

D! from my     mind                               What    did   I
E-------------------------------------------------------------------------|
B-------------------------------------------------------------------------|
G-------------------------------------------------------------------------|
D-------------------------------------------------------------------------|
A--12--x--x-12----x--x--x-12----x--x--x-12----x--x-12-12---12-12-10-10----|
E--10-10-10-10---10-10-10-10---10-10-10-10---10-10-10-10---14-14-10-10----|

see                                              can    I     be-
E-------------------------------------------------------------------------|
B-------------------------------------------------------------------------|
G-------------------------------------------------------------------------|
D-------------------------------------------------------------------------|
A--12--x--x-12----x--x--x-12----x--x--x-12----x--x-12-12---12-12-10-10----|
E--10-10-10-10---10-10-10-10---10-10-10-10---10-10-10-10---14-14-10-10----|

lieve                                     C!     That   what  I
E-------------------------------------------------------------------------|
B-------------------------------------------------------------------------|
G-------------------------------------------------------------------------|
D-------------------------------------------------------------------------|
A--12--x--x-12----x--x--x-12----x--x--x-12---10-10-10-10---10-10--8--8----|
E--10-10-10-10---10-10-10-10---10-10-10-10----8--8--8--8---12-12--8--8----|

sawe       that     night        was    real    and     not     just
E-------------------------------------------------------------------------|
B-------------------------------------------------------------------------|
G-------------------------------------------------------------------------|
D-------------------------------------------------------------------------|
A--10--x--x-10----x--x--x-10----x--x--x-10----x--x--x-10---10-10-----8----|
E---8--8--8--8----8--8--8--8----8--8--8--8----8--8--8--8----8-12-----8----|

fan- ta- sy                                     Just    what  I
E-------------------------------------------------------------------------|
B-------------------------------------------------------------------------|
G-------------------------------------------------------------------------|
D-------------------------------------------------------------------------|
A--12--x--x-12----x--x--x-12----x--x--x-12----x--x-12-12---12-12-10-10----|
E--10-10-10-10---10-10-10-10---10-10-10-10---10-10-10-10---14-14-10-10----|

[end intro]

[repeat intro]
saw in my own      dreams were the re-
flections of my warped mind staring
back at me.
'Cos in my dreams  it's always there. The evil
face that twists my mind and brings me
to despair.

D! / / / /

D! / / / / / / C! / / / / D! / / /

[the rest is written in 4/4 measure (4 ticks in 1 measure)]
[verse]
D!
Night was black was no use holding back 'Cos I just
C!         D!
had to see was   some-one  watching me
D!
In the mist dark figures move and twist    was all
C!         D!
this for real or just some kind of hell

[chorus]
C!            G!             C!              D!
Six    six    six    the num-ber of the beast
Hell and fire       was born   to be released

[play verse]
Torches blazed and secret chants were phrased as they
start to cry hands held to the sky
In the night the fires are burning bright the ritual
has begun           satan's work is done

C!            G!             C!              D!
Six    six    six    the num-ber of the beast
Sac-   ri-    fice   is  going   on tonight

D!
E--(repeat three times---------------|---------------------------------)--|
B------------------------------------|------------------------------------|
G--2-2-2-4----2---4-4-4--5------4----|--5-5-5--7----5-------7--7--7--5----|
D--0-0-0-0----0---0-0-0--7------0----|--7-7-7--0----7-------0--0--0--7----|
A------------------------------------|------------------------------------|
E------------------------------------|------------------------------------|

[sorry no solo avaible]

Bb! / /  / F! / / /
Bb! / /  / F! / / /
Bb! / /  / F! / / /
Bb! / D! C!

C! Bb!                                G! F!
E------------------------------------|------------------------------------|
B------------------------------------|------------------------------------|
G------------------------------------|------------------------------------|
D----12----10------------------------|----8-----6-------------------------|
A-12----12----12-10-8-10-------------|-8-----8-----8--6-----6-------------|
E------------------------12-10-8-----|-------------------9-----8--6--4----|

F! /  /  / G! / A!  C! D!
D! / F!  / G! / Bb! C! D!
D! / F!  / G! / Bb! C! D!
D! / F!  / G! / Bb! C! D!
D! / F!  / G! / Bb! C! D!

[bass "solo"]
D! / F!  / G! / Bb! C! D!
D! / F!  / G! / Bb! C! D!

[play verse]
(This) can't go on I must inform the law can this
still be real or just some crazy dream
but I feel drawn towards the chanting hordes seems to
mesmerize can't avoid their eyes

C!            G!             C!              D!
Six    six    six    the num-ber of the beast
Six    six    six    the one for you and me

[play intro]
I'm coming back      I will return
And I'll posess your body and I'll make you burn
I have the fire      I have the force
I have the power to  make my evil take it's course

D! / / /  / D! / / / / /
D! / / C! / / / / / D! / C! D!

CHORDS
D!   C!   G!   Bb!   F!   A!
E-------------------------------------------------------------------------|
B-------------------------------------------------------------------------|
G--7----5-----------------------------------------------------------------|
D--7----5----5-----8----3----7--------------------------------------------|
A--5----3----5-----8----3----7--------------------------------------------|
E------------3-----6----1----5--------------------------------------------|

Вверх

The Prisoner

 INTRO:

B       A  B         B        A  B  D
|-----------------------------------------|
|-----------------------------------------|
|--------------------------------------7--|
|--9--9--97--9---------9--9---97--9--7--|
|--9--9--97--9---------9--9---97--9--5--|
|--7--7--75--7---------7--7---75--7-----|

1st time  2nd time
A       G  A     F#       E   A  E     G  A
|------------------------------|-------|---------|
|------------------------------|-------|---------|
|------------------------------|-------|---------|
|--7--7--75--7------4--4--42-|-7--2--|--5--7---|
|--7--7--75--7------4--4--42-|-7--2--|--5--7---|
|--5--5--53--5------2--2--2-0-|-5--0--|--3--5---|

MAIN RIFF:
Listen for the strumming and muting of the B power chord.
B               A    (E)      B       D C# A
|-----------------------------|------------------|
|-----------------------------|------------------|
|-----------------------------|------------------|
|--4-STRUM---------2-2--------|--4-------7-6--2--|
|--2---------------0-0--------|--2-------5-4--0--|
|-----------------------3-2-0-|------------------|

B           A    (E)        Asus4      E
|---------------------------|-------------0--|
|---------------------------|--3----------0--|
|---------------------------|--2----------1--|
|--4-----------2-2----------|--2----------2--|
|--2-----------0-0----------|--0----------2--|
|--------------------3-2-0--|-------------0--|

For the next two parts Ill just show the basic idea:
Listen for the muting.
RUN, FIGHT, Etc.:

Gtr II: (Adrian)
Am7            Asus4
|----------------------------------------|
|----------------------------------------|
|--5--------5-----7--------7-----5-------|
|--5--------5-----7--------7-----5-------|
|--0--0--0--0--0--0--0--0--0--0--0-etc---|
|----------------------------------------|

Gtr I: (Dave)
Am7                     Asus13
|-----------------------------------------------------------------|
|--1-----------------------3-----------------------1--------------|
|--0-----------------------0-----------------------0--------------|
|--2-----------------------4-----------------------2--------------|
|--0--0--0--0--0--0--0--0--0--0--0--0--0--0--0--0--0--0-etc-------|
|-----------------------------------------------------------------|

NOW YOU SEE ME...:
Dsus4/A     Csus4/G         Bsus4/F#
|---------------------------------------------|
|--8----8------6------5-s/-6---5---6----------|
|--7----7------5------4-s/-5---4---5----repeat|
|--7----7------5------4-s/-5---4---5----------|
|---------------------------------------------|
|---------------------------------------------|

BREAK THE WALLS...
Bsus4     B        B   E   B
|--------------------------------------|
|--5---------4-------------------------|
|--4---------4--------4---1---4--------|
|--4---------4--------4---2---4--------|
|--2---------2--------2---2---2--------|
|-------------------------0------------|

If the above Bsus4 chord is to hard to play as written play it
like this:

|-0-|
|-0-|
|-4-|
|-4-|
|-2-|
|---|

CHORUS:
Let chords ring as much as possible.
E              Bsus4             Aadd9            C#  B
|--0-------0----------------0-----------------0-------------------|
|--0---------0----0------------0----0------------0----------------|
|--9----9---------4------4----------2------2---------6---4--------|
|--9--9-----------4---4-------------2---2------------6---4--------|
|--7--------------2-----------------0----------------4---2--------|
|--0--------------------------------------------------------------|

E              Bsus4             Aadd9            C#  D
|--0-------0----------------0-----------------0-------------------|
|--0---------0----0-----------0-----0------------0----------------|
|--9----9---------4------4----------2------2---------6---7--------|
|--9--9-----------4---4-------------2---2------------6---7--------|
|--7--------------2-----------------0----------------4---5--------|
|--0--------------------------------------------------------------|

BASSLINE FOR CHORUS:
|-----------9--------------9-----------------9--------------------|
|--------9-----9--------9-----9-----------9-----9-----------------|
|-----7--------------7-----------------7-------------4--(2 or 5)--|
|--0--------------0-----------------0-----------------------------|


BREAK AFTER 2nd CHORUS:
Played over intro riff, then over the following chord sequence
which I have called the Rhythm for Solos.
Note that while the repeating pattern is playing only use an
F# power chord, do not play it as a major or minor chord.
The repeating pattern can be varied during the Bm section
by alternatively hammering on to the 12th fret instead of the
11th. Ive written it bar by bar to show the syncopation.

Bm
|----------------------------|---------------------------|
|----------------------------|---------------------------|
|-----7-h11-----7-h11-----7--|-h11---7-h11-----7-h11-----|
|--9---------9---------9-----|-----9--------9---------9--|
|----------------------------|---------------------------|
|----------------------------|---------------------------|


|-----------------------------|----------------------------|
|-----------------------------|----------------------------|
|--7-h11-----7-h11-----7-h11--|-----7-h11-----7-h11-----7--|
|---------9---------9---------|--9---------9---------9-----|
|-----------------------------|----------------------------|
|-----------------------------|----------------------------|

A
|----------------------------|-------------------------------|
|----------------------------|-------------------------------|
|-----6-h-9-----6-h-9-----6--|--h-9-----6-h-9-----6-h-9-p-6--|
|--7---------7---------7-----|-------7---------7-------------|
|----------------------------|-------------------------------|
|----------------------------|-------------------------------|

F#                           G            A
|----------------------------|----------------------------|
|----------------------------|----------------------------|
|-----3-h-6-----3-h-6-----3--|-----4-h-7--------6-h-9-----|
|--4---------4---------4-----|--5---------5--7---------7--|
|----------------------------|----------------------------|
|----------------------------|---------------^------------|
2nd time solo starts

RHYTHM FOR SOLOS:
B        D C#      A    F#   A     E    G  A
|-----------------------------------------------------------------|
|-----------------------------------------------------------------|
|-----------------------------------------------------------------|
|--4--------7--6------2----------1st time--2nd time---------------|
|--2--------5--4------0-----4--|-7----2-|--5--7--|----------------|
|---------------------------2--|-5----0-|--3--5--|----------------|

ENDING:
Play through chorus and end with
C# B  E
|--------------------------0--------------------------------------|
|--------------------------0--------------------------------------|
|--------------------6--4--9--------------------------------------|
|--------------------6--4--9--------------------------------------|
|--------------------4--2--7--------------------------------------|
|--------------------------0--------------------------------------|
I know where Im going

Gtr Solo 1: (Adrian)
With Chorus

|---------------------------------------------|
|---------------------------------------------|
|-----------------------9b(11)r9p7------------|
|-------7h9--9~~--------------------9~~-------|
|--7h9----------------------------------------|
|---------------------------------------------|


|---------------7--7--7--7--7--7--------------|
|--7------------7--7--7--7--7--7--10~~--------|
|-----9b(11)----------------------------------|
|-----(HOLD BEND               )--------------|
|---------------------------------------------|
|---------------------------------------------|


|--7-----------------7------------------------|
|-----10p7--10b(12)-----10p7--10b(12)---------|
|---------------------------------------------|
|---------------------------------------------|
|---------------------------------------------|
|---------------------------------------------|


|--7--7--7--10--10p7------7---------------------------------------|
|---------------------10-----10p7-----7---------------------------|
|----------------------------------9-----9p7--9p7----9b(11)r9p7---|
|--------------------------------------------------9------------9~|
|-----------------------------------------------------------------|
|-----------------------------------------------------------------|


|-----------------------------------------------------------------|
|--0-h-12-h-15----0-h-12-h-15------0-h-12-h-15----0-h-11-h-14-----|
|-----------------------------------------------------------------|
|-----------------------------------------------------------------|
|-----------------------------------------------------------------|
|-----------------------------------------------------------------|


|-----------------------------------------------------------------|
|--0-h-12-h-15----0-h-11-h-14----0-h-12-h-15----0-h-11-h-14-------|
|-----------------------------------------------------------------|
|-----------------------------------------------------------------|
|-----------------------------------------------------------------|
|-----------------------------------------------------------------|


|---------------------------------------------|
|--15--15b(17)--(17)r15--15~~-----------------|
|---------------------------------------------|
|---------------------------------------------|
|---------------------------------------------|
|---------------------------------------------|


|-----------------------------------------------------------------|
|--s/-15--15--15p14--14--14--14p12--12--12--12s10--10--10s8-----|
|-----------------------------------------------------------------|
|-----------------------------------------------------------------|
|-----------------------------------------------------------------|
|-----------------------------------------------------------------|


|-----------------------------------------------------------------|
|--7----------7---------------------------------------------------|
|-----9b(11)-----10p9p7-----7-------------------------------------|
|------------------------9-----9--7-------------------------------|
|------------------------------------7--9--8p7--5-----------------|
|-----------------------------------------------------------------|

Gtr Solo 2: (Dave)
With Chorus and "Tape Echo" Delay

|-----------------------------------------------------------------|
|--14h15p14----15p14p12------12--15p14p12------12--15p14p12-------|
|------------------------16----------------16----------------16---|
|-----------------------------------------------------------------|
|-----------------------------------------------------------------|
|-----------------------------------------------------------------|


|-----------------------------------------------------------------|
|--12--15p14p12------12--15p14p12------12--15p14p12--12--17b(19)~~|
|----------------16----------------16-----------------------------|
|-----------------------------------------------------------------|
|-----------------------------------------------------------------|
|-----------------------------------------------------------------|


|--14h15p14--14h15p14--14--14h15p14--14--14h15p14--14--14h15p14---|
|-----------------------------------------------------------------|
|-----------------------------------------------------------------|
|-----------------------------------------------------------------|
|-----------------------------------------------------------------|
|-----------------------------------------------------------------|


|--14--14h15p14--14--14h15p14--14--14h15p14--14--14h15p14--14-----|
|-----------------------------------------------------------------|
|-----------------------------------------------------------------|
|-----------------------------------------------------------------|
|-----------------------------------------------------------------|
|-----------------------------------------------------------------|


|--17b(19)~~~----17b(19)~~~-------------------|
|---------------------------------------------|
|---------------------------------------------|
|---------------------------------------------|
|---------------------------------------------|
|---------------------------------------------|


|-----------7-----------7-----------7--------------7--------------|
|--10b(12)-----10b(12)-----10b(12)-----7--10b(12)-----10b(12)-----|
|-----------------------------------------------------------------|
|-----------------------------------------------------------------|
|-----------------------------------------------------------------|
|-----------------------------------------------------------------|


|--7--------------------------------------------------------------|
|-----7h10p7--7---------------------------------------------------|
|----------------9p7h9p7--7p6h7p6---------------------------------|
|----------------------------------9p7h9p7------------------------|
|-------------------------------------------9p7h9p7--5-s---------|
|-----------------------------------------------------------------|


|-----------------------------------------------------------------|
|--14--15--17--15--14h15p14--14--17--15--14h15p14--14--17p15------|
|-----------------------------------------------------------------|
|-----------------------------------------------------------------|
|-----------------------------------------------------------------|
|-----------------------------------------------------------------|


|-------------------------------------------14h15p14--14--15------|
|--14h15p14--17p15p14----14--15--14h15--14------------------------|
|-----------------------------------------------------------------|
|-----------------------------------------------------------------|
|-----------------------------------------------------------------|
|-----------------------------------------------------------------|


|--14h15p14--15--17b(19)--(19)--(19)------------------------------|
|-----------------------------------------------------------------|
|-----------------------------------------------------------------|
|-----------------------------------------------------------------|
|-----------------------------------------------------------------|
|-----------------------------------------------------------------|

Вверх

The Sign Of The Cross

00:00 - 01:20 = PRE-INTRO (background chanting)


01:20 - 01:55 = INTRO 1 (bass + guitar ?)

(X2)
e|-----------------------------------------------------------------------
B|-----------------------------------------------------------------------
G|-----------------------------------------------------------------------
D|-----------------------------------------------------------------------
A|----0-2-3--2--0-2-3-2------0-2-3---2-3-5--3--2------0-2-3--2--0-2-3-2--
E|-0----------------------0------------------------0---------------------

[ending 1]              [ending 2]
-----------------------|----------------------|
-----------------------|----------------------|
-----------------------|----------------------|
-----------------------|----------------------|
-----------------------|----------------------|
--0--0-2-3--2-3--2-3---|-0--0-2-3--2-3--2-0---|


01:55 - 02:47 = INTRO 2 (occassional chords)

e|---|
B|---|
G|---|
D|---|
A|---|
E|---|


02:47 - 03:26 = VERSE 1 (thumping chords, 4 a bar, hit;miss;hit;hit)

e|---|
B|---|
G|---|
D|---|
A|---|
E|---|


03:26 - 03:44 = VERSE 2 (similar to Verse 1, but with LEAD 1)

[LEAD 1]
e|------------------------------------|
B|-5--5-7-8-7-----0---5--5-7-8-7------|
G|-------------7------------------7---|
D|------------------------------------|
A|------------------------------------|
E|------------------------------------|


03:44 - 04:04 = CHORUS (chords)

e|---|
B|---|
G|---|
D|---|
A|---|
E|---|


04:04 - 04:22 = VERSE 2


04:22 - 04:42 = CHORUS


04:42 - 05:01 = RIFF 1 (2 guitars + bass, guitar 1 top;guitar 2 bottom)

(X2)
e|----------------------------------------------------------------------------
B|---12-12-12--10-12-12-12----12-12-12--10-12-12-12----12-12-12--10-12-12-12--
G|-9------------------------9------------------------9------------------------
D|----9--9--9---7--9--9--9-----9--9--9---7--9--9--9-----9--9--9---7--9--9--9--
A|-7------------------------7------------------------7------------------------
E|----------------------------------------------------------------------------

-------------------------------|
--13-13--12-12--10-10--12-12---|
-------------------------------|
--10-10---9--9---7--7---9--9---|
-------------------------------|
-------------------------------|

(X2)
e|----------------------------------------------------------------------------
B|---10-10-10---8-10-10-10----10-10-10---8-10-10-10----10-10-10---8-10-10-10--
G|-7------------------------7------------------------7------------------------
D|----7--7--7---5--7--7--7-----7--7--7---5--7--7--7-----7--7--7---5--7--7--7--
A|-5------------------------5------------------------5------------------------
E|----------------------------------------------------------------------------

-------------------------------|
--11-11--10-10---8--8--10-10---|
-------------------------------|
---8--8---7--7---5--5---7--7---|
-------------------------------|
-------------------------------|


05:01 - 05:30 = RIFF 2 (chords, by the threes)

e|---|
B|---|
G|---|
D|---|
A|---|
E|---|


05:30 - 06:06 = RIFF 3 (background chanting)

[part 1]             X2 [part 2]
e|-----------------------|-----------------------|----------|
B|-----------------------|-----------------------|----------|
G|-----------------------|-----------------------|- PART 1 -|
D|--9--9-8----9--9--8-7--|--7--7-6----7--7--6-5--|-  (X1)  -|
A|-7--7------7--7--7-----|-5--5------5--5--5-----|----------|
E|-----------------------|-----------------------|----------|


06:06 - 07:08 = RIFF 4

[part 1]                                               [part 2]
e|-----------------------------------------------------|-----------------------------
B|-----------------------------------------------------|-----------------------------
G|-----------------------------------------------------|-----------------------------
D|--9-9-9-8-------------9-9-9-8---7--------------------|--9-9-9-8--------------------
A|-7----------7---7----7--------7-----7---7---7---7----|-7----------7---7---7---7----
E|----------000-000-00--------------000-000-000-000-00-|----------000-000-000-000-00-

[part 3]
----------------------------------|-----------------------------------------------------|-
----------------------------------|-----------------------------------------------------|-
----------------------------------|-----------------------------------------------------|-
---9-9-9-8---7--------------------|--7-7-7-6-------------7-7-7-6---5--------------------|-
--7--------7-----7---7---7---7----|-5----------7---7----5--------5-----7---7---7---7----|-
---------------000-000-000-000-00-|----------000-000-00--------------000-000-000-000-00-|-

-------------|
-------------|
--- PART 2 --|
---  (X1)  --|
-------------|
-------------|


07:08 - 07:25 = RIFF 5

[part 1]            (X2) [part 2]
e|------------------------|-------------------------------------------------------|
B|------------------------|-------------------------------------------------------|
G|------------------------|-------------------------------------------------------|
D|--9-----10-----7-----9--|--7-----8-----5-----7---------7-----8-----5-----7------|
A|-7-7-7-7--7-7-7-7-7-7-7-|-5-5-5-5-5-5-5-5-5-5-5-8-7---5-5-5-5-5-5-5-5-5-5-5-5---|
E|------------------------|-------------------------------------------------------|


07:25 - 07:44 = RIFF 5 with LEAD 2

[LEAD 2]
[part 1]                       (X2) [part 2]                       (X2)
e|---------------10------------------|----------------8------------------|
B|-12--10-12-13-----13-10-----10-12--|-10---8-10-11-----11--8------8-10--|
G|-------------------------12--------|--------------------------10-------|
D|-----------------------------------|-----------------------------------|
A|-----------------------------------|-----------------------------------|
E|-----------------------------------|-----------------------------------|


07:44 - 07:57 = RIFF 6 (heavy and fast)

e|---|
B|---|
G|---|
D|---|
A|---|
E|---|


07:57 - 08:17 = RIFF 7
(X4)
e|--------------------------------------------------------------|
B|-------12--10---------------12--10----------------------------|
G|-9--9---------12-11---9--9---------12-11-9----9-12-9-12--11---|
D|--------------------------------------------------------------|
A|--------------------------------------------------------------|
E|--------------------------------------------------------------|


08:17 - 08:36 = SOLO 1

e|---|
B|---|
G|---|
D|---|
A|---|
E|---|


08:36 - 08:55 = SOLO 2

e|---|
B|---|
G|---|
D|---|
A|---|
E|---|


08:55 - 09:14 = RIFF 7 (X4)


09:14 - 10:10 = RIFF 8 (with background chords on 3rd & 4th repeat;
slows on 6th repeat, into OUTRO 1)

e|-------------------------------------------------------------------------10-9---------
B|----10-12-12--12-12--12-13-12-10-12---------10-12-12--12-12--12-13-12-10------12-10---
G|-9----------------------------------------9-------------------------------------------
D|--------------------------------------------------------------------------------------
A|--------------------------------------------------------------------------------------
E|--------------------------------------------------------------------------------------

(X6)
------------------------------------------10-9-------------------------------------------|
-----10-12-12--12-12--12-13-12-10-12-----------12-10-12-10-------------------------------|
---9-------------------------------------------------------12-11-12-11-9----12-11-9------|
-------------------------------------------------------------------------12---------12---|
-----------------------------------------------------------------------------------------|
-----------------------------------------------------------------------------------------|


10:10 - 10:47 = OUTRO 1 (slow and crunchy)

e|---|
B|---|
G|---|
D|---|
A|---|
E|---|


10:47 - 11:12 = OUTRO 2 (INTRO 1 with ENDING 2)

Вверх

The Trooper

 .  .        .  .                                     .          .  .
-9--9--9-9---7--7--7-7----5--5--5-5----------0---9-|--9--9-9-----7--7--7-7---
-----------9-----------7------------5------0---0---|.--------9-------------7-
---------------------------------------------------|.------------------------
---------------------------------------------------|-------------------------

--5--5--5-5-----------------|-------------------------------------0----------
-------------5-------5-----.|.----------------------------------0---0--------
-------------------5---5-7-.|.-7--7-7-7---7-7-7-7--7-7-7-7-7-7-7-------7--7-7
----------------------------|------------------------------------------------

Play this 3 times.

-------------------------------0---------------------------------------0-----
-----------------------------0---0-----------------------------------0---0---
-7---7-7-7-7--7-7-7-7-7-7-7--------3--3-3-3---3-3-3-3--3-3-3-3-3-3-3-------7-
-----------------------------------------------------------------------------

----------------------------------0------|----0---------0--------0--------0--
--------------------------------0---0-.-.|--0---0-.---0---0-.--0---0-.--0---0
-7-7-7---7-7-7-7--7-7-7-7-7-7-7-------7-.|-r------7-r-------3-r------7-r-----
-----------------------------------------|-----------------------------------

At the end of second rep, the lyrics begin. ( You take my life...)

-------------------------------------0---------------------------------------
-----------------------------------0---0-------------------------------------
-7--7-7-7--7-7-7-7--7-7-7-7-7-7-7--------7--7-7-7--7-7-7-7--7-7-7-7-7-7-7----
-----------------------------------------------------------------------------

---0---------------------------------------0---------------------------------
-0---0-----------------------------------0---0-------------------------------
-------3--3-3-3--3-3-3-3--3-3-3-3-3-3-3--------7--7-7-7--7-7-7-7--7-7-7-7-7--
-----------------------------------------------------------------------------

-----|-----------------------------------------------------------------------
-----|.----------------------------------------------------------------------
-7-7-|.-5--5-5-5--5-5-5--5-5-5--5-5-5--5-5-5--5-5-5--5-5-5--7--7-7-7--7-7-7--
-----|-----------------------------------------------------------------------

----------------------------------|---0--------------------------------------
---------------------------------.|-0---0------------------------------------
-7-7-7--7-7-7--7-7-7--7-7-7--7-7-.|-------7--7-7-7--7-7-7--7-7-7--7-7-7--7-7-
----------------------------------|------------------------------------------

-----0-------------------------------------------0---------------------------
---0---0---------------------------------------0---0-------------------------
-7-------7--7-7-7--7-7-7--7-7-7--7-7-7--7-7-7--------3--3-3-3--3-3-3--3-3-3--
-----------------------------------------------------------------------------

-----------------------------------------------------------0-----------------
----------------5----------------------------------------0---0---------------
-3-3-3--3-3-3-3---3-5--5-5-5--5-5-5--5-5-5--5-5-5--5-5-5-------7--7-7-7--7-7-
---------------------------------------------------

Вверх

The Trooper (2 вариант)

 Solo 1: Adrian Smith
E5                             D5
|------------12--------12--------------------------|
|--15b(17)---15b(17)---15b(17)--r15--12---15~~~----|
|--------------------------------------------------|
|--------------------------------------------------|
|--------------------------------------------------|
|--------------------------------------------------|

B5                                   C5        D5
|------15b(17)~-----15--12-----------------------------------|
|--12--------------------------------------------------------|
|---------------------------15--14--12-----------------------|
|---------------------------------------14b(16)-r14--12------|
|--------------------------------------------------------14--|
|------------------------------------------------------------|

E5                                              D5
|----------------------------------------------------------------|
|--------------12--15-----------12--15----------12--15-----------|
|--14---b(16)----------14b(16)----------14b(16)---------14b(16)--|
|----------------------------------------------------------------|
|----------------------------------------------------------------|
|----------------------------------------------------------------|


|-----------------------------------------------------------------|
|--12--15----------12--15----------12--15----------12--15---------|
|----------14b(16)---------14b(16)---------14b(16)--------14b(16)-|
|-----------------------------------------------------------------|
|-----------------------------------------------------------------|
|-----------------------------------------------------------------|

B5
|---------------------------------------------------------|
|--12--15----------12--15----------12--15---------12--15--|
|----------14b(16)---------14b(16)--------14b(16)---------|
|---------------------------------------------------------|
|---------------------------------------------------------|
|---------------------------------------------------------|

C5          D5      E5
|-----------------------------------------15--19p15--17p15------|
|-------------------------------------/17-------------------17--|
|--14----15--14--12--14--14--12~-------------------------------|
|---------------------------------------------------------------|
|---------------------------------------------------------------|
|---------------------------------------------------------------|

D5
|---15--19p15--17p15-----15--19p15--17p15----15--19p15--17p15--|
|---------------------17------------------17-------------------|
|--------------------------------------------------------------|
|--------------------------------------------------------------|
|--------------------------------------------------------------|
|--------------------------------------------------------------|

B5
|-----15--19p15--17p15----15--19p15--17p15------15--19p15--17p15--|
|--17------------------17-------------------17--------------------|
|-----------------------------------------------------------------|
|-----------------------------------------------------------------|
|-----------------------------------------------------------------|
|-----------------------------------------------------------------|
D5
C5   *With harmony(see end of post)
|-------20b(22)--20b(22)--20b(22)--20b(22)r20--20b(22)r20--|
|---14-----------------------------------------------------|
|----------------------------------------------------------|
|----------------------------------------------------------|
|----------------------------------------------------------|
|----------------------------------------------------------|
D5
E5                         Harmony ends *
|--20b(22)r20--20b(22)-----19--20--17--19-----17----------------|
|------------------------------------------20-----19h20--17~~--|
|---------------------------------------------------------------|
|---------------------------------------------------------------|
|---------------------------------------------------------------|
|---------------------------------------------------------------|

B5                                  C5                  D5
|----------12----------12-----------------------------------------|
|------12------15b(17)-----15--12---------------------------------|
|--/14-----------------------------14b(16)r14--12--14--12---------|
|-----------------------------------------------------------------|
|----------------------------------------------------------14~~---|
|-----------------------------------------------------------------|


Solo 2: Dave Murray
(D5)   A5                                  G5
|--------5h8p5h8p5h8p5h8p5----------------------------------|
|--5h8----------------------8p5h8p5h8p5h8p5-----------------|
|--------------------------------------------7b(9)-(9)r(8)--|
|-----------------------------------------------------------|
|-----------------------------------------------------------|
|-----------------------------------------------------------|

E5                      F5   G5
|----------------------------------------------------|
|-----------------------------------------------5h7--|
|--7--6--5-----6--5----------------------------------|
|-----------7--------7-------------------------------|
|-----------------------6--5-------------------------|
|-----------------------------8--5~~-----------------|

A5                                G5
|--------------5h7p5h7p5h7----------------5h7p5h7p5/7--8p7h8p7--|
|--5h7p5h7p5-----------------5h7p5h7p6h8------------------------|
|---------------------------------------------------------------|
|---------------------------------------------------------------|
|---------------------------------------------------------------|
|---------------------------------------------------------------|

E5                                  F5
|----7---10b(12)--10b(12)--10b(12)--(12)r10--8--10~~--8--|
|--10-----------------------------------------------------|
|---------------------------------------------------------|
|---------------------------------------------------------|
|---------------------------------------------------------|
|---------------------------------------------------------|

G5                          A5
|-----12-----------12--15--12--15--12--12-----------12------|
|-/15-----15b(17)--------------------------15b(17)------15--|
|-----------------------------------------------------------|
|-----------------------------------------------------------|
|-----------------------------------------------------------|
|-----------------------------------------------------------|

G5
|---------------------------------10h12p10------------------------|
|--13--12--13--12--12---------/10-----------10--13b(15)-HOLD BEND-|
|-----------------------------------------------------------------|
|-----------------------------------------------------------------|
|-----------------------------------------------------------------|
|-----------------------------------------------------------------|

E5             F5      G5
|-----------------------------------------|
|--(15)5/---NH---T-bar-------------------|
|------------12---(9)-/-----17b(19)~~~--|
|-----------------------------------------|
|-----------------------------------------|
|-----------------------------------------|

A5                                    G5
|--------------------------------------------------20b(22)-(22)r20-|
|-----------------------------20b(22)--(22)r20--17-----------------|
|--/17--19b(21)--(21)r19--17---------------------------------------|
|------------------------------------------------------------------|
|------------------------------------------------------------------|
|------------------------------------------------------------------|

E5
|--17-------------------20b(22)--20--19--17-----------------------|
|-----20b(22)-------17----------------------20b(22)---------------|
|---------------------------------------------------20b(23)-r(21)-|
|-----------------------------------------------------------------|
|-----------------------------------------------------------------|
|-----------------------------------------------------------------|

F5             D5 G5 D5
|--------------------------|
|--1715-------------------|
|---------17--17--14--14--|
|--------------------------|
|--------------------------|
|--------------------------|

Harmony for Solo 1:

|--14b(15)--14b(15)r14--14b(15)r14--14b(15)r14--14b(15)--|
|--------------------------------------------------------|
|--------------------------------------------------------|
|--------------------------------------------------------|
|--------------------------------------------------------|
|--------------------------------------------------------|


|--12--14-----12----------------------|
|----------15----13--15--12h13--------|
|-------------------------------14~~--|
|-------------------------------------|
|-------------------------------------|
|-------------------------------------|

Вверх

The Wicker Man

I-----------------------------------------------------I
I-----------------------------------------------------I
I-----------------------------------------------------I
I--9-9---------9-9---------9-9-----------------12-12--I       <--------- 8 times
I--7-7---------7-7---------7-7----------10-10--10-10--I
I------0-0-0-0-----0-0-0-0-----0-0-0-0--8--8----------I

I---------------------------------------------------------------I
I---------------------------------------------------------------I
I---------------------------------------------------------------I
I--7---7-9-5----12-12--11-9-7---7-9-5---------5-5-7-----9-9--5--I
I--5---5-7-3----10-10--9--7-5---5-7-3----5-5--3-3-5-----7-7--3--I
I----------------------------------------3-3--------------------I

I--------------------------------------I
I--------------------------------------I
I--------------------------------------I
I--12-12--11-9-7-----7-9-5----5--7-7---I
I--10-10--9--7-5-----5-7-3----3--5-5---I
I--------------------------------------I

I-----------------------------------------------------------------------------I
I--12-10-12-10-12-----12-10-12-10-12-----12-10-12-10-12----12-10-12-13-12-----I
I-----------------12-----------------12-----------------12----------------12--I<- 4 times
I-----------------------------------------------------------------------------I
I-----------------------------------------------------------------------------I
I-----------------------------------------------------------------------------I

I-----------------------------------------------------I
I-----------------------------------------------------I
I-----------------------------------------------------I
I--9-9---------9-9---------9-9-----------------12-12--I       <--------- 4 times
I--7-7---------7-7---------7-7----------10-10--10-10--I
I------0-0-0-0-----0-0-0-0-----0-0-0-0--8--8----------I

I---------------------------------------------------------------I
I---------------------------------------------------------------I
I---------------------------------------------------------------I
I--7---7-9-5----12-12--11-9-7---7-9-5---------5-5-7-----9-9--5--I
I--5---5-7-3----10-10--9--7-5---5-7-3----5-5--3-3-5-----7-7--3--I
I----------------------------------------3-3--------------------I

I--------------------------------------I
I--------------------------------------I
I--------------------------------------I
I--12-12--11-9-7-----7-9-5----5--7-7---I
I--10-10--9--7-5-----5-7-3----3--5-5---I
I--------------------------------------I

I-----------------------------------------------------------------------------I
I--12-10-12-10-12-----12-10-12-10-12-----12-10-12-10-12----12-10-12-13-12-----I
I-----------------12-----------------12-----------------12----------------12--I<- 4 times
I-----------------------------------------------------------------------------I
I-----------------------------------------------------------------------------I
I-----------------------------------------------------------------------------I

Solo Part:
I-----------------------------------------------------I--
I-----------------------------------------------------I
I-----------------------------------------------------I
I--------------7------7------7-9----7-9-10-9-7--------I
I--7--9-10-7-----9-10---9-10-----10------------10-7---I
I-----------------------------------------------------I
/<------- twice
I--0-0-12-10-0-0-14-12-0-0-0-14-15-17-15-14-----I            /
I-------------------------------------------17--I           /
I-----------------------------------------------I          /
I-----------------------------------------------I         /
I-----------------------------------------------I        /
I-----------------------------------------------I_______/

I----)full--7-8-7-10-7----------------------------------)full--7-------------------------I
I--10------------------10-12-8-12-10-12-8-10-10-0-----10---------7-10-10-7-10-9-7---9-7--I
I-------------------------------------------------9-8-----------------------------9------I
I----------------------------------------------------------------------------------------I
I----------------------------------------------------------------------------------------I
I----------------------------------------------------------------------------------------I

I----------------------------I
I----------------------------I
I----------------------------I
I-------7--------7-----------I
I--9-10---10-9-7---10-9-7-6--I
I----------------------------I

I-----------------------------------------------------------------------------------------------I
I-0--7-4-0-4-0-4-7-4-0-4-0-4-8-5-0-5-0-5-8-5-0-5-0-5-10-7-0-7-0-7-10-7-0-7-0-7-12-8-0-8-0-8-12--I
I-----------------------------------------------------------------------------------------------I
I-----------------------------------------------------------------------------------------------I
I-----------------------------------------------------------------------------------------------I
I-----------------------------------------------------------------------------------------------I

I--------16-17-19-20-19-17----19----------------17----------------------0----------17-19-20--I
I--17-19-------------------20----20-19-17-19-20----20-19-17-20-19-17------17-19-20-----------I
I--------------------------------------------------------------------20----------------------I
I--------------------------------------------------------------------------------------------I
I--------------------------------------------------------------------------------------------I
I--------------------------------------------------------------------------------------------I

I--19-17----17-------------------------I
I--------20----20-17--15--15-----------I
I----------------------------17-16-16--I
I--------------------------------------I
I--------------------------------------I
I--------------------------------------I

I-----------------------------------------------------I--
I-----------------------------------------------------I
I-----------------------------------------------------I
I--------------7------7------7-9----7-9-10-9-7--------I
I--7--9-10-7-----9-10---9-10-----10------------10-7---I
I-----------------------------------------------------I
/<------- twice
I--0-0-12-10-0-0-14-12-0-0-0-14-15-17-15-14-----I            /
I-------------------------------------------17--I           /
I-----------------------------------------------I          /
I-----------------------------------------------I         /
I-----------------------------------------------I        /
I-----------------------------------------------I_______/
I-----------------------------------------------------------------------------I
I--12-10-12-10-12-----12-10-12-10-12-----12-10-12-10-12----12-10-12-13-12-----I
I-----------------12-----------------12-----------------12----------------12--I <- 8 times
I-----------------------------------------------------------------------------I
I-----------------------------------------------------------------------------I
I-----------------------------------------------------------------------------I

I-----------------------------------------------------------------------------------I
I-----------------------------------------------------------------------------------I
I-----------------------------------------------------------------------------------I
I--9-9-9-9-9-9-9-9-------------------------12-12-12-12-12-12-12-12-7-7-7-7-7-7-7-7--I<-- 3 times
I--7-7-7-7-7-7-7-7-10-10-10-10-10-10-10-10-10-10-10-10-10-10-10-10-5-5-5-5-5-5-5-5--I
I------------------8--8--8--8--8--8--8--8-------------------------------------------I

I-----------------------------------------------------------------------------I
I-----------------------------------------------------------------------------I
I-----------------------------------------------------------------------------I
I--9-9-9-9-9-9-9-9-------------------------12-12-12-12-12-12-12-12-7-7-7-7-7--I
I--7-7-7-7-7-7-7-7-10-10-10-10-10-10-10-10-10-10-10-10-10-10-10-10-5-5-5-5-5--I
I------------------8--8--8--8--8--8--8--8-------------------------------------I


Hand of fate is moving and the finger points to you
He knocks you to your feet and so what are you gonna do
Your tongue has frozen now you?ve got something to say
The piper at the gates of dawn is calling you his way.

You watch the world exploding every single night
Dancing in the sun a new born in the light
Say goodbye to gravity and say goodbye to death
Hello to eternity and live for every breath.

Your time will come
Your time will come

The ferryman wants his money you ain?t going to give it back
He can push his own boat as you set up off the track
Nothing you can contemplate will ever be the same
Every second is a new spark, sets the universe aflame

You watch the world exploding every night
Dancing in the sun a new born in the light
Brothers and their fathers joining hands and make a chain
The shadow of the Wicker man is rising up again.

Your time will come
Your time will come

Вверх

Total Eclipse

Intro:
E---------------------------|-------1-----------3------|
B---------------------------|---------1-----------3----|
G---------------------------|-----------2-----------4--|
D--7-----5-5-----5-----7-7--|--------------------------|
A--7-----5-5-----3-----5-5--|----3-----------5---------|
E--5-----3-3-----3-----5-5--|--1-----------3-----------|

E-----------------------------------------|-------1-----------3------|
B-----------------------------------------|---------1-----------3----|
G-----------------------------------------|-----------2-----------4--|
D--7-----5-5-----7-----5-5-----5-----7-7--|--------------------------|
A--7-----5-5-----7-----5-5-----3-----5-5--|----3-----------5---------|
E--5-----3-3-----5-----3-3-----3-----5-5--|--1-----------3-----------|

Riff 2:
E-----------------------------|-----------------------------|
B-----------------------------|-----------------------------|
G--2---------2---2---------2--|--7---------7---9---------9--|
D--2---------2---3---------3--|--5---------5---7---------7--|
A--0---0-0-0-0---0---0-0-0-0--|--0---0-0-0-0---0---0-0-0-0--|
E-----------------------------|-----------------------------|

Chorus:
Sunrise is gone                     freezing up the fires
E-----------------------------------|-------------------------------------------|
B-----------------------------------|-------------------------------------------|
G-----------------------------------|-------------------------------------------|
D-----------------------------------|------------------------------2------------|
A--1-2-1----------------------------|--1-2-1-----------------------0---1-2-1----|
E--------3-0-0-0-0-0-0-0-0-0-0-0-0--|--------3-0-0-0-0-0-0-0-0-3-------------3--|

Sunrise is gone                     numbing all desires
E-----------------------------------|-------------------------------------------|
B-----------------------------------|-------------------------------------------|
G-----------------------------------|-------------------------------------------|
D-----------------------------------|------------------------------2------------|
A--1-2-1----------------------------|--1-2-1-----------------------0------------|
E--------3-0-0-0-0-0-0-0-0-0-0-0-0--|--------3-0-0-0-0-0-0-0-0-3----------------|

Riff 3:
E-----------------------|--1-----------3-----------|
B-----------------------|--1-----------3-----------|
G-----------------------|--2-----------4-----------|
D--7-----5-----5-----7--|--3-----------5-----------|
A--7-----5-----3-----5--|--3-----------5-----------|
E--5-----3-----3-----5--|--1-----------3-----------|

E-----------------------------------|--1-----------3-----------|
B-----------------------------------|--1-----------3-----------|
G-----------------------------------|--2-----------4-----------|
D--7-----5-----7-----5-----5-----7--|--3-----------5-----------|
A--7-----5-----7-----5-----3-----5--|--3-----------5-----------|
E--5-----3-----5-----3-----3-----5--|--1-----------3-----------|

Solo-riff 1:
E---------------------------------------------|
B---------------------------------------------|
G---------------------------------------------|
D--------------------------------------5---7--|
A--7---7-7-7-7-7---7-7-7-7-7---7-7-7-7-3---5--|
E---------------------------------------------|

Solo-riff 2:
E-------------------------------------------|
B-------------------------------------------|
G-------------------------------------------|
D----------------------------------------5--|
A----------------------------------------5--|
E--2---2-2-2-2-2---2-2-2-2-2---2-2-2-2-2-3--|

On the fourth time of Solo-riff 2:
E-------------------------------------------------|
B-------------------------------------------------|
G-------------------------------------------------|
D-------------------------5--4--2-----------------|
A----------------------------------5--4--2--------|
E--2---2-2-2-2-2--2-2-2-2-------------------5--3--|

Riff 4:
Gone are the days when man looked down
E--1------------0---------0----------3------------|
B--3------------1---------1----------3------------|
G--2------------2---------0----------0------------|
D--0------------2---------2----------0------------|
A---------------0---------3----------2------------|
E------------------------------------3------------|
They?ve taken away his sacred crown
E--1------------0---------0----------3------------|
B--3------------1---------1----------3------------|
G--2------------2---------0----------0------------|
D--0------------2---------2----------0------------|
A---------------0---------3----------2------------|
E------------------------------------3------------|

To be so free, it took so long
E--1------------0---------0----------3------------|
B--3------------1---------1----------3------------|
G--2------------2---------0----------0------------|
D--0------------2---------2----------0------------|
A---------------0---------3----------2------------|
E------------------------------------3------------|

It?s not the journeys end, it?s just begun
E--1------------0---------0----------3------------|
B--3------------1---------1----------3------------|
G--2------------2---------0----------0------------|
D--0------------2---------2----------0------------|
A---------------0---------3----------2------------|
E------------------------------------3------------|

Outro:
E---------------------------|-------1-----------3------|
B---------------------------|---------1-----------3----|
G---------------------------|-----------2-----------4--|
D--7-----5-5-----5-----7-7--|--------------------------|
A--7-----5-5-----3-----5-5--|----3-----------5---------|
E--5-----3-3-----3-----5-5--|--1-----------3-----------|

E-----------------------------------------|-------1-----------3----------------|
B-----------------------------------------|---------1-----------3--------------|
G-----------------------------------------|-----------2-----------4------------|
D--7-----5-5-----7-----5-5-----5-----7-7--|-------------------------7-----5-5--|
A--7-----5-5-----7-----5-5-----3-----5-5--|----3-----------5--------7-----5-5--|
E--5-----3-3-----5-----3-3-----3-----5-5--|--1-----------3----------5-----3-3--|

Songstructure:
Intro
Riff 2 (6 times)
Chorus
Riff 2 (6 times)
Chorus
Riff 3
Solo-riff 1 (4 times)
Solo-riff 2 (4 times)
Riff 4 (4 times)
Outro
END

Lyrics:

Cold as steel the darkness waits, its hour will come
A cry of fear for the chosen worshipping the sun
Mother natures black revenge on those who waste her life
War babies in the garden of Eden shall turn our ashes to ice

Sunrise is gone, freezing up the fires
Sunrise is gone, numbing all desires
Sunrise is gone, Sunrise is gone

Around the world the people stop with terror-sticken eyes
A shadow cast upon them all to crush them like a fly
In the icy rain and whiplashed seas there?s nowhere left to run
The hammer blows of winter fall like a hurricane

Sunrise is gone, freezing up the fires
Sunrise is gone, numbing all desires

Around the world the nations wait
for some wise words from their leading light
You know it?s not only madmen who listen to fools
"Is this the end" the millions cried
clutching their riches as they died
Those who survive must weather the storm

Gone are the days when man looked down
They?ve taken away his sacred crown
To be so free, it took so long
It?s not the journeys end, it?s just begun

Вверх

To Tame A Land

 |---11--11--11--11--11--11--11--11--11--11--11--11--11--11--11---9-----7---7-
|.-9---9---9---9---9---9---9---9---9---9---9---9---9---9-----9---7---5---5---
|.---------------------------------------------------------------------------
|----------------------------------------------------------------------------

--7---7---7---7---7---7---7---7---7---7---7---7---7--7--9---11--11--11--11---
5---5---5---5---5---5---5---5---5---5---5---5---5----5--7--9---9---9---9-----
-----------------------------------------------------------------------------
-----------------------------------------------------------------------------

--11--11--11--11--11--11--11--11--11--11--11--9-----8---8---8---8---8---8---8
-9---9---9---9---9---9---9---9---9---9-----9--7---6---6---6---6---6---6---6--
-----------------------------------------------------------------------------
-----------------------------------------------------------------------------

---8---8---8---8---8---8---8--8--9---|----4-4-4--5-4-2-4-----4-4-4--5-4-2-4--
-6---6---6---6---6---6---6----6--7--.|--0-----------------0------------------
------------------------------------.|---------------------------------------
-------------------------------------|---------------------------------------
Slightly faster

----------------h------------------------4-4-4--5-4-2-4----4-4-4--5-4-2-4----
--5-5-5-5-5-5--7-5-5-------------------0-----------------0-------------------
----------------------7-7-7-7---7---7----------------------------------------
-----------------------------------------------------------------------------

---------------h---------------------------4-4-4--5-4-2-4----4-4-4--5-3-2-4--
-6-6-6-6-6-6--8-6-6----------------------0-----------------0-----------------
---------------------8-8-8-8-8---8---8---------------------------------------
-----------------------------------------------------------------------------

----------------h-------------------------4-4-4---5-4-2-4-----4-4-4--5-4-2-4-
--5-5-5-5-5-5--7-5-5--------------------0------------------0-----------------
----------------------7-7-7-7---7---7----------------------------------------
-----------------------------------------------------------------------------

---------------h-------------------------------------------------------------
-6-6-6-6-6-6--8-6-6----------------------------------------------------------
---------------------8-8-8-8--8-8-9---11-10-8-7-8---8-9--11-10-8-7-8---8-8-8-
-----------------------------------------------------------------------------
Vocals enter

-----------------------------------------------------------------------------
-----------------------------------------------------------------------------
-3-3-3-3-3-3-3-3-0-0-0-0-0-0-0-0--8-8--11-10-8-7-8--11-10-8-7-8----5-5-5-5-5-
-----------------------------------------------------------------------------

-----------------------------------------------------------------------------
----h---h------------------------------------------------------------h-------
-5-7--5----------------8-8--11-10-8-7-8---11-10-8-7-8---3-3-3-3-3-3-5--3--0-0
---------8-7-7-7-7-7-7-------------------------------------------------------

-----------------------------------------------------------------------------
----------------------------------------------------h---h--------------------
-0-0-0-3-5--11-10-8-7-8--11-10-8-7-8---5-5-5-5-5-5-7--5----------------------
----------------------------------------------------------7-7-7-7-7-7-7------

---4-4-4--5-4-2-4----4-4-4--5-4-2-4-----------------h-h----------------------
-4-----------------0-------------------5-5-5-5-5-5-7-5-7---------------------
-----------------------------------------------------------7-7-7-7---7--7----
-----------------------------------------------------------------------------

---4-4-4--5-4-2-4----4-4-4--5-4-2-4------------------h-h-h-------------------
-0-----------------0-------------------6-6-6-6-6-6--8-6-8-6------------------
-------------------------------------------------------------8-8-8-8---8--8--
-----------------------------------------------------------------------------

---4-4-4--5-4-2-4----4-4-4--5-4-2-4-----------------h-h----------------------
-0-----------------0-------------------5-5-5-5-5-5-7-5-7---------------------
-----------------------------------------------------------7-7-7-7---7--7----
-----------------------------------------------------------------------------

---4-4-4--5-4-2-4----4-4-4--5-4-2-4------------------h-h-h-------------------
-0-----------------0-------------------6-6-6-6-6-6--8-6-8-6------------------
-------------------------------------------------------------8-8-8-8---8--8--
-----------------------------------------------------------------------------

----4-4-4--5-4-2-4-----4-4-4--5-4-2-4------------------h---------------------
--0-----------------0--------------------5-5-5-5-5-5--7-5-5------------------
-------------------------------------------------------------7-7-7-7---7---7-
-----------------------------------------------------------------------------

---4-4-4--5-4-2-4----4-4-4--5-4-2-4-------------------h----------------------
-0-----------------0--------------------6-6-6-6-6-6--8-6-6-------------------
---------------------------------------------------------------8-8-8-8-8---8-
-----------------------------------------------------------------------------

-------4-4-4--5-4-2-4----4-4-4--5-3-2-4------------------h-------------------
-----0-----------------0-------------------5-5-5-5-5-5--7-5-5----------------
-8-------------------------------------------------------------7-7-7-7---7--7
-----------------------------------------------------------------------------

-------4-4-4---5-4-2-4-----4-4-4--5-4-2-4----------------h-------------------
-----0------------------0------------------6-6-6-6-6-6--8-6-6----------------
---------------------------------------------------------------8-8-8-8--8-8-9
-----------------------------------------------------------------------------

-----------------------------------------------------------------------------
-----------------------------------------------------------------------------
--11-10-8-7-8---8-9--11-10-8-7-8---8-8-8--3-3-3-3-3-3-3-3-0-0-0-0-0-0-0-0--8-
-----------------------------------------------------------------------------

-----------------------------------------------------------------------------
----------------------------------------------h---h--------------------------
-8--11-10-8-7-8--11-10-8-7-8----5-5-5-5-5--5-7--5----------------8-8--11-10-8
---------------------------------------------------8-7-7-7-7-7-7-------------

-----------------------------------------------------------------------------
-----------------------------------------------------------------------------
-7-8--11-10-8-7-8---3-3-3-3-3-3-5--3--0-0--0-0-0-3-5--11-10-8-7-8--11-10-8-7-
-----------------------------------------------------------------------------

-----------------------------------------------------------------------------
------------------h---h------------------------------------------------------
-8---5-5-5-5-5-5-7--5-----------------7-7-7-7-7-7-7-7--7-7-7-7-7-7-7-7-3-3-3-
-----------------------7-7-7-7-7-7-7-----------------------------------------

-----------------------------------------------------------------------------
-----------------------------------------------------------------------------
-3-3-3-3--0-0-0-0-0-0-0--7-7-7-7-7-7-7--7-7-7-7-7-7-7--5-5-5-5-5-5-5---------
----------------------------------------------------------------------7-7-7-7

-----------------------------------------------------------------------------
-----------------------------------------------------------------------------
---5-7--7-7-7-7-7-7-7--7-7-7-7-7-7-7---3-3-3-3-3-3-3---0-0-0-0-0-0-0---7-7-7-
-8---------------------------------------------------------------------------

-----------------------------------------------------------------------------
-----------------------------------------------------------------------------
-7-7-7-7--7-7-7-7-7-7-7--5-5-5-5-5-5-5------------5-7---5-5-5-5-5-5-5--5-5-5-
----------------------------------------7-7-7-7-8----------------------------

-----------------------------------------------------------------------------
-----------------------------------------------------------------------------
-5-5-5-5---2-2-2-2-2-2-2------------0-2--5-5-5-5-5-5-5--5-5-5-5-5-5-5--2-2-2-
--------------------------3-3-3-3-3------------------------------------------

-----------------------------------------------------------------------------
---------------------------12-----12-----12---14-----14-----14---15----15----
-2-2-2-2------------0-2-------0-0----0-0----0----0-0----0-0----0----0-0---0-0
----------3-3-3-3-3----------------------------------------------------------

------------------h----------------------------------------------------------
-15---14---14---14-15-14-----12-----12-----12---14-----14-----14---15-----15-
----0----0----0-----0---0-------0-0----0-0----0----0-0----0-0----0----0-0----
-----------------------------------------------------------------------------

------------------------h----------------------------------------------------
-----15---14---14---14-12-----7-----7-----7---9-----9-----9---10----10----10-
-0-0----0----0----0-----0-------0-0---0-0---0---0-0---0-0---0----0-0---0-0--0
-----------------------------------------------------------------------------

----------h---h--------------------------------------------------------------
9---9----9-10---9------7-----7-----7----9-----9-----9----10-----10-----10----
--0---0-----0-----0------0-0---0-0----0---0-0---0-0---0-----0-0----0-0----0--
-----------------------------------------------------------------------------

-----------------------------------------------------------------------------
-9---9---9-7----12-----12-----12---14-----14-----14---15-----15-----15---14--
---0---0--0--------0-0----0-0----0----0-0----0-0----0----0-0----0-0----0----0
-----------------------------------------------------------------------------
" The time..         will come.."

--------h--------------------------------------------------------------------
-14---14-15-14----12-----12-----12----14-----14-----14---15-----15-----15----
----0-----0----0-----0-0----0-0----0-----0-0----0-0----0----0-0----0-0----0--
-----------------------------------------------------------------------------

-------------h---------------------------------------------------------------
-14---14---14-12---7-----7-----7---9-----9------9---10-----10-----10---9-----
----0----0-----0-----0-0---0-0---0---0-0----0-0---0----0-0----0-0----0---0---
-----------------------------------------------------------------------------

--------h--------------------------------------------------------------------
--9----9-10-9----7-----7-----7---9-----9------9---10-----10-----10---9----9--
----0-----0---0----0-0---0-0---0---0-0---0-0----0----0-0----0-0----0----0---0
-----------------------------------------------------------------------------

----h------------------------------------------------------------------------
---9-7--12-----12-----12---14-----14-----14---15-----15-----15---14---14-----
-----0-----0-0----0-0----0----0-0-----0-0---0----0-0----0-0----0----0---0----
-----------------------------------------------------------------------------

---h-------------------------------------------------------------------------
-14-15-14----12-----12-----12----14-----14-----14----15-----15-----15---14---
-----0----0-----0-0----0-0----0-----0-0----0-0----0-----0-0----0-0----0----0-
-----------------------------------------------------------------------------

--------h--------------------------------------------------------------------
-14---14-12---7-----7-----7----9------9------9----10-----10----10----9----9--
----0-----0-----0-0---0-0---0----0-0----0-0----0-----0-0----0-0---0----0----0
-----------------------------------------------------------------------------

---h-------------------------------------------------------------------------
--9-10--9----7------7-----7----9------9------9---10-----10-----10----9----9--
-----0----0-----0-0---0-0---0----0-0----0-0----0----0-0----0-0----0----0----0
-----------------------------------------------------------------------------

---h-----7------3-----------7--7------3----------7--7-----3---------7-7---3--
--9-7----7------3--5--5-----7--7------3--5--5----7--7-----3--5--5---7-7---3--
----0----5------1--5--5-----5--5------1--5--5----5--5-----1--5--5---5-5---1--
-------------------3--3------------------3--3----------------3--3------------

-----------------------------------------------------------------------------
-7--7----->-----10-9-10-9---7--9--.----->---10-9-10-9---7--9--.--->-10-9-10-9
-7--7-----7----------------------10-----7--------------------10---7----------
-5--5------------------------------------------------------------------------


-----------------------------------------------------------------------------
-7--9--.-9-7-------------->--10-9-10-9---7--9--.---->---10-9-10-9---7--9--.--
------10----10-9-10-9-7-5-7--------------------10---7--------------------10--
-----------------------------------------------------------------------------

-----------------------------------------------------------------------------
->-10-9-10-9---7--9--.--9-7--------------->--10-9-10-9---7--9---.--->--10-9--
-7------------------10------10-9-10-9-7-5-7--------------------10---7--------
-----------------------------------------------------------------------------

-----------------------------------------------------------------------------
-10-9---7--9--.-->-10-9-10-9---7--9---.------------------7--->--10-9-10-9---7
-------------10--7-------------------10---------5-7-9-10-----7---------------
------------------------------------------5-7-8------------------------------

-----------------------------------------------------------------------------
-9--.-->--10-9-10-9---7--9---.-->-10-9-10-9---7--9--.-----------------7--->--
---10--7--------------------10--7------------------10---------5-7-9-10----7--
--------------------------------------------------------5-7-8----------------

-----------------------------------------------------------------------------
-10-9-10-9---7-9---.-->--10-9-10-9---7--9--.-->--10-9-10-9---7--9--.--9-7----
------------------10--7-------------------10--7-------------------10------10-
-----------------------------------------------------------------------------

-----------------------------------------------------------------------------
------------>--10-9-10-9---7--9--.-->--10-9-10-9---7--9--.-->--10-9-10-9---7-
-9-10-9-7-5-7-------------------10--7-------------------10--7----------------
-----------------------------------------------------------------------------

-----------------------------------------------------------------------------
-9--.--9-7--------------->--10-9-10-9---7--9--.-->--10-9-10-9---7--9--.-->---
---10------10-9-10-9-7-5-7-------------------10--7-------------------10--7---
-----------------------------------------------------------------------------

-----------------------------------------------------------------------------
-10-9-10-9---7--9--.-----------------7-->--10-9-10-9---7--9--.-->--10-9-10-9-
------------------10--------5-7-9-10----7-------------------10--7------------
----------------------5-7-8--------------------------------------------------

--------------------------------------------------------|--------------------
-7--9--.-->--10-9-10-9---7--9--.-----------------7----7-|.--7-9--10---9---7--
------10--7-------------------10--------5-7-9-10--------|.------0---0---0---0
----------------------------------5-7-8-----------------|--------------------
Guitar Solo

-----------------------------------------------------------------------------
-9---10---9---7---9---10---9---7---9---10---9--5---7---8---7---5---7---8-----
---0----0---0---0---0----0---0---0---0----0------0---0---0---0---0---0---0---
-----------------------------------------------------------------------------

-----------------------------------------|-----------------------------------
-7---5---7---8---7---5---7---8---7--7---.|--7-9---10---9---7---9---10---9----
---0---0---0---0---0---0---0---0--------.|------0----0---0---0---0----0---0--
-----------------------------------------|-----------------------------------
Play 6 times

-----------------------------------------------------------------------------
-7---9---10---9---7----9---10---9--5---7---8---7---5---7---8---7---5---7---8-
---0---0----0---0---0----0----0------0---0---0---0---0---0---0---0---0---0--0
-----------------------------------------------------------------------------

-----------------------------------------------------------------------------
7---5---7---8---7--7-9-11---12---11---9---11---12---11---9---11---12---11----
--0---0---0---0-----------0----0----0---0----0----0----0---0----0----0----0--
-----------------------------------------------------------------------------

-----------------------------------------------------------------------------
-9---11---12---11----7-7--9---10---9---7---9---10---9---7---9---10---9---7---
---0----0----0----0---------0----0---0---0---0----0---0---0---0----0---0---0-
-----------------------------------------------------------------------------

-----------------------------------------------------------------------------
-9---10---9--5---7---8---7---5--7---8---7---5---7---8---7---5---7---8---7-9--
---0----0------0---0---0---0---0--0---0---0---0---0---0---0---0---0---0-----0
-----------------------------------------------------------------------------

-----------------------------------------------------------------------------
-11---12---11---9---11---12---11---9---11---12---11---9---11---12---11-7--9--
----0----0----0---0----0----0----0---0----0----0----0---0----0----0-----0---0
-----------------------------------------------------------------------------

----------------------------------------------------------------|--9---------
-10---9----7---9---10---9---7---9---10---9---7---9---10---9-----|--9---------
----0----0---0---0----0---0---0---0----0---0---0---0----0----0--|--7---------
----------------------------------------------------------------|------------
Slower

------7---------------11--------------8-----------------9-------------------|
------7---------------11--------------8-----------------9-------------------|
------5----------------9--------------6-----------------7-------------------|
----------------------------------------------------------------------------|



Outro
"""""

---11---11---11---11---11---11---11---11---11---11---11---11---11---11--11--9
-9----9----9----9----9----9----9----9----9----9----9----9----9----9------9--7
-----------------------------------------------------------------------------
-----------------------------------------------------------------------------
Slower

--7---7---7---7---7---7----7---7---7---7----7---7---7---7---7--9----11---11--
5---5---5---5---5---5---5----5---5---5----5---5---5---5-----5--7--9----9-----
-----------------------------------------------------------------------------
-----------------------------------------------------------------------------

---11---11---11---11---11---11---11---11---11---11---11---11--11---7----8---8
-9----9----9----9----9----9----9----9----9----9----9----9------9---5--6---6--
-----------------------------------------------------------------------------
-----------------------------------------------------------------------------

---8---8---8---8---8---8---8---8---8---8---8---8---8------9-----11------|
-6---6---6---6---6---6---6---6---6---6---6---6-----6------7------9------|
------------------------------------------------------------------------|
------------------------------------------------------------------------|
Ritard.

Вверх

Transilvania

Intro:
Riff 1:
Guitar 1: Play 4 times
D|---------------------------------------------------------3-|
A|-5----5--5--5--5--5----5--5--5--5--5----5--5--5--5--3------|
E|-----------------------------------------------------------|

Guitar 2: Play 4 times
E|------------|
B|------------|
G|------------|
D|-7---5---10-|
A|-5---3----8-|
E|------------|

Guitar 1: Play 3 times
D|-------------------------------------------------------5-|
A|-7----7--7--7--7--7----7--7--7--7--7----7--7--7--7--5----|
E|---------------------------------------------------------|

Guitar 2:  Play 3 times
D|-9----7----12-|
A|-7----5----10-|
E|--------------|

Guitar 1:
D|----------------------------------------------------------|
A|-7----7--7--7--7--7----7--7--7--7--7----7--7--7--7--3---5-|
E|----------------------------------------------------------|

Guitar 2:
D|-9---5---7-|
A|-7---3---5-|
E|-----------|

Riff 2:
Guitar 1 & Guitar 2:

D|-2-2-2-2-2-5-4-2-2-2-2-2-5-4---------------2-2-2-2-2-5-4-|
A|-----------------------------5-5-5-5-5-2-5---------------|
E|---------------------------------------------------------|

D|-2-2-2-2-2-5-4-2-2-2-2-2-5-4-------------2--2--2--2--2-------|
A|-----------------------------5-5-5-5-5--2--5------------5--4-|
E|-------------------------------------------------------------|

D|-------------------------------------------------------------|
A|-2-2-2-2-2-5-4-2-2-2-2-2-5-4-------------2--2--2--2--2--5--4-|
E|-----------------------------5-5-5-5--5--2--5----------------|

D|-------------------------------------------------------------|
A|-2-2-2-2-2-5-4-2-2-2-2-2-5-4-------------2--2--2--2--2--5--4-|
E|-----------------------------5-5-5-5-5--2--5-----------------|

D|-2-2-2-2-2-5-4-2-2-2-2-2-5-4-------------2--2--2--2--2--5--4-|
A|-----------------------------5-5-5-5-5--2--5-----------------|
E|-------------------------------------------------------------|

D|-2-2-2-2-2-5-4-2-2-2-2-2-5-4------------------2--2-2-2-2-----|
A|------------------------------5--5--5--5--5--2--5--------5-4-|
E|-------------------------------------------------------------|

D|-------------------------------------------------------------|
A|-2-2-2-2-2-5-4-2-2-2-2-2-5-4-------------2--2--2--2--2--5--4-|
E|-----------------------------5-5-5-5-5--2--5-----------------|

D|-------------------------------------------------------------|
A|-2-2-2-2-2-5-4-2-2-2-2-2-5--4------------------2--2--2--2--2-|
E|-------------------------------5--5--5--5--5--2--5-----------|

Riff 3:
Guitar 1 & Guitar 2: Play 3 times
E|-------------------------------------------------------------|
B|-12-------10-------8--------8-------8----8---8p7-10-8p7--8p7-|
G|-14b16--12b14--10b12--10b12--10b12-10b12---9-----------9-----|

Guitar 1 & Guitar 2:
E|-------------------------------------------------------------|
B|-12-------10-------8--------8--------8-----8-----8p7--10p8-7-|
G|-14b16--12b14--10b12--10b12--10b12--10b12-----9--------------|

Now play Riff 2 again, then the 1st bar of Riff 3 (3 times)
and then

Guitar 1 & Guitar 2:
E|-------------------------------------------------------------|
B|-12-------10-------8--------8--------8----8-----8p7--10--8p7-|
G|-14b16--12b14--10b12--10b12--10b12--10b12----9---------------|

Guitar 1: Play 3 times
D|----------------------------------------------------5-|
A|-7-7--7--7--7--7----7--7--7--7--7----7--7--7--7--5----|
E|------------------------------------------------------|

Guitar 2: Play 3 times
D|-9----7----12-|
A|-7----5----10-|
E|--------------|

Guitar 1:
D|-----------------------------------------------------------|
A|--7----7--7--7--7--7----7--7--7--7--7----7--7--7--7--3---5-|
E|-----------------------------------------------------------|

Guitar 2:
D|-9---5---7-|
A|-7---3---5-|
E|-----------|

Guitar 1 & Guitar 2:
D|-----5--5--5--5p4------------|
A|--7------------------7--5--7-|
E|-----------------------------|

Riff 4:
Guitar 1 & Guitar 2: Play 8 times.
D|--5--5--5--5p4-------------|
A|-------------------7--5--7-|
E|---------------------------|

Solo:
Guitar 2:
E|------------12-------12---------------12-14-15b17-15b17-15-14|
B|---------------12-15----15-15b17-15b17-----------------------|
G|14b16-14b16--------------------------------------------------|

E|-12-------------|
B|----15-15b17r15-|
G|----------------|

E|--------17p15----17p15--17p15-17p15-17p15--------------------|
B|-----17-------17-------17------17------17-17-17p15-17p15--12-|
G|-12~---------------------------------------------------16----|

E|-----------|
B|----12-----|
G|-16--14p12-|

E|------------------------------------------------12----------|
B|-------12-------------------------------------12--12-15b17~-|
G|-14p12--14p12-12--------------------14b16--14---------------|
D|----------------14-14p12------------------------------------|
A|-------------------------14-12h14p12------------------------|
E|----------------------------------------15------------------|

E|-----------------------------------------------|
B|-----------------------------------------------|
G|-14b16r14--12--14b16r14--12--14b16r14--12------|
D|--------------------------------------------14-|
A|-----------------------------------------------|
E|-----------------------------------------------|
During the Solo Guitar 1 plays Riff 4 ( 16 times ).

Riff 5:
Guitar 1: Play 16 times     Guitar 2 plays Riff 4 ( 16 times )
E|-------------------------|
B|-8--8--8--8p7------------|
G|-----------------9--7--9-|

Riff 6:
Guitar 1: Play 6 times
E|-------------------------------------|
B|-12--12--12--12p10-------------------|
G|--------------------------12--11--12-|

Guitar 2: Play 6 times
E|-----------------------------------|
B|-8---8---8---8p7-------------------|
G|-------------------------9---7---9-|

Solo:
Guitar 1:      Guitar 2 plays here Riff 4 ( 32 times )
E|-----trill--------trill--------trill-------trill-------|
B|-10h12p10-12h13p12-13h15p13-12h13p12-15b17-15b17-15b17-|
G|-------------------------------------------------------|

E|-12-14-15-15b17-|
B|----------------|
G|----------------|

E|15b17-15-14-12-----------------------------------------------|
B|--------------15-15b17/17-15h17-15p13p12-13p12-12-13p12h13-15|
G|------------------------------------------------14-12h14-----|

E|-12h14-12--14--12----------------------------------------|
B|------------------15-13p12------------------------12b15--|
G|--------------------------14-12/11-14p12/11-12p11----/16-|
D|--------------------------------------------------14-----|
A|---------------------------------------------------------|
E|---------------------------------------------------------|

E|-------------------|
B|-15h17p15h17p15h17-|
G|-------------------|

E|--------------------------------------------14h15p14-14-14-|
B|-15h17p15h17p15-15h17p15-15h17p15h17p15--17--17------------|
G|-------------------16----------16-------16-----------------|

E|-15p14-15-17-|
B|-------------|
G|-------------|

E|-17b19-17b19-17b19-17b19-17b19r17-15-14-15-14----------|
B|----------------------------------------------17-17-15-|
G|-------------------------------------------------------|

E|-------------------------|
B|-13h15p13-12h13p12-13-15-|
G|-------------------------|

E|-12h14p12-14p12-15-14p12----------------------------------|
B|----------15-------------15-15b17-15p13-15-13p12----------|
G|-------------------------------------------------14p12----|
D|-------------------------------------------------------14-|
A|----------------------------------------------------------|
E|----------------------------------------------------------|

Play this bar 6 times Play the 1st bar 5 times and the 2nd once
E|-------12-15p12-|  E|----------10--13p10-|-----------10--13-|
B|-15b17----------|  B|-13b15--------------|--13b15-----------|
G|----------------|  G|--------------------|------------------|

Play the 1st bar 2 times and the 2nd once
E|-----------8--11p8--|----------8--11-|
B|--11b13-------------|-11b13----------|
G|--------------------|----------------|

Play the 1st bar 2 times and the 2nd once
E|-----------10--13p10-|----------10--13-|
B|--13b15--------------|-13b15-----------|
G|---------------------|-----------------|

E|-0-12p0--0--10p0--0--8p0--0--7p0--0--5p0--0--3p0--0--5p0-0-0-|
B|-------------------------------------------------------------|
G|-------------------------------------------------------------|

Play this bar 5 times
E|-------12-15p12-|
B|-15b17----------|
G|----------------|

Play the 1st bar 3 times and the 2nd once
E|-------10-13p10-|-------10-13p10-13p10------10-------10-13-|
B|-13b15----------|-13b15----------------13b15---13b15-------|
G|----------------|------------------------------------------|


E|-------8-----8-11p8-------8--8--11-----10-10-13p10------10-10|
B|-11b13-11b13-----11b13-11b13-13b15-13b15-----13b15-13b15-----|
G|-------------------------------------------------------------|

E|-13-|
B|----|
G|----|

E|--------------------------------------------------|
B|-0--5p3p0--5p3p0--5p3p0--5p3p0--------------------|
G|--------------------------------2--2b3r2p0--------|
D|------------------------------------------------2-|
A|--------------------------------------------------|
E|--------------------------------------------------|

Now Guitar 1 & Guitar 2 play Riff 4 ( 5 times ) and then:
Guitar 1 & Guitar 2:
E|----------0-0-0-12p0-0-10p0-0-8p0-0-7p0-0-5p0-0-3p0-0-2p0-0-0|
B|-------------------------------------------------------------|
G|-------------------------------------------------------------|
D|55-5-5p4-----------------------------------------------------|
A|---------7---------------------------------------------------|
E|-------------------------------------------------------------|

Now Guitar 1 plays Riff 4 ( 6 times ) and Guitar 2:
Guitar 2:  Play 6 times
E|----------------------------|
B|----------------------------|
G|----------------------------|
D|-9--9--9--9p7---------------|
A|------------------10--9--10-|
E|----------------------------|

Guitar 1:
E|----------------------------------------|
B|----------------------------------------|
G|--trill--------trill-------trill--------|
D|-0h2p0----0h2p0----0h2p0------2---------|
A|--------------------------------------2-|
E|--------------------------------------0-|

Ending:
Guitar 1 & Guitar 2:
E|-----------------------------------|
B|-----------------------------------|
G|-----------------------------------|
D|-/9--7--5--4-------------------2---|
A|----------------7--5--/10~----2----|
E|---------------------------------0-|

Guitar 1: Clean sound                                  N.H.
E|----------------0-----------|----0--------------------12-|
B|-------------------0--------|-------0-----------------12-|
G|-----------0----------0-----|----------0--------------12-|
D|-------4------------------4-|-------------2-----------12-|
A|----2-----------------------|---------------2------------|
E|-0--------------------------|--------------------12------|
< -----Play 3 times------ >

Вверх

Transilvania (2 вариант)

Riff 1:
D                                   C   F
-----------------------|----------------------|
-----------------------|----------------------|
-----------------------|----------------------|
-0-0-0-0-0--0-0-0-0-0--|-0-0-0-0-0-------3----|
-----------------------|-------------3--------|
-----------------------|----------------------|

Riff 2:
E                                   D   G                    C   D
-----------------------|----------------------|  (end it   ------------|
-----------------------|----------------------|   like     ------------|
-----------------------|-----------------0----|   this     ------------|
-2-2-2-2-2--2-2-2-2-2--|-2-2-2-2-2---0--------|   the      -------0----|
-----------------------|----------------------|   last     ---3--------|
-----------------------|----------------------|   time)    ------------|


Main Theme:
1.--------------| 2.-------------
Em                           D             Em             |
----------------------------|------------------------------|--------------|
----------------------------|------------------------------|--------------|
----------0-------------0---|------------------------0----*|--------------|
-2-2-2--2---4--2-2-2--2---4-|-0-0-0--0---0--2-2-2--2---4--*|-2-2-2--2-0---|
----------------------------|----------2-------------------|------------4-|
----------------------------|------------------------------|--------------|

1.-------------| 2.-------------
Bm                           A             Bm             |
----------------------------|------------------------------|--------------|
----------------------------|------------------------------|--------------|
----------------------------|-----------------------------*|----------0---|
----------0-------------0---|------------------------0----*|------------4-|
-2-2-2--2---4--2-2-2--2---4-|-0-0-0--0---0--2-2-2--2---4---|-2-2-2--2-----|
----------------------------|----------2-------------------|--------------|



Riff 3:
Em D  G            C      D      Em                    C      D
-----------------|--------------------------|  (last  -------------------
-----------------|--------------------------|   time  -------------------
-4--2--0-0-0--0--|--0------2-0----0---------|   play  --0------2-0-------
-----------------|----4-2------4----4-2--2--|   only  ----4-2------4-----
-----------------|--------------------------|   this) -------------------
-----------------|--------------------------|         -------------------


Solo:
Just freak out over the progression Em | Em | D | D | C | D | Em | Em
and end it all with an Em that fades into Strange World, which isnt too
difficult to play...

Вверх

Two Minutes To Midnight

Intro
Sec 1
------------------------------------------------------
-----------------------7--7---------------------------
----5----7----5----7--7v-7------5-----7----5------2--
----5----7----5----7------------5-----7----5------2--play 4 times
-00---00---00--00-----------00----00---00----00--0-
------------------------------------------------------

Sec 2
------------------------------------------------------
------------------------------------------------------
----5----7----5----7--7v-7------5-----7----5------2--play 2 times
----5----7----5----7--7--7------5-----7----5------2--
-00---00---00--00-----------00----00---00----00--0--0-3p0
------------------------------------------------------

Verse

Play Intro/Sec 2 twice

then....

some blackened pride still burns...
and the reasons for the carnage...
madmen play on words and make us all...

----------------------------------------------------------
----------------------------------------------------------
----5----7----5----7--7--7-7-----5-----7----5--5--5-5-5-
----5----7----5----7--7--7-7-----5-----7----5v-5--5-5-5-(play 2 times)
-00---00---00--00-------------55---55---55--------------
----------------------------------------------------------

Chorus

The killers breed...
demon seed

fortune...

--------------------------------------------------------------------
-----------------6---6------3-------3------------------------------
-2---x-x--2----x-5---5--x-x-4--x-x--4--5----5/4--4p2----------3---
-2---x-x--2----x-7---7--x-x-5--x-x--5--5----5/4--4p2--3---x-x-3---
-0---x-x--0----x-0---------------------3----3/---------3---x-x-1--
--------------------------------------------------------1---x-x----

the pain....

-----------------------------------
-----------------------------------
-3/2--2p0--5--5-5-5---5-0---------
-3/2--2p0--5--5-5-5---5-5----5----
-1---------3--3-3-3---3-2----5----
------------------------------3----

war again....

pray for my soul...
--------------------------------------------------------------------
-----------------6----------3-------3------------------------------
-2---x-x--2----x-5------x-x-4--x-x--4--5----5/4--4p2-------------3-
-2---x-x--2----x-7------x-x-5--x-x--5--5----5/4--4p2--3---x-x-3--3-
-0---x-x--0----x-0---------------------3----3/---------3---x-x-3--1
--------------------------------------------------------1---x-x-1--

anymore....

-------------------
-------------------
-3/2--2p0--2--1---
-3/2--2p0--2--2----
-----------2--2----
-----------0--0----


2 Minutes....

the hand that....
------------------------------------------------------
------------------------------------------------------
--------------------------------5------7----10--12---
-5-7-7-7-7p5----5-7-7-7-7p5---5-5----7----10--12---play twice
-0-0-0-0-0---7--0-0-0-0-0---7-3-5----5-----8--10---
----------------------------------3-------------------

Fill 1
----------------
-6---------------
---7-------------
-----7-----------
----------------
----------------

Fill 2
----------------
----------------
----------------
-7-5---------5--
-----7-6-5-3-0-
----------------

------------------------------------------------------
-----------------------7--7---------------------------
----5----7----5----7--7v-7------5-----7----5------2--
----5----7----5----7------------5-----7----5------2--
-00---00---00--00-----------00----00---00----00--0-
------------------------------------------------------

-----------------------------------------------------------------
---------------------------7--7----------------------------------
----5----7----5h7p5----7--7v-7------5-----7----5------2---------
----5----7----5h7p5----7--7--7------5-----7----5------2---------
-00---00---00--------------------00----00---00----00--0--0-3p0-
-----------------------------------------------------------------

Rhythm during solo 1
----------------------------------------------------------------
10-6-8-8-8-x-x-6-6-6-5-5-5-------------------------6-8-8------
-9-5-7-7-7-x-x-5-5-5-4-4-4--7---------4-5-7-9-7-5-5-7-7------
-7-3-5-5-5-x-x-3-3-3-2-2-2--7---4-5-7-------------3-5-5--5----
------------------------------5----------------------------5-x-x-
-----------------------------------------------------------3-x-x-

------------------------------------------------------------------------
-6-6-6-5-5-5------------------------15bp13-15-12-13--------17---------
-5-5-5-4-4-4-7--------------16bp14------------------14-16b----16bp14--
-3-3-3-2-2-2-7-----5----------------------------------------------------
--------------5-5-7---7-5-3---------------------------------------------
-------------------------------------------------------------------------

------------------------------
-----------------------6-8----
-14----------4-5-7--9-5-7----
---16/-4-5-7--------7-3-5----
---------------------0--------
------------------------------

-----------------------------------------
-8-8-8-x-x-6-6-6-5-5-5------------------
-7-7-7-x-x-5-5-5-4-4-4--7---------------
-5-5-5-x-x-3-3-3-2-2-2--7----5----------
-------------------------5-5-7--7-5-3----
------------------------------------------

Rhythm during solo 2

---------------------------------
-----3-----3-----------------------
-9-9-0-x-x-0-x-x-5--5--6--------------------
-9-9-0-x-x-0-x-x-5--5--7-------4-5-7-----------
-7-7-2-x-x-2-x-x-3--3--4-4-5-7-----------------
---------------------------------

---------------------------------------
-----3-----3---------------------------
-9-9-0-x-x-0-x-x-5--5--6---------------
-9-9-0-x-x-0-x-x-5--5--7---------------
-7-7-2-x-x-2-x-x-3--3--4---2-5-2-------
--------------------------5-------5-3---

-----12-----12-------------12---------------15b-15-14-12------
--------15b----15p12----12---12--------------------------15-13-
-7v------------------14b--------14b-12---12--------------------
----------------------------------------14-----------------------
-----------------------------------------------------------------
-----------------------------------------------------------------

------------------------------
-12--------------------------
---14-12-11------------------
------------14-12------------
------------------------------
------------------------------

Harmony Interlude

---------------------------------------------
---------------------------------------------
-5------7----9--7--9---12--7--9-------------
-5v-/---7----9--7--9v--12--7--9v--(2 times)--
-3----0-5----7--5--7---10--5--7-------------
-----------0---------------------------------

-12------------------------------------
---12-15/dive---------------------------
----------------14b-12-----7-----7v----
----------------------14v----9-7-------
---------------------------------------
---------------------------------------

-12----------------------------------------------------------
---12-10h12p10-----------15------------12-13-12------------
----------------12p11h12-----14b-12-14------------7dive-----
--------------------------------------------------------------
--------------------------------------------------------------
--------------------------------------------------------------

-------------------------------
-------------------------------
-5-----------------------------
-5-----------------------------
-3-3-5-7-5-5v-----------------
-------------------------------

repeat intro Sec 1 and then Sec 2

Outro

Midnight...

---------------------------------------
-----------6--8------------------------
-----------5--7---5-7---5-2-----------
-12--14----3--5--5-7---5-2---(2 times)
-10--12----------3-5---3-0-------------
----------------------------------------

----------------------------------------------------
----------------------------------------------------
-----------------------10-12-12--12--12p10-12p10--
-12-14-14-14--5h7p5--10--12-12--12-12p10--12p10-
-10-12-12-12--------7-8--10-10--10--10-----------
----------------------------------------------------

----------------------------------------------
----------------------------------------------
-5-7-7-7-7p5--7p5--5-5--2---2---2--2p0--2p0-
-5-7-7-7-7p5--7p5--5-5--2---2---2--2p0--2p0-
-3-5-5-5-5---------3-3---0---0--0------------
----------------------------------------------

----------------------------------------------------
----------------------------------------------------
-----------------------10-12-12--12--12p10-12p10--
-12-14-14-14--5h7p5--10--12-12--12-12p10--12p10-
-10-12-12-12--------7-8--10-10--10--10-----------
----------------------------------------------------

-------------------------------
-------------------------------
-5--7--7---7--7p5--7p5---5-2--
-5--7--7---7--7p5--7p5---5-2--
-3--5--5---5-------------3-0--
-------------------------------

Вверх

Virus

Riff 1:
E-------------------|
B-------------------|
G---------------2---|
D-------4-----0-----|
A-----2-------------|
E---0-----3---------|

Riff 2:(First guitar)
Rape of the mind is a social disorder
E-------------------------------|
B-------------------------------|
G-------------------------------|
D--5-5-5-5---5---5-5-5-5-5---7--|
A--3-3-3-3---3---3-3-3-3-3---5--|
E-------------------------------|

The cynics, the apathy oneupmanship order
E-------------------------------|
B-------------------------------|
G-------------------------------|
D--5-5-5-5---5---5-5-5-5-5---7--|
A--3-3-3-3---3---3-3-3-3-3---5--|
E-------------------------------|

Riff 2:(Second guitar)
Rape of the mind is a social disorder
E------------------------------------------|
B------------------------------------------|
G------------------------------------------|
D------------------------------------------|
A--13-12-10-13---12---10-13-12-10-13---12--|
E------------------------------------------|

Вверх

Wasted Years

intro

-12-0-0-0-0-7--0-0-0-0-8--0-0-0-0-5--0-0-0-0-7p0-0-0-3p0-0-0--5--0-0-0-0-2-|
---------------------------------------------------------------------------|
---------------------------------------------------------------------------|
---------------------------------------------------------------------------|
---------------------------------------------------------------------------|
---------------------------------------------------------------------------|

-0-0-0-0-3---0-0-0-0-5--0-0-0-0-2--0-0-3p0-0--0-|
------------------------------------------------|
------------------------------------------------|
------------------------------------------------|
------------------------------------------------|
------------------------------------------------|

verse
From the coast of gold....

-----------------------------------------------------------------------------|
-----------------------------------------------------------------------------|
-7/9----9-------9-----9-------9/12-12-12---12/7----7-----7-----7-------7-7-7-|
-7/9----9-------9-----9-------9/12-12-12---12/7----7-----7-----7-------7-7-7-|
-5/7----7-------7-----7-------7/10-10-10---10/5--5---5-5---5-5---5-5-5-------|
-----0-----0-0----0-0---0-0-0------------------------------------------------|

Im travelin on....

far and wide

----------------------------------------------------------------------------|
----------------------------------------------------------------------------|
-7/9----9-------9-----9-------9/12-12-12------------------------------12-12-|
-7/9----9-------9-----9-------9/12-12-12---12/11---11----12---12-12-12-12---|
-5/7----7-------7-----7-------7/10-10-10---10/9--9--9--9--9-9--9--9--10-10--|
-----0-----0-0----0-0---0-0-0-----------------------------------------------|

But now it seems                                                Im just a
stranger

----------------------------------------------------|
----------------------------------------------------|
-12/5----5---------------------------9-----9------9-|
-12/5----5-----5------4-4-4-4-5-----9-----9------9--|
-10/3--3-3-3-3-3------5-5-5-5-7-----7-----7------7--|
-----------------------------------0----0-0---0-0---|

And all the things...

-----------------------------------------------------------------------------|
-----------------------------------------------------------------------------|
-7/9----9-------9-----9-------9/12-12-12---12/7----7-----7-----7-------7-7-7-|
-7/9----9-------9-----9-------9/12-12-12---12/7----7-----7-----7-------7-7-7-|
-5/7----7-------7-----7-------7/10-10-10---10/5--5---5-5---5-5---5-5-5-------|
-----0-----0-0----0-0---0-0-0------------------------------------------------|

it isnt someone else
-------------------------------------------------------------------|
-------------------------------------------------------------------|
-9/12-12-12---12/7----7-----7-----7-------7/12-12-12-12----5-------|
-9/12-12-12---12/7----7-----7-----7-------7/12-12-12-12----5-----5-|
-7/10-10-10---10/5--5---5-5---5-5---5-5-5---10-10-10-10-3-3-3-3-3--|
-------------------------------------------------------------------|

for rest of verse, just repeat

Chorus

golden years......

--------------------------------------------3-3---3-3---3-3---3-3--3-3--------|
--------------------------------------------3-3---3-3---3-3---3-3--3-3--------|
-----5---2----7----5---2------9-----7----5-----5-----5-----5-----5-----5------|
-5---5---2----7----5---2------9-----7-------------------------------------4-4-|
-5---3---0----5----3---0------7-----5-------------------------------------5-5-|
-3----------------------------------------------------------------------------|

interlude (play intro riff)

rhythm under solo

--------------------------------------------------------------|
--------------------------------------------------------------|
-9------------7-----------7/5-----5-----5------5-----5/7-7-7--|
-9-----(12x)--7------(5x)--7/5-----5-----5------5-----5/7-7-7-|
-7------------5-5-5-------5/3-3-3-3-3-3-3-3-3-3-3-3-3/5-5-5---|
---0-0--------------------------------------------------------|

outro

----------------------------------|
-3/5-3h5p3------------------------|
------------5---4---2--0----------|
--------------------------2-----2-|
--------------------------------2-|
--------------------------------0-|
or:
-----------------------------------|
-----------------------------------|
---------------------------------4-|
---------------------------------2-|
-3-3-3-2-2-2-0-0-0--------------2--|
--------------------3-3-3-5-3-0--0-|

Вверх

Wasting Love

Intro

E|------------^^-------------------------------|
B|------------10-10-----12-10------------------|
G|-9-11-12----------11--------12-11-12-11-9----| <-- 4 times
D|---------10-------------------------------12-|
A|---------------------------------------------|
E|---------------------------------------------|

Verse

E|-----------------------------------------------------------|
B|-------------------------3-------------------------------3-|
G|---------0-----------0-------0-----------0-----------0-----|
D|-----4-------4-----4---4---4---4-----4-----4---4---4---4---|
A|---2---2---2---2-3-----------------2---2-----2---3---------|
E|-0-------------------------------0-------------------------|
maybe one day       Ill be a honest man...

Bridge1:

E|---------------------------------|
B|---------1---------------3-------|
G|-----0-----0---0-----0-------0---|
D|---2---2-----2-----4---4---4---4-|
A|-0---------------0---------------|
E|---------------------------------|

long roads...

The Chorus is only chords:

Em        C          D         G    F#m
spend your days full of emptiness

Bridge 2:

E|---------------0-------------------0-|
B|---------------0-------------------0-|
G|-----0-----0---0------0-----0------0-|
D|---4-----2-----2----4-----2--------2-|
A|-5-----3-------2--5-----3----------2-|
E|-------------0----------------0-0----|

Bridge 3:

E|--------------------------|
B|------------------------1-|
G|----------0---------0-----|
D|-----4------4-----4---4---|
A|---2---2------2-3---------|
E|-0------------------------|

Solo:

E|-8-----------------------------------15----14----12----12~~~-|
B|---11-9P8H9~----------------------12----12----12----12-------|
G|-------------9-7---------------------------------------------|
D|-----------------10-9-10-9-7----7----------------------------|
A|-----------------------------11------------------------------|
E|-------------------------------------------------------------|

E|----------|
B|-15-14-12-|
G|----------|
D|----------|
A|----------|
E|----------|

E|----12----14----15----14----15----17----19~-19-17-15-14-15~-|
B|-12----12----12----12----12----12----12---------------------|
G|------------------------------------------------------------|
D|------------------------------------------------------------|
A|------------------------------------------------------------|
E|------------------------------------------------------------|

E|-19-17-15-14-----19-17-15-14-15-14------------------15-14-12-|
B|-------------15~-------------------17-15-17~-15~-12----------|
G|-------------------------------------------------------------|
D|-------------------------------------------------------------|
A|-------------------------------------------------------------|
E|-------------------------------------------------------------|

E|----12----|
B|-15----15-|
G|----------|
D|----------|
A|----------|
E|----------|

E|--------------------12----14----15----17-19~~--17~~-|
B|-13-12-13-12-----12----12----12----12---------------|
G|-------------14-------------------------------------|
D|----------------------------------------------------|
A|----------------------------------------------------|
E|----------------------------------------------------|

Вверх

Wasting Love (2 вариант)

-----------------------------------------------------------------------------
->---------------------------------------------------------------------------
-7--7--7-7--3--3-3-3--3--5--5-5-5--7-7-7-7--5-5-5-5--7--7--7-7--3--3-3-3--3-3
-0---------------------------------------------------0-----------------------
Intro

-----------------------------------------------------------------------------
-----------9-7-------------------------------------------------9-7-----------
-5--5-5-5------10-9-10-9-7-5-7--7--7-7--3--3-3-3--3--5--5-5-5------10-9-10-9-
-----------------------------------------------------------------------------

------------------------------------------------------|----------------------
------------------------------------------------------|----------------------
-7-5-7--7--7-7--3--3-3-3--3--5--5-5-5----3--3---5--5--|----------------------
------------------------------------------------------|--0--------0----------
Slightly slower

-------12--------------------------------------------------------------------
-12-14----14-12-/14---12-14-12-----------------------------------------------
-------------------------------14-12--7--------------------------------------
--------------------------------------0----------0-0----------0-------0-0----
(/ = slide up)                Lyrics enter

-------------------------------0---------------------------------------------
--------------------------0-2----2--0----------------------------------------
--0----------5--7--0-----------------------------5-7-------------------------
---------------------------------------0--------------0--------0--------0-0--

---------------------------------------------0-------------------------------
-----------------------------------------0-2---2-0---------------------------
-------------------0-------5--7--0-------------------------------------------
-0-------0-0----------------------------------------0------0-----------------

-----------------------------------------------------------------------------
-----------------------------------------------------------------------------
-7--7--3--3-3-3-3---5--5-5-5-5-->-->--->-->---7-7-7-7-7--7--3--3-3-3-3----5--
-0------------------------------3--3---1--1----------------------------------
Slightly faster

-----------------------------------------------------------------------------
-----------------------------------------------------------------------------
-5-5-5-5---------------------------7--7-7-7--7-7--3--3-3-3--3--5--5-5-5--5-0-
---------3-3-3-3--2-2-2-2--0--0-0--------------------------------------------

-----------------------------------------------------------------------/7--5-
--------->--->---------------------------------------------------------------
->--->---5---5-------------7--7-7--3--3-3-3--3-3--5--5-5-5---3---------------
-3---3------------0---0-0----------------------------------------------------

-------------/7--5--------------/7--5-----------/7--5------------------------
-7--5---------------7-5----------------7-5-------------7-5-------------------
-------------------------7------------------7--------------7-----------------
-------0-----------------0-0----------------0--------------0------0-------0--

--------------------------------------0--------------------------------------
----------------------------------0-2---2-0----------------------------------
-----------0---------5-7--0-------------------------------------0--------5-7-
--0-0----------------------------------------0--------0-0--------------------

---------0-------------------------------------------------------------------
-----0-2---2-0-2-------------------------------------------------------------
-0-------------------5-7--------7--3---3-3-3---3---5--5-5-5--5--->-->--->-->-
--------------------------0---0-0--------------------------------3--3---1--1-

-----------------------------------------------------------------------------
-----------------------------------------------------------------------------
---------7--7-7--3--3-3-3--3-3--5--5-5-5--5---------------------------7--7-7-
-0--0-0--------------------------------------3-3-3-3--2-2-2-2--0--0-0--------

-----------------------------------------------------------------------------
-------------------------------------->--->----------------------------------
-3--3-3-3---3-3--5--5-5-5-5--->--->---5---5-----------------7--7-7-7--3--3-3-
------------------------------3---3---------------0---0-0---0----------------

------------------------/7--5-------------/7---5-----------/7--5-------------
-------------------------------7--5---------------7--5------------7-5--------
-3--3-3--5--5-5-5--3-----------------7------------------7-------------7------
-------------------------------------0------------------0-------------0--0-0-

-----/7--5-------------------------------------------------------------------
------------7-5--------------------------------------------------------------
-5----------------7---------3--3-3-3--3-3--5--5-5-5--5-5---7-7-7-7--5-5-5-5--
------------------0----------------------------------------------------------

-----------------------------------------------------------------------------
---------------------------------------------------------9-7-----------------
----------7--7-7-7--7-7---3--3-3-3--3-3--5--5-5-5--5-5-------10-9-10-9-7-5-7-
--0--0-0---------------------------------------------------------------------

-----------------------------------------------------------------------------
----------------------------------------9-7----------------------------------
-7-7-7--7-7--3--3-3-3--3---5--5-5-5--5------10-9-10-9-7-5-7-7-7--7-7--3--3-3-
-----------------------------------------------------------------------------

-------------------------------------------------------0--------------0----7
--------------------------->-->--->-->----------4--------4------.---4---4----
-3---3-3---5--5-5-5--5-5---3--3---5--5-------2-----2--------2---3------------
-------------------------------------------0---------------------------------
(. = staccatto)

-----------0------------0----7--------------0------------0----7------------
-----4-------4-----.--4---4------------4-------4-----.--4---4-----------4----
---2---2-------2---3-----------------2---2-------2---3----------------2---2--
-0---------------------------------0-------------------------------0---------
( = slide down)

-0--------------0----7------------------------------------------------------
----4------.--4---4----------h----------------->-->--------------------->-->-
-------2---3----------------5-7--7-7-7-7--7-7--3--3----0-0--0-0-0--0-0--5--5-
-----------------------------------------------1--1---------------------3--3-
Guitar solo

-----------------------------------------------------------------------------
-->-->--------------------->-->--------------------->-->--->-->--------------
--2--2----7--7-7-7-7--7-7--3--3----0-0--0-0-0--0-0--5--5---2--2---7--7-7-7-7-
--0--0---------------------1--1---------------------3--3---0--0--------------

-----------------------------------------------------------------------------
------>-->--------------------->-->--->-->---------------------->-->---------
-7-7--3--3----0-0--0-0-0--0-0--5--5---2--2-----7--7-7-7-7--7-7--3--3----0-0--
------1--1---------------------3--3---0--0----------------------1--1---------

-----------------------------------------------------------------------------
------------->-->--->-->-----------------------------------------------------
-0-0-0--0-0--5--5---2--2----/7---7--3--3-3-3--3-3--5--5-5-5--5-5--->-->-->-->
-------------3--3---0--0-------------------------------------------3--3--1--1
end guitar   Chorus
solo

-----------------------------------------------------------------------------
-----------------------------------------------------------------------------
----------7--7-7--3--3-3-3--3-3--5--5-5-5--5-5----------------------------7--
--0--0-0----------------------------------------3-3-3-3--2-2-2-2--0--0-0-----

-----------------------------------------------------------------------------
---------------------------------------->-->---------------------------------
--3---3-3-3---3-3--5--5-5-5--5-5-->-->--5--5-----------7--7-7---3--3-3-3--3-3
----------------------------------3--3---------0--0-0------------------------

-----------------------------------------------------------------------------
-----------------------------------------------------------------------------
--5-5-5-5-5--5-5------------2-2-2-2-----------7--7-7-7---7-7---3--3-3-3--3-3-
-------------------3-3-3-3------------0--0-0---------------------------------

-----------------------------------------------------------------------------
-----------------------------------------------------------------------------
-5--5-5-5--5-5-->-->---->-->------------7--7-7-7--7-7--3--3-3-3--3-3--5--5-5-
----------------3--3----1--1----0--0-0---------------------------------------

-----------------------------------------------------------------------------
-----------------------------------------------------------------------------
-5--5-5---------------------------7--7-7-7--7-7--3--3-3-3--3-3--5--5-5-5--5-5
---------3-3-3-3--2-2-2-2--0--0-0--------------------------------------------

----------------------------------------------------------/7--5------------||
---------->-->---------------------------------------------------7--5------||
->-->--(0)5--5------------7---3--3-3-3--3---5-----3------------------------||
-3--3--------------0---------------------------------------------------0---||
Ritard.

Вверх

Where Eagles Dare

Main-riff:
E|------------|------------|
B|------------|------------|
G|-------9--9-|-------7--7-|
D|-------9--9-|-------7--7-|
A|-------7--7-|-------5--5-|
E|-0-0-0------|-0-0-0------|

E|------------|-------------|
B|------------|-------------|
G|-------5--5-|-------------|
D|-------5--5-|-5-5-5-------|
A|-------3--3-|-3-3-3-3-2-0-|
E|-0-0-0------|-------------|

End of main-riff.

Riff 2:
E|-------------------|-------------------|
B|-------------------|-------------------|
G|-------------------|-------------------|
D|-4--------4--------|-5--------5--------|
A|-2--2-2-2-2--2-2-2-|-3--3-3-3-3--3-3-3-|
E|-------------------|-------------------|

E|-------------------|-------------------|
B|-------------------|-------------------|
G|-------------------|-------------------|
D|-4--------4--------|-5--5--5--7--7--7--|
A|-2--2-2-2-2--2-2-2-|-3--3--3--5--5--5--|
E|-------------------|-------------------|

Verse:
It's snowning outside the rumbling...
E|------------|------------|
B|------------|------------|
G|-------9--9-|-------7--7-|
D|-------9--9-|-------7--7-|
A|-------7--7-|-------5--5-|
E|-0-0-0------|-0-0-0------|

..sound of engines roar in the...
E|------------|-------------|
B|------------|-------------|
G|-------5--5-|-------------|
D|-------5--5-|-5-5-5-------|
A|-------3--3-|-3-3-3-3-2-0-|
E|-0-0-0------|-------------|

...night
E|---------------------|---------------------|
B|---------------------|---------------------|
G|---------------------|---------------------|
D|---------------------|-------------5--4----|
A|-2-2-2-2-2-2-5--7--7-|-2-2-2-2-2-2-3--2--5-|
E|-0-0-0-0-0-0-3--5--5-|-0-0-0-0-0-0-------3-|

End of verse.

Chorus:
..goes on         but still they must..
E|------------------------------------|
B|------------------------------------|
G|------------------------------------|
D|-5--------5--------5--------5--4--5-|
A|-3--3-3-3-3--3-3-3-3--3-3-3-3--2--3-|
E|------------------------------------|

..fly                    No one should...
E|------------------------------------|
B|------------------------------------|
G|------------------------------------|
D|-7--------7--------7--------4--5--7-|
A|-5--5-5-5-5--5-5-5-5--5-5-5-2--3--5-|
E|------------------------------------|

..go                       where eagles..
E|------------------------------------|
B|------------------------------------|
G|------------------------------------|
D|-5--------5--------5--------5--4--5-|
A|-3--3-3-3-3--3-3-3-3--3-3-3-3--2--3-|
E|------------------------------------|

..dare
E|----------------------------|
B|----------------------------|
G|----------------------------|
D|-7--------7--------4---5--7-|
A|-5--5-5-5-5--5-5-5-2---3--5-|
E|----------------------------|

End of chorus.

Riff 3:
E|-------------------------------------|
B|-------------------------------------|
G|-9-9-9-9-----------9-9-9-7-7-7-7-7-7-|
D|-9-9-9-9-----------9-9-9-7-7-7-7-7-7-|
A|-7-7-7-7-----------7-7-7-5-5-5-5-5-5-|
E|----------0-0-0-0-0------------------|

E|-------------------------------------|
B|-------------------------------------|
G|-9-9-9-9-----------9-9-9-7-7-7-9-9-9-|
D|-9-9-9-9-----------9-9-9-7-7-7-9-9-9-|
A|-7-7-7-7-----------7-7-7-5-5-5-7-7-7-|
E|----------0-0-0-0-0------------------|

E|-------------------------------------|
B|-------------------------------------|
G|-7-7-7-7-----------7-7-7-4-4-4-7-7-7-|
D|-7-7-7-7-----------7-7-7-4-4-4-7-7-7-|
A|-5-5-5-5-----------5-5-5-2-2-2-5-5-5-|
E|---------0-0-0-0-0-------------------|

E|-------------------------------------|
B|-------------------------------------|
G|-9-9-9-9-----------9-9-9-7-7-7-7-7-7-|
D|-9-9-9-9-----------9-9-9-7-7-7-7-7-7-|
A|-7-7-7-7-----------7-7-7-5-5-5-5-5-5-|
E|----------0-0-0-0-0------------------|

End of riff 3.

Solo-riff:
E|---|---|
B|---|---|
G|---|---|
D|-2-|-5-|
A|-2-|-5-|
E|-0-|-3-|

Riff 4:
E|-----------------------------------------|
B|-----------------------------------------|
G|-----------------------------------------|
D|-----------------------------------------|
A|-----------------------------------------|
E|-0--0-3-0-0-0--0-3-0-0-0--0-3-0-0-5--0-3-|

Riff 5:
E|----------------------------------------------|
B|----------------------------------------------|
G|----------------------------------------------|
D|----------------------------------------2-----|
A|----------------------------------0-2-4---4-2-|
E|-2--2-5-2-2-2--2-5-2-2-2--2-5-2-2-------------|

Song-structure:
Drum-intro
Riff 1 (4 times)
Riff 2
Riff 1 (2 times)
Verse (2 times)
Chorus
Verse (2 times)
Chorus
Riff 3 (4 times)
Solo-riff (10 times
Riff 4 (4 times)
Riff 5 (2 times)
Riff 4 (2 times)
Riff 3 (4 times)
Riff 1 (4 times)
Riff 2
Verse (2 times)
Chorus
Verse (2 times)
Chorus
Riff 1 (4 times)
Riff 2
END

Lyrics:

It's snowing outside the rumbling sound
of engines roar in the night,
The mission is near the condident men
are waiting to drop from the sky.

The blizzard goes on but still they must fly
No one should go where eagles dare

Bavarian alps that lay all around
they seem to stare from below,
The enemy lines a long time passed
are lying deep in the snow.

Into the night they fall through the sky
No one should fly where eagles dare.

They're closing in the fortress is near
it's standing high in the sky,
The cable car's the only way in
it's really impossible to climb.

They make their way but maybe too late
They've got to try to save the day.

The panicking cries the roaring of guns
are echoing all around the valley,
The mission complete they make to escape
away from the Eagles Nest.

They dared to go where no one would try
they chose to fly where eagles dare.

Вверх