King Crimson

Cadance And Cascade
Dinosaur
Epitaph
Exiles
I Have A Dream
In The Court Of The Crimson King
Ladies Of The Road
Larks Tongues In Aspic (Part 2)
Peace — A Theme
Starless
The Great Deceiver
Walking On Air
Вверх

Cadance And Cascade

E              F#m7/E
Cadance and Cascade
G#m/E     F#m7/E
Kept a man named Jade;
E          F#m7/E
Cool in the shade
G#m/E    F#m7/E
While his audience played.
E      Em7        A         E
Purred, whispered, "Spend us too:
E  Em7  Asus     A
We only serve for you".

E           F#m7/E
Sliding mystified
G#m/E     F#m7/E
On the wine of the tide
E          F#m7/E
Stared pale-eyed
G#m/E    F#m7/E
As his veil fell aside.
E      Em7        A         E
Sad paper courtesan
E    Em7      Asus   E
They found him just a man.

C#m
Caravan hotel
C
Where the sequin spell fell
Bm           Am7
Custom of the game.
Cadence oiled in love
Licked his velvet gloved hand
Cascade kissed his name.

Проигрыш:

E   F#m7  G#m


E      Em7       A     E
Sad paper courtesan
E    Em7      Asus  E
They knew him just a man.


Аккорды:

(022100) = E; (042222) = F#m7/E; (066444) = G#m/E;
(021100) = EM7;  (002220) = A;  (002200) = Asus; (020100) = E7;
(446654) = C#m;  (335553) = C;  (224432) = Bm;  (002120) = AM7;
(242222) = F#m7;  (466444) = G#m

Вверх

Dinosaur

Соло:
4/4
Em               C7               Eb      C7       G
|0---------------|----------------|----------------|---|
|0---------------|1---------------|4-------5-------|8--|
|0---------------|3---------------|3-------3-------|7--|
|2---------------|2---------------|5-------5-------|9--|
|2---------------|3---------------|6-------3-------|10-|
|0---------------|----------------|----------------|---|

Em               C7               Cm7     C7       G
|----------------|----------------|----------------|---|
|8---------------|8---------------|8-------8-------|8--|
|9---------------|9---------------|8-------9-------|7--|
|9---------------|8---------------|8-------8-------|9--|
|7---------------|10--------------|10------10------|10-|
|----------------|8---------------|8-------8-------|---|

Припев:
4/4
Гитара 1.
Em               C7               Eb      C7       G
|----------------|----------------|----------------|----------------|
|----------------|----------------|----------------|----------------|
|3-0-3-0-3-0-3-0-|3-0-3-0-3-0-3-0-|3-0-3-0-3-0-3-0-|3-0-3-0-3-0-3-0-|
|2---------------|2---------------|5-------2-------|0---------------|
|2---------------|3---------------|6-------3-------|2---------------|
|0---------------|----------------|----------------|3---------------|

Em               C7               Eb      C7       G
|----------------|----------------|----------------|--------|
|----------------|----------------|----------------|--------|
|3-0-3-0-3-0-3-0-|3-0-3-0-3-0-3-0-|3-0-3-0-3-0-3-0-|3-0-3-0-|
|2---------------|2---------------|5-------2-------|0-------|
|2---------------|3---------------|6-------3-------|2-------|
|0---------------|----------------|----------------|3-------|

Гитара 2.
|----------------|
|----------------|
|15--15--15--15--|
|--17--17--17--17|
|----------------|
|----------------|

Проигрыш:
4/4
Em               C(7)             Eb               G
|0---------------|----------------|----------------|3-|
|0---------------|1---------------|4---------------|3-|
|0---------------|0(3)------------|3---------------|4-|
|2---------------|2---------------|5---------------|5-|
|2---------------|3---------------|6---------------|5-|
|0---------------|----------------|----------------|3-|

2/4
Em               C(7)             Eb      Em       F
|0---------------|----------------|----------------|---|
|0---------------|1---------------|4-------8-------|10-|
|0---------------|0(3)------------|3-------9-------|10-|
|2---------------|2---------------|5-------9-------|10-|
|2---------------|3---------------|6-------7-------|8--|
|0---------------|----------------|----------------|---|

Проигрыш перед припевом (2-ой проигрыш):
4/4
A                Ab5              A                Ab5
|----------------|----------------|----------------|---|
|10--------------|10--------------|10--------------|10-|
|9---------------|8---------------|9---------------|8--|
|11--------------|11--------------|11--------------|11-|
|12--------------|12--------------|12--------------|12-|
|----------------|----------------|----------------|---|

Небольшое соло:
|----------------|
|----------------|
|----3-------3---|
|--5-------2-----|
|6-----5-4-----3-|
|----------------|

Проигрыш 3:
7/8            5/8        4/8      7/8            5/8        4/8
E                                  A              E
|--------------|----------|--------|--------------|----------|--------|
|--------------|----------|--------|--------------|----------|--------|
|1---1---1---1-|1---1---1-|1---1---|2-1-2-1-2-1-2-|1---1---1-|1---1---|
|--2---2---2---|--2---2---|--2---2-|2-------------|--2---2---|--2---2-|
|-(2)----------|----------|--------|--------------|-(2)------|--------|
|--------------|----------|--------|--------------|----------|--------|

E                                 A
|--------------|----------|--------|--------------|
|--------------|----------|--------|--------------|
|1---1---1---1-|1---1---1-|1---1---|2-1-2-1-2-1-2-|
|--2---2---2---|--2---2---|--2---2-|2-------------|
|--------------|----------|--------|--------------|
|--------------|----------|--------|--------------|

G                                  C
|--------------|----------|--------|--------------|----------|--------|
|--------------|----------|--------|--------------|----------|--------|
|4---4---4---4-|4---4---4-|4---4---|5-4-5-4-5-4-5-|4---4---4-|4---4---|
|--5---5---5---|--5---5---|--5---5-|5-------------|--5---5---|--5---5-|
|-(5)----------|----------|--------|--------------|-(5)------|--------|
|--------------|----------|--------|--------------|----------|--------|

G                                  Cm      G#
|--------------|----------|--------|----------------|
|--------------|----------|--------|----------------|
|4---4---4---4-|4---4---4-|4---4---|5-4-5-4-5-----5-|
|--5---5---5---|--5---5---|--5---5-|5-------6---6---|
|-(5)----------|----------|--------|--------6-6-----|
|--------------|----------|--------|--------4-------|

Снова проигрыш перед припевом (проигрыш 2):
A                Ab5              A                Ab5
|----------------|----------------|----------------|--|
|5---------------|4---------------|5---------------|4-|
|6---------------|6---------------|6---------------|6-|
|7---------------|7---------------|7---------------|7-|
|7---------------|----------------|----------------|--|
|5---------------|----------------|----------------|--|

Снова небольшое соло, но немного в другом виде:

|----------------|----------------|----------------|-------------|
|----------------|----------------|----------------|-------------|
|6----------/11-8|------------11/-|18-9----/18-8-|11--18--20--20-|
|----------------|----------------|----------------|-------------|
|----------------|----------------|----------------|-------------|
|----------------|----------------|----------------|-------------|

|----------------|
|----------------|
|----------------|
|----------------|
|6-----5-4-------|
|----------------|

Проигрыш 4:
|-----------------------------------------------|
|11----8-----11---4--------4---8-----------0--4-|
|11----8-----11---2--------4---8---4-------0--4-|
|----------------------------------3------------|
|-----------------------------------------------|
|-----------------------------------------------|

Соло:
|-----------------------------------------------|
|-----------------------------------------------|
|-----------------------------------------------|
|---------------------------------------------8-|
|7---5-7---5---7--5-7---5-7-5-7---5-7---5-7-----|
|-----------------------------------------------|

|--------------------------------------------------------|
|--------------------------------------------------------|
|--------------------------------------------------------|
|-------------------------------------------8---5-8-5-8--|
|7---5-7---5-7-5-7----5-7----5-7---5-7-5-7---------------|
|--------------------------------------------------------|

|----------------------------|
|----------------------------|
|------------6/7--7------/12-|
|--5--8/11-------------------|
|----------------------------|
|----------------------------|

|-15--13--15-------15----------15-14-13-12-11----------------------------15---|
|--------------------------12-------------------15-14-13-12-------------------|
|-------------15------15------------------------------------15-14-13-12-------|
|-----------------------------------------------------------------------------|
|-----------------------------------------------------------------------------|
|-----------------------------------------------------------------------------|

C
|------------20-22-202220-|18201817-17181715-15171514-14151412-|
|-------------------------|------------------------------------|
|------19-----------------|------------------------------------|
|-------------------------|------------------------------------|
|-17----------------------|------------------------------------|
|-------------------------|------------------------------------|

G#                          A
|11121110-1011109-91097-875-|7-8--/18------19---21--11-|
|---------------------------|--------------------------|
|---------------------------|--------------------------|
|---------------------------|--------------------------|
|---------------------------|--------------------------|
|---------------------------|--------------------------|

Проигрыш 5 (финал):
|-14-----11---14---11------7---11---7----------7-----|
|-11-----11---11---10------8---12---8------8---8---0-|
|------------------------------------------9-------0-|
|--------------------------------------------------2-|
|----------------------------------------------------|
|----------------------------------------------------|

|--------------------------------|
|------------------------------/-|
|-----/9----3----------6-/--/----|
|-2------------------------------|
|--------------------------------|
|--------------------------------|

Вверх

Epitaph

Em                    F#m+(Add B)       Am              B+  B
The wall on which the prophets wrote is cracking at the seams
Upon the instruments of death the sunlight brightly gleams
When every man is torn apart with nightmares and with dreams
Will no one lay the laurel wreath as silence drowns the screams

Em                      Bm
Confusion will be my epitaph
As I walk a cracked and broken path               C
If we make it we can all sit back and laugh but I fear tomorrow
Bm
I?ll be crying

Em                    F#m+(Add B)       Am              B+  B
Between the iron gates of fate the seeds of time were sown
And watered by the deeds of those who know and who are known
Knowledge is a deadly friend when no one sets the rules
The fate of all mankind I see is in the hands of fools

Проигрыш:

E|---------------|---------------|---------------|
B|---------------|---------------|---------------|
G|-----0---0-----|-----0---0-----|-----2---2-----|
D|---2---2---2---|---2---2---2---|---0---0---0---|
A|-2-----------2-|-2-------------|-2-----------2-|
E0---------------0-------------0-2---------------2|

E|---------------|---------------|
B|---------------|---1-0-1-0-1---|
G|---1-----2-----|---------------|
D|-----0-----0---|-2-----------2-|
A|-2-----2-----0-0---------------|
E|---------------|---------------|

E|---------------|---------------|---------------|
B|---1-0-1-0-1---|-----0-4-0-----|-------4-------|
G|---------------|---0-------0---|-----4---4-----|
D|-2-----------2-|-1-----------1-|-1-4-------4-1-|
A0---------------2---------------2---------------|
E|---------------|---------------|---------------|

Em                      Bm
Confusion will be my epitaph
As I walk a cracked and broken path               C
If we make it we can all sit back and laugh but I fear tomorrow
Bm
I?ll be crying

Вверх

Exiles

Em
|---------------------------------------------------------------------------|
|---------------------------------------------------------------------------|
|---------------------------------------------------------------------------|
|---------------------------------------------------------------------------|
|--9~--5-7------9~--5-7~---5-7-9--7-5------9~--5-7------9~--5-7-----9--7-5--|
|----------7~-------------------------7~-----------7~-----------7~----------|

C               Bm           Am                         D
|--0~-0------------0~-0------------7-----5-----------------------5---------|
|--1~---1----------3~---3------------5-----5---8-----5-----7-------7-------|
|--0~-----0--------4~-----4------------5-----5---5-----5-----7-------7-----|
|--2~-------2------4~-------4----------------------7-----7-----7-----------|
|--3~---------3----2~---------2----------------------------------------0~--|
|--------------------------------------------------------------------------|

C                            D             C
|--2----/3-----5-----3---------2-----------2-----3-----5-----7-----5---7---|
|----5-----5-----5-----5---------3-----------5-----5-----5-----5-----5---5-|
|------5-----5-----5-----5---------2-----------5-----5-----5-----5---------|
|--------------------------------------------------------------------------|
|------------------------------------0~------------------------------------|
|--------------------------------------------------------------------------|

Bm                             Am
|-10-----------7--------------------7-------------------------|
|-----12---------7-7-------10-------------10----8-------------|
|---11--11-----------7-------7--------9-----------9---9----5--|
|---------129---------9-------97------9-----------7----7----|
|-------------------------------------------------------------|
|-------------------------------------------------------------|

[Вступление вокала]
D                       C
|---------5-----2----------------0-------0-------0---------|
|-------3---3-----3------------1-------1-------1-----------|
|-----2-------2-----2--------0-------0-------0-------------|
|---------------------4~---2-------4-------2---------------|
|--------------------------------------------------3~------|
|--2-------------------------------------------------------|
Now...in this faraway land

D                             C
|-----------5-------2---------------0-------0-------0-------|
|---------7---7-------3-----------1---1---1---1---1---1-----|
|-------7---------------2-------0---------------------------|
|-----7---------7---------0-------------4-------2-----------|
|---0-----------------------0---------------------------3~--|
|-----------------------------------------------------------|
Strange... that the palms of my hands

Bm                    Am
|---0-----------0-------0-----------0-----------0-----|
|-----3-----------3-------1-----------1-----------1~--|
|-------4-----------4-------2-----------2-------------|
|---------4-----------4-------2-----------2-----------|
|-----------0-------------------0-----------0---------|
|-----------------------------------------------------|
Should be damp with expectancy

Проигрыш:
Em
|---------------------------------------------------------------------------|
|---------------------------------------------------------------------------|
|---------------------------------------------------------------------------|
|---------------------------------------------------------------------------|
|--9~--5-7------9~--5-7~---5-7-9--7-5------9~--5-7------9~--5-7-----9--7-5--|
|----------7~-------------------------7~-----------7~-----------7~----------|

C                              D
|--12----12----12----12----12--10-----7---------------0--------|
|----13----13----13----13--------12-----7---7----10------------|
|------12----12----12----12--------11-----7---7---------7---9--|
|-----------------------------------------------9---9-----9----|
|--------------------------------------------------------------|
|--------------------------------------------------------------|

Am                              D
|--7---5-----------------------------------5~---0----------|
|----------8---5-------0---5---0---------3--------3--------|
|----5---5---5---5-------5---5---2-----2------------2------|
|--------------------5---------------0----------------0----|
|------------------7---------------0--------------------0--|
|----------------------------------------------------------|

C                           D
|--7-----5---------------------------------5~--|
|--------------8-----7-----5---7-------7-------|
|----5-----5-----5-----5---------7---7---7-----|
|------7-----7-----7-----7---7-----7-----------|
|----------------------------------------------|
|----------------------------------------------|

C                            Bm
|----0------5-------0---5-----0-----5---7--10---2-----5--2--|
|--7----------7---7---------7-----7-------0---0---3---------|
|------5~-------5-----5---5-----4-----4-------------4-------|
|-----------------------------------------------------------|
|-----------------------------------------------------------|
|-----------------------------------------------------------|

Am
|-------0--7-----5-----3---0------|
|------------5-----5-----5---1----|
|--42---------5-----5---------2--|
|---------------------------------|
|---------------------------------|
|---------------------------------|


D                       C
|------------5--0----------------5-------------5-----------|
|----------3------3------------5---5-------5-----5---------|
|--------2----------2--------7-------7---7---7-----7---7---|
|------0-------------------5-----------5-------------5-----|
|--0-------------------------------------------------------|
|----------------------------------------------------------|
Spring...and the air?s turning mild

D                             C
|------------5-----------5-----------0-------0-----0-----0--|
|----------3---3-----------3-------3---3---------3----------|
|--------2-------2-----------2-------------5-----------5----|
|------0-----------0---0---------4-------5-----4-----5------|
|----0---------------0--------------------------------------|
|-----------------------------------------------------------|
City lights...and the glimpse of a child

Bm                          Am
|--0-------0----------0-------------------0-------|
|----3-------3----------3---------------1---1-----|
|------4-------4----------4-----------4-------4---|
|--------4-------4----------4-------2-------------|
|-----------------------------0-------------------|
|-------------------------------------------------|
Of the alleyway infantry

D
|-----------5---2------------2---2-------3---3---0---3----|
|---------3-------3------------5---5-------5---5---5---5--|
|-------2-----------2----------------5--------------------|
|-----0---------------0-----------------------------------|
|--0--------------------0---------------------------------|
|---------------------------------------------------------|
Friends...do they know what I mean

|---5---------5---------------2-0---|
|-----7---------7---0---0-1-3-------|
|-------7---------7---2-------------|
|-----------------------------------|
|---------0-------------------------|
|-----------------------------------|
Rain...and the gathering green

|--------------------0---5---0---------5---0----3---0-------0------------|
|--0---------------3---3-------3---------3------------1---1---1---1------|
|----5---5---5---4---------4-----4----------------2-----4-------4-----4--|
|------7---5---4-------------------4--------------------------------2----|
|------------------------------------------------------------------------|
|------------------------------------------------------------------------|
Of an afternoon out-of-town

D
|---------------5--|
|-------------3----|
|-----------2------|
|---------0--------|
|------------------|
|------------------|
But Lord I had to go

C#m
|------------------------------------------|
|-------------------------------------5~---|
|-------------------------------------6~---|
|-------------------------------------6~---|
|-------------------------------------4~---|
|------------------------------------------|
My trail was laid too slow behind me

G
To face the call of fame

F#m                 Bm
|---------------------------------5~---|
|---------------------------------3~---|
|---------------------------------2~---|
|---------------------------------4~---|
|---------------------------------2~---|
|--------------------------------------|
Or make a drunkard?s name for me

Am
Though now this other life

Gm
Has brought a different understanding

F#
And from these endless days

D7/C (х 3 х 2 1 2)
Shall come a broader sympathy

G
And though I count the hours

F#              Bb
|-------------------------------------------------|
|-------------------------------------------------|
|---------------------------3--------------7------|
|---------------------4---4---4------8---8---8----|
|-----------------------4-------4------8-------8--|
|-------------------------------------------------|
To be alone?s no injury...


|----2--------------------0-------0--------|
|------3----------------1-------1----------|
|--------2------------0-------0-------0----|
|----------0----------------4-------4---4--|
|------------0------3----------------------|
|------------------------------------------|
My home...was a place near the sand

|--------0-------------2---|
|----3-----3---------1-----|
|------4-----4~----2-------|
|--------------------------|
|--------------------------|
|--------------------------|
Cliffs...and a military band

|-----10------------------------3------0----------|
|-------12--12----------------5---5------0--------|
|---------11--11------------4--------------0------|
|---------------12--------2------------------2----|
|-------------------------------------------------|
|-------------------------------------------------|
Blew an air of normality

|-----------------5----------------0---0------------------------|
|---7---------7-----7---7----8p5-----7----8-----7--8-------7----|
|-----7-----7---7-----7----7-----5-----------------------9---9--|
|-------7------------------------------------10-------10--------|
|---------5-----------------------------------------------------|
|---------------------------------------------------------------|

|-----12-12---------------0---------0-------0-------0--------|
|-----------------------3-------------3-------3-------3------|
|--11-------9---------5-----4-----------4-------4-------4----|
|-------------------5---------------------4-------4-------2--|
|------------------------------------------------------------|
|------------------------------------------------------------|

|--------------------------------------------------------------|
|--------------------------------0---1----0---1---0---1---0----|
|--0---0-2-0---0-2-0---0--2------------------------------------|
|----4-------4-------4------2------2--------2---2---2---2---2--|
|--------------------------------------------------------------|
|--------------------------------------------------------------|

|-2---3---2---3---2---3---2---3---2------2--3-3---0--------------10---7-----|
|---0---0---0---0---0---0---0---0---------------------------------------7---|
|-----------------------------------------------------0---5---7-----------7-|
|---------------------------------------------------2---2---5---9---9-------|
|---------------------------------------------------------------------------|
|---------------------------------------------------------------------------|

соло
|--------------------------------------------------------|
|------медленно------------------двойная скорость--------|
|------(12)11(12)11(12)11(12)11(12)11(12)11--------------|
|--------------------------------------------------------|
|-------------------------------------------12~----------|
|--------------------------------------------------------|
|                                                        |
|-----------------0---------------------5----------5-----|
|---------------0---0----------------------------3---3~--|
|--7---------5------------------------------2-----------|
|-----5-4-2---------------------------------4------------|
|------------------------------------------5-------------|
|--------------------------------------------------------|

|-----------------------------------------------------------|
|------------12~~--(13)12(13)12-----------------------------|
|--11h12-14~--------------------14-12p11-12/14-1211--------|
|-----------------------------------------------------------|
|----------------------------------------------------12~----|
|-----------------------------------------------------------|
|                                                           |
|---------------3---------0----------------------------0----|
|-----------------------0----------------------------3------|
|---------------------0----------------------------4--------|
|-------------------2----------4---------2-------4----------|
|---------------------------------------------0-------------|
|-----------------------------------------------------------|

|-------------------------------------19~~--17p15---------------------|
|-------------------------------15-19-------------19p15---------------|
|------------16(17)16~~~-----16-------------------------16~~----------|
|---------14----------------------------------------------------------|
|--14--15-------------------------------------------------------------|
|---------------------------------------------------------------------|
|                                                                     |
|------2---2---3-----2-----3------10--12--10----12p10--10----12p10----|
|----5---5---5----5-----5------------12--12--12-----------12----------|
|--4------------------------------------------11-----11----11-----11--|
|---------------------------------------------------------------------|
|---------------------------------------------------------------------|
|---------------------------------------------------------------------|

|-------------------------17~--1514----1210-------------------------------|
|--------------------------------------------10-87-------------------------|
|--16(17)16-14~-----16/17-----------14--------------------------------16~---|
|---------------------------------------------------7~~-----9-10~---17------|
|---------------------------------------------------------------------------|
|---------------------------------------------------------------------------|
|                                                                           |
|--12p8---8p5p0-5-----------5--------------------------------------0--------|
|------10-------------5-------------------------------------------1---------|
|-------------------5-----5--------------------------------------0----------|
|-----------------7-----7---------------------------------------2-----------|
|--------------------------------------------------------------3------------|
|---------------------------------------------------------------------------|

|-----------19~--17----------------------------------------------------------|
|-----17-20---------20-19-17--------------13----15~---17-17--15-15--13-13----|
|--17-------------------------------14-16------------------------------------|
|---------------------------19~----------------------------------------------|
|----------------------------------------------------------------------------|
|----------------------------------------------------------------------------|
|                                                                            |
|------------------------------------------0---------------------------------|
|---------------------1-------------------1-------0-----0-----0-----0-----0--|
|--------------------0-------------------0------0-----0-----0-----0-----0----|
|-------------------2-------------------2-----5-----9-----7-----5-----4------|
|------------------3----------0----------------------------------------------|
|----------------------------------------------------------------------------|

|-------------------------------------------------------|
|--12-12--10-10---75/753~----1~-----0----------7~--|
|------------------------------------------2---4/5------|
|-------------------------------------------------------|
|-------------------------------------------------------|
|-------------------------------------------------------|
|                                                       |
|--------0---0-----0---0-------------------0------------|
|------3---3---3-----3---3---------------1--------------|
|----4-----------4---------4-----------4----------------|
|--4-------------------------4--------2-----------------|
|-----------------------------------0-------------------|
|-------------------------------------------------------|

|----------------------------------------------------------------------------|
|---------------------------12(13)12~----------------------------------------|
|------------------------12----------------14p12-11~-------------------------|
|----------7h9-10~----14--------------------------------------7h9-10~----14--|
|----------------------------------------------------------------------------|
|----------------------------------------------------------------------------|
|                                                                            |
|---------------<12>---------<5>----------------------------------<12>-------|
|-----<7>------------<7>------------------------------<7>-----<12>----<7>----|
|--<7>-------------------<5>-----------------------<7>-------------------<5>-|
|-----------------------------------------------<7>--------------------------|
|----------------------------------------------------------------------------|
|----------------------------------------------------------------------------|

|----------------------------------------------------------------------------|
|--12(13)12(13)12(13)12(13)12(13)12(13)12(13)12(13)12(13)12(13)12(13)12(13)--|
|----------------------------------------------------------------------------|
|----------------------------------------------------------------------------|
|----------------------------------------------------------------------------|
|----------------------------------------------------------------------------|
|                                                                            |
|----------------------------55555577887788111110101010101111111111----------|
|-------0----------0--0----------------------------------------------0h1-----|
|-----2----------02----5------------------------------------------------22---|
|--------------24----4---4---------------------------------------------------|
|---2---------3-----2---2----------------------------------------------------|
|----------------------------------------------------------------------------|

Финал:

|------повторить пять раз-------|
|----11--11-----------------|-------------------------------|
|---------------------------|----0----0---0----0----0---0---|
|---9---9-------------------|---0-0--0-0-0-0--0-0--0-0-0-0--|
|--7---7--------------------|--------------------10---9-----|
|---------------------------|--9---10---9---10--------------|
|---------------------------|-------------------------------|

Вверх

I Have A Dream

|---------------------------------------------------------|
|---------------------------------------------------------|
|-----7-----7---------7-----7---------7-----7---------5---|
|---------------------------------------------------4-----|
|---9-----9-----9---9-----9-----9---9-----9-----9---------|
|-7-----7-----7---6-----6-----6---5-----5-----5---4-------|

|---------------------------------------------------------|
|---------------------------------------------------------|
|-----5-----5---------5-----5---------5-----5---------3---|
|---------------------------------------------------2-----|
|---7-----7-----7---7-----7-----7---7-----7-----7---------|
|-5-----5-----5---4-----4-----4---3-----3-----3---2-------|
"tragedys		 of Kennedys,
refugees, 	         AIDS disease

|---------------------------------------------------------|
|---------------------------------------------------------|
|-----3-----3---------3-----3---------3-----3---------1---|
|---------------------------------------------------0-----|
|---5-----5-----5---5-----5-----5---5-----5-----5---------|
|-3-----3-----3---2-----2-----2---1-----1-----1---0-------|
photos of		 Hiroshima,
the Holocaust,		Kosovo

|---------------------------------------------------------|
|-----9-----9---------9-----9---------9-----9---------7---|
|---------------------------------------------------5-----|
|--10----10----10--10----10----10--10----10----10---------|
|-8-----8-----8---7-----7-----7---6-----6-----6---5-------|
|---------------------------------------------------------|
Tim McVeigh,	Saddam Hussein,
the bombing of the World Trade

|---------------------------------------------------------|
|-----7-----7---------7-----7---------7-----7---------5---|
|---------------------------------------------------3-----|
|---8-----8-----8---8-----8-----8---8-----8-----8---------|
|-6-----6-----6---5-----5-----5---4-----4-----4---3-------|
|---------------------------------------------------------|
Hostages		 In Bosnia,
atrocities, 		South Africa

|---------------------------------------------------------|
|-----5-----5---------5-----5---------5-----5---------3---|
|---------------------------------------------------1-----|
|---6-----6-----6---6-----6-----6---6-----6-----6---------|
|-4-----4-----4---3-----3-----3---2-----2-----2---1-------|
|---------------------------------------------------------|
abortion and	 Kevorkian,	   Vietnam,	   Napalm

Вверх

In The Court Of The Crimson King

D               C              E     B
Ah----  Ah----  Ah----         Ah----

(ВступлениеПрипев)
D           C           Em    B
e|--------------------------------------------------------|
B|-------------------------(8)(8)----------------------7--|
G|--7--7--7--7--5--5--5--5--9--9--8---------6---8---9-----| (x2)
D|--7--7--7--7--5--5--5--5--9--9--9------9----------------|
A|--5--5--5--5--3--3--3--3--7--7--9--9--------------------|
E|--------------------------------7--7--------------------|


(Рифф 1)
e|--------------------------------------------------------|
B|------8-7---------------8-7-----------------------------|
G|-----------4-5---------------6-5*-----------------------|
D|--------------------------------------------------------|
A|--------------------------------------------------------|
E|--0-----------------0-----------------------------------|


(Рифф 2)
Em        C         Em6        C
e|--------------------------------------------------------|
B|-------0---------0----------0---------0-----------------|
G|---0--0-0----0--0-0----0---0-0----0--0-0----------------|
D|--------------------------------------------------------|
A|--2--2---2--3--3---3--4--4----4--3--3-------------------|
E|-0---------0---------0----------0-----------------------|

(Рифф 3)
Am        Fmaj7     Am6       Fmaj7
e|-------0---------0---------0---------0------------------|
B|---1--1-1----1--1-1----1--1-1----1--1-1-----------------|
G|--2--2---2--2--2---2--2--2---2--2--2---2----------------|
D|-2---------3---------4---------3------------------------|
A|--------------------------------------------------------|
E|--------------------------------------------------------|

(Рифф 1Б)
e|--------------------------------------------------------|
B|------8-7--------------------<7>------------------------|
G|-----------4-5----------<5>-----------------------------|
D|--------------------------------------------------------|
A|--------------------------------------------------------|
E|--0-----------------0-----------------------------------|


(Проигрыш 1)
D           D               C
e|-----------|-10-10-----8-8---10-10-------------|
B|-7-7---|----------------------------------(repeat)---|
G|-7-7-//-//-|-11-11-//-//-//--9-9-//-//-9--9--------------|
D|-----------|---------------------------------------------|
A|-----------|---------------------------------------------|
E|-----------|---------------------------------------------|

D               C                           B
e|-10-10-----8-8--8-7---7-8--8---------|-7-7---------------------|
B|-----------------------------------(repeat)|-----------|
G|-11-11-//-//-//--9-9--9-9---9-9--9---------|-8-8-//-//-//-//-//-//-//|
D|-------------------------------------------|-------------------------|
A|-------------------------------------------|-------------------------|
E|-------------------------------------------|-------------------------|


(Проигрыш 2 - соло флейты)


адаптировано для гитары
e|--------------------------------10--8----7-8----7---------------|
B|-7---8--10-----3-----7---8--10--------------10----8-7h8h7h8h7--|
G|----------------------------------------------------------------|
D|----------------------------------------------------------------|
A|----------------------------------------------------------------|
E|----------------------------------------------------------------|

e|----------------------------------------------------------------|
B|--5--h7h5---3--3h5h3--0--1--------------------------------------|
G|----------------------------5h7h5--4-h5h4-2-h4h2----------------|
D|--------------------------------------------------5-4-2-2h4h0---|
A|----------------------------------------------------------------|
E|----------------------------------------------------------------|

e|----------------------------------------------------------------|
B|----------------------------------------------------------------|
G|------------------4-4-4h5h4-2h4--7-2h4h2-2h4---5h7h5-4h5--2-4-5-|
D|-0--------0-2-4-5-----------------------------------------------|
A|----3-2-3-------------------------------------------------------|
E|----------------------------------------------------------------|

e|------------10----8--7-8--5-7--3-5--2-3-------------------------|
B|-3-5-7-8-10------------------------------5h7h5-3--3h5h3-1-------|
G|----------------------------------------------------------2-4-5-|
D|----------------------------------------------------------------|
A|----------------------------------------------------------------|
E|----------------------------------------------------------------|

/ быстро
e|------------10----7-8-5-7-8-7-3---------------------------------|
B|-3-5-7-8-10-----------------------7-8-5-7-8-3-------------------|
G|----------------------------------------------5-7-4-5-7-2-4-5---|
D|----------------------------------------------------------------|
A|----------------------------------------------------------------|
E|----------------------------------------------------------------|

e|--------------------------------------------------------10-10---|
B|-----------------------------------------------5-7-8-10---------|
G|-----------------------------------------4-5-7------------------|
D|-5-7-4--4h5h4-2h4-4h5h7-4h5h4-2h4--4-5-7------------------------|
A|----------------------------------------------------------------|
E|----------------------------------------------------------------|

e|-10-8-7-8-10-10/12-10-8-7h8h7h5h7-8--3h5h3-2h3--2h3h2-----------|
B|------------------------------------------------------3-3h5h3---|
G|--------------------------------------------------------------5-|
D|----------------------------------------------------------------|
A|----------------------------------------------------------------|
E|----------------------------------------------------------------|

e|------------------------------------10---8--7-8-----------------|
B|------------------------3-5-7-8-10------------------------------|
G|-4h5h4-2-4-0----0-2-4-5-----------------------------------------|
D|-------------4--------------------------------------------------|
A|----------------------------------------------------------------|
E|----------------------------------------------------------------|

e|-10-8-7-8-7--------|-12-10-8-10-8---------|-7h8h7h8h7h8..-|-8h9h8h9..-|
B|------------10-(x8)|--------------10-(x4)-|---------------|-----------|
G|-------------------|----------------------|---------------|-----------|
D|-------------------|----------------------|---------------|-----------|
A|-------------------|----------------------|---------------|-----------|
E|-------------------|----------------------|---------------|-----------|

e|---------------||--10----10------------|
B|-7-7h8-7h8-..--||---10----10--..-------|
G|---------------||----11----11----------|
D|---------------||----------------------|
A|---------------||----------------------|
E|---------------||----------------------|


e|----12----12-----9-10----10----8-9----9--------------16-|
B|----12----12----10-10----10----9-9----9-----------------|
G|--------------------------------------------------------|
D|-14----14-----12------12----11-----11----------4--------|
A|--------------------------------------------------------|
E|--------------------------------------------------------|

e|----12----12-----9-10----10----8-9-------9---------16-16|
B|----12----12----10-10----10----9-9-------9---------17-17|
G|--------------------------------------------------------|
D|-14----14-----12------12----11-----11-11-------11-------|
A|--------------------------------------------------------|
E|--------------------------------------------------------|

e|----12----12-----9-10----10-9----8-9-----9--------------|
B|----12----12----10-10----10-9----9-9-----9--------------|
G|--------------------------------------------------------|
D|-14----14-----12------12------11------11-------11-------|
A|--------------------------------------------------------|
E|--------------------------------------------------------|
|
G|--------------------------------------------------------|
D|------9------------7-----------------6------------------|
A|-7---------7--5-----------5-4------------------4--------|
E|--------------------------------------------------------|

E           D           F#m   C#
e|--------------------------------------------------------|
B|------------------------(11)--------------------------9-|
G|-9--9--9--9--7--7--7--7--11-11-----------8---10---11----|
D|-9--9--9--9--7--7--7--7--11-11-11-11--11----------------|
A|-7--7--7--7--5--5--5--5--9--9--11-11--------------------|
E|-------------------------------9--9---------------------|

Текст песни:

Em                   C                Em6              C
The rusted chains of prison moons are shattered by the sun.
I walk a road, horizons change, the tournament?s begun.
Am               Fmaj7              Am6           Fmaj7
The purple piper plays his tune, the choir softly sings
Em                    C
three lullabies in an ancient tongue,
Em6                           D         C       Em   B
for the Court of the Crimson  King------
Ah--------    Ah-- Ah-- Ah--

The keeper of the city keys puts  shutters on the dreams.
I wait outside the pilgrim?s door with insufficient schemes.
The black queen chants the funeral march, the cracked brass bells will
ring; To summon back the fire-witch,
to the Court of the Crimson   King----
Ah----  Ah----  Ah----                  Ah----

(Проигрыш 1 + Припев)

The gardener plants an evergreen whilst trampling on a flower.
I chase the wind of a prison ship to taste the sweet and sour.
The pattern juggler lifts his hand; the orchestra begins
as slowly turns the grinding wheel,
in the Court of the Crimson   King----
Ah----  Ah----  Ah----                  Ah----

(Проигрыш 2 (соло флейты + Припев)

On soft gray mornings widows cry, the wise men share a joke;
I run to grasp divining signs to satisfy the hoax.
The yellow jester does not play but gently pulls the strings.
And smiles as the puppets dance,
in the Court of the Crimson   King----
Ah----  Ah----  Ah----                  Ah----

Вверх

Ladies Of The Road

|-------------------------------3~-------------------------3----------3---|
|-----------------------------0----------3~------------2---------2--------|
|------5-------5---------------------2/4-----2h4p2p0-----2-----2----2-----|
|----4-----4--2-----------------------------------------------------------|
|--2-----3---0----------x-x-x---------------------------------------------|
|---------------2b3~----3-2-0---------------------------------------------|
A flower lady?s daughter

|----------0---------------------------------7--------------------0------|
|----------1-------1----------------3b--7/10---/12~--15~-1210------0----|
|------------3---------3~------2--4----------------------------14--------|
|---------------------------/4-------------------------------------------|
|--0-2-3--------3-1------------------------------------------------------|
|--x-x-x--------------------------------------------------------------0--|
As sweet as holy water                              Said:

|-------3~------------0------------5-----9---8-------------------------|
|-----------------------2~---2-------------------r12-------------------|
|---2/4----4-2--4p2p0-2--------4/6---6/8---9---9-----9-----------------|
|------------------------------------------------------10-8------------|
|-----------------------------------------------------------10-8-------|
|----------------------------------------------------------------128--|
"I?m the school reporter                            Please teach me",

|-----7~--------10--11--12-----------------------------0-----------5-------5-|
|---------10h12------------10-----------------------8-----------8-----8----5-|
|-6/8-------------------------12-9------------7-9-7-------0--7-------------6-|
|----------------------------------12-----7/9--------------------------------|
|-------------------------------------0--------------------------------------|
|---------------------------------------0------------------------------------|
well I taught her.        Two fingered levi?d sister

|--3--------3~----------10---------------7----------3-------------------|
|--5------5-------10/12----12-1012-----------0-3-0---0-3-0-------------|
|--5----5----------------------------7b9---7----------------2h4p2p0-----|
|-----5-------------------------------------------------------------2---|
|-----------------------------------------------------------------------|
|-----------------------------------------------------------------------|
Cried, "Peace", I stopped I kissed her.

|------------------------------------------------------------------------7~--|
|------------------3---/5-------------5--------------------------~8-----10~--|
|--------------2/4---4----6---0----6----6---0---6--------------9---------7~--|
|--------0---1--------------7----7--------7---7---7-------8--------------9~--|
|------2---2-------------------------------------------10---10---------------|
|-0~------------------------------------------------8------------------------|
Said, "I?m a male resister,"              I smiled and just unzipped her.



Партия саксофона
В этом месте играть что-то вроде этого -  (x x 9 7 8 7)



|------------------------3-3--------------------------3------3-5---3------3--|
|------------------------5-5------3~---------------------------------5-------|
|------5-------5---------4-4----4-----4-2~--4p2p0-------6~-------6-----6-----|
|----4-----4--2----------2-2-------------------------------------------------|
|--2-----3---0---------------------------------------------------------------|
|---------------2b3~r--0--------------------------3--------------------------|
High diving chinese trender

|-------6-----8--6~-----------------------7------10-----------------------|
|---------8---------------------------------10/12---12~--8h10-12-10p8-----|
|-----------5---------------------7~---9b------------------------------9--|
|------------------------------/9-----------------------------------------|
|--0--------------------2-2-2---------------------------------------------|
|----7--------------------------------------------------------------------|
Black hair and black suspender

|--------------------7------5-----------------------------3~----------|
|--8---------8~------------------r8-----------------------------------|
|----------------------76----------6---0---------------3-------------|
|--------7h9-----7/9------------------7-------0-------------------0~--|
|-----------------------------------------7-6---43~--------------2~--|
|----0~-----------------------------------------------------------0~--|
Said, "Please me no surrender        Just love to feel your Fender."


|-------------------0-------0-------0-------------------9-------9-------9--|
|-----------5-------0-------0-------2-----5~---4-----10------10------10----|
|-----------6-------------1-------3-------6~---5---9------13------11-------|
|---------6-------6-----------------------6~---6---------------------------|
|---2-3-4-------3-------2-------1------------------------------------------|
|----------------------------------------5---------------------------------|
All of you know that the girls of the road
Are like apples we stole in our youth.

|-------9------9---------9------------8---------7-7------6~-----|
|----10-----10---------9---9--------9---9-------9-9-------------|
|--9------8----7----9-------9----9-------9-----9-9------9~-----|
|-----------------11-----------10-----------9------------8~-----|
|---------------------------------------------------------------|
|---------------------------------------------------------------|
All of you know that the girls of the road

|----9~---------8---9----------------|
|----9~---------9---9----------------|
|----9~---------9---9----------------|
|---11~--------10--11~---------------|
|---11~------------11~---------------|
|------------------------------------|
Been around but are versed in the truth.

|---7~------7---7------------5--------------6-----8----6-----8~---|
|---8~------8---8--(10)8-------8---8--------8-8----------8--------|
|---7~------7---7--------6~------6----6-----5---5----5-----5------|
|---9~------9---9-------------------------------------------------|
|-----------------------------------------------------------------|
|---------0---0---------------------------------------------------|
Stone-headed Frisco spacer                 Ate all the meat I gave her

|-------10-------------------------------------------------------------|
|--10/12---10/12-------12-------------------------10-8----------------|
|-----------------------------------------/11-------------9------------|
|-----------------12(14)---r12-----/9-7----------x------x----(9)7------|
|---------------------------------------x-------------------------10---|
|----------------------------------------------------------------------|

|-------------------------------------------------------------|
|------------------------------------------------(10)8--------|
|-------------6--------------5(5.5)5(5.5)----5-6-------5~~~---|
|---------5/7---7-75----5-7---------------7------------------|
|--5-7~---------------7---------------------------------------|
|-------------------------------------------------------------|
Said would I like to taste hers                    And even craved the
flavour

|--------10---------15--19-17-15-------10------------------------------------|
|--/12~------15//17---------------/12-----12p10p8--8-------------------------|
|------------------------------------------------9---9-7---------------------|
|--------------------------------------------------------9---9-7------7------|
|----------------------------------------------------------------10-----10-7-|
|----------------------------------------------------------------------------|
"Like marron-glaced fish bones

|-------------------------------------------------|
|-------------------------------------------------|
|----9-7----9-------------------------------------|
|---11-9---11--------8------------8~-------2~-----|
|--7------7----10------10--------10~-------2~-----|
|-----------------8-------8----8-----------0~-----|
Oh lady hit the road!"

|-----------------0-------0-------0---------------0----0----0----------------|
|-----5---1-------1-------0-------2----5~---4-----2----2----2----------------|
|-----6-----1---1-------1-------3------6~---5--------1-------------1---------|
|---6----------------------------------6~---6-------------4----2-4---4-2-1---|
|-4-----------3-------2-------1-----------------0--------------------------4-|
|----------------------------------------------------------------------------|
All of you know that the girls of the road
Been around but are versed in the truth.

|---------------0----------0--------0-4-----------------|
|----5--1-------1--------0--------2------5~---4--5~-----|
|----6----1---1--------1--------3--------6~---5--6~-----|
|--6-----------------2-------------------6~---6--6~-----|
|-----------3------2----------1-------------------------|
|-------------------------------------------------------|
All of you know that the girls of the road          Moving back ?? back,
back

|----------------------------------------------------------------|
|----------------------------------------------------------------|
|---------------------------------------------------------2h4----|
|--------------------------7--------------------0-----2h5-----5--|
|--7------5----7----7-/10--------7----5----0/2-------------------|
|-----5/7----0----0------------0----0----0----------0------------|

|-------------------------------------------------------------------------|
|-------------------------------------------------------------------------|
|--------------------------------------------------------9---/12---14-15--|
|---------------------------12-------------------7/9-/11------------------|
|----7----10----12----12/14------10----7----7/10--------------------------|
|--0----0-----0-----0----------0-----0----0----------------0-----0--------|

|------------------------------------15----------10----------------------|
|------------------10-11-12----15/17-------10/12-----------12------------|
|----x-----9-12----------------------------------------/12-----------12--|
|----------------------------------------------------------------/14-----|
|------------------------------------------------------------------------|
|--0---0-0-------x-----------0-----------0-----------0---------0---------|

|--------/19-----------15--------15---17--------17-15--|
|-----12--------15-17--------17-------------17---------|
|--12--------16--------------------------16------------|
|------------------------------------------------------|
|------------------------------------------------------|
|------------------------------------------------------|

|----------------------------------------------------------------------------|
|----------------------------------------------------------------------------|
|--------5-----5-----5-----5-------------------------------------------------|
|----4~------4-----4-----4---4---------------------------------------5-------|
|-/2-------0-----3-----2------------------------5-5-7-5-7--------5-5---7p5h7-|
|------------------------------(3)2(3)2p0~--5/7------------0-5/7-------------|
Ladies of the road

|----------------------------------------------------------------------|
|----------------------------------------------------------------------|
|----------------------------------------------------------------------|
|-----------------------------5------------5-5-7-5-7--------5-5-7-5----|
|--------5-5-7-5-7--------5-5---7-0--0-5/7------------0-5/7---------7--|
|--0-5/7------------0-5/7----------------------------------------------|
Ladies of the road                     Ladies of the road

|--------------------------------------------------------------|
|--------------------------------------------------------------|
|---------------------------------------------3~---------------|
|-----------------------------5---------------2~---------------|
|--------5-5-7-5-7--------5-5---7--0~~-----3--1~------3--------|
|--0-5/7------------0-5/7--------------------------3-----0~~---|
Ladies of the road

|-------10------12----15-10-12--------10------------------------------------|
|-----------12-----12-----------10(12)----r10-8-----8-12---10---8h10p8--8----|
|-------------------------------------------------9-------------------11--9--|
|----------------------------------------------------------------------------|
|--7-------------------------------------------------------------------------|
|----------------------------------------------------------------------------|
Ladies of the road

--повторять X раз--
|----------------------------------------------------------|-15--17p15-------|
|--12--10--8-----12--10--8-----11--10--8--8-----11--10--14-|-----------0h17--|
|------------7-9-----------7-9--------------7-9------------|*---------------*|
|----------------------------------------------------------|*---------------*|
|----------------------------------------------------------|-----------------|
|----------------------------------------------------------|-----------------|
Ladies of the road             Ladies of the road          Ladies of the

Вверх

Larks Tongues In Aspic (Part 2)

ЧАСТЬ 1

гитара
- --------------------------------------------------------------
- --------------------------------------------------------------
- --3--x--x--3--x--x--3--x--3--x--3--x--x--3--x--x--3--x--3--x--
- --3--x--x--3--x--x--3--x--3--x--3--x--x--3--x--x--3--x--3--x--
- --3--x--x--3--x--x--3--x--3--x--3--x--x--3--x--x--3--x--3--x--
- --------------------------------------------------------------
бас-гитара
- --------------------------------------------------------------
- --------------------------------3--------3--------3-----3-----
- --------------------------------------------------------------
- -----------------------------------3--3-----3--3-----3-----3--
гитара
- ------------------------------------------------------------------
- ------------------------------------------------------------------
- --3--x--x--3--x--x--3--x--3--x--------------------------3--x--x--3
- --3--x--x--3--x--x--3--x--3--x--------6--------6-----5--3--x--x--3
- --3--x--x--3--x--x--3--x--3--x-----5--------5-----4-----3--x--x--3
- --------------------------------3--------3------------------------
бас и.т.д.
- ------------------------------------------------------------------
- --3--------3--------3-----3-----------6--------6-----5--3--------3
- -----------------------------------5--------5-----4---------------
- -----3--3-----3--3-----3-----3--3--------3-----------------3--3---

- ----------------------------------------------------------------
- --------------------------------------------8/------------------
- --x--x--3--x--3--x-----------------------6------------9--------9
- --x--x--3--x--3--x--------6--4--------5------------8--------8---
- --x--x--3--x--3--x-----5--------3--4------------6--------6------
- --------------------3-------------------------------------------

- -------------------------------------------12--------13-------13
- --------3-----3-----------6--4----------11--------12-------12---
- -----------------------5--------3----10--------10-------10------
- --3--3-----3-----3--3--------------9----------------------------

- ------------------------------------------------------------------
- ------------------------------------------------------------------
- -----8--5--x--x--5--x--x--5--x--5--x--5--x--x--5--x--x--5--x--5--x
- --7-----6--x--x--6--x--x--6--x--6--x--6--x--x--6--x--x--6--x--6--x
- --------5--x--x--5--x--x--5--x--5--x--5--x--x--5--x--x--5--x--5--x
- ------------------------------------------------------------------

- ----12--5--------5--------5-----5-----5--------5--------5-----5---
- -11---------------------------------------------------------------
- -----------5--5-----5--5-----5-----5-----5--5-----5--5-----5-----5
- ------------------------------------------------------------------

- ------------------------------------------------------
- --------------------------8/--------------------------
- -----------------------6------------------------------
- --------6--4--------5---------------10--------10-----9
- -----5--------3--4---------------9---------9------8---
- --3---------------------------7---------7-------------

- -------------------------12---------------------------
- --------6--4----------11-----------10---------10-----9
- -----5--------3----10-----------9----------9------8---
- --3--------------9-----------7----------7-------------

- --------------------------------------------------------------
- --------------------------------------------------------------
- --7--x--x--7--x--x--7--x--7--x--7--x--x--7--x--x--7--x--7--x--
- --7--x--x--7--x--x--7--x--7--x--7--x--x--7--x--x--7--x--7--x--
- --7--x--x--7--x--x--7--x--7--x--7--x--x--7--x--x--7--x--7--x--
- --------------------------------------------------------------

- --7--------7--------7-----7-----7--------7--------7-----7-----
- --------------------------------------------------------------
- -----7--7-----7--7-----7-----7-----7--7-----7--7-----7-----7--
- --------------------------------------------------------------

- ---------------------------------------------------------------
- ----------------------------12/--------------------------------
- ------------------------10---------------13----------13------12
- --------10--8--------9---------------12----------12------11----
- -----9---------7--8--------------10----------10----------------
- --7------------------------------------------------------------

- ----------------------------16---------------------------------
- --------10--8------------15------------6-----------6---------5-
- -----9---------7------14------------5-----------5---------4----
- --7----------------13------------3-----------3-----------------

- -----------------------------------------------------------------
- -----------------------------------------------------------------
- --10--x--x--10--x--x--10--x--10--x--10--x--x--10--x--x--10--x--10
- --11--x--x--11--x--x--11--x--11--x--11--x--x--11--x--x--11--x--11
- --10--x--x--10--x--x--10--x--10--x--10--x--x--10--x--x--10--x--10
- -----------------------------------------------------------------

- ----------------------------------------------------------------
- --3---------3---------3------3------3---------3---------3------3
- ----------------------------------------------------------------
- ------3--3------3--3------3------3------3--3------3--3------3---


- ------------------------------
- ----------------------------8/
- --x-----------------------6---
- --x--------6--4--------5------
- --x-----5--------3--4---------
- -----3------------------------

- ---------------------------12-
- ----------6--4----------11----
- -------5--------3----10-------
- --3--3--------------9---------

ЧАСТЬ 2

гитара/скрипка
- ---------------------------------------------------------------
- --1----1--1----1--1----1--1--0--1----1--1----1--1--1--1--0--1--
- --2----2--2----2--2----2--2--4--2----2--2----2--2--2--2--4--2--
- --3----0--3----0--3----0--3--5--3----0--3----0--3--0--3--5--3--
- ---------------------------------------------------------------
- ---------------------------------------------------------------

бас и.т.д
- ---------------------------------------------------------------
- ----------5-----------------------------5----------------------
- ---------------------------------------------------------------
- --3----3------------------------3----3----------------------3--

- ----------------------------------------------------------------
- --1--1----1--1--1--1--0--1----1--1----1--1--1--1--0-------------
- --2--2----2--2--2--2--4--2----2--2----2--2--2--2--4--5----5--5--
- --0--3----0--3--0--3--5--3----0--3----0--3--0--3--5--6----3--6--
- ----------------------------------------------------------------
- ----------------------------------------------------------------

- ----------------------------------------------------------------
- -----5---------------------------5---------------------------8--
- ----------------------------------------------------------------
- --3----------------------3----3----------------------6----6-----

- -----------------------------------------------------------------
- ---------------------------------------------4----4--4----4--4--4
- --5--5--5--5--7--5----5--5----5--5--5--5--7--5----5--5----5--5--5
- --3--6--3--6--8--6----3--6----3--6--3--6--8--6----3--6----3--6--3
- -----------------------------------------------------------------
- -----------------------------------------------------------------

- -----------------------------------------------------------------
- --------------8----------8----------------8---------8-----------
- -----------------------------------------------------------------
- --6--6-----6-----6----6-------6--6-----6-----6----6-------6--6---



- ------------------------------------------------------------------
- --4--6--4----4--4----4--4--4--4--6--------------------------------
- --5--7--5----5--5----5--5--5--5--7--8-----8---8-----8---8---8---8-
- --6--8--6----3--6----3--6--3--6--8--10--------10--------10------10
- ------------------------------------------11--------11------11----
- ------------------------------------------------------------------

- ------------------------------------------------------------------
- -----8----------8----------------8------------6-------------------
- ------------------------------------------------------------------
- --6-----6----6-------6--6-----6-----4-----4---------4---4-------4-

- ------------------------------------------------------------------
- ------------------------------------------7-----7---7-----7---7---
- --10--8-----8---8-----8---8---8---8---10--8-----8---8-----8---8---
- --11--10--------10--------10------10--11--10--------10--------10--
- ------------11--------11------11----------------11--------11------
- ------------------------------------------------------------------

- ------------------------------------------------------------------
- --6-------------6---------------------6-------------6-------------
- ------------------------------------------------------------------
- ------4-----4---------4---4-------4-------4-----4---------4---4---

- ------------------
- --7---7---9---10--
- --8---8---10--11--
- ------10--11--12--
- --11--------------
- ------------------

- ----------6-------
- ------------------
- --------------5---
- ------4-----------

- Повторить вторую часть -

ЧАСТЬ 3.

гитара
- --------------------------------------------------------------
- --------------------------------------------------------------
- --3--x--x--3--x--x--3--x--3--x--3--x--x--3--x--x--3--x--3--x--
- --3--x--x--3--x--x--3--x--3--x--3--x--x--3--x--x--3--x--3--x--
- --3--x--x--3--x--x--3--x--3--x--3--x--x--3--x--x--3--x--3--x--
- --------------------------------------------------------------

- --------------------------------------------------------------
- --------------------------------------------------------------
- --3--x--x--3--x--x--3--x--3--x--3--x--x--3--x--x--3--x--3--x--
- --3--x--x--3--x--x--3--x--3--x--3--x--x--3--x--x--3--x--3--x--
- --3--x--x--3--x--x--3--x--3--x--3--x--x--3--x--x--3--x--3--x--
- --------------------------------------------------------------

бас
/  сначала играть эти табы, затем просто ждать окончании партии гитары  /
- --6-0-3-0-3-6-0-3-0-3-6-0-3-0-3-6-0-3-0-3-6/----------------------
- ------------------------------------------------------------------
- ------------------------------------------------------------------
- ------------------------------------------------------------------

- ------------------------------------------------------------
- ------------------------------------------------------------
3--x--x--3--x--x--3--x--3--x--3--x--x--3--x--x--3--x--3--x--
3--x--x--3--x--x--3--x--3--x--3--x--x--3--x--x--3--x--3--x--
3--x--x--3--x--x--3--x--3--x--3--x--x--3--x--x--3--x--3--x--
- ------------------------------------------------------------

- ------------------------6-0-3-0-3-6-0-3-0-3-6-0-3-0-3-6-0-3-0-3-
- ----------------------------------------------------------------
- ----------------------------------------------------------------
- ----------------------------------------------------------------

- --------------------------------
- --------------------------------
- --3--x--x--3--x--x--3--x--3--x--
- --3--x--x--3--x--x--3--x--3--x--
- --3--x--x--3--x--x--3--x--3--x--
- --------------------------------

- --------------------------------
- --3--------3--------3-----3-----
- --------------------------------
- -----3--3-----3--3-----3-----3--

- ------------------------------------------------------------------
- ------------------------------------------------------------------
- --3--x--x--3--x--x--3--x--3--x--------------------------3--x--x--3
- --3--x--x--3--x--x--3--x--3--x--------6--------6-----5--3--x--x--3
- --3--x--x--3--x--x--3--x--3--x-----5--------5-----4-----3--x--x--3
- --------------------------------3--------3------------------------

- ------------------------------------------------------------------
- --3--------3--------3-----3-----------6--------6-----5--3--------3
- -----------------------------------5--------5-----4---------------
- -----3--3-----3--3-----3-----3--3--------3-----------------3--3---

- ----------------------------------------------------------------
- --------------------------------------------8/------------------
- --x--x--3--x--3--x-----------------------6------------9--------9
- --x--x--3--x--3--x--------6--4--------5------------8--------8---
- --x--x--3--x--3--x-----5--------3--4------------6--------6------
- --------------------3-------------------------------------------




- -------------------------------------------12--------13-------13
- --------3-----3-----------6--4----------11--------12-------12---
- -----------------------5--------3----10--------10-------10------
- --3--3-----3-----3--3--------------9----------------------------

- ------------------------------------------------------------------
- ------------------------------------------------------------------
- -----8--5--x--x--5--x--x--5--x--5--x--5--x--x--5--x--x--5--x--5--x
- --7-----6--x--x--6--x--x--6--x--6--x--6--x--x--6--x--x--6--x--6--x
- --------5--x--x--5--x--x--5--x--5--x--5--x--x--5--x--x--5--x--5--x
- ------------------------------------------------------------------

- ----12--5--------5--------5-----5-----5--------5--------5-----5---
- -11---------------------------------------------------------------
- -----------5--5-----5--5-----5-----5-----5--5-----5--5-----5-----5
- ------------------------------------------------------------------

- ------------------------------
- --------------------------8/--
- -----------------------6------
- --------6--4--------5---------
- -----5--------3--4------------
- --3---------------------------

- -------------------------12---
- --------6--4----------11------
- -----5--------3----10---------
- --3--------------9------------

ЧАСТЬ 4

гитараскрипка
- ---------------------------------------------------------------
- --1----1--1----1--1----1--1--0--1----1--1----1--1--1--1--0--1--
- --2----2--2----2--2----2--2--4--2----2--2----2--2--2--2--4--2--
- --3----0--3----0--3----0--3--5--3----0--3----0--3--0--3--5--3--
- ---------------------------------------------------------------
- ---------------------------------------------------------------

бас и.т.д.
- ---------------------------------------------------------------
- ----------5-----------------------------5----------------------
- ---------------------------------------------------------------
- --3----3------------------------3----3----------------------3--

- ----------------------------------------------------------------
- --1--1----1--1--1--1--0--1----1--1----1--1--1--1--0-------------
- --2--2----2--2--2--2--4--2----2--2----2--2--2--2--4--5----5--5--
- --0--3----0--3--0--3--5--3----0--3----0--3--0--3--5--6----3--6--
- ----------------------------------------------------------------
- ----------------------------------------------------------------



- ----------------------------------------------------------------
- -----5---------------------------5---------------------------8--
- ----------------------------------------------------------------
- --3----------------------3----3----------------------6----6-----

- -----------------------------------------------------------------
- ---------------------------------------------4----4--4----4--4--4
- --5--5--5--5--7--5----5--5----5--5--5--5--7--5----5--5----5--5--5
- --3--6--3--6--8--6----3--6----3--6--3--6--8--6----3--6----3--6--3
- -----------------------------------------------------------------
- -----------------------------------------------------------------

- -----------------------------------------------------------------
- --------------8----------8----------------8---------8-----------
- -----------------------------------------------------------------
- --6--6-----6-----6----6-------6--6-----6-----6----6-------6--6---



- ------------------------------------------------------------------
- --4--6--4----4--4----4--4--4--4--6--------------------------------
- --5--7--5----5--5----5--5--5--5--7--8-----8---8-----8---8---8---8-
- --6--8--6----3--6----3--6--3--6--8--10--------10--------10------10
- ------------------------------------------11--------11------11----
- ------------------------------------------------------------------

- ------------------------------------------------------------------
- -----8----------8----------------8------------6-------------------
- ------------------------------------------------------------------
- --6-----6----6-------6--6-----6-----4-----4---------4---4-------4-

- ------------------------------------------------------------------
- ------------------------------------------7-----7---7-----7---7---
- --10--8-----8---8-----8---8---8---8---10--8-----8---8-----8---8---
- --11--10--------10--------10------10--11--10--------10--------10--
- ------------11--------11------11----------------11--------11------
- ------------------------------------------------------------------

- ------------------------------------------------------------------
- --6-------------6---------------------6-------------6-------------
- ------------------------------------------------------------------
- ------4-----4---------4---4-------4-------4-----4---------4---4---

- ------------------------------------------------------------------
- --7---7---9---7-----7---7-----7---7---7---7---9-------------------
- --8---8---10--8-----8---8-----8---8---8---8---10--11----11--11----
- ------10--11--10--------10--------10------10--11--12----9---12----
- --11----------------11--------11------11--------------------------
- ------------------------------------------------------------------

- ------------------------------------------------------------7-----
- ----------6-------------6---------------------6-------------------
- --------------------------------------------------5--5--5--------5
- ------4-------4-----4---------4---4-------4-----------------------
- ------------------------------------------------------------------
- ----------------------------------------------------------10----10
- --11--11--11--11--13--11----11--11----11--11--11--11--13--11----11
- --9---12--9---12--14--12----9---12----9---12--9---12--14--12----9-
- ------------------------------------------------------------------
- ------------------------------------------------------------------

- ------------------7-------------7---------------------7-----------
- ------------------------------------------------------------------
- --5---5---5---5-------5--5--5---------5---5---5---5-------5--5--5-
- ------------------------------------------------------------------

- ------------------------------------------------------------------
- --10----10--10--10--10--12--10----10--10----10--10--10--10--12--10
- --11----11--11--11--11--13--11----11--11----11--11--11--11--13--10
- --12----9---12--9---12--14--12----9---12----9---12--9---12--14----
- ------------------------------------------------------------------
- ------------------------------------------------------------------

- --7---------------------7-------------7---------------------7-----
- ------------------------------------------------------------------
- --------5---5---5---5-------5--5--5---------5---5---5---5---------
- ----------------------------------------------------------------3-

- ------------------------------------------------------------------
- ----10--10----10--10--10--10--12--10----10--10----10--10--10--10--
- ----7---10----7---10--7---10--12--10----7---10----7---10--7---10--
- ------------------------------------------------------------------
- ------------------------------------------------------------------
- ------------------------------------------------------------------

- ------------------------------------------------------------------
- --------5---------------------5-------------5---------------------
- ------------------------------------------------------------------
- -3--3---------3---3---3---3-------3--3--3---------3---3---3---3---

- ------------------------------------------------------------------
- --12--10----10--10----10--10--10--10--12--13----13--13----13--13--
- --12--10----7---10----7---10--7---10--12--13----10--13----10--13--
- ------------------------------------------------------------------
- ------------------------------------------------------------------
- ------------------------------------------------------------------

- ------------------------------------------------------------------
- --5-------------5---------------------5-------------8-------------
- ------------------------------------------------------------------
- ------3--3--3---------3---3---3---3-------6--6--6---------6---6---

- ------------------------------------------------------------------
- --13--13--15--13----13--13----13--13--13--13--15--13----13--13----
- --10--13--15--13----10--13----10--13--10--13--15--13----10--13----
- ------------------------------------------------------------------
- ------------------------------------------------------------------
- ------------------------------------------------------------------

- ------------------------------------------------------------------
- ----------8-------------8---------------------8-------------8-----
- ------------------------------------------------------------------
- --6---6-------6--6--6---------6---6---6---6-------6--6--6---------

- ------------------------------------------------------------------
- --13--13--13--13--15--16----16--16----16--16--16--16--18--16----16
- --10--13--10--13--15--17----13--17----13--17--13--17--18--17----13
- ------------------------------------------------------------------
- ------------------------------------------------------------------
- ------------------------------------------------------------------

- ------------------------------------------------------------------
- ------------------8-------------6---------------------6-----------
- ------------------------------------------------------------------
- --6---6---6---6-------4--4--4---------4---4---4---4-------4--4--4-

- --------------------------------
- --16----16--16--16--16--18--(19)
- --17----13--17--13--17--18--(19) Повторить 3 раза
- --------------------------------
- --------------------------------
- --------------------------------

- --------------------------------
- --6---------------------6-------
- ----------------------------(5)- Повтроить 3 раза.
- --------4---4---4---4-----------

ЧАСТЬ 5

гитара
- ---------------------------------------------
- ---------------------------------------------
- ---------------------------------------------
- --5--6----6--5----3--5----5--6----6--5----3--
- --5--6----6--5----3--5----5--6----6--5----3--
- --3--4----4--3----1--3----3--4----4--3----1--
бас
- ----------------------------------------------------------------
- --3--------3--------3-----3-------3--------3--------3-----3-----
- ----------------------------------------------------------------
- -----3--3-----3--3-----3-----3-------3--3-----3--3-----3-----3--

гитара
- ----------------------------------------
- ----------------------------------------
- ----------------------------------------
- --5--6----6--5----3--5----5--6----6--5--
- --5--6----6--5----3--5----5--6----6--5--
- --3--4----4--3----1--3----3--4----4--3--

гитара
- ---------------------------------------------
- ---------------------------------------------
- ---------------------------------------------
- --3--5--6----6--5----3--5----5--6----6--5----
- --3--5--6----6--5----3--5----5--6----6--5----
- --1--3--4----4--3----1--3----3--4----4--3---- повторить 7 раз.

- ---------------------------------------------
- ---------------------------------------------
- ---------------------------------------------
- --1--3--4----4--3----1--3----3--4----4--3---- повторить 14 раз.

- соло скрипки (если хотите, можете смычком по гитаре поводить, тоже сойдёт :) -

бас:
- --------------------------------------
- --------------------------------------
- --------------------------------------
- --(3--5)------------------------------
- --(3--5)--5----5--5----5--5--5--5--7--
- --(1--3)--6----3--6----3--6--3--6--8--repeat 4 times
снова бас:
- ------------------------------
- ------------------------------
- ------------------------------
- --3----3--3----3--3--3--3--5--
- --5-------5-------5-----5--6--repeat 4 times
- -------6-------6-----6--------

- Повторить четвёртую (!) часть, играя её немного потише.

ФИНАЛ!!!
На шестиструнной гитаре финал вряд ли будет звучать красиво, а вот на электрогитаре здорово.

гитара (играется быстро)
- --22----22----22----22----22--
- --19----22----19----19----19--
- --19----19----19----19----19--
- --0-----0-----0-----0-----0---
- ------------------------------
- ------------------------------
гитара
- --10----10----10----10----3--
- --7-----10----11----10----3--
- --7-----7-----7-----7-----4--
- --0-----0-----0-----0-----5--
- --------------------------5--
- --------------------------3--


гитара - эту часть необязательно играть, но всё-таки...
- --10-10-10-10-10-10-10-10-----------------------------------------
- --------------------------10-10-10-10-10-10-10-10-7-7-7-7-7-7-7-7-
- ------------------------------------------------------------------
- ------------------------------------------------------------------
- ------------------------------------------------------------------
- ------------------------------------------------------------------
гитара - постепенно приглушайте звук.
- ------------------(-----7)----------------------------------------
- ------------------(------)----------------------------------------
- --7-7-7-7-7-7-7-7-(4-----)----------------------------------------
- ------------------------------------------------------------------
- ------------------------------------------------------------------
- ------------------------------------------------------------------

Вверх

Peace — A Theme

  1      2       3           1      2       3      1      2       3      1  2   3
--------------------------|--0------------------|----------------------|------------|
--7--------------5H7P52--|--0------------2-5/7-|--7--------------5-2--|-2----------|
--6-----------------------|--1------------------|--6-------------------|-2----------|
--4-----------------------|--2------------------|--7-------------------|-2----------|
--0-----------------------|--4------------------|--5-------------------|-0----------|
--------------------------|---------------------|----------------------|------------|



1     2     3          1      2       3      1     2     3          1   2   3
-----------------------|-0--------------7---|--5--------------------|-------------||
--7-----------5H7P52--|-0--------------7---|--5-----------7H10P75-|-7-----------||
--6--------------------|-1--------------7---|--4--------------------|-6----------*||
--7--------------------|-2--------------6---|--4--------------------|-7----------*||
--5--------------------|-4--------------7---|--5--------------------|-5-----------||
-----------------------|--------------------|-----------------------|-------------||



1   2   3   4    1       2       3       4         1   2
||--------------2--|---------------------------------|-----0-----|
||--2-------0---2--|---------------------------------|-----2-----|
||*-2-------2---2--|---6---6---6---6---6---6---6---6-|-----1-----|
||*-2-------2---2--|-----4---4-------4-------3-------|---2-------|
||--0-------0---0--|-----------------------------4---|-0---------|
||-----------------|-4-----------4-------4-----------|-----------|

[1.           ] [2.                    ]
1            2            3     4       1    2          1     2
---------7--9--12--9--------5-----------|-------------||--0--------------------||
--7--10--------9-----12--9--7-----------|-5-----------||--0--------------------||
--7------------9------------6-----------|-7----------*||--2--------------------||
--7------------9------------7-----------|-7----6-----*||--2-----1--------------||
--9------------11-----------5-----------|-7-----------||--0--------------------||
--7------------9------------------------|-------------||--2--------------------||

Вверх

Starless
mp3

ритм 4/4:


Бас:

|Bb/D            |Bb/D            |A/C
|--------7-------|----------7-----|--------7-------|
|0---0-----------|0---0-----------|0---0-----------|
|----------------|----------------|----------------|
|----------------|----------------|----------------|
^ . ^ . ^ . ^ .  ^ . ^ . ^ . ^ .  ^ . ^ . ^ . ^ .

|A/C             |Bb/D            |Bb/D
|----------7-----|--------7-------|--------7-------|
|0---0-----------|0---0-----------|0---0-----------|
|--0-------------|----------------|--0-------------|
|----------------|----------------|----------------|
^ . ^ . ^ . ^ .  ^ . ^ . ^ . ^ .  ^ . ^ . ^ . ^ .

|A/C             |F#/A            |G/Bb
|--------7-------|----------------|--------7-------|
|0---0-----------|0---------------|0---0-----------|
|----------------|----------------|----------------|
|----------------|----------------|----------------|
^ . ^ . ^ . ^ .  ^ . ^ . ^ . ^ .  ^ . ^ . ^ . ^ .

Гитара:

|G/Bb    Dm(FDA) |Cm (GEbC)       |Cm (GEbC)       |
/tri-4                           /tri-4
|----------------|6---------------|(6)-5-6-5--3----|
|----------------|----------------|--------------4-|
|r-------r--5--7-|----------------|----------------|
|----------------|----------------|----------------|
|----------------|----------------|----------------|
|----------------|----------------|----------------|
^ . ^ . ^ . ^ .  ^ . ^ . ^ . ^ .  ^ . ^ . ^ . ^ .

|------7---------|--------5-------|5---------------|
|0---7------0--7-|--------------5-|--5-------------|
|----------------|3---3-----------|----3---------3-|
|----------------|----------------|----------------|

|Dm (FDA)        |Dm (FDA)        |Gm (DBbG)
/tri-4
|----------------|----------------|----------------|
|3---------------|(3)--------3--6-|----------------|
|----------------|--------3-------|2---3---2-------|
|----------------|----------------|----------------|
|----------------|----------------|----------------|
|----------------|----------------|----------------|
^ . ^ . ^ . ^ .  ^ . ^ . ^ . ^ .  ^ . ^ .  ^ . ^ .

Бас:

|--------7-------|7---------------|--------0-------|
|0---0---------7-|--7-0-----------|----------------|
|----------------|----------------|----------------|
|----------------|----------------|3---3-----------|

Гитара:

|Gm (DBbG) add F |Cm (GEbC)       |Cm (GEbC)       |
/tri-4                           /tri-4
|----------------|6---------------|(6)-5-6-5--3----|
|----------------|----------------|--------------4-|
|(2)-----3--5--7-|----------------|----------------|
|----------------|----------------|----------------|
|----------------|----------------|----------------|
|----------------|----------------|----------------|
^ . ^ . ^ . ^ .  ^ . ^ . ^ . ^ .  ^ . ^ . ^ . ^ .

Бас:

|0---------------|--------8-------|----------------|
|----------------|------------0---|----------------|
|--------8-------|6---6-----------|3-------------3-|
|----------------|----------------|----------------|

|Dm (FDA)        |Dm (FDA)        |Gm (DBbG)
/tri-4  vibrato
|----------------|----------------|----------------|
|3---------------|(3)--------3--6-|----------------|
|----------------|--------3-------|2---------------|
|----------------|----------------|----------------|
|----------------|----------------|----------------|
|----------------|----------------|----------------|
^ . ^ . ^ . ^ .  ^ . ^ . ^ . ^ . ^ . ^ .  ^ . ^ .

|----------------|7---7-----------|0---------------|
|0-------0-----7-|--7-------------|----------------|
|----------------|----------------|----------------|
|----------------|----------------|--------3-------|

|Gm (DBbG)    (*)|Bb/D            |Bb/D
|----------------|--------7-------|----------------|
|----------------|0---0-----------|0-0-----------0-|
|0-------1-----3-|----------------|----------------|
|----------------|----------------|----------------|
^ . ^ . ^ . ^ .  ^ . ^ . ^ . ^ .  ^ . ^ . ^ . ^ .

|A/C             |A/C             |Bb/D
|--------7-----7-|----------------|--------7-------|
|0---0-----------|0---0-----------|0---0-----------|
|----------------|----------------|----------------|
|----------------|----------------|----------------|
^ . ^ . ^ . ^ .  ^ . ^ . ^ . ^ .  ^ . ^ . ^ . ^ .

|Bb/D            |A/C             |F#/A
|----------------|--------7-------|--------7-------|
|0---0-----------|0---0-----------|0---0-----------|
|----------------|----------------|----------------|
|----------------|----------------|----------------|
^ . ^ . ^ . ^ .  ^ . ^ . ^ . ^ .  ^ . ^ . ^ . ^ .

|G/Bb
|----------------|
|0---0-----------|
|--0-------------|
|----------------|

Гитара:

|G/Bb    add F   |Cm (GEbC)       |Cm (GEbC)       |
/tri-4                           /tri-4
|----------------|6---------------|(6)-5-6-5--3----|
|----------------|----------------|--------------4-|
|r-------r--5--7-|----------------|----------------|
|----------------|----------------|----------------|
|----------------|----------------|----------------|
|----------------|----------------|----------------|
^ . ^ . ^ . ^ .  ^ . ^ . ^ . ^ .  ^ . ^ . ^ . ^ .

Бас:

|----------------|--------5-------|5---------------|
|0---------------|--------------5-|--5-------------|
|----------------|3---3-----------|----3---------3-|
|----------------|----------------|------------3---|

Гитара:

|Dm (FDA)        |Dm (FDA)        |Gm (DBbG)
/tri-4
|----------------|-----------10-13|----------------|
|3---------------|(3)-----11------|----------------|
|----------------|----------------|14--15--14------|
|----------------|----------------|----------------|
|----------------|----------------|----------------|
|----------------|----------------|----------------|
^ . ^ . ^ . ^ .  ^ . ^ . ^ . ^ .  ^ . ^ . ^ . ^ .

Бас:

|--------7-------|7---7-----------|----------------|
|0---0---------7-|--7-------------|----------------|
|----------------|----------------|----------------|
|----------------|----------------|3---3-----------|

Гитара:

|Gm (DBbG)       |Cm (GEbC)       |Cm (GEbC)          |
/tri-4                              /tri-4
|----------------|18--------------|(18)-17-18-17-15---|
|----------------|----------------|-----------------16|
|14------15-17-19|----------------|-------------------|
|----------------|----------------|-------------------|
|----------------|----------------|-------------------|
|----------------|----------------|-------------------|
^ . ^ . ^ . ^ .  ^ . ^ . ^ . ^ .  ^ .  ^  .  ^  . ^ .

Бас:

|0---------------|--------8-------|-----------5-------|
|----------------|------------0---|-------------------|
|--------8-------|6---6-----------|3----------------3-|
|----------------|----------------|-------------------|

Гитара:

|Dm (FDA)        |Dm (FDA)        |Gm (DBbG) |Gm DBbG)  |
vibrato
|----------------|--------13--10--|----------|----------|
|15--------------|(15)-11---------|10--------|(10)------|
|----------------|----------------|----------|----------|
|----------------|----------------|----------|----------|
|----------------|----------------|----------|----------|
|----------------|----------------|----------|----------|
^ . ^ . ^ . ^ .  ^ . ^ . ^ . ^ .  ^ .^.^.^.  ^ .^.^.^.

Бас:

|--------7-------|7---------------|0---------|----------|
|0---0---------7-|--7-------------|-----0----|----------|
|----------------|----0-----------|----------|1----0----|
|----------------|----------------|----------|----------|

Гитара:

[Вступление вокала:]            add C
|Gm (GDBb)   |Gm(BbGD)|(BbGC)  |Gm (GDBb)       |
|--------0---|--------|--------|----------------|
|------------|--------|----6---|--------5--/75-|
|------------|1-------|--------|----------------|
|3---3-------|--------|4-------|3---3-----------|
^ . ^ . ^.^. ^.^.^.^. ^.^.^.^. ^ . ^ . ^ . ^ .

"Sun         down.    Dazzling day."

Бас:

add C              add D
|D7(F#CA)|D7(F#CA)|Gm(GDBb)|Gm(GDBb)|Gm(BbGD)|Gm (BbGD)
|--------|--------|----0---|--------|--------|--------|
|4-------|0-------|--------|--------|--------|----0-1-|
|--------|----3-1-|--------|----0---|1-------|1-3-----|
|--------|--------|3-------|3-------|--------|--------|
^.^.^.^. ^.^.^.^. ^.^.^.^. ^.^.^.^. ^.^.^.^. ^.^.^.^.

"Gold     Through my eyes.  But my   eyes    Dark with-"



|F (CAF) |D (AF#D)|Gm(BbGD)|Gm (GDBb)       |Gm (GDBb)
/tri8      /tri8
|--------|--------|----0---|------0-3--0(0)-|3--0----|
|3-------|--------|--------|--0(0)---------0|------4-|
|--------|--------|--------|1---------------|--------|
|--------|1-----2-|3-------|----------------|--------|
^.^.^.^. ^.^.^.^. ^.^.^.^. ^  .  ^.^.^  .   ^.^.^.^.

"in,      on - ly  see.                    Starless &"


Am-     Am-
|D (F#DA)|D (F#DA)| (CAEb) | (CAEb) |Gm (BbGD)|Gm (BbGD)
|--------|--------|----5---|--------|53--3---|--------|
|(4)-----|0-0-----|--------|--------|---------|--------|
|--------|--------|3------3|3-3----3|---1----1|1-1----1|
|--------|--------|--------|--------|---------|--------|
^.^.^.^. ^.^.^.^. ^.^.^.^. ^.^.^.^. ^ .^.^.^. ^.^.^.^.

"...          Bible  Black"


|D (AF#D)|D (AF#D)|Gm(GDBb)|Gm(GDBb)|Gm(GDBb)|Gm (BbGD)
|----2---|----2---|0-------|--------|----0---|--------|
|--------|--------|----0---|--------|--------|--------|
|0------0|0-0-----|--------|1---0---|--------|1------1|
|--------|--------|--------|--------|3-3-----|--------|
^.^.^.^. ^.^.^.^. ^.^.^.^. ^.^.^.^. ^.^.^.^. ^.^.^.^.

"Old     Friend"

add C
| Gm(BbGD|Gm(GDBb)|D7(F#CA)|D7(F#CA)|Gm(GDBb)|Gm (GDBb)
|--------|0-----0-|--------|--------|0---0---|--------|
|----6---|--------|4---0---|1---4---|--------|--------|
|--------|--------|--------|--------|--------|----0---|
|4-------|----3---|--------|--------|--------|3-------|
^.^.^.^. ^.^.^.^. ^.^.^.^. ^.^.^.^. ^.^.^.^. ^.^.^.^.

"Chari -  ty.      Cruel    twisted  smile.   And the"

add D    high     add Bb
|Gm(BbGD)|Gm(BbGD)|F (FCA) |D (AF#D)|Gm(BbGD)|Gm (GDBb)
|--------|--------|--------|--------|--------|0-------|
|--------|----0-1-|3-------|--------|--------|----0---|
|1-------|1-3-----|--------|--------|--------|--------|
|--------|--------|--------|1---3---|3-------|--------|
^.^.^.^. ^.^.^.^. ^.^.^.^. ^.^.^.^. ^.^.^.^. ^.^.^.^.

"smile    signals  emptiness    for me"


|Gm(BbGD)|D (F#DA)|D (F#DA)|Gm(GDBb)|Gm(GDBb)|Bb/D
|3--0----|--------|--------|----0---|--------|--------|
|------4-|(4)-----|0-0-----|--------|--------|0-------|
|--------|--------|--------|-------0|1---3---|--------|
|--------|--------|--------|3-------|--------|--------|
^.^.^.^. ^.^.^.^. ^.^.^.^. ^.^.^.^. ^.^.^.^. ^.^.^.^.

"Starless &            Bible  black."

|Bb/D    |A/C     |A/C     |Bb/D    |Bb/D    |A/C
|--------|--------|--------|----7---|-----7--|----7---|
|----0--0|0----0--|0----0--|0-0-----|0-0-----|0-0-----|
|--------|--------|--------|--------|--------|--------|
|--------|--------|--------|--------|--------|--------|
^.^.^.^. ^.^.^.^. ^.^.^.^. ^.^.^.^. ^.^.^.^. ^.^.^.^.

|F#/A    |G/Bb    |
|----7---|--------|
|0-0----0|0-------|
|--------|--------|
|--------|--------|
^.^.^.^. ^.^.^.^.

{2}:[verse 3]             add C
|Gm (GDBb)   |Gm(BbGD)| (BbGC) |Gm (GDBb)       |
|--------0---|--------|--------|----------------|
|------------|--------|----6---|--------5--/75-|
|------------|1-------|--------|----------------|
|3---3-------|--------|4-------|3---3-----------|
^ . ^ . ^.^. ^.^.^.^. ^.^.^.^. ^ . ^ . ^ . ^ .

"Ice          blue,    Silver   sky"

D7       D7                                   add D
| (F#CA) | (F#CA) |Gm(GDBb)|Gm(GDBb)|Gm(BbGD)|Gm (BbGD)
|--------|--------|----0---|--------|--------|--------|
|4-------|0-------|--------|--------|--------|----0-1-|
|--------|----3-1-|--------|----0---|1-------|1-3-----|
|--------|--------|3-------|3-------|--------|--------|
^.^.^.^. ^.^.^.^. ^.^.^.^. ^.^.^.^. ^.^.^.^. ^.^.^.^.

"Fades    in  to   grey.    To  a    grey     hope that"


|F (FCA) |D (AF#D)|Gm(BbGD)|Gm (GDBb)       |Gm (BbGD)
/tri8      /tri8
|--------|--------|----0---|------0-3--0(0)-|3--0----|
|3-------|--------|--------|--0(0)---------0|------4-|
|--------|--------|--------|1---------------|--------|
|--------|1-----2-|3-------|----------------|--------|
^.^.^.^. ^.^.^.^. ^.^.^.^. ^  .  ^.^.^  .   ^.^.^.^.

"all      yearns to be.                      Starless &"

add Eb
|D (F#DA)|D (F#DA)||
|--------|--------||13
|(4)-----|0-0-----||--
|--------|--------||4
|--------|--------||
^.^.^.^. ^.^.^.^.

"...          Bible..."


Часть 2.


"... Black"

Бас:C(повторить 2 раза, пока не вступит гитара)
|----------------------------------------------------|
13|----------------------------------------------1-----|
--|3-------------------------------3-------------------|
4 |------------2-----------3---------2-----3-----------|
^ . ^ . ^ . ^ . ^ . ^ . ^ . ^ . ^ . ^ . ^ . ^ . ^ .

(do this 2x)
Гитара:
|3---3-3---3-3---3-3---3-3---3-3---3-3---3-3---3-----|
^ . ^ . ^ . ^ . ^ . ^ . ^ . ^ . ^ . ^ . ^ . ^ . ^ .
Бас:C
|----------------------------------------------------|
13|----------------------------------------------1-----|
--|3-------------------------------3-------------------|
4 |------------2-----------3---------2-----3-----------|

Гитара:
|2---2-2-2---2-2---2-2---2-2-----2-2---2-2---2-2-----|
^ . ^ . ^ . ^ . ^ . ^ . ^ . ^ . ^ . ^ . ^ . ^ . ^ .

Бас:F
|----------------------------------------------------|
13|3---------------------------------------------------|
--|----------------------------------------------11----|
4 |------------4-----------5-------6-7-----8-----------|

Гитара:
|2---2-2---2-2---2-2---2-2---2-2---2-2---2-2---2-----|
^ . ^ . ^ . ^ . ^ . ^ . ^ . ^ . ^ . ^ . ^ . ^ . ^ .

Бас:F
|----------------------------------------------------|
13|----------------------------------------------------|
--|8---------------------------------------------6-----|
4 |------------4-----------5-------6-7-----8-----------|

(повторить 2 раза)
Гитара:
|3---3-3---3-3---3-3---3-3---3-3---3-3---3-3---3-----|
^ . ^ . ^ . ^ . ^ . ^ . ^ . ^ . ^ . ^ . ^ . ^ . ^ .

Бас:C
|----------------------------------------------------|
13|----------------------------------------------1-----|
--|3-------------------------------3-------------------|
4 |------------2-----------3---------2-----3-----------|

Гитара:
|3---3-3-3---3-3---3-3---3-3---3-|
^ . ^ . ^ . ^ . ^ . ^ . ^ . ^ .

Бас:G
|0-------------------------------|
8|--------------------------------|
-|--------------------------------|
4|------------------------------3-|

Гитара:
|3-----3-----3-----3-----3-----3-|
^ . ^ . ^ . ^ . ^ . ^ . ^ . ^ .

Бас:G
|--------------------------------|
8|--------------------------------|
-|--------------------------------|
4|3---------------3-3-------------|

Гитара:
|(3)-3-----3-----3-----3-----3-3-|
^ . ^ . ^ . ^ . ^ . ^ . ^ . ^ .

Бас:G
|0-------------0-0-------------0-|
8|--------------------------------|
-|--------------------------------|
4|--------------------------------|

Гитара:
|3---3-3-3---3-3---3-3-------3---|
^ . ^ . ^ . ^ . ^ . ^ . ^ . ^ .

Бас:G
|--------------------------------|
8|--------------------------------|
-|------------------------1---2---|
4|3---------------3-3---3---------|

(Бас повторяет эту часть 3 раза)


13 |C(бас)
--E|3---3-3-3---3-3---3-3---3-3---3-3-3---3-3---3-3-----|
4  |^ . ^ . ^ . ^ . ^ . ^ . ^ . ^ . ^ . ^ . ^ . ^ . ^ .

13 |C(бас)
--E|3---3-3-3---3-3---3-3---3-3-----3-3---3-3---3-3-----|
4  |^ . ^ . ^ . ^ . ^ . ^ . ^ . ^ . ^ . ^ . ^ . ^ . ^ .

13 |C(бас)
--E|3---3-3---3-3---3-3---3-3---3-3---3-3---3-3---3-3---|
4  |^ . ^ . ^ . ^ . ^ . ^ . ^ . ^ . ^ . ^ . ^ . ^ . ^ .

13 |C(бас)
--E|3---3-3-3---3-3---3-3---3-3---3-3-3---3-3---3-3-----|
4  |^ . ^ . ^ . ^ . ^ . ^ . ^ . ^ . ^ . ^ . ^ . ^ . ^ .

13 |F(бас)
--E|5---5-5-5---5-5---5-5---5-5---5-5-5---5-5---5-5-----|
4  |^ . ^ . ^ . ^ . ^ . ^ . ^ . ^ . ^ . ^ . ^ . ^ . ^ .

(do 2x)
13 |C(бас)
--E|6---6-6-6---6-6---6-6---6-6---6-6-6---6-6---6-6-----|
4  |^ . ^ . ^ . ^ . ^ . ^ . ^ . ^ . ^ . ^ . ^ . ^ . ^ .

8 |G(бас)
-E|6---6-6-6---6-6---6-6---6-6---6-|
4 |^ . ^ . ^ . ^ . ^ . ^ . ^ . ^ .

8 |G(бас)
-E|6-6---6-6---6-6---6-6---6-6-----|
4 |^ . ^ . ^ . ^ . ^ . ^ . ^ . ^ .

8 |G(бас)
-E|7---7-7-7---7-7---7-7---7-7---7-|
4 |^ . ^ . ^ . ^ . ^ . ^ . ^ . ^ .

8 |G(бас)
-E|7-----7-----7-----7-----7-------|
4 |^ . ^ . ^ . ^ . ^ . ^ . ^ . ^ .

13 |C(бас)
--E|7---7-7-7---7-7---7-7---7-7---7-7-7---7-7---7-7-----|
4  |^ . ^ . ^ . ^ . ^ . ^ . ^ . ^ . ^ . ^ . ^ . ^ . ^ .

13 |C(бас)
--E|7---7-7-7---7-7---7-7---7-7-----7-7---7-7---7-7-----|
4  |^ . ^ . ^ . ^ . ^ . ^ . ^ . ^ . ^ . ^ . ^ . ^ . ^ .

13 |F(бас)
--E|8---8-8-8---8-8---8-8---8-8---8-8-8---8-8---8-8---8-|
4  |^ . ^ . ^ . ^ . ^ . ^ . ^ . ^ . ^ . ^ . ^ . ^ . ^ .

13 |F(бас)
--E|8---8-8---8-8---8-8---8-8---8-8---8-8---8-8---8-8---|
4  |^ . ^ . ^ . ^ . ^ . ^ . ^ . ^ . ^ . ^ . ^ . ^ . ^ .

13 |C(бас)
--E|8---8-8-8---8-8---8-8---8-8---8-8-8---8-8---8-8---8-|
4  |^ . ^ . ^ . ^ . ^ . ^ . ^ . ^ . ^ . ^ . ^ . ^ . ^ .

13 |C(бас)
--E|10--10-10-10--10-10--10-10--10-10--10-10-10--10-10--10-10-|
4  |^ . ^  .  ^ . ^  . ^ .  ^ . ^  . ^ .  ^  . ^ .  ^ . ^  .^.

8 |G(бас)
-E|10--10-10-10--10-10--10-10--10-10--10|
4 |^ . ^  .  ^ . ^  . ^ .  ^ . ^  . ^ .

8 |G(бас)
-E|11--11--11--11-11--11-11--11-11--11|
4 |^ . ^ . ^ . ^  . ^ .  ^ . ^  . ^ .

8 |G(бас)
-E|13--13-13-13--13-13--13-13--13-13--13|
4 |^ . ^  .  ^ . ^  . ^ .  ^ . ^  . ^ .

8 |G(бас)
-E|14--14-14-14--14-14--14-14-14-14-14-14--|
4 |^ . ^  .  ^ . ^  . ^ .  ^  .  ^  .  ^ .

13 |C(бас)
--E|15-14/15-14/15-14/15-14/15-14/15-14/15-15-14/15-15-14/15-15-|
4  |^  . ^.  ^ .^  . ^.  ^ .^  . ^.  ^  .  ^  .  ^  .  ^  .  ^ .

13 |C(бас)
--E|14--14-14-14--14-14--14-14--14-14--14-14-14--14-14--14-14-14|
4  |^ . ^  .  ^ . ^  . ^ .  ^ . ^  . ^ .  ^  . ^ .  ^ . ^  .  ^.

13 |C(бас)
--E|15-14/15-14/15-14/15-14/15-14/15-14/15-15-14/15-15-14/15-15-|
4  |^  . ^.  ^ .^  . ^.  ^ .^  . ^.  ^  .  ^  .  ^  .  ^  .  ^ .

Гитара:(ритм 8/4)
E|15-15-r-15-15-r-|6-6-r-6-6-r-|7-7-r-7-7-r-|
--
E|8-8-r-8-8-r-|3-3-r-3-3-r-|7-7-r-7-7-r-|8-8-r-8-8-r-|
--
E|9-9-r-9-9-r-|11-11-r-11-11-r-|12-12-r-12-12-r-|
--
E|14-14-r-14-14-r-|

Часть 3.

|Cm [3x]
13|----------------------------------|
--|------------1---------------------|
8 |3---1---33-3----3-3-3-1-----------|
|--------------------------3---3-2-|
^ . ^ . ^ . ^ . ^   .   ^   .   ^

|Cm [1x]
13|----------------------------------|
--|------------1-------------------1-|
8 |3---1---33-3----3-3-3-1---3---3---|
|----------------------------------|
^ . ^ . ^ . ^ . ^   .   ^   .   ^

|Fm [2x]
13|------------1---------------------|
--|3---1---33-3----3-3-3-1-----------|
8 |--------------------------3---3-1-|
|----------------------------------|
^ . ^ . ^ . ^ . ^   .   ^   .   ^

|Cm [1x]
13|----------------------------------|
--|------------1---------------------|
8 |3---1---33-3----3-3-3-1-----------|
|--------------------------3---3-2-|
^ . ^ . ^ . ^ . ^   .   ^   .   ^

|Cm [1x]
13|----------------------------------|
--|------------1-------------------1-|
8 |3---1---33-3----3-3-3-1---3---3---|
|----------------------------------|
^ . ^ . ^ . ^ . ^   .   ^   .   ^

|Gm      |Gm      |Gm      |Gm
4|12-12---|10-8----|7--5--3-|-1--0-----|
-|--------|--------|--------|------1-0-|
4|--------|--------|--------|----------|
|--------|--------|--------|----------|
^.^.^.^. ^.^.^.^. ^.^.^.^. ^.^.^.^ .

|Cm[4x]        |Fm           |Fm
13|-------------||------------1|-------------|
--|------------1||3------------|3-----------1|
8 |3------------||------0-1-3--|------0-1-3--|
|---2--3-2-3--||---4---------|---4---------|
^.^.^.^.^.^.^  ^.^.^.^.^.^.^ ^.^.^.^.^.^.^

|Cm           || ||Gm      |Gm      |Gm  {**}|Gm
13|-------------||4||12-12---|10-8----|7--5--3-|-1--0----|
--|------------1||-||--------|--------|--------|------1-0|
8 |3------------||4||--------|--------|--------|---------|
|---2--3-2-3--|| ||--------|--------|--------|---------|
^.^.^.^.^.^.^     ^.^.^.^. ^.^.^.^. ^.^.^.^. ^.^.^.^ .

Дальше звучит что-то вроде этого:

|--------|10------|----11--|----|--------|11--10--|
|7-------|--------|-----11-|----|10------|--------|
4|--------|--------|--------|----|--------|--------|
-|--------|--------|--------|----|--------|--------|
4|--------|--------|--------|----|--------|--------|
|--------|--------|--------|----|--------|--------|
^.^.^.^. ^.^.^.^. ^.^.^.^. ^^^^ ^.^.^.^. ^.^.^.^.

|--------|--------|10------|10--13--|13----11-10-|
|11------|11--13--|--------|--------|------------|
4|--------|--------|--------|--------|------------|
-|--------|--------|--------|--------|------------|
4|--------|--------|--------|--------|------------|
|--------|--------|--------|--------|------------|
^.^.^.^. ^.^.^.^. ^.^.^.^. ^.^.^.^. ^.^.^.^  .

|8---10--|--------|--------|10----10--------|(10)----|
|--------|11------|(11)--r-|---11-----------|--------|
4|--------|--------|------e-|----------------|--------|
-|--------|--------|------s-|----------------|--------|
4|--------|--------|------t-|----------------|--------|
|--------|--------|--------|----------------|--------|
^.^.^.^. ^.^.^.^. ^.^.^.^. ^ . ^ . ^ . ^ .  ^.^.^.^.

Часть 4.


|Gm (GDBb)       |Cm (GEbC)       |Cm (GEbC)       |
|----------------|6---------------|(6)-5-6-5--3----|
|----------------|----------------|--------------4-|
|--------3--5--7-|----------------|----------------|
|----------------|----------------|----------------|
|----------------|----------------|----------------|
|----------------|----------------|----------------|
^ . ^ . ^ . ^ .  ^ . ^ . ^ . ^ .  ^ . ^ . ^ . ^ .

|--1-----0-------|--------5-------|----------------|
|-----------1--0-|----------------|----------------|
|----------------|3-------------3-|3-------------3-|
|----------------|----------------|----------------|

|D (AF#D)        |D (AF#D)        |Gm (BbGD)
|----------------|----------------|----------------|
|3---------------|(3)--------3--6-|----------------|
|----------------|--------3-------|2---3---2-------|
|----------------|----------------|----------------|
|----------------|----------------|----------------|
|----------------|----------------|----------------|
^ . ^ . ^ . ^ .  ^ . ^ . ^ . ^ . ^ . ^ .  ^ . ^ .

|--------7-------|----------------|--------0-------|
|0-------------0-|0---------------|----------------|
|----------------|----------------|----------------|
|----------------|----------------|3-------------3-|

|Gm(BbGD) add F  |Cm (GEbC)       |Cm (GEbC)       |
|----------------|6---------------|(6)-5-6-5--3----|
|----------------|----------------|--------------4-|
|(2)-----3--5--7-|----------------|----------------|
|----------------|----------------|----------------|
|----------------|----------------|----------------|
|----------------|----------------|----------------|
^ . ^ . ^ . ^ .  ^ . ^ . ^ . ^ .  ^ . ^ . ^ . ^ .

|----------------|----------------|----------------|
|----------------|----------------|----------------|
|----------------|6---6-6-6---5---|3-----3-3--3--4-|
|3-3-3-3-3--3--3-|----------------|----------------|

|Dm (FDA)        |Dm (FDA)        |Gm (DBbG)
|----------------|----------------|---------------|
|3---------------|(3)-----6---3---|---------------|
|----------------|----3-----------|2--------------|
|----------------|----------------|---------------|
|----------------|----------------|---------------|
|----------------|----------------|---------------|
^ . ^ . ^ . ^ .  ^ . ^ . ^ . ^ . ^ . ^ . ^ . ^ .

|----------------|----------------|-------0-----0-|
|0-----0-0-------|0-0-0-0-0-----0-|---------------|
|----------------|----------------|---------------|
|----------------|----------------|3----3---------|

|Gm (DBbG)       |Bb/D            |Bb/D
|----------------|--------7-----7-|----------------|
|----------------|0-----0---------|0-----0-0-0-0-0-|
|------0-1-0-1-3-|----------------|----------------|
|3-2-3-----------|----------------|----------------|
^ . ^ . ^ . ^ .  ^ . ^ . ^ . ^ .  ^ . ^ . ^ . ^ .

|A/C             |A/C             |Bb/D
|--------7-----7-|----------------|--------7-----7-|
|0-----0---------|0-----0-0-0-0-0-|0---0-0---------|
|----------------|----------------|----------------|
|----------------|----------------|----------------|
^ . ^ . ^ . ^ .  ^ . ^ . ^ . ^ .  ^ . ^ . ^ . ^ .

|Bb/D            |A/C             |F#/A
|----------------|----------------|----------------|
|0-----0-0-0-0-0-|0---0-0-0-------|0-----0-0-------|
|----------------|----------------|----------------|
|----------------|----------------|----------------|
^ . ^ . ^ . ^ .  ^ . ^ . ^ . ^ .  ^ . ^ . ^ . ^ .

|Gm (GDBb)
|--------0-----0-|
|----------------|
|----------------|
|3-----3---------|
^ . ^ . ^ . ^ .

|Gm(GDBb) add F  |Cm (GEbC)       |Cm (GEbC)       |
|----------------|6---------------|(6)-5-6-5--3----|
|----------------|----------------|--------------4-|
|(2)-----3--5--7-|----------------|----------------|
|----------------|----------------|----------------|
|----------------|----------------|----------------|
|----------------|----------------|----------------|
^ . ^ . ^ . ^ .  ^ . ^ . ^ . ^ .  ^ . ^ . ^ . ^ .

|0---------------|----------------|----------------|
|----------------|----------------|----------------|
|--------8-------|6---6-6-6-6-5---|3-----3-3--3--4-|
|----------------|----------------|----------------|

|Dm (FDA)        |Dm (FDA)        |Gm (DBbG)
|----------------|----------------|----------------|
|3---------------|(3)--------3--6-|----------------|
|----------------|--------3-------|2---------------|
|----------------|----------------|----------------|
|----------------|----------------|----------------|
|----------------|----------------|----------------|
^ . ^ . ^ . ^ .  ^ . ^ . ^ . ^ . ^ . ^ .  ^ . ^ .

Финал:

|----------------|----------------|----------------|
|0---0-0-0---0-0-|0---0-0-0-------|----------------|
|----------------|-----------1--0-|----------------|
|----------------|----------------|3---------------|

Вверх

The Great Deceiver

     1          2          3            4
E----------------------------------------------------|
B-T--------------------------------------------------|
G-A--------------------------------------------------| 8 раз.
D-B--------------------------------------------------|
A-----0----7--6--5--0--3--0--------------------3--0--|
E-------------------------------0--3--0--3--0--------|

1             2              3             4
E----------------------------------------------------------|
B-T--------------------------------------------------------|
G-A--------------------------------------------------------|
D-B----------------------------------------------11--9--7--|
A-----7--10--10--7--10--10--7--10--10--7--10--7------------|
E----------------------------------------------------------|

1             2              3             4
E----------------------------------------------------------|
B-T--------------------------------------------------------|
G-A--------------------------------------------------------|
D-B---------------------------------------------12--11-----|
A----7--10--10--7--10--10--7--10--10--7--10--7-------------|
E----------------------------------------------------------|

1    2    3    4          1    2     3    4
E---/21-------------14-------|-12---------------|
B-T--x--------------x--------|-x----------------|
G-A-/18-------------11-------|-9----------------|
D-B-/19-------------11-------|-11---------------|
A----------------------------|------------------|
E----------------------------|------------------|

1    2    3    4          1    2     3    4
E---/21-------------14-------|-12--/20----17----|
B-T--x--------------x--------|-x----x-----x-----|
G-A-/18-------------11-------|-9---/18----14----|
D-B-/19-------------11-------|-11--/19----14----|
A----------------------------|------------------|
E----------------------------|------------------|

1             2               3              4
E--------------------------------------------------------------|
B-T-----------------------------------------------14--12--10---|
G-A--9--12--12--9--12--12---9--12--12--9--12--9----------------|
D-B-----------------------------------------------11--9---7----|
A----7--10--10--7--10--10---7--10--10--7--10--7----------------|
E--------------------------------------------------------------|

1             2               3              4
E--------------------------------------------------------------|
B-T-----------------------------------------------15----14-----|
G-A--9--12--12--9--12--12---9--12--12--9--12--9----------------|
D-B-----------------------------------------------12----11-----|
A----7--10--10--7--10--10---7--10--10--7--10--7----------------|
E--------------------------------------------------------------|

E------------0-0-|-----------------|-0----------------|
B-T----------1-1-|-----------------|-1----------------|
G-A----------2-2-|-----------------|-2----------------|
D-B--------------|-----------------|------------------|
A----------------|-----------------|------------------|
E----------------|-----------------|------------------|

E----0-----------|-----------------|
B-T--1-----------|-----------------|
G-A--2-----------|-----------------|
D-B--------------|-----------------|
A----------------|-----------------|
E----------------|-----------------|

E------------------0---------------|--------------3---------------|
B-T----------------0---------------|--------------0---------------|
G-A----------------0-/-/-----------|--------------2---------------|
D-B---7---5---4----2---------------|--7---5---4---2---------------|
A-----7---5---4----3---------------|--7---5---4---3---------------|
E-----5---3---2--------------------|--5---3---2-------------------|

E----------------|-----------------|
B-T--------------|-----------------|
G-A--------------|-----------------|
D-B--------------|-----------------|
A----------------|-----------------|
E----------------|-----------------|

E------------------0---------------|--------------3---------------|
B-T----------------0---------------|--------------0---------------|
G-A----------------0-/-/-----------|--------------2---------------|
D-B---7---5---4----2---------------|--7---5---4---2---------------|
A-----7---5---4----3---------------|--7---5---4---3---------------|
E-----5---3---2--------------------|--5---3---2-------------------|
[section 4]
1st chorus

1  2  3  4  5  6     1  2  3  4  5  6
E-----------------------|-------------------|
B-T--10-------10--------|-13-------10-------|
G-A---------------------|-12----------------|
D-B--7--------7---------|-10-------7--------|
A----0--------0---------|----------0--------|
E-----------------------|-------------------|

1   2    3    4  5  6    1  2  3  4  5  6      1  2  3  4  5  6
E---------------------------|---------------------|--------------------|
B-T--10--10---10------------|-10-------10---------|-10-----------------|
G-A-------------------------|---------------------|----------9---------|
D-B--7---7----7-------------|-7--------7----------|-7--------9---------|
A----0---0----0-------------|-0--------0----------|-0--------7---------|
E---------------------------|---------------------|----------0---------|

E-----/17---17----17----17---17----17----17---17----17----17----17----------|
B-T-------------------------------------------------------------------------|
G-A------------14----14---------12----12---------------------------17^18----|
D-B----------------------------------------------------------16-------------|
A------------------------------------------------------15-------------------|
E------------------------------------------------14-------------------------|

E----17---17----17----17---17----17----17---17----17----17----17------------|
B-T--------------------------------------------13---------------------------|
G-A----------14----14---------12----12--------------------------------------|
D-B--------------------------------------------------16---------------------|
A----------------------------------------------------------15---------------|
E----------------------------------------------------------------14---------|

E----17--17----17----17---17----17----17---17----17----17----17----17-------|
B-T-------------------------------------------13----------------------------|
G-A---------14----14---------12----12---------------14----------------14----|
D-B-------------------------------------------------------16----------------|
A---------------------------------------------------------------15----------|
E---------------------------------------------------------------------------|

E----17--17----17----17---17----17----17---17----17----17----17----17-------|
B-T-------------------------------------------------------------------------|
G-A---------14----14---------12----12---------14---^17---^17---^17---^17----|
D-B-------------------------------------------------------------------------|
A---------------------------------------------------------------------------|
E---------------------------------------------------------------------------|

E----17---17----17----17---17----17----17---17----17----17----17------------|
B-T--------------------------------------------13---------------------------|
G-A----------14----14---------12----12--------------------------------------|
D-B--------------------------------------------------16---------------------|
A----------------------------------------------------------15---------------|
E----------------------------------------------------------------14---------|

E------------------0---------------|--------------3---------------|
B-T----------------0---------------|--------------0---------------|
G-A----------------0--/-/----------|--------------2---------------|
D-B---7---5---4----2---------------|--7---5---4---2---------------|
A-----7---5---4----3---------------|--7---5---4---3---------------|
E-----5---3---2--------------------|--5---3---2-------------------|

E----17--17----17----17---17----17----17---17----17----17----17-------------|
B-T-------------------------------------------------------------------------|
G-A---------14----14---------12----12---------------------------17^18-------|
D-B-------------------------------------------------------16----------------|
A---------------------------------------------------15----------------------|
E---------------------------------------------14----------------------------|

E----17--17----17----17---17----17----17---17----17----17----17----17-------|
B-T-------------------------------------------------------13----------------|
G-A---------14----14---------12----12---------------14----------14----------|
D-B-------------------------------------------16----------------------16----|
A---------------------------------------------------------------------------|
E---------------------------------------------------------------------------|

E----17--17----17----17---17----17----17---17---17----17----17----17-17-----|
B-T-------------------------------------------------------------------------|
G-A---------14----14---------12----12--------------------X-----17-----------|
D-B------------------------------------------------16-----------------------|
A--------------------------------------------15-----------------------------|
E---------------------------------------------------------------------------|

E----17--17----17----17---17----17----17---17----17----17----17-------------|
B-T-------------------------------------------------------------------------|
G-A---------14----14---------12----12---------17---^17---^17---^17----------|
D-B-------------------------------------------------------------------------|
A---------------------------------------------------------------------------|
E---------------------------------------------------------------------------|
1  2  3  4  5  6     1  2  3  4  5  6
E-----------------------|-------------------|
B-T---------------------|-------------------|  Играть 3 раза
G-A--0--------0---------|-5--------6--------|
D-B--7--------7---------|-5--------5--------|
A----7--------7---------|-3--------4--------|
E----5--------5---------|-------------------|

1     2      3      4      5     6       1     2     3    4
E-------------------------------------------|------------------------|
B-T--10-------------------------------------|------------------------|
G-A-----/-----/---/------/---/-----/--/-----|-/--/-----/--/----/-----|
D-B--7--------------------------------------|------------------------|
A-------------------------------------------|------------------------|
E-------------------------------------------|------------------------|

1     2     3     4     5     6       1     2    3     4     5     6
E---------------------------------------|--------------------------------------|
B-T-------------------------------------|--------------------------------------|
G-A-/--/----/---/-----/--/--/-----/-----|-/--/----/--/-----/--/-----/--/-------|
D-B-------------------------------------|--------------------------------------|
A---------------------------------------|--------------------------------------|
E---------------------------------------|--------------------------------------|

1    2     3     4     5     6       1     2     3     4     5     6
E--------------------------------------|--------------------------------------||
B-T------------------------------------|--------------------------------------||
G-A-/-/-----/--/-----/--/-----/------/-|-/--/-----/-----/--/------------------||
D-B------------------------------------|--------------------------------------||
A--------------------------------------|--------------------------------------||
E--------------------------------------|--------------------------------------||

Вверх

Walking On Air

Вступление: ||F#m F#m(add9)   |F#m       |E     E6     |E

E                       F#m   	  F#m(add9)
Close your eyes and look at me
F#m			      E    E6
I?ll be standing by your side
E		    F#m           F#m(add9)
In between the deep blue sea
F#m		        E    E6
And the sheltering sky
E		   F#m          F#m(add9)
If we find no words to say
F#m			 E      E6
To the rhythm of the waves
E		       F#m
Then we?ll both surrender there
Am6 Am7        E/B
Walking on air

Emaj7/B	           C#m
And the worries of the day lie down
C(#5)		       E/B
Under cover of the fading clouds
Emaj7/B
The secrets of the night
C#m          C(#5)
Come alive in your eyes
F#m7    B B4 B
You don?t have to hurry
F#m7   B
You don?t have to try
Am6  Am7
Cause you don?t have a care
Am        Am(maj7)
You?re walking on air

Соло  ||: E     E6  |E           |F#m F#m(add9)   |F#m       :||


|Вступление
| 4/4
| F#m                              		   E
||---------------------|--------------------------|--------------------|----
||10-------109----9---|--9/10/9------------------|--------------------|----
||11-------------------|--------------9/11/9------|9-----9-9--9--9-----|9---
||11----12-------12----|---------12----------11/9-|9-----9-11-11-11----|9---
||9--------------------|--------------------------|11---------------11-|----
||---------------------|--------------------------|--------------------|----

Close your eyes and
Look at me...
F#m                                  E
||-------------------|----------------|--------------------|-------------|
||10--------------10-|------10--------|9-------------------|-------------|
||11----------11-----|------11--------|9-------------------|-------------|
||11------11---------|------11--------|9-----9/11-9--------|-------------|
||9----9-------------|------9---------|11-----------11-9-7-|-------------|
||-------------------|----------------|--------------------|-------------|

F#m                                    E
||----------------------|--------------|----------------------|----------|
||10------------10-9----|9-------------|9---------------------|----------|
||11---------11---------|--------------|9-------9----9-9------|9---------|
||11------11---------11-|--------------|9-------9/11-11-11----|9---------|
||9-----9---------------|--------------|11-----------------11-|----------|
||----------------------|--------------|----------------------|----------|


Walking in the air
Am6         Am7         E               E maj7
||------------------------|---------------|----------------|
||5-----5-----5-----5-----|---------------|----------------|
||5-----5-----5-----5-----|----1----1-----|----1-----1-----|
||4-----4-----5-----5-----|--2-----2----2-|--1-----1-----1-|
||0-----------------------|2-----2----2---|2-----2-----2---|
||------------------------|---------------|----------------|


C#m                C(b5)           E 		      E maj7
||------------------|---------------|----------------|----------------|
||------------------|---------------|----------------|----------------|
||----1-----1-------|----1----1-----|----1-----1-----|----1-----1-----|
||--2-----2-----2---|--2-----2----2-|--2-----2-----2-|--1-----1-----1-|
||4-----4-----4-----|3-----3----3---|2-----2-----2---|2-----2-----2---|
||------------------|---------------|----------------|----------------|



C#m                  C(b5)         F#m7   	      B
||------------------|---------------|----------------|----------------|
||------------------|---------------|----------5-----|7----7----7-----|
||----1-----1-------|----1----1-----|------2---------|8----9----8-----|
||--2-----2-----2---|--2-----2------|----4-----------|9---------------|
||4-----4-----4-----|3-----3----3---|--4-------------|9---------------|
||------------------|---------------|2---------------|7---------------|

F#m7               B             Am6      Am7       Am      Am maj7
||------------------|-------------|------------------|----------------|
||----------5-------|7------------|5---5----5---5----|5------5--------|
||------2-----------|8------------|5---5----5---5----|5------5--------|
||----4-------------|9------------|4---4----5---5----|7------6--------|
||--4---------------|9------------|0------0--------0-|----------------|
||2-----------------|7------------|------------------|----------------|


Финал:
E 6/9
||--------9--------9--||--9---------9------|--9----------------|----------||
||------9--------9----||----9---------9----|----9--------------|----------||
||---11-------11------||------11-------11--|------11-----------|----------||
||--------------------||---------9--------9|---------9---------|----------||
||--------------------||-------------------|----------------11-|----------||
||--------------------||-------------------|-------------------|12--------||

Вверх